  0
SECTION
  2
HEADER
  9
$ACADVER
  1
AC1009
  9
$INSBASE
 10
0.0
 20
0.0
 30
0.0
  9
$EXTMIN
 10
-0.0088994806030769
 20
-0.006309715875318
 30
-0.0015258207003583
  9
$EXTMAX
 10
291.57204528570281
 20
206.77885573264589
 30
0.0000000349246037
  9
$LIMMIN
 10
0.0
 20
0.0
  9
$LIMMAX
 10
12.0
 20
9.0
  9
$ORTHOMODE
 70
     0
  9
$REGENMODE
 70
     1
  9
$FILLMODE
 70
     1
  9
$QTEXTMODE
 70
     0
  9
$MIRRTEXT
 70
     0
  9
$DRAGMODE
 70
     2
  9
$LTSCALE
 40
1.0
  9
$OSMODE
 70
    37
  9
$ATTMODE
 70
     1
  9
$TEXTSIZE
 40
0.2
  9
$TRACEWID
 40
0.05
  9
$TEXTSTYLE
  7
ROMANS
  9
$CLAYER
  8
0
  9
$CELTYPE
  6
BYLAYER
  9
$CECOLOR
 62
   256
  9
$DIMSCALE
 40
1.0
  9
$DIMASZ
 40
0.09375
  9
$DIMEXO
 40
0.0625
  9
$DIMDLI
 40
0.375
  9
$DIMRND
 40
0.0
  9
$DIMDLE
 40
0.0
  9
$DIMEXE
 40
0.03125
  9
$DIMTP
 40
0.0
  9
$DIMTM
 40
0.0
  9
$DIMTXT
 40
0.09375
  9
$DIMCEN
 40
0.09375
  9
$DIMTSZ
 40
0.0
  9
$DIMTOL
 70
     0
  9
$DIMLIM
 70
     0
  9
$DIMTIH
 70
     0
  9
$DIMTOH
 70
     0
  9
$DIMSE1
 70
     0
  9
$DIMSE2
 70
     0
  9
$DIMTAD
 70
     0
  9
$DIMZIN
 70
     0
  9
$DIMBLK
  1

  9
$DIMASO
 70
     1
  9
$DIMSHO
 70
     1
  9
$DIMPOST
  1

  9
$DIMAPOST
  1

  9
$DIMALT
 70
     0
  9
$DIMALTD
 70
     2
  9
$DIMALTF
 40
25.399999999999999
  9
$DIMLFAC
 40
1.0
  9
$DIMTOFL
 70
     0
  9
$DIMTVP
 40
0.0
  9
$DIMTIX
 70
     0
  9
$DIMSOXD
 70
     0
  9
$DIMSAH
 70
     0
  9
$DIMBLK1
  1

  9
$DIMBLK2
  1

  9
$DIMSTYLE
  2
BAC
  9
$DIMCLRD
 70
     0
  9
$DIMCLRE
 70
     6
  9
$DIMCLRT
 70
     0
  9
$DIMTFAC
 40
1.0
  9
$DIMGAP
 40
0.0625
  9
$LUNITS
 70
     5
  9
$LUPREC
 70
     6
  9
$SKETCHINC
 40
0.1
  9
$FILLETRAD
 40
0.5
  9
$AUNITS
 70
     0
  9
$AUPREC
 70
     0
  9
$MENU
  1
.
  9
$ELEVATION
 40
0.0
  9
$PELEVATION
 40
0.0
  9
$THICKNESS
 40
0.0
  9
$LIMCHECK
 70
     0
  9
$BLIPMODE
 70
     0
  9
$CHAMFERA
 40
0.5
  9
$CHAMFERB
 40
0.5
  9
$SKPOLY
 70
     0
  9
$TDCREATE
 40
2456827.6381241209
  9
$TDUPDATE
 40
2456827.639173842
  9
$TDINDWG
 40
0.0010514005
  9
$TDUSRTIMER
 40
0.0010509375
  9
$USRTIMER
 70
     1
  9
$ANGBASE
 50
0.0
  9
$ANGDIR
 70
     0
  9
$PDMODE
 70
     0
  9
$PDSIZE
 40
0.0
  9
$PLINEWID
 40
0.0
  9
$COORDS
 70
     1
  9
$SPLFRAME
 70
     0
  9
$SPLINETYPE
 70
     6
  9
$SPLINESEGS
 70
     8
  9
$ATTDIA
 70
     0
  9
$ATTREQ
 70
     1
  9
$HANDLING
 70
     1
  9
$HANDSEED
  5
61C
  9
$SURFTAB1
 70
     6
  9
$SURFTAB2
 70
     6
  9
$SURFTYPE
 70
     6
  9
$SURFU
 70
     6
  9
$SURFV
 70
     6
  9
$UCSNAME
  2

  9
$UCSORG
 10
0.0
 20
0.0
 30
0.0
  9
$UCSXDIR
 10
1.0
 20
0.0
 30
0.0
  9
$UCSYDIR
 10
0.0
 20
1.0
 30
0.0
  9
$PUCSNAME
  2

  9
$PUCSORG
 10
0.0
 20
0.0
 30
0.0
  9
$PUCSXDIR
 10
1.0
 20
0.0
 30
0.0
  9
$PUCSYDIR
 10
0.0
 20
1.0
 30
0.0
  9
$USERI1
 70
     0
  9
$USERI2
 70
     0
  9
$USERI3
 70
     0
  9
$USERI4
 70
     0
  9
$USERI5
 70
     0
  9
$USERR1
 40
0.0
  9
$USERR2
 40
0.0
  9
$USERR3
 40
0.0
  9
$USERR4
 40
0.0
  9
$USERR5
 40
0.0
  9
$WORLDVIEW
 70
     1
  9
$SHADEDGE
 70
     3
  9
$SHADEDIF
 70
    70
  9
$TILEMODE
 70
     1
  9
$MAXACTVP
 70
    48
  9
$PLIMCHECK
 70
     0
  9
$PEXTMIN
 10
1.0000000000000000E+020
 20
1.0000000000000000E+020
 30
1.0000000000000000E+020
  9
$PEXTMAX
 10
-1.0000000000000000E+020
 20
-1.0000000000000000E+020
 30
-1.0000000000000000E+020
  9
$PLIMMIN
 10
0.0
 20
0.0
  9
$PLIMMAX
 10
12.0
 20
9.0
  9
$UNITMODE
 70
     0
  9
$VISRETAIN
 70
     1
  9
$PLINEGEN
 70
     0
  9
$PSLTSCALE
 70
     1
  0
ENDSEC
  0
SECTION
  2
TABLES
  0
TABLE
  2
VPORT
 70
     1
  0
VPORT
  2
*ACTIVE
 70
     0
 10
0.0
 20
0.0
 11
1.0
 21
1.0
 12
145.78157290254981
 22
103.3862730083853
 13
0.0
 23
0.0
 14
0.5
 24
0.5
 15
0.5
 25
0.5
 16
0.0
 26
0.0
 36
1.0
 17
0.0
 27
0.0
 37
0.0
 40
208.16067652689279
 41
1.7702552719200879
 42
50.0
 43
0.0
 44
0.0
 50
0.0
 51
0.0
 71
     0
 72
   100
 73
     1
 74
     1
 75
     0
 76
     0
 77
     0
 78
     0
  0
ENDTAB
  0
TABLE
  2
LTYPE
 70
    19
  0
LTYPE
  2
CONTINUOUS
 70
     0
  3
Solid line
 72
    65
 73
     0
 40
0.0
  0
LTYPE
  2
CENTER
 70
     0
  3
Center ____ _ ____ _ ____ _ ____ _ ____ _ ____
 72
    65
 73
     4
 40
2.0
 49
1.25
 49
-0.25
 49
0.25
 49
-0.25
  0
LTYPE
  2
CENTER2
 70
     0
  3
Center (.5x) ___ _ ___ _ ___ _ ___ _ ___ _ ___
 72
    65
 73
     4
 40
1.125
 49
0.75
 49
-0.125
 49
0.125
 49
-0.125
  0
LTYPE
  2
HIDDEN
 70
     0
  3
Hidden __ __ __ __ __ __ __ __ __ __ __ __ __ _
 72
    65
 73
     2
 40
0.375
 49
0.25
 49
-0.125
  0
LTYPE
  2
HIDDEN2
 70
     0
  3
Hidden (.5x) _ _ _ _ _ _ _ _ _ _ _ _ _ _ _ _ _
 72
    65
 73
     2
 40
0.1875
 49
0.125
 49
-0.0625
  0
LTYPE
  2
PHANTOM2
 70
     0
  3
Phantom (.5x) ___ _ _ ___ _ _ ___ _ _ ___ _ _
 72
    65
 73
     6
 40
1.25
 49
0.625
 49
-0.125
 49
0.125
 49
-0.125
 49
0.125
 49
-0.125
  0
LTYPE
  2
AMCONSTR
 70
     0
  3
_______________________
 72
    65
 73
     2
 40
9999.0
 49
9999.0
 49
0.0
  0
LTYPE
  2
AMZIGZAG2
 70
     0
  3
/\/-/\/-/\/-/\/-/\/-/\/
 72
    65
 73
     2
 40
0.4401
 49
0.0001
 49
-0.4400000000000001
  0
LTYPE
  2
ACANSTGB
 70
     0
  3
__ . . __ . .
 72
    65
 73
     6
 40
0.35433070866
 49
0.15748031496
 49
-0.03937007874
 49
0.03937007874
 49
-0.03937007874
 49
0.03937007874
 49
-0.03937007874
  0
LTYPE
  2
ACANSTGL
 70
     0
  3
_ _ _ _ _
 72
    65
 73
     2
 40
0.11811023622
 49
0.07874015748
 49
-0.03937007874
  0
ENDTAB
  0
TABLE
  2
LAYER
 70
     8
  0
LAYER
  2
0
 70
     0
 62
     7
  6
CONTINUOUS
  0
ENDTAB
  0
TABLE
  2
STYLE
 70
    11
  0
STYLE
  2
STANDARD
 70
     0
 40
0.0
 41
1.0
 50
0.0
 71
     0
 42
0.2
  3
txt
  4

  0
STYLE
  2
ROMANS
 70
     0
 40
0.0
 41
0.75
 50
0.0
 71
     0
 42
0.2
  3
romans.shx
  4

  0
STYLE
  2

 70
     1
 40
0.0
 41
1.0
 50
0.0
 71
     0
 42
0.2
  3
genltshp.shx
  4

  0
STYLE
  2
ACANSGDT
 70
     0
 40
0.0
 41
1.0
 50
0.0
 71
     0
 42
0.2
  3
amgdt.shx
  4

  0
ENDTAB
  0
TABLE
  2
VIEW
 70
     0
  0
ENDTAB
  0
TABLE
  2
UCS
 70
     0
  0
ENDTAB
  0
TABLE
  2
APPID
 70
    14
  0
APPID
  2
ACAD
 70
     0
  0
APPID
  2
ACAD_MLEADERVER
 70
     0
  0
APPID
  2
ACAD_DSTYLE_DIMJAG
 70
     0
  0
APPID
  2
ACAD_DSTYLE_DIMTALN
 70
     0
  0
APPID
  2
ACAD_PSEXT
 70
     0
  0
APPID
  2
ACADANNOPO
 70
     0
  0
APPID
  2
MCAD_NO_VIS
 70
     0
  0
APPID
  2
ACAD_TEMP_GRAPHIC
 70
     0
  0
APPID
  2
ACATTRIBSERVICES
 70
     0
  0
APPID
  2
DESIGNERASSEMBLIES
 70
     0
  0
APPID
  2
ACAD_DSTYLE_DIMBREAK
 70
     0
  0
APPID
  2
ACAD_NAV_VCDISPLAY
 70
     0
  0
APPID
  2
GRADIENTCOLOR1ACI
 70
     0
  0
APPID
  2
GRADIENTCOLOR2ACI
 70
     0
  0
ENDTAB
  0
TABLE
  2
DIMSTYLE
 70
    13
  0
DIMSTYLE
  2
BAC
 70
     0
  3

  4

  5

  6

  7

 40
1.0
 41
0.09375
 42
0.0625
 43
0.375
 44
0.03125
 45
0.0
 46
0.0
 47
0.0
 48
0.0
140
0.09375
141
0.09375
142
0.0
143
25.399999999999999
144
1.0
145
0.0
146
1.0
147
0.0625
 71
     0
 72
     0
 73
     0
 74
     0
 75
     0
 76
     0
 77
     0
 78
     0
170
     0
171
     2
172
     0
173
     0
174
     0
175
     0
176
     0
177
     6
178
     0
  0
DIMSTYLE
  2
AM_ANSI
 70
     0
  3

  4
mm
  5

  6

  7

 40
1.0
 41
0.12
 42
0.05
 43
0.5
 44
0.1
 45
0.0
 46
0.0
 47
0.1
 48
0.1
140
0.12
141
0.0
142
0.0
143
25.399999999999999
144
1.0
145
0.0
146
0.71
147
0.06
 71
     0
 72
     0
 73
     1
 74
     1
 75
     0
 76
     0
 77
     0
 78
     7
170
     0
171
     2
172
     0
173
     0
174
     0
175
     0
176
   256
177
   256
178
     2
  0
DIMSTYLE
  2
AM_ANSI$3
 70
     0
  3

  4
mm
  5

  6

  7

 40
1.0
 41
0.12
 42
0.05
 43
0.5
 44
0.1
 45
0.0
 46
0.0
 47
0.1
 48
0.1
140
0.12
141
0.0
142
0.0
143
25.399999999999999
144
1.0
145
0.0
146
0.71
147
0.06
 71
     0
 72
     0
 73
     1
 74
     1
 75
     0
 76
     0
 77
     0
 78
     7
170
     0
171
     2
172
     0
173
     0
174
     0
175
     0
176
   256
177
   256
178
     2
  0
DIMSTYLE
  2
AM_ANSI$4
 70
     0
  3

  4
mm
  5

  6

  7

 40
1.0
 41
0.12
 42
0.05
 43
0.5
 44
0.1
 45
0.0
 46
0.0
 47
0.1
 48
0.1
140
0.12
141
0.0
142
0.0
143
25.399999999999999
144
1.0
145
0.0
146
0.71
147
0.06
 71
     0
 72
     0
 73
     1
 74
     1
 75
     0
 76
     0
 77
     0
 78
     7
170
     0
171
     2
172
     0
173
     0
174
     0
175
     0
176
   256
177
   256
178
     2
  0
DIMSTYLE
  2
AM_ANSI$7
 70
     0
  3

  4
mm
  5

  6

  7

 40
1.0
 41
0.12
 42
0.05
 43
0.5
 44
0.1
 45
0.0
 46
0.0
 47
0.1
 48
0.1
140
0.12
141
0.0
142
0.0
143
25.399999999999999
144
1.0
145
0.0
146
0.71
147
0.06
 71
     0
 72
     0
 73
     1
 74
     1
 75
     0
 76
     0
 77
     0
 78
     7
170
     0
171
     2
172
     0
173
     0
174
     0
175
     0
176
   256
177
   256
178
     2
  0
DIMSTYLE
  2
AM_ANSI$SF
 70
     0
  3

  4
mm
  5

  6

  7

 40
1.0
 41
0.12
 42
0.05
 43
0.5
 44
0.1
 45
0.0
 46
0.0
 47
0.1
 48
0.1
140
0.12
141
0.0
142
0.0
143
25.399999999999999
144
1.0
145
0.0
146
0.71
147
0.06
 71
     0
 72
     0
 73
     1
 74
     1
 75
     1
 76
     1
 77
     0
 78
     7
170
     0
171
     2
172
     0
173
     0
174
     0
175
     0
176
   256
177
   256
178
     2
  0
DIMSTYLE
  2
AM_ANSI$SH
 70
     0
  3

  4
mm
  5

  6
GENAXEH
  7

 40
1.0
 41
0.12
 42
0.05
 43
0.5
 44
0.1
 45
0.0
 46
0.0
 47
0.1
 48
0.1
140
0.12
141
0.0
142
0.0
143
25.399999999999999
144
1.0
145
0.0
146
0.71
147
0.06
 71
     0
 72
     0
 73
     1
 74
     1
 75
     1
 76
     1
 77
     0
 78
     7
170
     0
171
     2
172
     0
173
     1
174
     0
175
     0
176
   256
177
   256
178
     2
  0
DIMSTYLE
  2
STANDARD
 70
     0
  3

  4

  5

  6

  7

 40
1.0
 41
0.18
 42
0.0625
 43
0.38
 44
0.18
 45
0.0
 46
0.0
 47
0.0
 48
0.0
140
0.18
141
0.09
142
0.0
143
25.399999999999999
144
1.0
145
0.0
146
1.0
147
0.09
 71
     0
 72
     0
 73
     1
 74
     1
 75
     0
 76
     0
 77
     0
 78
     0
170
     0
171
     2
172
     0
173
     0
174
     0
175
     0
176
     0
177
     0
178
     0
  0
ENDTAB
  0
ENDSEC
  0
SECTION
  2
BLOCKS
  0
BLOCK
  8
0
  2
$MODEL_SPACE
 70
     0
 10
0.0
 20
0.0
 30
0.0
  3
$MODEL_SPACE
  1

  0
ENDBLK
  5
1A
  8
0
  0
BLOCK
 67
     1
  8
0
  2
$PAPER_SPACE
 70
     0
 10
0.0
 20
0.0
 30
0.0
  3
$PAPER_SPACE
  1

  0
ENDBLK
  5
17
 67
     1
  8
0
  0
BLOCK
  8
0
  2
*U0
 70
     1
 10
0.0
 20
0.0
 30
0.0
  3
*U0
  1

  0
ENDBLK
  5
17A
  8
0
  0
BLOCK
  8
0
  2
GENAXEH
 70
     0
 10
0.0
 20
0.0
 30
0.0
  3
GENAXEH
  1

  0
LINE
  5
1AD
  8
0
 10
-1.0
 20
0.0
 30
0.0
 11
1.0
 21
0.0
 31
0.0
  0
ENDBLK
  5
1AF
  8
0
  0
BLOCK
  8
0
  2
*X3
 70
     1
 10
0.0
 20
0.0
 30
0.0
  3
*X3
  1

  0
LINE
  5
585
  8
0
 62
     0
 10
289.5
 20
4.0000045037576566
 30
0.0
 11
289.5
 21
42.500004503758198
 31
0.0
  0
LINE
  5
586
  8
0
 62
     0
 10
288.0
 20
4.0000045037576424
 30
0.0
 11
288.0
 21
42.500004503758177
 31
0.0
  0
LINE
  5
587
  8
0
 62
     0
 10
286.5
 20
4.0000045037576273
 30
0.0
 11
286.5
 21
42.50000450375817
 31
0.0
  0
LINE
  5
588
  8
0
 62
     0
 10
285.0
 20
4.0000045037576122
 30
0.0
 11
285.0
 21
42.500004503758149
 31
0.0
  0
LINE
  5
589
  8
0
 62
     0
 10
283.5
 20
4.0000045037575971
 30
0.0
 11
283.5
 21
42.500004503758127
 31
0.0
  0
LINE
  5
58A
  8
0
 62
     0
 10
264.0
 20
4.0000045037574026
 30
0.0
 11
264.0
 21
42.500004503757943
 31
0.0
  0
LINE
  5
58B
  8
0
 62
     0
 10
262.5
 20
4.0000045037573866
 30
0.0
 11
262.5
 21
42.500004503757921
 31
0.0
  0
LINE
  5
58C
  8
0
 62
     0
 10
261.0
 20
4.0000045037573706
 30
0.0
 11
261.0
 21
42.500004503757907
 31
0.0
  0
LINE
  5
58D
  8
0
 62
     0
 10
259.5
 20
4.0000045037573546
 30
0.0
 11
259.5
 21
42.500004503757893
 31
0.0
  0
LINE
  5
58E
  8
0
 62
     0
 10
258.0
 20
4.0000045037573386
 30
0.0
 11
258.0
 21
42.500004503757879
 31
0.0
  0
LINE
  5
58F
  8
0
 62
     0
 10
256.5
 20
4.0000045037573226
 30
0.0
 11
256.5
 21
42.500004503757857
 31
0.0
  0
LINE
  5
590
  8
0
 62
     0
 10
255.0
 20
4.0000045037573067
 30
0.0
 11
255.0
 21
42.50000450375785
 31
0.0
  0
LINE
  5
591
  8
0
 62
     0
 10
253.5
 20
4.0000045037572907
 30
0.0
 11
253.5
 21
42.500004503757822
 31
0.0
  0
LINE
  5
592
  8
0
 62
     0
 10
252.0
 20
4.0000045037572747
 30
0.0
 11
252.0
 21
42.500004503757822
 31
0.0
  0
LINE
  5
593
  8
0
 62
     0
 10
250.5
 20
4.0000045037572587
 30
0.0
 11
250.5
 21
42.5000045037578
 31
0.0
  0
LINE
  5
594
  8
0
 62
     0
 10
249.0
 20
4.0000045037572427
 30
0.0
 11
249.0
 21
42.500004503757779
 31
0.0
  0
LINE
  5
595
  8
0
 62
     0
 10
247.5
 20
4.0000045037572267
 30
0.0
 11
247.5
 21
42.500004503757758
 31
0.0
  0
LINE
  5
596
  8
0
 62
     0
 10
228.0
 20
4.0000045037570331
 30
0.0
 11
228.0
 21
42.500004503757573
 31
0.0
  0
LINE
  5
597
  8
0
 62
     0
 10
226.5
 20
4.0000045037570171
 30
0.0
 11
226.5
 21
42.500004503757552
 31
0.0
  0
LINE
  5
598
  8
0
 62
     0
 10
225.0
 20
4.0000045037570011
 30
0.0
 11
225.0
 21
42.50000450375753
 31
0.0
  0
LINE
  5
599
  8
0
 62
     0
 10
223.5
 20
4.0000045037569842
 30
0.0
 11
223.5
 21
42.500004503757509
 31
0.0
  0
LINE
  5
59A
  8
0
 62
     0
 10
222.0
 20
4.0000045037569674
 30
0.0
 11
222.0
 21
42.500004503757502
 31
0.0
  0
LINE
  5
59B
  8
0
 62
     0
 10
246.56314680566081
 20
4.5
 30
0.0
 11
264.57214646033231
 21
4.5
 31
0.0
  0
LINE
  5
59C
  8
0
 62
     0
 10
282.55516212242998
 20
4.5
 30
0.0
 11
289.93814680566078
 21
4.5
 31
0.0
  0
LINE
  5
59D
  8
0
 62
     0
 10
221.18814680566089
 20
4.5
 30
0.0
 11
228.5631468056601
 21
4.5
 31
0.0
  0
LINE
  5
59E
  8
0
 62
     0
 10
246.56314680566081
 20
6.0
 30
0.0
 11
264.57214646033231
 21
6.0
 31
0.0
  0
LINE
  5
59F
  8
0
 62
     0
 10
282.55516212242998
 20
6.0
 30
0.0
 11
289.93814680566078
 21
6.0
 31
0.0
  0
LINE
  5
5A0
  8
0
 62
     0
 10
221.18814680566089
 20
6.0
 30
0.0
 11
228.5631468056601
 21
6.0
 31
0.0
  0
LINE
  5
5A1
  8
0
 62
     0
 10
246.56314680566081
 20
7.5
 30
0.0
 11
264.57214646033231
 21
7.5
 31
0.0
  0
LINE
  5
5A2
  8
0
 62
     0
 10
282.55516212242998
 20
7.5
 30
0.0
 11
289.93814680566078
 21
7.5
 31
0.0
  0
LINE
  5
5A3
  8
0
 62
     0
 10
221.18814680566089
 20
7.5
 30
0.0
 11
228.5631468056601
 21
7.5
 31
0.0
  0
LINE
  5
5A4
  8
0
 62
     0
 10
246.56314680566081
 20
9.0
 30
0.0
 11
264.57214646033231
 21
9.0
 31
0.0
  0
LINE
  5
5A5
  8
0
 62
     0
 10
282.55516212242998
 20
9.0
 30
0.0
 11
289.93814680566078
 21
9.0
 31
0.0
  0
LINE
  5
5A6
  8
0
 62
     0
 10
221.18814680566089
 20
9.0
 30
0.0
 11
228.5631468056601
 21
9.0
 31
0.0
  0
LINE
  5
5A7
  8
0
 62
     0
 10
246.56314680566081
 20
10.5
 30
0.0
 11
264.57214646033231
 21
10.5
 31
0.0
  0
LINE
  5
5A8
  8
0
 62
     0
 10
282.55516212242998
 20
10.5
 30
0.0
 11
289.93814680566078
 21
10.5
 31
0.0
  0
LINE
  5
5A9
  8
0
 62
     0
 10
221.18814680566089
 20
10.5
 30
0.0
 11
228.5631468056601
 21
10.5
 31
0.0
  0
LINE
  5
5AA
  8
0
 62
     0
 10
246.56314680566081
 20
12.0
 30
0.0
 11
264.57214646033231
 21
12.0
 31
0.0
  0
LINE
  5
5AB
  8
0
 62
     0
 10
282.55516212242998
 20
12.0
 30
0.0
 11
289.93814680566078
 21
12.0
 31
0.0
  0
LINE
  5
5AC
  8
0
 62
     0
 10
221.18814680566089
 20
12.0
 30
0.0
 11
228.5631468056601
 21
12.0
 31
0.0
  0
LINE
  5
5AD
  8
0
 62
     0
 10
246.56314680566081
 20
13.5
 30
0.0
 11
264.57214646033231
 21
13.5
 31
0.0
  0
LINE
  5
5AE
  8
0
 62
     0
 10
282.55516212242998
 20
13.5
 30
0.0
 11
289.93814680566078
 21
13.5
 31
0.0
  0
LINE
  5
5AF
  8
0
 62
     0
 10
221.18814680566089
 20
13.5
 30
0.0
 11
228.5631468056601
 21
13.5
 31
0.0
  0
LINE
  5
5B0
  8
0
 62
     0
 10
246.56314680566081
 20
15.0
 30
0.0
 11
264.57214646033231
 21
15.0
 31
0.0
  0
LINE
  5
5B1
  8
0
 62
     0
 10
282.55516212242998
 20
15.0
 30
0.0
 11
289.93814680566078
 21
15.0
 31
0.0
  0
LINE
  5
5B2
  8
0
 62
     0
 10
221.18814680566089
 20
15.0
 30
0.0
 11
228.5631468056601
 21
15.0
 31
0.0
  0
LINE
  5
5B3
  8
0
 62
     0
 10
246.56314680566081
 20
16.5
 30
0.0
 11
264.57214646033231
 21
16.5
 31
0.0
  0
LINE
  5
5B4
  8
0
 62
     0
 10
282.55516212242998
 20
16.5
 30
0.0
 11
289.93814680566072
 21
16.5
 31
0.0
  0
LINE
  5
5B5
  8
0
 62
     0
 10
221.18814680566089
 20
16.5
 30
0.0
 11
228.5631468056601
 21
16.5
 31
0.0
  0
LINE
  5
5B6
  8
0
 62
     0
 10
246.56314680566081
 20
18.0
 30
0.0
 11
264.57214646033231
 21
18.0
 31
0.0
  0
LINE
  5
5B7
  8
0
 62
     0
 10
282.55516212242998
 20
18.0
 30
0.0
 11
289.93814680566072
 21
18.0
 31
0.0
  0
LINE
  5
5B8
  8
0
 62
     0
 10
221.18814680566081
 20
18.0
 30
0.0
 11
228.5631468056601
 21
18.0
 31
0.0
  0
LINE
  5
5B9
  8
0
 62
     0
 10
246.56314680566081
 20
19.5
 30
0.0
 11
264.57214646033231
 21
19.5
 31
0.0
  0
LINE
  5
5BA
  8
0
 62
     0
 10
282.55516212242998
 20
19.5
 30
0.0
 11
289.93814680566072
 21
19.5
 31
0.0
  0
LINE
  5
5BB
  8
0
 62
     0
 10
221.18814680566081
 20
19.5
 30
0.0
 11
228.5631468056601
 21
19.5
 31
0.0
  0
LINE
  5
5BC
  8
0
 62
     0
 10
246.56314680566081
 20
21.0
 30
0.0
 11
264.57214646033231
 21
21.0
 31
0.0
  0
LINE
  5
5BD
  8
0
 62
     0
 10
282.55516212242998
 20
21.0
 30
0.0
 11
289.93814680566072
 21
21.0
 31
0.0
  0
LINE
  5
5BE
  8
0
 62
     0
 10
221.18814680566081
 20
21.0
 30
0.0
 11
228.5631468056601
 21
21.0
 31
0.0
  0
LINE
  5
5BF
  8
0
 62
     0
 10
246.56314680566081
 20
22.5
 30
0.0
 11
264.57214646033231
 21
22.5
 31
0.0
  0
LINE
  5
5C0
  8
0
 62
     0
 10
282.55516212242998
 20
22.5
 30
0.0
 11
289.93814680566072
 21
22.5
 31
0.0
  0
LINE
  5
5C1
  8
0
 62
     0
 10
221.18814680566081
 20
22.5
 30
0.0
 11
228.5631468056601
 21
22.5
 31
0.0
  0
LINE
  5
5C2
  8
0
 62
     0
 10
246.56314680566081
 20
24.0
 30
0.0
 11
264.57214646033231
 21
24.0
 31
0.0
  0
LINE
  5
5C3
  8
0
 62
     0
 10
282.55516212242998
 20
24.0
 30
0.0
 11
289.93814680566072
 21
24.0
 31
0.0
  0
LINE
  5
5C4
  8
0
 62
     0
 10
221.18814680566081
 20
24.0
 30
0.0
 11
228.5631468056601
 21
24.0
 31
0.0
  0
LINE
  5
5C5
  8
0
 62
     0
 10
246.56314680566081
 20
25.5
 30
0.0
 11
264.57214646033231
 21
25.5
 31
0.0
  0
LINE
  5
5C6
  8
0
 62
     0
 10
282.55516212242998
 20
25.5
 30
0.0
 11
289.93814680566072
 21
25.5
 31
0.0
  0
LINE
  5
5C7
  8
0
 62
     0
 10
221.18814680566081
 20
25.5
 30
0.0
 11
228.5631468056601
 21
25.5
 31
0.0
  0
LINE
  5
5C8
  8
0
 62
     0
 10
246.56314680566081
 20
27.0
 30
0.0
 11
264.57214646033231
 21
27.0
 31
0.0
  0
LINE
  5
5C9
  8
0
 62
     0
 10
282.55516212242998
 20
27.0
 30
0.0
 11
289.93814680566072
 21
27.0
 31
0.0
  0
LINE
  5
5CA
  8
0
 62
     0
 10
221.18814680566069
 20
27.0
 30
0.0
 11
228.5631468056601
 21
27.0
 31
0.0
  0
LINE
  5
5CB
  8
0
 62
     0
 10
246.56314680566081
 20
28.5
 30
0.0
 11
264.57214646033231
 21
28.5
 31
0.0
  0
LINE
  5
5CC
  8
0
 62
     0
 10
282.55516212242998
 20
28.5
 30
0.0
 11
289.93814680566072
 21
28.5
 31
0.0
  0
LINE
  5
5CD
  8
0
 62
     0
 10
221.18814680566069
 20
28.5
 30
0.0
 11
228.5631468056601
 21
28.5
 31
0.0
  0
LINE
  5
5CE
  8
0
 62
     0
 10
246.56314680566081
 20
30.0
 30
0.0
 11
264.57214646033231
 21
30.0
 31
0.0
  0
LINE
  5
5CF
  8
0
 62
     0
 10
282.55516212242998
 20
30.0
 30
0.0
 11
289.93814680566072
 21
30.0
 31
0.0
  0
LINE
  5
5D0
  8
0
 62
     0
 10
221.18814680566069
 20
30.0
 30
0.0
 11
228.5631468056601
 21
30.0
 31
0.0
  0
LINE
  5
5D1
  8
0
 62
     0
 10
246.56314680566081
 20
31.5
 30
0.0
 11
264.57214646033231
 21
31.5
 31
0.0
  0
LINE
  5
5D2
  8
0
 62
     0
 10
282.55516212242998
 20
31.5
 30
0.0
 11
289.93814680566061
 21
31.5
 31
0.0
  0
LINE
  5
5D3
  8
0
 62
     0
 10
221.18814680566069
 20
31.5
 30
0.0
 11
228.5631468056601
 21
31.5
 31
0.0
  0
LINE
  5
5D4
  8
0
 62
     0
 10
246.56314680566081
 20
33.0
 30
0.0
 11
264.57214646033231
 21
33.0
 31
0.0
  0
LINE
  5
5D5
  8
0
 62
     0
 10
282.55516212242998
 20
33.0
 30
0.0
 11
289.93814680566061
 21
33.0
 31
0.0
  0
LINE
  5
5D6
  8
0
 62
     0
 10
221.18814680566069
 20
33.0
 30
0.0
 11
228.5631468056601
 21
33.0
 31
0.0
  0
LINE
  5
5D7
  8
0
 62
     0
 10
246.56314680566081
 20
34.5
 30
0.0
 11
264.57214646033231
 21
34.5
 31
0.0
  0
LINE
  5
5D8
  8
0
 62
     0
 10
282.55516212242998
 20
34.5
 30
0.0
 11
289.93814680566061
 21
34.5
 31
0.0
  0
LINE
  5
5D9
  8
0
 62
     0
 10
221.18814680566069
 20
34.5
 30
0.0
 11
228.5631468056601
 21
34.5
 31
0.0
  0
LINE
  5
5DA
  8
0
 62
     0
 10
246.56314680566081
 20
36.0
 30
0.0
 11
264.57214646033231
 21
36.0
 31
0.0
  0
LINE
  5
5DB
  8
0
 62
     0
 10
282.55516212242998
 20
36.0
 30
0.0
 11
289.93814680566061
 21
36.0
 31
0.0
  0
LINE
  5
5DC
  8
0
 62
     0
 10
221.18814680566061
 20
36.0
 30
0.0
 11
228.5631468056601
 21
36.0
 31
0.0
  0
LINE
  5
5DD
  8
0
 62
     0
 10
246.56314680566081
 20
37.5
 30
0.0
 11
264.57214646033231
 21
37.5
 31
0.0
  0
LINE
  5
5DE
  8
0
 62
     0
 10
282.55516212242998
 20
37.5
 30
0.0
 11
289.93814680566061
 21
37.5
 31
0.0
  0
LINE
  5
5DF
  8
0
 62
     0
 10
221.18814680566061
 20
37.5
 30
0.0
 11
228.5631468056601
 21
37.5
 31
0.0
  0
LINE
  5
5E0
  8
0
 62
     0
 10
246.56314680566081
 20
39.0
 30
0.0
 11
264.57214646033231
 21
39.0
 31
0.0
  0
LINE
  5
5E1
  8
0
 62
     0
 10
282.55516212242998
 20
39.0
 30
0.0
 11
289.93814680566049
 21
39.0
 31
0.0
  0
LINE
  5
5E2
  8
0
 62
     0
 10
221.18814680566061
 20
39.0
 30
0.0
 11
228.5631468056601
 21
39.0
 31
0.0
  0
LINE
  5
5E3
  8
0
 62
     0
 10
246.56314680566081
 20
40.499999999999993
 30
0.0
 11
264.57214646033231
 21
40.499999999999993
 31
0.0
  0
LINE
  5
5E4
  8
0
 62
     0
 10
282.55516212242998
 20
40.499999999999993
 30
0.0
 11
289.93814680566049
 21
40.499999999999993
 31
0.0
  0
LINE
  5
5E5
  8
0
 62
     0
 10
221.18814680566061
 20
40.499999999999993
 30
0.0
 11
228.5631468056601
 21
40.499999999999993
 31
0.0
  0
LINE
  5
5E6
  8
0
 62
     0
 10
246.56314680566081
 20
42.0
 30
0.0
 11
264.57214646033231
 21
42.0
 31
0.0
  0
LINE
  5
5E7
  8
0
 62
     0
 10
282.55516212242998
 20
42.0
 30
0.0
 11
289.93814680566049
 21
42.0
 31
0.0
  0
LINE
  5
5E8
  8
0
 62
     0
 10
221.18814680566061
 20
42.0
 30
0.0
 11
228.5631468056601
 21
42.0
 31
0.0
  0
ENDBLK
  5
5EA
  8
0
  0
BLOCK
  8
0
  2
*X4
 70
     1
 10
0.0
 20
0.0
 30
0.0
  3
*X4
  1

  0
LINE
  5
5EC
  8
0
 62
     0
 10
163.94537103021801
 20
204.0
 30
0.0
 11
126.445371030218
 21
204.0
 31
0.0
  0
LINE
  5
5ED
  8
0
 62
     0
 10
163.94537103021801
 20
202.5
 30
0.0
 11
126.445371030218
 21
202.5
 31
0.0
  0
LINE
  5
5EE
  8
0
 62
     0
 10
163.94537103021801
 20
201.0
 30
0.0
 11
126.445371030218
 21
201.0
 31
0.0
  0
LINE
  5
5EF
  8
0
 62
     0
 10
163.94537103021801
 20
199.49999999999989
 30
0.0
 11
126.445371030218
 21
199.49999999999989
 31
0.0
  0
LINE
  5
5F0
  8
0
 62
     0
 10
163.94537103021801
 20
198.0
 30
0.0
 11
126.445371030218
 21
198.0
 31
0.0
  0
LINE
  5
5F1
  8
0
 62
     0
 10
163.9453710302179
 20
196.5
 30
0.0
 11
126.445371030218
 21
196.5
 31
0.0
  0
LINE
  5
5F2
  8
0
 62
     0
 10
163.9453710302179
 20
195.0
 30
0.0
 11
126.445371030218
 21
195.0
 31
0.0
  0
LINE
  5
5F3
  8
0
 62
     0
 10
163.9453710302179
 20
193.5
 30
0.0
 11
126.445371030218
 21
193.5
 31
0.0
  0
LINE
  5
5F4
  8
0
 62
     0
 10
163.9453710302179
 20
191.99999999999989
 30
0.0
 11
126.445371030218
 21
191.99999999999989
 31
0.0
  0
LINE
  5
5F5
  8
0
 62
     0
 10
163.9453710302179
 20
190.5
 30
0.0
 11
126.445371030218
 21
190.5
 31
0.0
  0
LINE
  5
5F6
  8
0
 62
     0
 10
163.9453710302179
 20
188.99999999999989
 30
0.0
 11
126.445371030218
 21
188.99999999999989
 31
0.0
  0
LINE
  5
5F7
  8
0
 62
     0
 10
163.9453710302179
 20
187.5
 30
0.0
 11
126.445371030218
 21
187.5
 31
0.0
  0
LINE
  5
5F8
  8
0
 62
     0
 10
163.9453710302179
 20
185.99999999999989
 30
0.0
 11
126.445371030218
 21
185.99999999999989
 31
0.0
  0
LINE
  5
5F9
  8
0
 62
     0
 10
163.9453710302179
 20
184.49999999999989
 30
0.0
 11
126.445371030218
 21
184.49999999999989
 31
0.0
  0
LINE
  5
5FA
  8
0
 62
     0
 10
163.9453710302179
 20
183.0
 30
0.0
 11
126.445371030218
 21
183.0
 31
0.0
  0
LINE
  5
5FB
  8
0
 62
     0
 10
163.9453710302179
 20
181.49999999999989
 30
0.0
 11
126.445371030218
 21
181.49999999999989
 31
0.0
  0
LINE
  5
5FC
  8
0
 62
     0
 10
163.9453710302179
 20
180.0
 30
0.0
 11
126.445371030218
 21
180.0
 31
0.0
  0
LINE
  5
5FD
  8
0
 62
     0
 10
163.9453710302179
 20
178.49999999999989
 30
0.0
 11
126.445371030218
 21
178.49999999999989
 31
0.0
  0
LINE
  5
5FE
  8
0
 62
     0
 10
163.9453710302179
 20
177.0
 30
0.0
 11
126.445371030218
 21
177.0
 31
0.0
  0
LINE
  5
5FF
  8
0
 62
     0
 10
163.9453710302179
 20
175.49999999999989
 30
0.0
 11
126.445371030218
 21
175.49999999999989
 31
0.0
  0
LINE
  5
600
  8
0
 62
     0
 10
163.9453710302179
 20
174.0
 30
0.0
 11
126.445371030218
 21
174.0
 31
0.0
  0
LINE
  5
601
  8
0
 62
     0
 10
163.9453710302179
 20
172.49999999999989
 30
0.0
 11
126.445371030218
 21
172.49999999999989
 31
0.0
  0
LINE
  5
602
  8
0
 62
     0
 10
163.9453710302179
 20
170.99999999999989
 30
0.0
 11
126.445371030218
 21
170.99999999999989
 31
0.0
  0
LINE
  5
603
  8
0
 62
     0
 10
163.9453710302179
 20
169.5
 30
0.0
 11
126.4453710302179
 21
169.5
 31
0.0
  0
LINE
  5
604
  8
0
 62
     0
 10
163.9453710302179
 20
167.99999999999989
 30
0.0
 11
126.4453710302179
 21
167.99999999999989
 31
0.0
  0
LINE
  5
605
  8
0
 62
     0
 10
163.9453710302179
 20
166.5
 30
0.0
 11
126.4453710302179
 21
166.5
 31
0.0
  0
LINE
  5
606
  8
0
 62
     0
 10
163.9453710302179
 20
164.99999999999989
 30
0.0
 11
126.4453710302179
 21
164.99999999999989
 31
0.0
  0
LINE
  5
607
  8
0
 62
     0
 10
163.9453710302179
 20
163.49999999999989
 30
0.0
 11
126.4453710302179
 21
163.49999999999989
 31
0.0
  0
LINE
  5
608
  8
0
 62
     0
 10
163.9453710302179
 20
161.99999999999989
 30
0.0
 11
126.4453710302179
 21
161.99999999999989
 31
0.0
  0
LINE
  5
609
  8
0
 62
     0
 10
163.9453710302179
 20
160.49999999999989
 30
0.0
 11
126.4453710302179
 21
160.49999999999989
 31
0.0
  0
LINE
  5
60A
  8
0
 62
     0
 10
163.9453710302179
 20
159.0
 30
0.0
 11
126.4453710302179
 21
159.0
 31
0.0
  0
LINE
  5
60B
  8
0
 62
     0
 10
163.9453710302179
 20
157.5
 30
0.0
 11
126.4453710302179
 21
157.5
 31
0.0
  0
LINE
  5
60C
  8
0
 62
     0
 10
163.9453710302179
 20
156.0
 30
0.0
 11
126.4453710302179
 21
156.0
 31
0.0
  0
LINE
  5
60D
  8
0
 62
     0
 10
163.9453710302179
 20
154.49999999999989
 30
0.0
 11
126.4453710302179
 21
154.49999999999989
 31
0.0
  0
LINE
  5
60E
  8
0
 62
     0
 10
163.9453710302179
 20
153.0
 30
0.0
 11
126.4453710302179
 21
153.0
 31
0.0
  0
LINE
  5
60F
  8
0
 62
     0
 10
163.9453710302179
 20
151.49999999999989
 30
0.0
 11
126.4453710302179
 21
151.49999999999989
 31
0.0
  0
LINE
  5
610
  8
0
 62
     0
 10
163.9453710302179
 20
150.0
 30
0.0
 11
126.4453710302179
 21
150.0
 31
0.0
  0
LINE
  5
611
  8
0
 62
     0
 10
163.9453710302179
 20
148.49999999999989
 30
0.0
 11
126.4453710302179
 21
148.49999999999989
 31
0.0
  0
LINE
  5
612
  8
0
 62
     0
 10
163.9453710302179
 20
146.99999999999989
 30
0.0
 11
126.4453710302179
 21
146.99999999999989
 31
0.0
  0
LINE
  5
613
  8
0
 62
     0
 10
163.9453710302179
 20
145.5
 30
0.0
 11
126.4453710302179
 21
145.5
 31
0.0
  0
LINE
  5
614
  8
0
 62
     0
 10
163.94537103021781
 20
143.99999999999989
 30
0.0
 11
126.4453710302179
 21
143.99999999999989
 31
0.0
  0
LINE
  5
615
  8
0
 62
     0
 10
163.94537103021781
 20
142.5
 30
0.0
 11
126.4453710302179
 21
142.5
 31
0.0
  0
LINE
  5
616
  8
0
 62
     0
 10
163.94537103021781
 20
140.99999999999989
 30
0.0
 11
126.4453710302179
 21
140.99999999999989
 31
0.0
  0
LINE
  5
617
  8
0
 62
     0
 10
163.94537103021781
 20
139.5
 30
0.0
 11
126.4453710302179
 21
139.5
 31
0.0
  0
LINE
  5
618
  8
0
 62
     0
 10
163.94537103021781
 20
137.99999999999989
 30
0.0
 11
126.4453710302179
 21
137.99999999999989
 31
0.0
  0
LINE
  5
619
  8
0
 62
     0
 10
163.94537103021781
 20
136.49999999999989
 30
0.0
 11
126.4453710302179
 21
136.49999999999989
 31
0.0
  0
ENDBLK
  5
61B
  8
0
  0
ENDSEC
  0
SECTION
  2
ENTITIES
  0
LINE
  5
379
  8
0
 10
124.8203710302177
 20
90.125004503757594
 30
0.0
 11
165.570371030215
 21
90.125004503757594
 31
0.0
  0
LINE
  5
37A
  8
0
 10
165.570371030215
 20
44.125004503757758
 30
0.0
 11
124.8203710302177
 21
44.125004503757758
 31
0.0
  0
LINE
  5
37B
  8
0
 10
124.8203710302177
 20
44.125004503757758
 30
0.0
 11
124.8203710302177
 21
90.125004503757594
 31
0.0
  0
LINE
  5
37C
  8
0
 10
165.570371030215
 20
44.125004503757758
 30
0.0
 11
165.570371030215
 21
90.125004503757594
 31
0.0
  0
LINE
  5
37D
  8
0
 10
124.8203710302185
 20
44.125004503757708
 30
0.0
 11
172.3203710302185
 21
44.125004503757708
 31
0.0
  0
LINE
  5
37E
  8
0
 10
172.3203710302185
 20
0.0000045037577352
 30
0.0
 11
124.8203710302185
 21
0.0000045037577352
 31
0.0
  0
LINE
  5
37F
  8
0
 10
124.8203710302185
 20
44.125004503757708
 30
0.0
 11
124.8203710302185
 21
0.0000045037577352
 31
0.0
  0
LINE
  5
380
  8
0
 10
172.3203710302185
 20
0.0000045037577352
 30
0.0
 11
172.3203710302185
 21
44.125004503757708
 31
0.0
  0
ARC
  5
381
  8
0
 10
145.1953710302181
 20
79.875004503758134
 30
0.0
 40
1.5
 50
359.9999999999992
 51
180.0
  0
ARC
  5
382
  8
0
 10
145.1953710302181
 20
79.875004503758134
 30
0.0
 40
1.5
 50
180.00000000000011
 51
359.9999999999992
  0
ARC
  5
383
  8
0
 10
154.82037103021801
 20
39.000004503757737
 30
0.0
 40
0.4999999999999964
 50
359.9999999999992
 51
179.9999999999996
  0
ARC
  5
384
  8
0
 10
154.82037103021801
 20
39.000004503757737
 30
0.0
 40
0.5000000000000151
 50
180.0000000000004
 51
359.99999999999841
  0
ARC
  5
385
  8
0
 10
142.07037103021801
 20
26.125004503757729
 30
0.0
 40
0.9999999999999856
 50
0.0
 51
179.9999999999998
  0
ARC
  5
386
  8
0
 10
142.07037103021801
 20
26.125004503757729
 30
0.0
 40
1.0000000000000051
 50
180.0000000000002
 51
359.99999999999949
  0
ARC
  5
387
  8
0
 10
127.0703710302179
 20
8.3750045037577348
 30
0.0
 40
1.0000000000000051
 50
359.9999999999992
 51
179.9999999999992
  0
ARC
  5
388
  8
0
 10
127.0703710302179
 20
8.3750045037577348
 30
0.0
 40
0.9999999999999912
 50
180.0000000000006
 51
0.0000000000000509
  0
ARC
  5
389
  8
0
 10
128.94537103021821
 20
12.875004503758159
 30
0.0
 40
1.499999999999996
 50
359.9999999999996
 51
179.99999999999969
  0
ARC
  5
38A
  8
0
 10
128.94537103021821
 20
12.875004503758159
 30
0.0
 40
1.500000000000006
 50
180.0000000000002
 51
359.9999999999992
  0
LINE
  5
38B
  8
0
 10
219.56314680566641
 20
90.125004503757594
 30
0.0
 11
291.56314680566112
 21
90.125004503757594
 31
0.0
  0
LINE
  5
38C
  8
0
 10
219.56314680566641
 20
44.125004503757758
 30
0.0
 11
219.56314680566641
 21
90.125004503757594
 31
0.0
  0
LINE
  5
38D
  8
0
 10
291.56314680566112
 20
44.125004503757758
 30
0.0
 11
291.56314680566112
 21
90.125004503757594
 31
0.0
  0
LINE
  5
38E
  8
0
 10
265.56314680566049
 20
5.0000045037581318
 30
0.0
 11
281.56314680566061
 21
5.0000045037579612
 31
0.0
  0
LINE
  5
38F
  8
0
 10
265.56314680566089
 20
39.801095540177052
 30
0.0
 11
281.56314680566101
 21
39.801095540177009
 31
0.0
  0
LINE
  5
390
  8
0
 10
264.57214646033231
 20
4.0000045037577889
 30
0.0
 11
264.57214646033231
 21
42.500004503758333
 31
0.0
  0
LINE
  5
391
  8
0
 10
265.56314680566089
 20
42.500004503758333
 30
0.0
 11
265.56314680566078
 21
4.0000045037577889
 31
0.0
  0
LINE
  5
392
  8
0
 10
264.57214646033231
 20
4.0000045037577889
 30
0.0
 11
265.56314680566078
 21
4.0000045037577889
 31
0.0
  0
LINE
  5
393
  8
0
 10
265.56314680566089
 20
42.500004503758333
 30
0.0
 11
264.57214646033231
 21
42.500004503758333
 31
0.0
  0
LINE
  5
394
  8
0
 10
281.56314680566078
 20
4.0000045037577632
 30
0.0
 11
281.56314680566078
 21
42.500004503758312
 31
0.0
  0
LINE
  5
395
  8
0
 10
282.55516212242998
 20
42.500004503758312
 30
0.0
 11
282.55516212242998
 21
4.0000045037577632
 31
0.0
  0
LINE
  5
396
  8
0
 10
282.55516212242998
 20
4.0000045037577632
 30
0.0
 11
281.56314680566078
 21
4.0000045037577632
 31
0.0
  0
LINE
  5
397
  8
0
 10
282.55516212242998
 20
42.500004503758312
 30
0.0
 11
281.56314680566078
 21
42.500004503758312
 31
0.0
  0
LINE
  5
398
  8
0
 10
229.5631468056603
 20
5.0000045037579612
 30
0.0
 11
245.56314680566021
 21
5.0000045037581318
 31
0.0
  0
LINE
  5
399
  8
0
 10
229.56314680566049
 20
39.801095540176867
 30
0.0
 11
245.56314680566049
 21
39.80109554017703
 31
0.0
  0
LINE
  5
39A
  8
0
 10
245.56314680566081
 20
4.0000045037578209
 30
0.0
 11
245.56314680566081
 21
42.500004503758369
 31
0.0
  0
LINE
  5
39B
  8
0
 10
246.56314680566089
 20
42.500004503758369
 30
0.0
 11
246.56314680566089
 21
4.0000045037578209
 31
0.0
  0
LINE
  5
39C
  8
0
 10
245.56314680566081
 20
4.0000045037578209
 30
0.0
 11
246.56314680566089
 21
4.0000045037578209
 31
0.0
  0
LINE
  5
39D
  8
0
 10
246.56314680566089
 20
42.500004503758369
 30
0.0
 11
245.56314680566081
 21
42.500004503758369
 31
0.0
  0
LINE
  5
39E
  8
0
 10
228.56314680566081
 20
4.0000045037578431
 30
0.0
 11
228.56314680566089
 21
42.50000450375839
 31
0.0
  0
LINE
  5
39F
  8
0
 10
229.56314680566081
 20
42.50000450375839
 30
0.0
 11
229.56314680566081
 21
4.0000045037578431
 31
0.0
  0
LINE
  5
3A0
  8
0
 10
228.56314680566081
 20
4.0000045037578431
 30
0.0
 11
229.56314680566081
 21
4.0000045037578431
 31
0.0
  0
LINE
  5
3A1
  8
0
 10
229.56314680566081
 20
42.50000450375839
 30
0.0
 11
228.56314680566089
 21
42.50000450375839
 31
0.0
  0
LINE
  5
3A2
  8
0
 10
221.18814680566069
 20
42.500004503760138
 30
0.0
 11
221.18814680566069
 21
4.0000045037577294
 31
0.0
  0
LINE
  5
3A3
  8
0
 10
221.18814680566069
 20
4.0000045037577294
 30
0.0
 11
228.5631468056601
 21
4.0000045037577294
 31
0.0
  0
LINE
  5
3A4
  8
0
 10
228.5631468056601
 20
4.0000045037577294
 30
0.0
 11
228.5631468056601
 21
42.500004503760138
 31
0.0
1001
ACAD
1000
ASC_BOUNDS
1002
{
1070
    19
1005
528
1002
}
  0
LINE
  5
3A5
  8
0
 10
228.5631468056601
 20
42.500004503760138
 30
0.0
 11
221.18814680566069
 21
42.500004503760138
 31
0.0
  0
LINE
  5
3A6
  8
0
 10
264.57214646033231
 20
42.500004503758369
 30
0.0
 11
246.56314680566081
 21
42.500004503758369
 31
0.0
  0
LINE
  5
3A7
  8
0
 10
246.56314680566081
 20
42.500004503758369
 30
0.0
 11
246.56314680566081
 21
4.0000045037578147
 31
0.0
1001
ACAD
1000
ASC_BOUNDS
1002
{
1070
    19
1005
528
1002
}
  0
LINE
  5
3A8
  8
0
 10
246.56314680566081
 20
4.0000045037578147
 30
0.0
 11
264.57214646033231
 21
4.0000045037578209
 31
0.0
  0
LINE
  5
3A9
  8
0
 10
264.57214646033231
 20
4.0000045037578209
 30
0.0
 11
264.57214646033231
 21
42.500004503758369
 31
0.0
1001
ACAD
1000
ASC_BOUNDS
1002
{
1070
    19
1005
528
1002
}
  0
LINE
  5
3AA
  8
0
 10
289.93814680566078
 20
42.500004503758369
 30
0.0
 11
282.55516212242998
 21
42.500004503758369
 31
0.0
  0
LINE
  5
3AB
  8
0
 10
282.55516212242998
 20
42.500004503758369
 30
0.0
 11
282.55516212242998
 21
4.0000045037578147
 31
0.0
1001
ACAD
1000
ASC_BOUNDS
1002
{
1070
    19
1005
528
1002
}
  0
LINE
  5
3AC
  8
0
 10
282.55516212242998
 20
4.0000045037578147
 30
0.0
 11
289.93814680566078
 21
4.0000045037578147
 31
0.0
  0
LINE
  5
3AD
  8
0
 10
289.93814680566078
 20
4.0000045037578147
 30
0.0
 11
289.93814680566078
 21
42.500004503758369
 31
0.0
  0
LINE
  5
3AE
  8
0
 10
219.56314680566121
 20
44.125004503757708
 30
0.0
 11
291.56314680566118
 21
44.125004503757708
 31
0.0
  0
LINE
  5
3AF
  8
0
 10
291.56314680566118
 20
0.0000045037577352
 30
0.0
 11
219.56314680566121
 21
0.0000045037577352
 31
0.0
  0
LINE
  5
3B0
  8
0
 10
219.56314680566121
 20
0.0000045037577352
 30
0.0
 11
219.56314680566121
 21
44.125004503757708
 31
0.0
  0
LINE
  5
3B1
  8
0
 10
221.18814680566089
 20
4.0000045037569629
 30
0.0
 11
221.18814680566061
 21
42.500004503757502
 31
0.0
1001
ACAD
1000
ASC_BOUNDS
1002
{
1070
    19
1005
528
1002
}
  0
LINE
  5
3B2
  8
0
 10
221.18814680566061
 20
42.500004503757502
 30
0.0
 11
289.93814680566049
 21
42.500004503758213
 31
0.0
1001
ACAD
1000
ASC_BOUNDS
1002
{
1070
    19
1005
528
1005
528
1005
528
1002
}
  0
LINE
  5
3B3
  8
0
 10
289.93814680566049
 20
42.500004503758213
 30
0.0
 11
289.93814680566078
 21
4.000004503757661
 31
0.0
1001
ACAD
1000
ASC_BOUNDS
1002
{
1070
    19
1005
528
1002
}
  0
LINE
  5
3B4
  8
0
 10
289.93814680566078
 20
4.000004503757661
 30
0.0
 11
221.18814680566089
 21
4.0000045037569567
 31
0.0
1001
ACAD
1000
ASC_BOUNDS
1002
{
1070
    19
1005
528
1005
528
1005
528
1002
}
  0
LINE
  5
3B5
  8
0
 10
291.56314680566118
 20
0.0000045037577352
 30
0.0
 11
291.56314680566118
 21
44.125004503757708
 31
0.0
  0
ARC
  5
3B6
  8
0
 10
255.56314680566061
 20
60.125004503758873
 30
0.0
 40
8.2500000000000302
 50
179.9999999999996
 51
359.99999999999881
  0
ARC
  5
3B7
  8
0
 10
255.56314680566061
 20
60.125004503758873
 30
0.0
 40
8.2500000000000089
 50
359.99999999999949
 51
179.9999999999996
  0
ARC
  5
3B8
  8
0
 10
255.56314680566061
 20
60.125004503758873
 30
0.0
 40
7.6874999999999973
 50
0.000000000000687
 51
180.00000000000011
  0
ARC
  5
3B9
  8
0
 10
255.56314680566061
 20
60.125004503758873
 30
0.0
 40
7.687499999999992
 50
180.00000000000011
 51
359.9999999999996
  0
LINE
  5
3BA
  8
0
 10
260.68564757964839
 20
57.683148654961478
 30
0.0
 11
260.49070710345802
 21
57.234239924802772
 31
0.0
  0
LINE
  5
3BB
  8
0
 10
260.49070710345802
 20
57.234239924802772
 30
0.0
 11
260.03981424631507
 21
57.076997861310687
 31
0.0
  0
LINE
  5
3BC
  8
0
 10
260.03981424631507
 20
57.076997861310687
 30
0.0
 11
259.71528547647392
 21
57.141233972421809
 31
0.0
  0
LINE
  5
3BD
  8
0
 10
259.71528547647392
 20
57.141233972421809
 30
0.0
 11
259.47979440504531
 21
57.33394230575513
 31
0.0
  0
LINE
  5
3BE
  8
0
 10
259.47979440504531
 20
57.33394230575513
 30
0.0
 11
259.28882218282308
 21
58.091878813691629
 31
0.0
  0
LINE
  5
3BF
  8
0
 10
259.28882218282308
 20
58.091878813691629
 30
0.0
 11
259.4728499606008
 21
58.855767702580522
 31
0.0
  0
LINE
  5
3C0
  8
0
 10
259.4728499606008
 20
58.855767702580522
 30
0.0
 11
259.70263666695001
 21
59.045499845437668
 31
0.0
  0
LINE
  5
3C1
  8
0
 10
259.70263666695001
 20
59.045499845437668
 30
0.0
 11
260.02394123044212
 21
59.108743893056712
 31
0.0
  0
LINE
  5
3C2
  8
0
 10
260.02394123044212
 20
59.108743893056712
 30
0.0
 11
260.49219519869609
 21
58.965390718453563
 31
0.0
  0
LINE
  5
3C3
  8
0
 10
260.49219519869609
 20
58.965390718453563
 30
0.0
 11
260.68564757964839
 21
58.540291512104339
 31
0.0
  0
LINE
  5
3C4
  8
0
 10
260.68564757964839
 20
58.540291512104339
 30
0.0
 11
261.82850472250561
 21
58.540291512104339
 31
0.0
  0
LINE
  5
3C5
  8
0
 10
261.82850472250561
 20
58.540291512104339
 30
0.0
 11
261.6682864685373
 21
59.187984964485288
 31
0.0
  0
LINE
  5
3C6
  8
0
 10
261.6682864685373
 20
59.187984964485288
 30
0.0
 11
261.30072694472778
 21
59.666779607342427
 31
0.0
  0
LINE
  5
3C7
  8
0
 10
261.30072694472778
 20
59.666779607342427
 30
0.0
 11
260.74169916695001
 21
59.962538535913872
 31
0.0
  0
LINE
  5
3C8
  8
0
 10
260.74169916695001
 20
59.962538535913872
 30
0.0
 11
260.007076151077
 21
60.061124845437668
 31
0.0
  0
LINE
  5
3C9
  8
0
 10
260.007076151077
 20
60.061124845437668
 30
0.0
 11
259.20908507964839
 21
59.929180400993232
 31
0.0
  0
LINE
  5
3CA
  8
0
 10
259.20908507964839
 20
59.929180400993232
 30
0.0
 11
258.5988420240929
 21
59.533347067659889
 31
0.0
  0
LINE
  5
3CB
  8
0
 10
258.5988420240929
 20
59.533347067659889
 30
0.0
 11
258.21156523837863
 21
58.909339131151953
 31
0.0
  0
LINE
  5
3CC
  8
0
 10
258.21156523837863
 20
58.909339131151953
 30
0.0
 11
258.08247297647392
 21
58.092870877183707
 31
0.0
  0
LINE
  5
3CD
  8
0
 10
258.08247297647392
 20
58.092870877183707
 30
0.0
 11
258.21218527806121
 21
57.27454250416784
 31
0.0
  0
LINE
  5
3CE
  8
0
 10
258.21218527806121
 20
57.27454250416784
 30
0.0
 11
258.60132218282308
 21
56.650906591469408
 31
0.0
  0
LINE
  5
3CF
  8
0
 10
258.60132218282308
 20
56.650906591469408
 30
0.0
 11
259.21664956377538
 21
56.256189329564663
 31
0.0
  0
LINE
  5
3D0
  8
0
 10
259.21664956377538
 20
56.256189329564663
 30
0.0
 11
260.02493329393423
 21
56.124616908929738
 31
0.0
  0
LINE
  5
3D1
  8
0
 10
260.02493329393423
 20
56.124616908929738
 30
0.0
 11
260.74802357171188
 21
56.226799448612262
 31
0.0
  0
LINE
  5
3D2
  8
0
 10
260.74802357171188
 20
56.226799448612262
 30
0.0
 11
261.30419916695001
 21
56.533347067659889
 31
0.0
  0
LINE
  5
3D3
  8
0
 10
261.30419916695001
 20
56.533347067659889
 30
0.0
 11
261.67163468282303
 21
57.02516254385035
 31
0.0
  0
LINE
  5
3D4
  8
0
 10
261.67163468282303
 20
57.02516254385035
 30
0.0
 11
261.82850472250561
 21
57.683148654961478
 31
0.0
  0
LINE
  5
3D5
  8
0
 10
261.82850472250561
 20
57.683148654961478
 30
0.0
 11
260.68564757964839
 21
57.683148654961478
 31
0.0
  0
LINE
  5
3D6
  8
0
 10
253.4639202018808
 20
58.457222843884679
 30
0.0
 11
254.64149956696019
 21
58.457222843884679
 31
0.0
  0
LINE
  5
3D7
  8
0
 10
254.64149956696019
 20
58.457222843884679
 30
0.0
 11
254.7883249637855
 21
58.965159351821193
 31
0.0
  0
LINE
  5
3D8
  8
0
 10
254.7883249637855
 20
58.965159351821193
 30
0.0
 11
255.99169797965851
 21
58.965159351821193
 31
0.0
  0
LINE
  5
3D9
  8
0
 10
255.99169797965851
 20
58.965159351821193
 30
0.0
 11
256.13356305902357
 21
58.457222843884679
 31
0.0
  0
LINE
  5
3DA
  8
0
 10
256.13356305902357
 20
58.457222843884679
 30
0.0
 11
257.3369360748967
 21
58.457222843884679
 31
0.0
  0
LINE
  5
3DB
  8
0
 10
257.3369360748967
 20
58.457222843884679
 30
0.0
 11
256.00757099553158
 21
62.266746653408489
 31
0.0
  0
LINE
  5
3DC
  8
0
 10
256.00757099553158
 20
62.266746653408489
 30
0.0
 11
254.77840432886489
 21
62.266746653408489
 31
0.0
  0
LINE
  5
3DD
  8
0
 10
254.77840432886489
 20
62.266746653408489
 30
0.0
 11
253.4639202018808
 21
58.457222843884679
 31
0.0
  0
LINE
  5
3DE
  8
0
 10
255.0085630590236
 20
59.790556177218022
 30
0.0
 11
255.3944757574364
 21
61.094127605789438
 31
0.0
  0
LINE
  5
3DF
  8
0
 10
255.3944757574364
 20
61.094127605789438
 30
0.0
 11
255.77145988442049
 21
59.790556177218022
 31
0.0
  0
LINE
  5
3E0
  8
0
 10
255.77145988442049
 20
59.790556177218022
 30
0.0
 11
255.0085630590236
 21
59.790556177218022
 31
0.0
  0
LINE
  5
3E1
  8
0
 10
249.7031890116194
 20
60.197611153064962
 30
0.0
 11
251.4025937735241
 21
60.197611153064962
 31
0.0
  0
LINE
  5
3E2
  8
0
 10
251.4025937735241
 20
60.197611153064962
 30
0.0
 11
252.1704509163813
 21
60.236301629255422
 31
0.0
  0
LINE
  5
3E3
  8
0
 10
252.1704509163813
 20
60.236301629255422
 30
0.0
 11
252.5831493290797
 21
60.368246073699879
 31
0.0
  0
LINE
  5
3E4
  8
0
 10
252.5831493290797
 20
60.368246073699879
 30
0.0
 11
252.9913834560638
 21
60.751182581636378
 31
0.0
  0
LINE
  5
3E5
  8
0
 10
252.9913834560638
 20
60.751182581636378
 30
0.0
 11
253.13176044019079
 21
61.33848416893796
 31
0.0
  0
LINE
  5
3E6
  8
0
 10
253.13176044019079
 20
61.33848416893796
 30
0.0
 11
252.9879112338416
 21
61.901480200683999
 31
0.0
  0
LINE
  5
3E7
  8
0
 10
252.9879112338416
 20
61.901480200683999
 30
0.0
 11
252.54445885288919
 21
62.226380994334797
 31
0.0
  0
LINE
  5
3E8
  8
0
 10
252.54445885288919
 20
62.226380994334797
 30
0.0
 11
252.88969694812729
 21
62.543841311795099
 31
0.0
  0
LINE
  5
3E9
  8
0
 10
252.88969694812729
 20
62.543841311795099
 30
0.0
 11
253.00477631320669
 21
62.996222264176069
 31
0.0
  0
LINE
  5
3EA
  8
0
 10
253.00477631320669
 20
62.996222264176069
 30
0.0
 11
252.8510064719367
 21
63.556242105445911
 31
0.0
  0
LINE
  5
3EB
  8
0
 10
252.8510064719367
 20
63.556242105445911
 30
0.0
 11
252.4085461544764
 21
63.896023851477651
 31
0.0
  0
LINE
  5
3EC
  8
0
 10
252.4085461544764
 20
63.896023851477651
 30
0.0
 11
252.01320885288919
 21
63.98134131179512
 31
0.0
  0
LINE
  5
3ED
  8
0
 10
252.01320885288919
 20
63.98134131179512
 30
0.0
 11
251.27957790050829
 21
64.007134962588765
 31
0.0
  0
LINE
  5
3EE
  8
0
 10
251.27957790050829
 20
64.007134962588765
 30
0.0
 11
249.7031890116194
 21
64.007134962588779
 31
0.0
  0
LINE
  5
3EF
  8
0
 10
249.7031890116194
 20
64.007134962588779
 30
0.0
 11
249.7031890116194
 21
60.197611153064962
 31
0.0
  0
LINE
  5
3F0
  8
0
 10
250.90953821796859
 20
61.086500041953862
 30
0.0
 11
250.90953821796859
 21
61.784912740366529
 31
0.0
  0
LINE
  5
3F1
  8
0
 10
250.90953821796859
 20
61.784912740366529
 30
0.0
 11
251.4581493290797
 21
61.784912740366529
 31
0.0
  0
LINE
  5
3F2
  8
0
 10
251.4581493290797
 20
61.784912740366529
 30
0.0
 11
251.86737551955591
 21
61.705547661001461
 31
0.0
  0
LINE
  5
3F3
  8
0
 10
251.86737551955591
 20
61.705547661001461
 30
0.0
 11
251.98890329733371
 21
61.438682581636392
 31
0.0
  0
LINE
  5
3F4
  8
0
 10
251.98890329733371
 20
61.438682581636392
 30
0.0
 11
251.86985567828609
 21
61.16884131179512
 31
0.0
  0
LINE
  5
3F5
  8
0
 10
251.86985567828609
 20
61.16884131179512
 30
0.0
 11
251.46906202749241
 21
61.086500041953862
 31
0.0
  0
LINE
  5
3F6
  8
0
 10
251.46906202749241
 20
61.086500041953862
 30
0.0
 11
250.90953821796859
 21
61.086500041953862
 31
0.0
  0
LINE
  5
3F7
  8
0
 10
250.90953821796859
 20
62.483325438779239
 30
0.0
 11
250.90953821796859
 21
63.118246073699879
 31
0.0
  0
LINE
  5
3F8
  8
0
 10
250.90953821796859
 20
63.118246073699879
 30
0.0
 11
251.24386361479401
 21
63.118246073699879
 31
0.0
  0
LINE
  5
3F9
  8
0
 10
251.24386361479401
 20
63.118246073699879
 30
0.0
 11
251.75229615447651
 21
63.050785756239563
 31
0.0
  0
LINE
  5
3FA
  8
0
 10
251.75229615447651
 20
63.050785756239563
 30
0.0
 11
251.86191917034961
 21
62.800785756239563
 31
0.0
  0
LINE
  5
3FB
  8
0
 10
251.86191917034961
 20
62.800785756239563
 30
0.0
 11
251.75973663066699
 21
62.555746073699893
 31
0.0
  0
LINE
  5
3FC
  8
0
 10
251.75973663066699
 20
62.555746073699893
 30
0.0
 11
251.40755409098441
 21
62.483325438779239
 31
0.0
  0
LINE
  5
3FD
  8
0
 10
251.40755409098441
 20
62.483325438779239
 30
0.0
 11
250.90953821796859
 21
62.483325438779239
 31
0.0
  0
ARC
  5
3FE
  8
0
 10
255.5631468056601
 20
60.12500450375952
 30
0.0
 40
9.0000000000000178
 50
179.99999999999969
 51
359.99999999999881
  0
ARC
  5
3FF
  8
0
 10
255.5631468056601
 20
60.12500450375952
 30
0.0
 40
9.0000000000000089
 50
359.99999999999949
 51
179.99999999999969
  0
LINE
  5
400
  8
0
 10
219.31314680566081
 20
78.375004503758234
 30
0.0
 11
219.56314680566061
 21
78.375004503758234
 31
0.0
  0
LINE
  5
401
  8
0
 10
219.56314680566061
 20
81.375004503758234
 30
0.0
 11
219.31314680566081
 21
81.375004503758234
 31
0.0
  0
LINE
  5
402
  8
0
 10
219.31314680566109
 20
79.875004503758106
 30
0.0
 11
219.31314680566109
 21
80.263233071411875
 31
0.0
  0
LINE
  5
403
  8
0
 10
219.31314680566109
 20
80.263233912796252
 30
0.0
 11
219.31314680566109
 21
80.935664675537936
 31
0.0
  0
LINE
  5
404
  8
0
 10
219.31314680566109
 20
80.935666008312893
 30
0.0
 11
219.31314680566109
 21
81.323893243191733
 31
0.0
  0
LINE
  5
405
  8
0
 10
219.31314680566109
 20
81.323897114060173
 30
0.0
 11
219.31314680566109
 21
81.375004503758149
 31
0.0
  0
LINE
  5
406
  8
0
 10
219.31314680566109
 20
78.375004503758149
 30
0.0
 11
219.31314680566109
 21
78.426111893454348
 31
0.0
  0
LINE
  5
407
  8
0
 10
219.31314680566109
 20
78.426115764324535
 30
0.0
 11
219.31314680566109
 21
78.814342999202353
 31
0.0
  0
LINE
  5
408
  8
0
 10
219.31314680566109
 20
78.81434433197829
 30
0.0
 11
219.31314680566109
 21
79.486775094719235
 31
0.0
  0
LINE
  5
409
  8
0
 10
219.31314680566109
 20
79.486775936104323
 30
0.0
 11
219.31314680566109
 21
79.875004503758106
 31
0.0
  0
LINE
  5
40A
  8
0
 10
219.31314680566069
 20
38.500004503757843
 30
0.0
 11
219.56314680566049
 21
38.500004503757843
 31
0.0
  0
LINE
  5
40B
  8
0
 10
219.56314680566049
 20
39.500004503757779
 30
0.0
 11
219.31314680566069
 21
39.500004503757779
 31
0.0
  0
LINE
  5
40C
  8
0
 10
219.31314680566081
 20
25.12500450375774
 30
0.0
 11
219.56314680566061
 21
25.12500450375774
 31
0.0
  0
LINE
  5
40D
  8
0
 10
219.56314680566061
 20
27.1250045037578
 30
0.0
 11
219.31314680566081
 21
27.1250045037578
 31
0.0
  0
LINE
  5
40E
  8
0
 10
219.31314680566069
 20
7.375004503757677
 30
0.0
 11
219.56314680566049
 21
7.375004503757677
 31
0.0
  0
LINE
  5
40F
  8
0
 10
219.56314680566049
 20
9.3750045037577312
 30
0.0
 11
219.31314680566069
 21
9.3750045037577312
 31
0.0
  0
LINE
  5
410
  8
0
 10
219.31314680566101
 20
39.000004503757722
 30
0.0
 11
219.31314680566101
 21
39.129414026309
 31
0.0
  0
LINE
  5
411
  8
0
 10
219.31314680566101
 20
39.129414306770492
 30
0.0
 11
219.31314680566101
 21
39.2500036072448
 31
0.0
  0
LINE
  5
412
  8
0
 10
219.31314680566101
 20
39.250004503757729
 30
0.0
 11
219.31314680566101
 21
39.353557894350992
 31
0.0
  0
LINE
  5
413
  8
0
 10
219.31314680566101
 20
39.353558338609638
 30
0.0
 11
219.31314680566101
 21
39.433017205649953
 31
0.0
  0
LINE
  5
414
  8
0
 10
219.31314680566101
 20
39.433017546916489
 30
0.0
 11
219.31314680566101
 21
39.482967416902262
 31
0.0
  0
LINE
  5
415
  8
0
 10
219.31314680566101
 20
39.482968707191851
 30
0.0
 11
219.31314680566101
 21
39.500004503757729
 31
0.0
  0
LINE
  5
416
  8
0
 10
219.31314680566101
 20
38.500004503757737
 30
0.0
 11
219.31314680566101
 21
38.517040300323622
 31
0.0
  0
LINE
  5
417
  8
0
 10
219.31314680566101
 20
38.517041590613204
 30
0.0
 11
219.31314680566101
 21
38.56699146059897
 31
0.0
  0
LINE
  5
418
  8
0
 10
219.31314680566101
 20
38.56699180186552
 30
0.0
 11
219.31314680566101
 21
38.646450668905807
 31
0.0
  0
LINE
  5
419
  8
0
 10
219.31314680566101
 20
38.646451113164453
 30
0.0
 11
219.31314680566101
 21
38.750004503757737
 31
0.0
  0
LINE
  5
41A
  8
0
 10
219.31314680566101
 20
38.750005400270659
 30
0.0
 11
219.31314680566101
 21
38.870594700744967
 31
0.0
  0
LINE
  5
41B
  8
0
 10
219.31314680566101
 20
38.87059498120648
 30
0.0
 11
219.31314680566101
 21
39.000004503757722
 31
0.0
  0
LINE
  5
41C
  8
0
 10
219.31314680566109
 20
26.125004503757729
 30
0.0
 11
219.31314680566109
 21
26.832111114296492
 31
0.0
  0
LINE
  5
41D
  8
0
 10
219.31314680566109
 20
26.832111284944268
 30
0.0
 11
219.31314680566109
 21
26.991029551068561
 31
0.0
  0
LINE
  5
41E
  8
0
 10
219.31314680566109
 20
26.99102990754216
 30
0.0
 11
219.31314680566109
 21
27.090930330046799
 31
0.0
  0
LINE
  5
41F
  8
0
 10
219.31314680566109
 20
27.090931014228559
 30
0.0
 11
219.31314680566109
 21
27.125004503757729
 31
0.0
  0
LINE
  5
420
  8
0
 10
219.31314680566109
 20
25.125004503757729
 30
0.0
 11
219.31314680566109
 21
25.159078677468671
 31
0.0
  0
LINE
  5
421
  8
0
 10
219.31314680566109
 20
25.159079090948161
 30
0.0
 11
219.31314680566109
 21
25.258979099973288
 31
0.0
  0
LINE
  5
422
  8
0
 10
219.31314680566109
 20
25.258980241980971
 30
0.0
 11
219.31314680566109
 21
25.41789772257118
 31
0.0
  0
LINE
  5
423
  8
0
 10
219.31314680566109
 20
25.41789874565108
 30
0.0
 11
219.31314680566109
 21
25.62500450375774
 31
0.0
  0
LINE
  5
424
  8
0
 10
219.31314680566109
 20
25.6250054002704
 30
0.0
 11
219.31314680566109
 21
26.125003539101641
 31
0.0
  0
LINE
  5
425
  8
0
 10
219.31314680566109
 20
8.3750047449217195
 30
0.0
 11
219.31314680566109
 21
8.6338235488602528
 31
0.0
  0
LINE
  5
426
  8
0
 10
219.31314680566109
 20
8.6338236098184726
 30
0.0
 11
219.31314680566109
 21
8.8750042796296125
 31
0.0
  0
LINE
  5
427
  8
0
 10
219.31314680566109
 20
8.8750045037577312
 30
0.0
 11
219.31314680566121
 21
9.0821112849442791
 31
0.0
  0
LINE
  5
428
  8
0
 10
219.31314680566121
 20
9.0821116180067101
 30
0.0
 11
219.31314680566121
 21
9.2410299075421651
 31
0.0
  0
LINE
  5
429
  8
0
 10
219.31314680566121
 20
9.2410299652755565
 30
0.0
 11
219.31314680566121
 21
9.3409303300468007
 31
0.0
  0
LINE
  5
42A
  8
0
 10
219.31314680566121
 20
9.3409305401211054
 30
0.0
 11
219.31314680566121
 21
9.3750045037577348
 31
0.0
  0
LINE
  5
42B
  8
0
 10
219.31314680566121
 20
7.375004503757733
 30
0.0
 11
219.31314680566121
 21
7.4090779932866191
 31
0.0
  0
LINE
  5
42C
  8
0
 10
219.31314680566121
 20
7.4090786774686661
 30
0.0
 11
219.31314680566121
 21
7.5089787298400807
 31
0.0
  0
LINE
  5
42D
  8
0
 10
219.31314680566121
 20
7.5089790999732946
 30
0.0
 11
219.31314680566121
 21
7.667897722571186
 31
0.0
  0
LINE
  5
42E
  8
0
 10
219.31314680566121
 20
7.6678978932189779
 30
0.0
 11
219.31314680566109
 21
8.3750045037577312
 31
0.0
  0
LINE
  5
42F
  8
0
 10
219.31314680566081
 20
11.375004503758131
 30
0.0
 11
219.56314680566061
 21
11.375004503758131
 31
0.0
  0
LINE
  5
430
  8
0
 10
219.56314680566061
 20
14.37500450375831
 30
0.0
 11
219.31314680566081
 21
14.37500450375831
 31
0.0
  0
LINE
  5
431
  8
0
 10
219.31314680566121
 20
12.87500450375815
 30
0.0
 11
219.31314680566121
 21
13.26323307141193
 31
0.0
  0
LINE
  5
432
  8
0
 10
219.31314680566121
 20
13.26323341283137
 30
0.0
 11
219.31314680566121
 21
13.625004055501369
 31
0.0
  0
LINE
  5
433
  8
0
 10
219.31314680566121
 20
13.62500450375815
 30
0.0
 11
219.31314680566121
 21
13.93566467553797
 31
0.0
  0
LINE
  5
434
  8
0
 10
219.31314680566121
 20
13.935665452858631
 30
0.0
 11
219.31314680566121
 21
14.174042609434821
 31
0.0
  0
LINE
  5
435
  8
0
 10
219.31314680566121
 20
14.174043008434211
 30
0.0
 11
219.31314680566121
 21
14.323893243191749
 31
0.0
  0
LINE
  5
436
  8
0
 10
219.31314680566121
 20
14.32389332124783
 30
0.0
 11
219.31314680566121
 21
14.375004503758159
 31
0.0
  0
LINE
  5
437
  8
0
 10
219.31314680566121
 20
11.37500450375815
 30
0.0
 11
219.31314680566121
 21
11.426115212157679
 31
0.0
  0
LINE
  5
438
  8
0
 10
219.31314680566121
 20
11.42611576432456
 30
0.0
 11
219.31314680566121
 21
11.5759663980815
 31
0.0
  0
LINE
  5
439
  8
0
 10
219.31314680566121
 20
11.575966540025201
 30
0.0
 11
219.31314680566121
 21
11.8143441101116
 31
0.0
  0
LINE
  5
43A
  8
0
 10
219.31314680566121
 20
11.814344331978329
 30
0.0
 11
219.31314680566121
 21
12.125003981752339
 31
0.0
  0
LINE
  5
43B
  8
0
 10
219.31314680566121
 20
12.125004503758159
 30
0.0
 11
219.31314680566121
 21
12.8750040214296
 31
0.0
  0
CIRCLE
  5
43C
  8
0
 10
53.124997641741999
 20
34.687504503757488
 30
0.0
 40
8.5000000000000302
  0
CIRCLE
  5
43D
  8
0
 10
18.874997641742109
 20
34.687504503757488
 30
0.0
 40
8.4999999999999716
  0
LINE
  5
43E
  8
0
 10
-0.0000023582578734
 20
90.125004503757594
 30
0.0
 11
71.999997641736826
 21
90.125004503757594
 31
0.0
  0
LINE
  5
43F
  8
0
 10
71.999997641736826
 20
44.125004503757758
 30
0.0
 11
-0.0000023582578734
 21
44.125004503757758
 31
0.0
  0
LINE
  5
440
  8
0
 10
-0.0000023582578734
 20
90.125004503757594
 30
0.0
 11
-0.0000023582578734
 21
44.125004503757758
 31
0.0
  0
LINE
  5
441
  8
0
 10
71.999997641736826
 20
44.125004503757758
 30
0.0
 11
71.999997641736826
 21
90.125004503757594
 31
0.0
  0
LINE
  5
442
  8
0
 10
-0.0000023582579729
 20
44.125004503757708
 30
0.0
 11
71.999997641742027
 21
44.125004503757708
 31
0.0
  0
LINE
  5
443
  8
0
 10
71.999997641742027
 20
0.0000045037577352
 30
0.0
 11
-0.0000023582579729
 21
0.0000045037577352
 31
0.0
  0
LINE
  5
444
  8
0
 10
71.999997641742027
 20
44.125004503757708
 30
0.0
 11
71.999997641742027
 21
0.0000045037577352
 31
0.0
  0
LINE
  5
445
  8
0
 10
-0.0000023582579729
 20
0.0000045037577352
 30
0.0
 11
-0.0000023582579729
 21
44.125004503757708
 31
0.0
  0
ARC
  5
446
  8
0
 10
35.999997641742937
 20
60.12500450375952
 30
0.0
 40
8.2500000000000053
 50
179.9999999999996
 51
359.99999999999881
  0
ARC
  5
447
  8
0
 10
35.999997641742937
 20
60.12500450375952
 30
0.0
 40
8.2500000000000053
 50
359.99999999999949
 51
179.9999999999996
  0
ARC
  5
448
  8
0
 10
35.999997641742937
 20
60.12500450375952
 30
0.0
 40
7.6875000000000018
 50
0.0000000000005789
 51
180.0
  0
ARC
  5
449
  8
0
 10
35.999997641742937
 20
60.12500450375952
 30
0.0
 40
7.687499999999992
 50
180.00000000000011
 51
359.9999999999996
  0
LINE
  5
44A
  8
0
 10
41.122498415730739
 20
57.683148654962139
 30
0.0
 11
40.927557939540229
 21
57.234239924803411
 31
0.0
  0
LINE
  5
44B
  8
0
 10
40.927557939540229
 20
57.234239924803411
 30
0.0
 11
40.476665082397432
 21
57.076997861311341
 31
0.0
  0
LINE
  5
44C
  8
0
 10
40.476665082397432
 20
57.076997861311341
 30
0.0
 11
40.152136312556138
 21
57.141233972422462
 31
0.0
  0
LINE
  5
44D
  8
0
 10
40.152136312556138
 20
57.141233972422462
 30
0.0
 11
39.916645241127533
 21
57.33394230575577
 31
0.0
  0
LINE
  5
44E
  8
0
 10
39.916645241127533
 20
57.33394230575577
 30
0.0
 11
39.725673018905333
 21
58.091878813692297
 31
0.0
  0
LINE
  5
44F
  8
0
 10
39.725673018905333
 20
58.091878813692297
 30
0.0
 11
39.909700796683147
 21
58.855767702581183
 31
0.0
  0
LINE
  5
450
  8
0
 10
39.909700796683147
 20
58.855767702581183
 30
0.0
 11
40.139487503032342
 21
59.045499845438343
 31
0.0
  0
LINE
  5
451
  8
0
 10
40.139487503032342
 20
59.045499845438343
 30
0.0
 11
40.460792066524419
 21
59.10874389305738
 31
0.0
  0
LINE
  5
452
  8
0
 10
40.460792066524419
 20
59.10874389305738
 30
0.0
 11
40.929046034778331
 21
58.965390718454202
 31
0.0
  0
LINE
  5
453
  8
0
 10
40.929046034778331
 20
58.965390718454202
 30
0.0
 11
41.122498415730739
 21
58.540291512104993
 31
0.0
  0
LINE
  5
454
  8
0
 10
41.122498415730739
 20
58.540291512104993
 30
0.0
 11
42.265355558587913
 21
58.540291512104993
 31
0.0
  0
LINE
  5
455
  8
0
 10
42.265355558587913
 20
58.540291512104993
 30
0.0
 11
42.105137304619632
 21
59.187984964485942
 31
0.0
  0
LINE
  5
456
  8
0
 10
42.105137304619632
 20
59.187984964485942
 30
0.0
 11
41.737577780810142
 21
59.666779607343088
 31
0.0
  0
LINE
  5
457
  8
0
 10
41.737577780810142
 20
59.666779607343088
 30
0.0
 11
41.178550003032342
 21
59.962538535914518
 31
0.0
  0
LINE
  5
458
  8
0
 10
41.178550003032342
 20
59.962538535914518
 30
0.0
 11
40.44392698715933
 21
60.061124845438343
 31
0.0
  0
LINE
  5
459
  8
0
 10
40.44392698715933
 20
60.061124845438343
 30
0.0
 11
39.645935915730753
 21
59.929180400993893
 31
0.0
  0
LINE
  5
45A
  8
0
 10
39.645935915730753
 20
59.929180400993893
 30
0.0
 11
39.035692860175139
 21
59.53334706766055
 31
0.0
  0
LINE
  5
45B
  8
0
 10
39.035692860175139
 20
59.53334706766055
 30
0.0
 11
38.648416074460933
 21
58.90933913115262
 31
0.0
  0
LINE
  5
45C
  8
0
 10
38.648416074460933
 20
58.90933913115262
 30
0.0
 11
38.519323812556138
 21
58.092870877184382
 31
0.0
  0
LINE
  5
45D
  8
0
 10
38.519323812556138
 20
58.092870877184382
 30
0.0
 11
38.649036114143428
 21
57.27454250416848
 31
0.0
  0
LINE
  5
45E
  8
0
 10
38.649036114143428
 20
57.27454250416848
 30
0.0
 11
39.038173018905333
 21
56.65090659147009
 31
0.0
  0
LINE
  5
45F
  8
0
 10
39.038173018905333
 20
56.65090659147009
 30
0.0
 11
39.653500399857741
 21
56.256189329565309
 31
0.0
  0
LINE
  5
460
  8
0
 10
39.653500399857741
 20
56.256189329565309
 30
0.0
 11
40.461784130016433
 21
56.124616908930392
 31
0.0
  0
LINE
  5
461
  8
0
 10
40.461784130016433
 20
56.124616908930392
 30
0.0
 11
41.18487440779424
 21
56.226799448612923
 31
0.0
  0
LINE
  5
462
  8
0
 10
41.18487440779424
 20
56.226799448612923
 30
0.0
 11
41.741050003032342
 21
56.53334706766055
 31
0.0
  0
LINE
  5
463
  8
0
 10
41.741050003032342
 20
56.53334706766055
 30
0.0
 11
42.108485518905319
 21
57.025162543851017
 31
0.0
  0
LINE
  5
464
  8
0
 10
42.108485518905319
 20
57.025162543851017
 30
0.0
 11
42.265355558587913
 21
57.683148654962139
 31
0.0
  0
LINE
  5
465
  8
0
 10
42.265355558587913
 20
57.683148654962139
 30
0.0
 11
41.122498415730739
 21
57.683148654962139
 31
0.0
  0
LINE
  5
466
  8
0
 10
33.900771037963011
 20
58.457222843885347
 30
0.0
 11
35.078350403042407
 21
58.457222843885347
 31
0.0
  0
LINE
  5
467
  8
0
 10
35.078350403042407
 20
58.457222843885347
 30
0.0
 11
35.225175799867827
 21
58.965159351821839
 31
0.0
  0
LINE
  5
468
  8
0
 10
35.225175799867827
 20
58.965159351821839
 30
0.0
 11
36.428548815740811
 21
58.965159351821839
 31
0.0
  0
LINE
  5
469
  8
0
 10
36.428548815740811
 20
58.965159351821839
 30
0.0
 11
36.570413895105929
 21
58.457222843885347
 31
0.0
  0
LINE
  5
46A
  8
0
 10
36.570413895105929
 20
58.457222843885347
 30
0.0
 11
37.773786910978913
 21
58.457222843885347
 31
0.0
  0
LINE
  5
46B
  8
0
 10
37.773786910978913
 20
58.457222843885347
 30
0.0
 11
36.444421831613937
 21
62.26674665340915
 31
0.0
  0
LINE
  5
46C
  8
0
 10
36.444421831613937
 20
62.26674665340915
 30
0.0
 11
35.21525516494723
 21
62.26674665340915
 31
0.0
  0
LINE
  5
46D
  8
0
 10
35.21525516494723
 20
62.26674665340915
 30
0.0
 11
33.900771037963011
 21
58.457222843885347
 31
0.0
  0
LINE
  5
46E
  8
0
 10
35.445413895105929
 20
59.790556177218683
 30
0.0
 11
35.831326593518639
 21
61.094127605790099
 31
0.0
  0
LINE
  5
46F
  8
0
 10
35.831326593518639
 20
61.094127605790099
 30
0.0
 11
36.208310720502737
 21
59.790556177218683
 31
0.0
  0
LINE
  5
470
  8
0
 10
36.208310720502737
 20
59.790556177218683
 30
0.0
 11
35.445413895105929
 21
59.790556177218683
 31
0.0
  0
LINE
  5
471
  8
0
 10
30.140039847701651
 20
60.19761115306563
 30
0.0
 11
31.839444609606431
 21
60.19761115306563
 31
0.0
  0
LINE
  5
472
  8
0
 10
31.839444609606431
 20
60.19761115306563
 30
0.0
 11
32.607301752463513
 21
60.23630162925609
 31
0.0
  0
LINE
  5
473
  8
0
 10
32.607301752463513
 20
60.23630162925609
 30
0.0
 11
33.020000165161917
 21
60.368246073700533
 31
0.0
  0
LINE
  5
474
  8
0
 10
33.020000165161917
 20
60.368246073700533
 30
0.0
 11
33.428234292146129
 21
60.75118258163706
 31
0.0
  0
LINE
  5
475
  8
0
 10
33.428234292146129
 20
60.75118258163706
 30
0.0
 11
33.568611276273153
 21
61.338484168938621
 31
0.0
  0
LINE
  5
476
  8
0
 10
33.568611276273153
 20
61.338484168938621
 30
0.0
 11
33.424762069923929
 21
61.901480200684659
 31
0.0
  0
LINE
  5
477
  8
0
 10
33.424762069923929
 20
61.901480200684659
 30
0.0
 11
32.981309688971521
 21
62.226380994335457
 31
0.0
  0
LINE
  5
478
  8
0
 10
32.981309688971521
 20
62.226380994335457
 30
0.0
 11
33.326547784209652
 21
62.543841311795767
 31
0.0
  0
LINE
  5
479
  8
0
 10
33.326547784209652
 20
62.543841311795767
 30
0.0
 11
33.441627149288941
 21
62.996222264176737
 31
0.0
  0
LINE
  5
47A
  8
0
 10
33.441627149288941
 20
62.996222264176737
 30
0.0
 11
33.287857308019142
 21
63.556242105446557
 31
0.0
  0
LINE
  5
47B
  8
0
 10
33.287857308019142
 20
63.556242105446557
 30
0.0
 11
32.845396990558811
 21
63.896023851478297
 31
0.0
  0
LINE
  5
47C
  8
0
 10
32.845396990558811
 20
63.896023851478297
 30
0.0
 11
32.450059688971521
 21
63.981341311795781
 31
0.0
  0
LINE
  5
47D
  8
0
 10
32.450059688971521
 20
63.981341311795781
 30
0.0
 11
31.716428736590501
 21
64.007134962589433
 31
0.0
  0
LINE
  5
47E
  8
0
 10
31.716428736590501
 20
64.007134962589433
 30
0.0
 11
30.140039847701651
 21
64.007134962589433
 31
0.0
  0
LINE
  5
47F
  8
0
 10
30.140039847701651
 20
64.007134962589433
 30
0.0
 11
30.140039847701651
 21
60.19761115306563
 31
0.0
  0
LINE
  5
480
  8
0
 10
31.34638905405092
 20
61.086500041954508
 30
0.0
 11
31.34638905405092
 21
61.784912740367197
 31
0.0
  0
LINE
  5
481
  8
0
 10
31.34638905405092
 20
61.784912740367197
 30
0.0
 11
31.895000165161921
 21
61.784912740367197
 31
0.0
  0
LINE
  5
482
  8
0
 10
31.895000165161921
 20
61.784912740367197
 30
0.0
 11
32.304226355638242
 21
61.705547661002122
 31
0.0
  0
LINE
  5
483
  8
0
 10
32.304226355638242
 20
61.705547661002122
 30
0.0
 11
32.425754133415921
 21
61.438682581637032
 31
0.0
  0
LINE
  5
484
  8
0
 10
32.425754133415921
 20
61.438682581637032
 30
0.0
 11
32.306706514368329
 21
61.168841311795781
 31
0.0
  0
LINE
  5
485
  8
0
 10
32.306706514368329
 20
61.168841311795781
 30
0.0
 11
31.905912863574741
 21
61.086500041954508
 31
0.0
  0
LINE
  5
486
  8
0
 10
31.905912863574741
 20
61.086500041954508
 30
0.0
 11
31.34638905405092
 21
61.086500041954508
 31
0.0
  0
LINE
  5
487
  8
0
 10
31.34638905405092
 20
62.483325438779907
 30
0.0
 11
31.34638905405092
 21
63.118246073700547
 31
0.0
  0
LINE
  5
488
  8
0
 10
31.34638905405092
 20
63.118246073700547
 30
0.0
 11
31.680714450876248
 21
63.118246073700547
 31
0.0
  0
LINE
  5
489
  8
0
 10
31.680714450876248
 20
63.118246073700547
 30
0.0
 11
32.189146990558811
 21
63.050785756240217
 31
0.0
  0
LINE
  5
48A
  8
0
 10
32.189146990558811
 20
63.050785756240217
 30
0.0
 11
32.298770006431823
 21
62.800785756240209
 31
0.0
  0
LINE
  5
48B
  8
0
 10
32.298770006431823
 20
62.800785756240209
 30
0.0
 11
32.196587466749243
 21
62.55574607370054
 31
0.0
  0
LINE
  5
48C
  8
0
 10
32.196587466749243
 20
62.55574607370054
 30
0.0
 11
31.844404927066741
 21
62.483325438779907
 31
0.0
  0
LINE
  5
48D
  8
0
 10
31.844404927066741
 20
62.483325438779907
 30
0.0
 11
31.34638905405092
 21
62.483325438779907
 31
0.0
  0
ARC
  5
48E
  8
0
 10
35.999997641742418
 20
60.125004503760202
 30
0.0
 40
9.0000000000000178
 50
179.99999999999969
 51
359.99999999999881
  0
ARC
  5
48F
  8
0
 10
35.999997641742418
 20
60.125004503760202
 30
0.0
 40
9.0000000000000124
 50
359.99999999999949
 51
179.99999999999969
  0
LINE
  5
490
  8
0
 10
71.999997641742652
 20
78.375004503758234
 30
0.0
 11
72.24999764174251
 21
78.375004503758234
 31
0.0
  0
LINE
  5
491
  8
0
 10
72.24999764174251
 20
81.375004503758234
 30
0.0
 11
71.999997641742652
 21
81.375004503758234
 31
0.0
  0
LINE
  5
492
  8
0
 10
72.24999764174234
 20
81.375004503758149
 30
0.0
 11
72.24999764174234
 21
81.323897114060173
 31
0.0
  0
LINE
  5
493
  8
0
 10
72.24999764174234
 20
81.323893243191733
 30
0.0
 11
72.24999764174234
 21
81.174042609434778
 31
0.0
  0
LINE
  5
494
  8
0
 10
72.24999764174234
 20
81.174040896422866
 30
0.0
 11
72.24999764174234
 21
80.935666008312907
 31
0.0
  0
LINE
  5
495
  8
0
 10
72.24999764174234
 20
80.935664675537964
 30
0.0
 11
72.24999764174234
 21
80.263233912796267
 31
0.0
  0
LINE
  5
496
  8
0
 10
72.24999764174234
 20
80.263233071411932
 30
0.0
 11
72.24999764174234
 21
79.875004503758134
 31
0.0
  0
LINE
  5
497
  8
0
 10
72.24999764174234
 20
79.875004503758106
 30
0.0
 11
72.24999764174234
 21
79.486775936104323
 31
0.0
  0
LINE
  5
498
  8
0
 10
72.24999764174234
 20
79.486775094719235
 30
0.0
 11
72.24999764174234
 21
78.81434433197829
 31
0.0
  0
LINE
  5
499
  8
0
 10
72.24999764174234
 20
78.814342999202353
 30
0.0
 11
72.24999764174234
 21
78.575968111092806
 31
0.0
  0
LINE
  5
49A
  8
0
 10
72.24999764174234
 20
78.575966398081462
 30
0.0
 11
72.24999764174234
 21
78.426115764324535
 31
0.0
  0
LINE
  5
49B
  8
0
 10
72.24999764174234
 20
78.426111893454348
 30
0.0
 11
72.24999764174234
 21
78.375004503758149
 31
0.0
  0
LINE
  5
49C
  8
0
 10
71.99999764174251
 20
38.500004503757843
 30
0.0
 11
72.249997641742397
 21
38.500004503757843
 31
0.0
  0
LINE
  5
49D
  8
0
 10
72.249997641742397
 20
39.500004503757779
 30
0.0
 11
71.99999764174251
 21
39.500004503757779
 31
0.0
  0
LINE
  5
49E
  8
0
 10
71.999997641742652
 20
25.12500450375774
 30
0.0
 11
72.24999764174251
 21
25.12500450375774
 31
0.0
  0
LINE
  5
49F
  8
0
 10
72.24999764174251
 20
27.1250045037578
 30
0.0
 11
71.999997641742652
 21
27.1250045037578
 31
0.0
  0
LINE
  5
4A0
  8
0
 10
71.999997641742652
 20
7.375004503757677
 30
0.0
 11
72.24999764174251
 21
7.375004503757677
 31
0.0
  0
LINE
  5
4A1
  8
0
 10
72.24999764174251
 20
9.3750045037577312
 30
0.0
 11
71.999997641742652
 21
9.3750045037577312
 31
0.0
  0
LINE
  5
4A2
  8
0
 10
72.249997641742397
 20
39.500004503757729
 30
0.0
 11
72.249997641742397
 21
39.482968707191858
 31
0.0
  0
LINE
  5
4A3
  8
0
 10
72.249997641742397
 20
39.482967416902262
 30
0.0
 11
72.249997641742397
 21
39.433017546916489
 31
0.0
  0
LINE
  5
4A4
  8
0
 10
72.249997641742397
 20
39.433017205649961
 30
0.0
 11
72.249997641742397
 21
39.353558338609659
 31
0.0
  0
LINE
  5
4A5
  8
0
 10
72.249997641742397
 20
39.353557894351013
 30
0.0
 11
72.249997641742397
 21
39.250004503757729
 31
0.0
  0
LINE
  5
4A6
  8
0
 10
72.249997641742397
 20
39.2500036072448
 30
0.0
 11
72.249997641742397
 21
39.129414306770492
 31
0.0
  0
LINE
  5
4A7
  8
0
 10
72.249997641742397
 20
39.129414026309
 30
0.0
 11
72.249997641742397
 21
39.000004503757737
 31
0.0
  0
LINE
  5
4A8
  8
0
 10
72.249997641742397
 20
39.000004503757722
 30
0.0
 11
72.249997641742397
 21
38.870594981206459
 31
0.0
  0
LINE
  5
4A9
  8
0
 10
72.249997641742397
 20
38.870594700744967
 30
0.0
 11
72.249997641742397
 21
38.750005400270659
 31
0.0
  0
LINE
  5
4AA
  8
0
 10
72.249997641742397
 20
38.750004503757737
 30
0.0
 11
72.249997641742397
 21
38.646451113164453
 31
0.0
  0
LINE
  5
4AB
  8
0
 10
72.249997641742397
 20
38.646450668905807
 30
0.0
 11
72.249997641742397
 21
38.566991801865512
 31
0.0
  0
LINE
  5
4AC
  8
0
 10
72.249997641742397
 20
38.56699146059897
 30
0.0
 11
72.249997641742397
 21
38.517041590613204
 31
0.0
  0
LINE
  5
4AD
  8
0
 10
72.249997641742397
 20
38.517040300323622
 30
0.0
 11
72.249997641742397
 21
38.500004503757737
 31
0.0
  0
LINE
  5
4AE
  8
0
 10
72.24999764174234
 20
27.125004503757729
 30
0.0
 11
72.24999764174234
 21
27.090931014228559
 31
0.0
  0
LINE
  5
4AF
  8
0
 10
72.24999764174234
 20
27.090930330046799
 30
0.0
 11
72.24999764174234
 21
26.99102990754216
 31
0.0
  0
LINE
  5
4B0
  8
0
 10
72.24999764174234
 20
26.991029551068561
 30
0.0
 11
72.24999764174234
 21
26.832111284944268
 31
0.0
  0
LINE
  5
4B1
  8
0
 10
72.24999764174234
 20
26.832111114296492
 30
0.0
 11
72.24999764174234
 21
26.38382354886026
 31
0.0
  0
LINE
  5
4B2
  8
0
 10
72.24999764174234
 20
26.383823139771209
 30
0.0
 11
72.24999764174234
 21
26.12500450375774
 31
0.0
  0
LINE
  5
4B3
  8
0
 10
72.24999764174234
 20
26.125003539101641
 30
0.0
 11
72.24999764174234
 21
25.866186799530571
 31
0.0
  0
LINE
  5
4B4
  8
0
 10
72.24999764174234
 20
25.86618545865521
 30
0.0
 11
72.24999764174234
 21
25.6250054002704
 31
0.0
  0
LINE
  5
4B5
  8
0
 10
72.24999764174234
 20
25.625004503757729
 30
0.0
 11
72.24999764174234
 21
25.417898745651069
 31
0.0
  0
LINE
  5
4B6
  8
0
 10
72.24999764174234
 20
25.41789772257118
 30
0.0
 11
72.24999764174234
 21
25.258980241980971
 31
0.0
  0
LINE
  5
4B7
  8
0
 10
72.24999764174234
 20
25.258979099973288
 30
0.0
 11
72.24999764174234
 21
25.159079090948161
 31
0.0
  0
LINE
  5
4B8
  8
0
 10
72.24999764174234
 20
25.159078677468671
 30
0.0
 11
72.24999764174234
 21
25.125004503757729
 31
0.0
  0
LINE
  5
4B9
  8
0
 10
72.249997641742226
 20
9.3750045037577348
 30
0.0
 11
72.249997641742226
 21
9.3409305401211071
 31
0.0
  0
LINE
  5
4BA
  8
0
 10
72.249997641742226
 20
9.3409303300468043
 30
0.0
 11
72.249997641742226
 21
9.2410299652755654
 31
0.0
  0
LINE
  5
4BB
  8
0
 10
72.249997641742226
 20
9.2410299075421758
 30
0.0
 11
72.249997641742226
 21
9.0821116180067172
 31
0.0
  0
LINE
  5
4BC
  8
0
 10
72.249997641742226
 20
9.0821112849442844
 30
0.0
 11
72.249997641742226
 21
8.8750045037577419
 31
0.0
  0
LINE
  5
4BD
  8
0
 10
72.249997641742226
 20
8.8750042796296231
 30
0.0
 11
72.249997641742226
 21
8.6338236098184815
 31
0.0
  0
LINE
  5
4BE
  8
0
 10
72.249997641742226
 20
8.6338235488602617
 30
0.0
 11
72.249997641742226
 21
8.3750047449217302
 31
0.0
  0
LINE
  5
4BF
  8
0
 10
72.249997641742226
 20
8.3750045037577276
 30
0.0
 11
72.249997641742226
 21
7.6678978932189752
 31
0.0
  0
LINE
  5
4C0
  8
0
 10
72.249997641742226
 20
7.6678977225711833
 30
0.0
 11
72.249997641742226
 21
7.5089790999732937
 31
0.0
  0
LINE
  5
4C1
  8
0
 10
72.249997641742226
 20
7.5089787298400781
 30
0.0
 11
72.249997641742226
 21
7.4090786774686643
 31
0.0
  0
LINE
  5
4C2
  8
0
 10
72.249997641742226
 20
7.4090779932866191
 30
0.0
 11
72.249997641742226
 21
7.375004503757733
 31
0.0
  0
LINE
  5
4C3
  8
0
 10
71.999997641742652
 20
11.375004503758131
 30
0.0
 11
72.24999764174251
 21
11.375004503758131
 31
0.0
  0
LINE
  5
4C4
  8
0
 10
72.24999764174251
 20
14.37500450375831
 30
0.0
 11
71.999997641742652
 21
14.37500450375831
 31
0.0
  0
LINE
  5
4C5
  8
0
 10
72.249997641742226
 20
14.375004503758159
 30
0.0
 11
72.249997641742226
 21
14.323893321247841
 31
0.0
  0
LINE
  5
4C6
  8
0
 10
72.249997641742226
 20
14.32389324319176
 30
0.0
 11
72.249997641742226
 21
14.17404300843422
 31
0.0
  0
LINE
  5
4C7
  8
0
 10
72.249997641742226
 20
14.174042609434821
 30
0.0
 11
72.249997641742226
 21
13.93566545285864
 31
0.0
  0
LINE
  5
4C8
  8
0
 10
72.249997641742226
 20
13.935664675537989
 30
0.0
 11
72.249997641742226
 21
13.625004503758159
 31
0.0
  0
LINE
  5
4C9
  8
0
 10
72.249997641742226
 20
13.625004055501391
 30
0.0
 11
72.249997641742226
 21
13.26323341283139
 31
0.0
  0
LINE
  5
4CA
  8
0
 10
72.249997641742226
 20
13.26323307141195
 30
0.0
 11
72.249997641742226
 21
12.87500450375817
 31
0.0
  0
LINE
  5
4CB
  8
0
 10
72.249997641742226
 20
12.87500402142973
 30
0.0
 11
72.249997641742226
 21
12.12500450375815
 31
0.0
  0
LINE
  5
4CC
  8
0
 10
72.249997641742226
 20
12.125003981752339
 30
0.0
 11
72.249997641742226
 21
11.814344331978329
 31
0.0
  0
LINE
  5
4CD
  8
0
 10
72.249997641742226
 20
11.814344110111589
 30
0.0
 11
72.249997641742226
 21
11.42611576432456
 31
0.0
  0
LINE
  5
4CE
  8
0
 10
72.249997641742226
 20
11.426115212157679
 30
0.0
 11
72.249997641742226
 21
11.37500450375815
 31
0.0
  0
LINE
  5
4CF
  8
0
 10
124.8203710302178
 20
206.7725450539109
 30
0.0
 11
124.8203710302178
 21
134.77254505391619
 31
0.0
  0
LINE
  5
4D0
  8
0
 10
124.8203710302178
 20
134.77254505391619
 30
0.0
 11
165.570371030215
 21
134.77254505391619
 31
0.0
  0
LINE
  5
4D1
  8
0
 10
165.570371030215
 20
134.77254505391619
 30
0.0
 11
165.57037103021511
 21
206.77254505391079
 31
0.0
  0
LINE
  5
4D2
  8
0
 10
165.57037103021511
 20
206.77254505391079
 30
0.0
 11
124.8203710302178
 21
206.7725450539109
 31
0.0
  0
LINE
  5
4D3
  8
0
 10
163.94537103021801
 20
205.14754505391099
 30
0.0
 11
163.94537103021781
 21
136.39754505391099
 31
0.0
1001
ACAD
1000
ASC_BOUNDS
1002
{
1070
    19
1005
532
1002
}
  0
LINE
  5
4D4
  8
0
 10
163.94537103021781
 20
136.39754505391099
 30
0.0
 11
126.4453710302179
 21
136.3975450539111
 31
0.0
1001
ACAD
1000
ASC_BOUNDS
1002
{
1070
    19
1005
532
1002
}
  0
LINE
  5
4D5
  8
0
 10
126.4453710302179
 20
136.3975450539111
 30
0.0
 11
126.445371030218
 21
205.1475450539111
 31
0.0
1001
ACAD
1000
ASC_BOUNDS
1002
{
1070
    19
1005
532
1002
}
  0
LINE
  5
4D6
  8
0
 10
126.445371030218
 20
205.1475450539111
 30
0.0
 11
163.94537103021801
 21
205.14754505391099
 31
0.0
1001
ACAD
1000
ASC_BOUNDS
1002
{
1070
    19
1005
532
1002
}
  0
LINE
  5
4D7
  8
0
 10
165.57037103021489
 20
134.77254505391099
 30
0.0
 11
172.32037103021841
 21
134.77254505391099
 31
0.0
  0
LINE
  5
4D8
  8
0
 10
172.32037103021841
 20
134.77254505391099
 30
0.0
 11
172.3203710302185
 21
206.77254505391099
 31
0.0
  0
LINE
  5
4D9
  8
0
 10
172.3203710302185
 20
206.77254505391099
 30
0.0
 11
165.57037103021511
 21
206.77254505391099
 31
0.0
  0
LINE
  5
4DA
  8
0
 10
146.69537103021821
 20
134.5225450539107
 30
0.0
 11
146.69537103021821
 21
134.77254505391059
 31
0.0
  0
LINE
  5
4DB
  8
0
 10
143.69537103021821
 20
134.77254505391059
 30
0.0
 11
143.69537103021821
 21
134.5225450539107
 31
0.0
  0
LINE
  5
4DC
  8
0
 10
146.69537103021801
 20
134.5225450539107
 30
0.0
 11
146.64425984771799
 21
134.5225450539107
 31
0.0
  0
LINE
  5
4DD
  8
0
 10
146.6442597696516
 20
134.5225450539107
 30
0.0
 11
146.49440953490091
 21
134.5225450539107
 31
0.0
  0
LINE
  5
4DE
  8
0
 10
146.4944091358947
 20
134.5225450539107
 30
0.0
 11
146.2560319793244
 21
134.5225450539107
 31
0.0
  0
LINE
  5
4DF
  8
0
 10
146.2560312019979
 20
134.5225450539107
 30
0.0
 11
145.5835999392967
 21
134.5225450539107
 31
0.0
  0
LINE
  5
4E0
  8
0
 10
145.5835995978718
 20
134.5225450539107
 30
0.0
 11
145.1953710302181
 21
134.5225450539107
 31
0.0
  0
LINE
  5
4E1
  8
0
 10
145.1953705478949
 20
134.5225450539107
 30
0.0
 11
144.80714261030931
 21
134.5225450539107
 31
0.0
  0
LINE
  5
4E2
  8
0
 10
144.80714246256429
 20
134.5225450539107
 30
0.0
 11
144.4453710302181
 21
134.5225450539107
 31
0.0
  0
LINE
  5
4E3
  8
0
 10
144.44537050821791
 20
134.5225450539107
 30
0.0
 11
144.13471085843821
 21
134.5225450539107
 31
0.0
  0
LINE
  5
4E4
  8
0
 10
144.13471063657741
 20
134.5225450539107
 30
0.0
 11
143.74648258758481
 21
134.5225450539107
 31
0.0
  0
LINE
  5
4E5
  8
0
 10
143.74648229078451
 20
134.5225450539107
 30
0.0
 11
143.69537103021801
 21
134.5225450539107
 31
0.0
  0
LINE
  5
4E6
  8
0
 10
155.32037103021801
 20
134.5225450539107
 30
0.0
 11
155.32037103021801
 21
134.77254505391039
 31
0.0
  0
LINE
  5
4E7
  8
0
 10
154.3203710302181
 20
134.77254505391039
 30
0.0
 11
154.3203710302181
 21
134.5225450539107
 31
0.0
  0
LINE
  5
4E8
  8
0
 10
143.0703710302181
 20
134.5225450539107
 30
0.0
 11
143.0703710302181
 21
134.77254505391059
 31
0.0
  0
LINE
  5
4E9
  8
0
 10
141.07037103021801
 20
134.77254505391059
 30
0.0
 11
141.07037103021801
 21
134.5225450539107
 31
0.0
  0
LINE
  5
4EA
  8
0
 10
126.070371030218
 20
134.77254505391059
 30
0.0
 11
126.070371030218
 21
134.5225450539107
 31
0.0
  0
LINE
  5
4EB
  8
0
 10
155.32037103021801
 20
134.5225450539107
 30
0.0
 11
155.3033339433625
 21
134.5225450539107
 31
0.0
  0
LINE
  5
4EC
  8
0
 10
155.30333389833689
 20
134.5225450539107
 30
0.0
 11
155.2533840733829
 21
134.5225450539107
 31
0.0
  0
LINE
  5
4ED
  8
0
 10
155.25338373211019
 20
134.5225450539107
 30
0.0
 11
155.1739244208112
 21
134.5225450539107
 31
0.0
  0
LINE
  5
4EE
  8
0
 10
155.17392412238371
 20
134.5225450539107
 30
0.0
 11
155.07037103021801
 21
134.5225450539107
 31
0.0
  0
LINE
  5
4EF
  8
0
 10
155.0703708060943
 20
134.5225450539107
 30
0.0
 11
154.94978083323579
 21
134.5225450539107
 31
0.0
  0
LINE
  5
4F0
  8
0
 10
154.9497805527692
 20
134.5225450539107
 30
0.0
 11
154.69096150766671
 21
134.5225450539107
 31
0.0
  0
LINE
  5
4F1
  8
0
 10
154.69096122721021
 20
134.5225450539107
 30
0.0
 11
154.57037103021801
 21
134.5225450539107
 31
0.0
  0
LINE
  5
4F2
  8
0
 10
154.57037050821791
 20
134.5225450539107
 30
0.0
 11
154.46681763962471
 21
134.5225450539107
 31
0.0
  0
LINE
  5
4F3
  8
0
 10
154.4668171953717
 20
134.5225450539107
 30
0.0
 11
154.38735832832569
 21
134.5225450539107
 31
0.0
  0
LINE
  5
4F4
  8
0
 10
154.3873579870656
 20
134.5225450539107
 30
0.0
 11
154.33740811707341
 21
134.5225450539107
 31
0.0
  0
LINE
  5
4F5
  8
0
 10
154.337406826793
 20
134.5225450539107
 30
0.0
 11
154.32037103021801
 21
134.5225450539107
 31
0.0
  0
LINE
  5
4F6
  8
0
 10
143.07037103021801
 20
134.5225450539107
 30
0.0
 11
142.93639711654171
 21
134.5225450539107
 31
0.0
  0
LINE
  5
4F7
  8
0
 10
142.9363964340024
 20
134.5225450539107
 30
0.0
 11
142.7774786999272
 21
134.5225450539107
 31
0.0
  0
LINE
  5
4F8
  8
0
 10
142.77747781140451
 20
134.5225450539107
 30
0.0
 11
142.5703720742338
 21
134.5225450539107
 31
0.0
  0
LINE
  5
4F9
  8
0
 10
142.57037103021801
 20
134.5225450539107
 30
0.0
 11
142.3291906362486
 21
134.5225450539107
 31
0.0
  0
LINE
  5
4FA
  8
0
 10
142.3291900753205
 20
134.5225450539107
 30
0.0
 11
141.8115519851155
 21
134.5225450539107
 31
0.0
  0
LINE
  5
4FB
  8
0
 10
141.8115514241974
 20
134.5225450539107
 30
0.0
 11
141.57037103021801
 21
134.5225450539107
 31
0.0
  0
LINE
  5
4FC
  8
0
 10
141.5703699862126
 20
134.5225450539107
 30
0.0
 11
141.3632642490314
 21
134.5225450539107
 31
0.0
  0
LINE
  5
4FD
  8
0
 10
141.36326336051999
 20
134.5225450539107
 30
0.0
 11
141.20434562643351
 21
134.5225450539107
 31
0.0
  0
LINE
  5
4FE
  8
0
 10
141.2043449439069
 20
134.5225450539107
 30
0.0
 11
141.10444520392889
 21
134.5225450539107
 31
0.0
  0
LINE
  5
4FF
  8
0
 10
141.10444262335889
 20
134.5225450539107
 30
0.0
 11
141.07037103021801
 21
134.5225450539107
 31
0.0
  0
LINE
  5
500
  8
0
 10
127.4486279553163
 20
134.52254505391079
 30
0.0
 11
127.3291906362487
 21
134.52254505391079
 31
0.0
  0
LINE
  5
501
  8
0
 10
127.3291900753204
 20
134.52254505391079
 30
0.0
 11
126.8115519851154
 21
134.52254505391079
 31
0.0
  0
LINE
  5
502
  8
0
 10
126.8115514241973
 20
134.52254505391079
 30
0.0
 11
126.5703710302179
 21
134.52254505391079
 31
0.0
  0
LINE
  5
503
  8
0
 10
126.5703699862127
 20
134.52254505391079
 30
0.0
 11
126.3632642490314
 21
134.52254505391079
 31
0.0
  0
LINE
  5
504
  8
0
 10
126.36326336052009
 20
134.52254505391079
 30
0.0
 11
126.20434562643349
 21
134.52254505391079
 31
0.0
  0
LINE
  5
505
  8
0
 10
126.2043449439068
 20
134.52254505391079
 30
0.0
 11
126.1044452039288
 21
134.52254505391079
 31
0.0
  0
LINE
  5
506
  8
0
 10
126.10444262335911
 20
134.52254505391079
 30
0.0
 11
126.0703710302179
 21
134.52254505391079
 31
0.0
  0
LINE
  5
507
  8
0
 10
130.4453710302183
 20
134.5225450539107
 30
0.0
 11
130.4453710302183
 21
134.77254505391059
 31
0.0
  0
LINE
  5
508
  8
0
 10
127.4453710302183
 20
134.77254505391059
 30
0.0
 11
127.4453710302183
 21
134.5225450539107
 31
0.0
  0
LINE
  5
509
  8
0
 10
130.44537103021821
 20
134.52254505391079
 30
0.0
 11
130.3942597696518
 21
134.52254505391079
 31
0.0
  0
LINE
  5
50A
  8
0
 10
130.3942591494357
 20
134.52254505391079
 30
0.0
 11
130.24441015970029
 21
134.52254505391079
 31
0.0
  0
LINE
  5
50B
  8
0
 10
130.2444091358949
 20
134.52254505391079
 30
0.0
 11
130.0060325347788
 21
134.52254505391079
 31
0.0
  0
LINE
  5
50C
  8
0
 10
130.00603120199801
 20
134.52254505391079
 30
0.0
 11
129.3336004392616
 21
134.52254505391079
 31
0.0
  0
LINE
  5
50D
  8
0
 10
129.333599597872
 20
134.52254505391079
 30
0.0
 11
128.5571424625644
 21
134.52254505391079
 31
0.0
  0
LINE
  5
50E
  8
0
 10
128.5571416211846
 20
134.52254505391079
 30
0.0
 11
127.8847108584384
 21
134.52254505391079
 31
0.0
  0
LINE
  5
50F
  8
0
 10
127.8847095256681
 20
134.52254505391079
 30
0.0
 11
127.6463329245415
 21
134.52254505391079
 31
0.0
  0
LINE
  5
510
  8
0
 10
127.64633190074809
 20
134.52254505391079
 30
0.0
 11
127.49648291100689
 21
134.52254505391079
 31
0.0
  0
LINE
  5
511
  8
0
 10
127.4964822907846
 20
134.52254505391079
 30
0.0
 11
127.4453710302182
 21
134.52254505391079
 31
0.0
  0
INSERT
  5
528
  8
0
  6
CONTINUOUS
  2
*X3
 10
0.0
 20
0.0
 30
0.0
1001
GRADIENTCOLOR1ACI
1070
     5
1001
GRADIENTCOLOR2ACI
1070
     2
1001
ACAD
1000
HATCH
1002
{
1070
    19
1000
NET
1040
12.0
1040
0.0
1000
ASC_BOUNDS
1070
     3
1070
     1
1070
     4
1005
3B3
1005
3B4
1005
3AB
1005
3B2
1070
     1
1070
     4
1005
3A9
1005
3B4
1005
3A7
1005
3B2
1070
     1
1070
     4
1005
3A4
1005
3B4
1005
3B1
1005
3B2
1000
ASC_SEEDPOINT
1011
225.88721873588341
1021
0.0
1031
0.0
1021
28.378582909713661
1031
0.0
1000
R14_HATCH_DATA
1000
528
1011
1.0
1021
0.0
1031
0.0
1021
0.0
1031
0.0
1011
0.0
1021
0.0
1031
0.0
1021
1.0
1031
0.0
1011
0.0
1021
0.0
1031
0.0
1021
0.0
1031
1.0
1040
0.0
1010
0.0
1020
0.0
1030
1.0
1000
NET
1070
     0
1070
     1
1071
        3
1071
        7
1070
     0
1070
     1
1071
        4
1040
228.5631468056601
1040
42.500004503757573
1040
221.18814680566061
1040
42.500004503757502
1040
221.18814680566089
1040
4.0000045037569576
1040
228.5631468056601
1040
4.0000045037570402
1071
        4
1005
3B2
1005
3B1
1005
3B4
1005
3A4
1071
        7
1070
     0
1070
     1
1071
        4
1040
264.57214646033231
1040
42.50000450375795
1040
246.56314680566081
1040
42.500004503757751
1040
246.56314680566081
1040
4.0000045037572169
1040
264.57214646033231
1040
4.0000045037574088
1071
        4
1005
3B2
1005
3A7
1005
3B4
1005
3A9
1071
        7
1070
     0
1070
     1
1071
        4
1040
289.93814680566049
1040
42.500004503758213
1040
282.55516212242998
1040
42.500004503758127
1040
282.55516212242998
1040
4.0000045037575873
1040
289.93814680566078
1040
4.000004503757661
1071
        4
1005
3B2
1005
3AB
1005
3B4
1005
3B3
1070
     1
1070
     1
1040
0.0
1040
12.0
1070
     0
1070
     2
1040
0.0
1040
0.0
1040
0.0
1040
0.0
1040
1.5
1070
     0
1040
1.5707963267948959
1040
0.0
1040
0.0
1040
-1.5
1040
0.0000000000000001
1070
     0
1040
0.0910094266476459
1071
        3
1040
225.88721873588341
1040
28.378582909713661
1040
0.0
1040
254.29586353755349
1040
31.472903629573519
1040
0.0
1040
285.34505573817358
1040
18.003508267583701
1040
0.0
1002
}
  0
INSERT
  5
532
  8
0
  6
CONTINUOUS
  2
*X4
 10
0.0
 20
0.0
 30
0.0
1001
GRADIENTCOLOR1ACI
1070
     5
1001
GRADIENTCOLOR2ACI
1070
     2
1001
ACAD
1000
HATCH
1002
{
1070
    19
1000
ANSI31
1040
12.0
1040
2.3561944901923439
1000
ASC_BOUNDS
1070
     1
1070
     1
1070
     4
1005
4D3
1005
4D4
1005
4D5
1005
4D6
1000
ASC_SEEDPOINT
1011
144.34274088542881
1021
0.0
1031
0.0
1021
179.64862284972671
1031
0.0
1000
R14_HATCH_DATA
1000
532
1011
1.0
1021
0.0
1031
0.0
1021
0.0
1031
0.0
1011
0.0
1021
0.0
1031
0.0
1021
1.0
1031
0.0
1011
0.0
1021
0.0
1031
0.0
1021
0.0
1031
1.0
1040
0.0
1010
0.0
1020
0.0
1030
1.0
1000
ANSI31
1070
     0
1070
     1
1071
        1
1071
        7
1070
     0
1070
     1
1071
        4
1040
163.94537103021801
1040
205.14754505391099
1040
126.445371030218
1040
205.1475450539111
1040
126.4453710302179
1040
136.3975450539111
1040
163.94537103021781
1040
136.39754505391099
1071
        4
1005
4D6
1005
4D5
1005
4D4
1005
4D3
1070
     1
1070
     1
1040
2.3561944901923439
1040
12.0
1070
     0
1070
     1
1040
3.1415926535897931
1040
0.0
1040
0.0
1040
-0.0000000000000002
1040
-1.5
1070
     0
1040
0.3690981978947327
1071
        1
1040
144.34274088542881
1040
179.64862284972671
1040
0.0
1002
}
  0
ENDSEC
  0
EOF
