  0
SECTION
  2
HEADER
  9
$ACADVER
  1
AC1009
  9
$INSBASE
 10
0.0
 20
0.0
 30
0.0
  9
$EXTMIN
 10
-0.0159789100282524
 20
-0.0104744821015857
 30
-0.0015258207003583
  9
$EXTMAX
 10
523.64328210670851
 20
343.26449338897669
 30
0.0000000349246037
  9
$LIMMIN
 10
0.0
 20
0.0
  9
$LIMMAX
 10
12.0
 20
9.0
  9
$ORTHOMODE
 70
     0
  9
$REGENMODE
 70
     1
  9
$FILLMODE
 70
     1
  9
$QTEXTMODE
 70
     0
  9
$MIRRTEXT
 70
     0
  9
$DRAGMODE
 70
     2
  9
$LTSCALE
 40
1.0
  9
$OSMODE
 70
    37
  9
$ATTMODE
 70
     1
  9
$TEXTSIZE
 40
0.2
  9
$TRACEWID
 40
0.05
  9
$TEXTSTYLE
  7
ROMANS
  9
$CLAYER
  8
0
  9
$CELTYPE
  6
BYLAYER
  9
$CECOLOR
 62
   256
  9
$DIMSCALE
 40
1.0
  9
$DIMASZ
 40
0.09375
  9
$DIMEXO
 40
0.0625
  9
$DIMDLI
 40
0.375
  9
$DIMRND
 40
0.0
  9
$DIMDLE
 40
0.0
  9
$DIMEXE
 40
0.03125
  9
$DIMTP
 40
0.0
  9
$DIMTM
 40
0.0
  9
$DIMTXT
 40
0.09375
  9
$DIMCEN
 40
0.09375
  9
$DIMTSZ
 40
0.0
  9
$DIMTOL
 70
     0
  9
$DIMLIM
 70
     0
  9
$DIMTIH
 70
     0
  9
$DIMTOH
 70
     0
  9
$DIMSE1
 70
     0
  9
$DIMSE2
 70
     0
  9
$DIMTAD
 70
     0
  9
$DIMZIN
 70
     0
  9
$DIMBLK
  1

  9
$DIMASO
 70
     1
  9
$DIMSHO
 70
     1
  9
$DIMPOST
  1

  9
$DIMAPOST
  1

  9
$DIMALT
 70
     0
  9
$DIMALTD
 70
     2
  9
$DIMALTF
 40
25.399999999999999
  9
$DIMLFAC
 40
1.0
  9
$DIMTOFL
 70
     0
  9
$DIMTVP
 40
0.0
  9
$DIMTIX
 70
     0
  9
$DIMSOXD
 70
     0
  9
$DIMSAH
 70
     0
  9
$DIMBLK1
  1

  9
$DIMBLK2
  1

  9
$DIMSTYLE
  2
BAC
  9
$DIMCLRD
 70
     0
  9
$DIMCLRE
 70
     6
  9
$DIMCLRT
 70
     0
  9
$DIMTFAC
 40
1.0
  9
$DIMGAP
 40
0.0625
  9
$LUNITS
 70
     5
  9
$LUPREC
 70
     6
  9
$SKETCHINC
 40
0.1
  9
$FILLETRAD
 40
0.5
  9
$AUNITS
 70
     0
  9
$AUPREC
 70
     0
  9
$MENU
  1
.
  9
$ELEVATION
 40
0.0
  9
$PELEVATION
 40
0.0
  9
$THICKNESS
 40
0.0
  9
$LIMCHECK
 70
     0
  9
$BLIPMODE
 70
     0
  9
$CHAMFERA
 40
0.5
  9
$CHAMFERB
 40
0.5
  9
$SKPOLY
 70
     0
  9
$TDCREATE
 40
2456834.6121795261
  9
$TDUPDATE
 40
2456834.6130454978
  9
$TDINDWG
 40
0.0008699306
  9
$TDUSRTIMER
 40
0.0008693519
  9
$USRTIMER
 70
     1
  9
$ANGBASE
 50
0.0
  9
$ANGDIR
 70
     0
  9
$PDMODE
 70
     0
  9
$PDSIZE
 40
0.0
  9
$PLINEWID
 40
0.0
  9
$COORDS
 70
     1
  9
$SPLFRAME
 70
     0
  9
$SPLINETYPE
 70
     6
  9
$SPLINESEGS
 70
     8
  9
$ATTDIA
 70
     0
  9
$ATTREQ
 70
     1
  9
$HANDLING
 70
     1
  9
$HANDSEED
  5
651
  9
$SURFTAB1
 70
     6
  9
$SURFTAB2
 70
     6
  9
$SURFTYPE
 70
     6
  9
$SURFU
 70
     6
  9
$SURFV
 70
     6
  9
$UCSNAME
  2

  9
$UCSORG
 10
0.0
 20
0.0
 30
0.0
  9
$UCSXDIR
 10
1.0
 20
0.0
 30
0.0
  9
$UCSYDIR
 10
0.0
 20
1.0
 30
0.0
  9
$PUCSNAME
  2

  9
$PUCSORG
 10
0.0
 20
0.0
 30
0.0
  9
$PUCSXDIR
 10
1.0
 20
0.0
 30
0.0
  9
$PUCSYDIR
 10
0.0
 20
1.0
 30
0.0
  9
$USERI1
 70
     0
  9
$USERI2
 70
     0
  9
$USERI3
 70
     0
  9
$USERI4
 70
     0
  9
$USERI5
 70
     0
  9
$USERR1
 40
0.0
  9
$USERR2
 40
0.0
  9
$USERR3
 40
0.0
  9
$USERR4
 40
0.0
  9
$USERR5
 40
0.0
  9
$WORLDVIEW
 70
     1
  9
$SHADEDGE
 70
     3
  9
$SHADEDIF
 70
    70
  9
$TILEMODE
 70
     1
  9
$MAXACTVP
 70
    48
  9
$PLIMCHECK
 70
     0
  9
$PEXTMIN
 10
1.0000000000000000E+020
 20
1.0000000000000000E+020
 30
1.0000000000000000E+020
  9
$PEXTMAX
 10
-1.0000000000000000E+020
 20
-1.0000000000000000E+020
 30
-1.0000000000000000E+020
  9
$PLIMMIN
 10
0.0
 20
0.0
  9
$PLIMMAX
 10
12.0
 20
9.0
  9
$UNITMODE
 70
     0
  9
$VISRETAIN
 70
     1
  9
$PLINEGEN
 70
     0
  9
$PSLTSCALE
 70
     1
  0
ENDSEC
  0
SECTION
  2
TABLES
  0
TABLE
  2
VPORT
 70
     1
  0
VPORT
  2
*ACTIVE
 70
     0
 10
0.0
 20
0.0
 11
1.0
 21
1.0
 12
261.81365159834007
 22
171.62700945343749
 13
0.0
 23
0.0
 14
0.5
 24
0.5
 15
0.5
 25
0.5
 16
0.0
 26
0.0
 36
1.0
 17
0.0
 27
0.0
 37
0.0
 40
345.55839337798119
 41
1.7702552719200879
 42
50.0
 43
0.0
 44
0.0
 50
0.0
 51
0.0
 71
     0
 72
   100
 73
     1
 74
     1
 75
     0
 76
     0
 77
     0
 78
     0
  0
ENDTAB
  0
TABLE
  2
LTYPE
 70
    19
  0
LTYPE
  2
CONTINUOUS
 70
     0
  3
Solid line
 72
    65
 73
     0
 40
0.0
  0
LTYPE
  2
CENTER
 70
     0
  3
Center ____ _ ____ _ ____ _ ____ _ ____ _ ____
 72
    65
 73
     4
 40
2.0
 49
1.25
 49
-0.25
 49
0.25
 49
-0.25
  0
LTYPE
  2
CENTER2
 70
     0
  3
Center (.5x) ___ _ ___ _ ___ _ ___ _ ___ _ ___
 72
    65
 73
     4
 40
1.125
 49
0.75
 49
-0.125
 49
0.125
 49
-0.125
  0
LTYPE
  2
HIDDEN
 70
     0
  3
Hidden __ __ __ __ __ __ __ __ __ __ __ __ __ _
 72
    65
 73
     2
 40
0.375
 49
0.25
 49
-0.125
  0
LTYPE
  2
HIDDEN2
 70
     0
  3
Hidden (.5x) _ _ _ _ _ _ _ _ _ _ _ _ _ _ _ _ _
 72
    65
 73
     2
 40
0.1875
 49
0.125
 49
-0.0625
  0
LTYPE
  2
PHANTOM2
 70
     0
  3
Phantom (.5x) ___ _ _ ___ _ _ ___ _ _ ___ _ _
 72
    65
 73
     6
 40
1.25
 49
0.625
 49
-0.125
 49
0.125
 49
-0.125
 49
0.125
 49
-0.125
  0
LTYPE
  2
AMCONSTR
 70
     0
  3
_______________________
 72
    65
 73
     2
 40
9999.0
 49
9999.0
 49
0.0
  0
LTYPE
  2
AMZIGZAG2
 70
     0
  3
/\/-/\/-/\/-/\/-/\/-/\/
 72
    65
 73
     2
 40
0.4401
 49
0.0001
 49
-0.4400000000000001
  0
LTYPE
  2
ACANSTGB
 70
     0
  3
__ . . __ . .
 72
    65
 73
     6
 40
0.35433070866
 49
0.15748031496
 49
-0.03937007874
 49
0.03937007874
 49
-0.03937007874
 49
0.03937007874
 49
-0.03937007874
  0
LTYPE
  2
ACANSTGL
 70
     0
  3
_ _ _ _ _
 72
    65
 73
     2
 40
0.11811023622
 49
0.07874015748
 49
-0.03937007874
  0
ENDTAB
  0
TABLE
  2
LAYER
 70
     8
  0
LAYER
  2
0
 70
     0
 62
     7
  6
CONTINUOUS
  0
ENDTAB
  0
TABLE
  2
STYLE
 70
    11
  0
STYLE
  2
STANDARD
 70
     0
 40
0.0
 41
1.0
 50
0.0
 71
     0
 42
0.2
  3
txt
  4

  0
STYLE
  2
ROMANS
 70
     0
 40
0.0
 41
0.75
 50
0.0
 71
     0
 42
0.2
  3
romans.shx
  4

  0
STYLE
  2

 70
     1
 40
0.0
 41
1.0
 50
0.0
 71
     0
 42
0.2
  3
genltshp.shx
  4

  0
STYLE
  2
ACANSGDT
 70
     0
 40
0.0
 41
1.0
 50
0.0
 71
     0
 42
0.2
  3
amgdt.shx
  4

  0
ENDTAB
  0
TABLE
  2
VIEW
 70
     0
  0
ENDTAB
  0
TABLE
  2
UCS
 70
     0
  0
ENDTAB
  0
TABLE
  2
APPID
 70
    14
  0
APPID
  2
ACAD
 70
     0
  0
APPID
  2
ACAD_MLEADERVER
 70
     0
  0
APPID
  2
ACAD_DSTYLE_DIMJAG
 70
     0
  0
APPID
  2
ACAD_DSTYLE_DIMTALN
 70
     0
  0
APPID
  2
ACAD_PSEXT
 70
     0
  0
APPID
  2
ACADANNOPO
 70
     0
  0
APPID
  2
MCAD_NO_VIS
 70
     0
  0
APPID
  2
ACAD_TEMP_GRAPHIC
 70
     0
  0
APPID
  2
ACATTRIBSERVICES
 70
     0
  0
APPID
  2
DESIGNERASSEMBLIES
 70
     0
  0
APPID
  2
ACAD_DSTYLE_DIMBREAK
 70
     0
  0
APPID
  2
ACAD_NAV_VCDISPLAY
 70
     0
  0
APPID
  2
GRADIENTCOLOR1ACI
 70
     0
  0
APPID
  2
GRADIENTCOLOR2ACI
 70
     0
  0
ENDTAB
  0
TABLE
  2
DIMSTYLE
 70
    13
  0
DIMSTYLE
  2
BAC
 70
     0
  3

  4

  5

  6

  7

 40
1.0
 41
0.09375
 42
0.0625
 43
0.375
 44
0.03125
 45
0.0
 46
0.0
 47
0.0
 48
0.0
140
0.09375
141
0.09375
142
0.0
143
25.399999999999999
144
1.0
145
0.0
146
1.0
147
0.0625
 71
     0
 72
     0
 73
     0
 74
     0
 75
     0
 76
     0
 77
     0
 78
     0
170
     0
171
     2
172
     0
173
     0
174
     0
175
     0
176
     0
177
     6
178
     0
  0
DIMSTYLE
  2
AM_ANSI
 70
     0
  3

  4
mm
  5

  6

  7

 40
1.0
 41
0.12
 42
0.05
 43
0.5
 44
0.1
 45
0.0
 46
0.0
 47
0.1
 48
0.1
140
0.12
141
0.0
142
0.0
143
25.399999999999999
144
1.0
145
0.0
146
0.71
147
0.06
 71
     0
 72
     0
 73
     1
 74
     1
 75
     0
 76
     0
 77
     0
 78
     7
170
     0
171
     2
172
     0
173
     0
174
     0
175
     0
176
   256
177
   256
178
     2
  0
DIMSTYLE
  2
AM_ANSI$3
 70
     0
  3

  4
mm
  5

  6

  7

 40
1.0
 41
0.12
 42
0.05
 43
0.5
 44
0.1
 45
0.0
 46
0.0
 47
0.1
 48
0.1
140
0.12
141
0.0
142
0.0
143
25.399999999999999
144
1.0
145
0.0
146
0.71
147
0.06
 71
     0
 72
     0
 73
     1
 74
     1
 75
     0
 76
     0
 77
     0
 78
     7
170
     0
171
     2
172
     0
173
     0
174
     0
175
     0
176
   256
177
   256
178
     2
  0
DIMSTYLE
  2
AM_ANSI$4
 70
     0
  3

  4
mm
  5

  6

  7

 40
1.0
 41
0.12
 42
0.05
 43
0.5
 44
0.1
 45
0.0
 46
0.0
 47
0.1
 48
0.1
140
0.12
141
0.0
142
0.0
143
25.399999999999999
144
1.0
145
0.0
146
0.71
147
0.06
 71
     0
 72
     0
 73
     1
 74
     1
 75
     0
 76
     0
 77
     0
 78
     7
170
     0
171
     2
172
     0
173
     0
174
     0
175
     0
176
   256
177
   256
178
     2
  0
DIMSTYLE
  2
AM_ANSI$7
 70
     0
  3

  4
mm
  5

  6

  7

 40
1.0
 41
0.12
 42
0.05
 43
0.5
 44
0.1
 45
0.0
 46
0.0
 47
0.1
 48
0.1
140
0.12
141
0.0
142
0.0
143
25.399999999999999
144
1.0
145
0.0
146
0.71
147
0.06
 71
     0
 72
     0
 73
     1
 74
     1
 75
     0
 76
     0
 77
     0
 78
     7
170
     0
171
     2
172
     0
173
     0
174
     0
175
     0
176
   256
177
   256
178
     2
  0
DIMSTYLE
  2
AM_ANSI$SF
 70
     0
  3

  4
mm
  5

  6

  7

 40
1.0
 41
0.12
 42
0.05
 43
0.5
 44
0.1
 45
0.0
 46
0.0
 47
0.1
 48
0.1
140
0.12
141
0.0
142
0.0
143
25.399999999999999
144
1.0
145
0.0
146
0.71
147
0.06
 71
     0
 72
     0
 73
     1
 74
     1
 75
     1
 76
     1
 77
     0
 78
     7
170
     0
171
     2
172
     0
173
     0
174
     0
175
     0
176
   256
177
   256
178
     2
  0
DIMSTYLE
  2
AM_ANSI$SH
 70
     0
  3

  4
mm
  5

  6
GENAXEH
  7

 40
1.0
 41
0.12
 42
0.05
 43
0.5
 44
0.1
 45
0.0
 46
0.0
 47
0.1
 48
0.1
140
0.12
141
0.0
142
0.0
143
25.399999999999999
144
1.0
145
0.0
146
0.71
147
0.06
 71
     0
 72
     0
 73
     1
 74
     1
 75
     1
 76
     1
 77
     0
 78
     7
170
     0
171
     2
172
     0
173
     1
174
     0
175
     0
176
   256
177
   256
178
     2
  0
DIMSTYLE
  2
STANDARD
 70
     0
  3

  4

  5

  6

  7

 40
1.0
 41
0.18
 42
0.0625
 43
0.38
 44
0.18
 45
0.0
 46
0.0
 47
0.0
 48
0.0
140
0.18
141
0.09
142
0.0
143
25.399999999999999
144
1.0
145
0.0
146
1.0
147
0.09
 71
     0
 72
     0
 73
     1
 74
     1
 75
     0
 76
     0
 77
     0
 78
     0
170
     0
171
     2
172
     0
173
     0
174
     0
175
     0
176
     0
177
     0
178
     0
  0
ENDTAB
  0
ENDSEC
  0
SECTION
  2
BLOCKS
  0
BLOCK
  8
0
  2
$MODEL_SPACE
 70
     0
 10
0.0
 20
0.0
 30
0.0
  3
$MODEL_SPACE
  1

  0
ENDBLK
  5
1A
  8
0
  0
BLOCK
 67
     1
  8
0
  2
$PAPER_SPACE
 70
     0
 10
0.0
 20
0.0
 30
0.0
  3
$PAPER_SPACE
  1

  0
ENDBLK
  5
17
 67
     1
  8
0
  0
BLOCK
  8
0
  2
*U0
 70
     1
 10
0.0
 20
0.0
 30
0.0
  3
*U0
  1

  0
ENDBLK
  5
17A
  8
0
  0
BLOCK
  8
0
  2
GENAXEH
 70
     0
 10
0.0
 20
0.0
 30
0.0
  3
GENAXEH
  1

  0
LINE
  5
1AD
  8
0
 10
-1.0
 20
0.0
 30
0.0
 11
1.0
 21
0.0
 31
0.0
  0
ENDBLK
  5
1AF
  8
0
  0
BLOCK
  8
0
  2
*X3
 70
     1
 10
0.0
 20
0.0
 30
0.0
  3
*X3
  1

  0
LINE
  5
52C
  8
0
 62
     0
 10
522.0
 20
4.0000045037580056
 30
0.0
 11
522.0
 21
79.125004503758561
 31
0.0
  0
LINE
  5
52D
  8
0
 62
     0
 10
520.5
 20
4.0000045037579897
 30
0.0
 11
520.5
 21
79.125004503758547
 31
0.0
  0
LINE
  5
52E
  8
0
 62
     0
 10
519.0
 20
4.0000045037579746
 30
0.0
 11
519.0
 21
79.125004503758532
 31
0.0
  0
LINE
  5
52F
  8
0
 62
     0
 10
517.49999999999989
 20
4.0000045037579586
 30
0.0
 11
517.49999999999989
 21
79.125004503758504
 31
0.0
  0
LINE
  5
530
  8
0
 62
     0
 10
516.0
 20
4.0000045037579444
 30
0.0
 11
516.0
 21
79.125004503758504
 31
0.0
  0
LINE
  5
531
  8
0
 62
     0
 10
514.5
 20
4.0000045037579284
 30
0.0
 11
514.5
 21
79.12500450375849
 31
0.0
  0
LINE
  5
532
  8
0
 62
     0
 10
513.0
 20
4.0000045037579133
 30
0.0
 11
513.0
 21
79.125004503758475
 31
0.0
  0
LINE
  5
533
  8
0
 62
     0
 10
511.5
 20
4.0000045037578973
 30
0.0
 11
511.5
 21
79.125004503758461
 31
0.0
  0
LINE
  5
534
  8
0
 62
     0
 10
510.0
 20
4.0000045037578813
 30
0.0
 11
510.0
 21
79.125004503758433
 31
0.0
  0
LINE
  5
535
  8
0
 62
     0
 10
508.49999999999989
 20
4.0000045037578662
 30
0.0
 11
508.49999999999989
 21
79.125004503758419
 31
0.0
  0
LINE
  5
536
  8
0
 62
     0
 10
507.0
 20
4.0000045037578502
 30
0.0
 11
507.0
 21
79.125004503758404
 31
0.0
  0
LINE
  5
537
  8
0
 62
     0
 10
505.49999999999989
 20
4.0000045037578351
 30
0.0
 11
505.49999999999989
 21
79.12500450375839
 31
0.0
  0
LINE
  5
538
  8
0
 62
     0
 10
504.0
 20
4.0000045037578191
 30
0.0
 11
504.0
 21
79.125004503758376
 31
0.0
  0
LINE
  5
539
  8
0
 62
     0
 10
502.5
 20
4.0000045037578031
 30
0.0
 11
502.5
 21
79.125004503758362
 31
0.0
  0
LINE
  5
53A
  8
0
 62
     0
 10
501.0
 20
4.000004503757788
 30
0.0
 11
501.0
 21
79.125004503758333
 31
0.0
  0
LINE
  5
53B
  8
0
 62
     0
 10
499.5
 20
4.0000045037577721
 30
0.0
 11
499.5
 21
79.125004503758333
 31
0.0
  0
LINE
  5
53C
  8
0
 62
     0
 10
498.0
 20
4.0000045037577561
 30
0.0
 11
498.0
 21
79.125004503758319
 31
0.0
  0
LINE
  5
53D
  8
0
 62
     0
 10
463.49999999999989
 20
4.0000045037573901
 30
0.0
 11
463.49999999999989
 21
79.125004503757935
 31
0.0
  0
LINE
  5
53E
  8
0
 62
     0
 10
462.0
 20
4.000004503757375
 30
0.0
 11
462.0
 21
79.125004503757935
 31
0.0
  0
LINE
  5
53F
  8
0
 62
     0
 10
460.5
 20
4.0000045037573608
 30
0.0
 11
460.5
 21
79.125004503757921
 31
0.0
  0
LINE
  5
540
  8
0
 62
     0
 10
459.0
 20
4.0000045037573457
 30
0.0
 11
459.0
 21
79.125004503757907
 31
0.0
  0
LINE
  5
541
  8
0
 62
     0
 10
457.5
 20
4.0000045037573324
 30
0.0
 11
457.5
 21
79.125004503757893
 31
0.0
  0
LINE
  5
542
  8
0
 62
     0
 10
456.0
 20
4.0000045037573173
 30
0.0
 11
456.0
 21
79.125004503757864
 31
0.0
  0
LINE
  5
543
  8
0
 62
     0
 10
454.49999999999989
 20
4.0000045037573031
 30
0.0
 11
454.49999999999989
 21
79.125004503757864
 31
0.0
  0
LINE
  5
544
  8
0
 62
     0
 10
453.0
 20
4.000004503757288
 30
0.0
 11
453.0
 21
79.125004503757836
 31
0.0
  0
LINE
  5
545
  8
0
 62
     0
 10
451.49999999999989
 20
4.0000045037572729
 30
0.0
 11
451.49999999999989
 21
79.125004503757822
 31
0.0
  0
LINE
  5
546
  8
0
 62
     0
 10
450.0
 20
4.0000045037572587
 30
0.0
 11
450.0
 21
79.125004503757793
 31
0.0
  0
LINE
  5
547
  8
0
 62
     0
 10
448.5
 20
4.0000045037572454
 30
0.0
 11
448.5
 21
79.125004503757793
 31
0.0
  0
LINE
  5
548
  8
0
 62
     0
 10
447.0
 20
4.0000045037572303
 30
0.0
 11
447.0
 21
79.125004503757779
 31
0.0
  0
LINE
  5
549
  8
0
 62
     0
 10
445.5
 20
4.0000045037572161
 30
0.0
 11
445.5
 21
79.125004503757765
 31
0.0
  0
LINE
  5
54A
  8
0
 62
     0
 10
444.0
 20
4.000004503757201
 30
0.0
 11
444.0
 21
79.125004503757751
 31
0.0
  0
LINE
  5
54B
  8
0
 62
     0
 10
409.49999999999989
 20
4.000004503756843
 30
0.0
 11
409.49999999999989
 21
79.125004503757381
 31
0.0
  0
LINE
  5
54C
  8
0
 62
     0
 10
408.0
 20
4.000004503756827
 30
0.0
 11
408.0
 21
79.125004503757367
 31
0.0
  0
LINE
  5
54D
  8
0
 62
     0
 10
406.5
 20
4.000004503756811
 30
0.0
 11
406.5
 21
79.125004503757353
 31
0.0
  0
LINE
  5
54E
  8
0
 62
     0
 10
405.0
 20
4.0000045037567959
 30
0.0
 11
405.0
 21
79.125004503757339
 31
0.0
  0
LINE
  5
54F
  8
0
 62
     0
 10
403.5
 20
4.0000045037567808
 30
0.0
 11
403.5
 21
79.125004503757324
 31
0.0
  0
LINE
  5
550
  8
0
 62
     0
 10
402.0
 20
4.0000045037567658
 30
0.0
 11
402.0
 21
79.12500450375731
 31
0.0
  0
LINE
  5
551
  8
0
 62
     0
 10
400.49999999999989
 20
4.0000045037567507
 30
0.0
 11
400.49999999999989
 21
79.125004503757296
 31
0.0
  0
LINE
  5
552
  8
0
 62
     0
 10
399.0
 20
4.0000045037567364
 30
0.0
 11
399.0
 21
79.125004503757282
 31
0.0
  0
LINE
  5
553
  8
0
 62
     0
 10
397.5
 20
4.0000045037567213
 30
0.0
 11
397.5
 21
79.125004503757268
 31
0.0
  0
LINE
  5
554
  8
0
 62
     0
 10
396.0
 20
4.0000045037567062
 30
0.0
 11
396.0
 21
79.125004503757225
 31
0.0
  0
LINE
  5
555
  8
0
 62
     0
 10
394.5
 20
4.0000045037566911
 30
0.0
 11
394.5
 21
79.125004503757225
 31
0.0
  0
LINE
  5
556
  8
0
 62
     0
 10
393.0
 20
4.000004503756676
 30
0.0
 11
393.0
 21
79.125004503757211
 31
0.0
  0
LINE
  5
557
  8
0
 62
     0
 10
391.5
 20
4.0000045037566601
 30
0.0
 11
391.5
 21
79.125004503757197
 31
0.0
  0
LINE
  5
558
  8
0
 62
     0
 10
390.0
 20
4.0000045037566441
 30
0.0
 11
390.0
 21
79.125004503757182
 31
0.0
  0
LINE
  5
559
  8
0
 62
     0
 10
388.5
 20
4.000004503756629
 30
0.0
 11
388.5
 21
79.125004503757154
 31
0.0
  0
LINE
  5
55A
  8
0
 62
     0
 10
387.0
 20
4.0000045037566139
 30
0.0
 11
387.0
 21
79.125004503757154
 31
0.0
  0
LINE
  5
55B
  8
0
 62
     0
 10
442.75230105044778
 20
4.5
 30
0.0
 11
464.76130070511931
 21
4.5
 31
0.0
  0
LINE
  5
55C
  8
0
 62
     0
 10
496.74431636721692
 20
4.5
 30
0.0
 11
522.00230105044807
 21
4.5
 31
0.0
  0
LINE
  5
55D
  8
0
 62
     0
 10
385.5023010504483
 20
4.5
 30
0.0
 11
410.7523010504471
 21
4.5
 31
0.0
  0
LINE
  5
55E
  8
0
 62
     0
 10
442.75230105044778
 20
6.0
 30
0.0
 11
464.76130070511931
 21
6.0
 31
0.0
  0
LINE
  5
55F
  8
0
 62
     0
 10
496.74431636721692
 20
6.0
 30
0.0
 11
522.00230105044807
 21
6.0
 31
0.0
  0
LINE
  5
560
  8
0
 62
     0
 10
385.5023010504483
 20
6.0
 30
0.0
 11
410.7523010504471
 21
6.0
 31
0.0
  0
LINE
  5
561
  8
0
 62
     0
 10
442.75230105044778
 20
7.5
 30
0.0
 11
464.76130070511931
 21
7.5
 31
0.0
  0
LINE
  5
562
  8
0
 62
     0
 10
496.74431636721692
 20
7.5
 30
0.0
 11
522.00230105044807
 21
7.5
 31
0.0
  0
LINE
  5
563
  8
0
 62
     0
 10
385.50230105044818
 20
7.5
 30
0.0
 11
410.7523010504471
 21
7.5
 31
0.0
  0
LINE
  5
564
  8
0
 62
     0
 10
442.75230105044778
 20
9.0
 30
0.0
 11
464.76130070511931
 21
9.0
 31
0.0
  0
LINE
  5
565
  8
0
 62
     0
 10
496.74431636721692
 20
9.0
 30
0.0
 11
522.00230105044807
 21
9.0
 31
0.0
  0
LINE
  5
566
  8
0
 62
     0
 10
385.50230105044818
 20
9.0
 30
0.0
 11
410.7523010504471
 21
9.0
 31
0.0
  0
LINE
  5
567
  8
0
 62
     0
 10
442.75230105044778
 20
10.5
 30
0.0
 11
464.76130070511931
 21
10.5
 31
0.0
  0
LINE
  5
568
  8
0
 62
     0
 10
496.74431636721692
 20
10.5
 30
0.0
 11
522.00230105044795
 21
10.5
 31
0.0
  0
LINE
  5
569
  8
0
 62
     0
 10
385.50230105044818
 20
10.5
 30
0.0
 11
410.7523010504471
 21
10.5
 31
0.0
  0
LINE
  5
56A
  8
0
 62
     0
 10
442.75230105044778
 20
12.0
 30
0.0
 11
464.76130070511931
 21
12.0
 31
0.0
  0
LINE
  5
56B
  8
0
 62
     0
 10
496.74431636721692
 20
12.0
 30
0.0
 11
522.00230105044795
 21
12.0
 31
0.0
  0
LINE
  5
56C
  8
0
 62
     0
 10
385.50230105044818
 20
12.0
 30
0.0
 11
410.7523010504471
 21
12.0
 31
0.0
  0
LINE
  5
56D
  8
0
 62
     0
 10
442.75230105044778
 20
13.5
 30
0.0
 11
464.76130070511931
 21
13.5
 31
0.0
  0
LINE
  5
56E
  8
0
 62
     0
 10
496.74431636721692
 20
13.5
 30
0.0
 11
522.00230105044795
 21
13.5
 31
0.0
  0
LINE
  5
56F
  8
0
 62
     0
 10
385.50230105044818
 20
13.5
 30
0.0
 11
410.7523010504471
 21
13.5
 31
0.0
  0
LINE
  5
570
  8
0
 62
     0
 10
442.75230105044778
 20
15.0
 30
0.0
 11
464.76130070511931
 21
15.0
 31
0.0
  0
LINE
  5
571
  8
0
 62
     0
 10
496.74431636721692
 20
15.0
 30
0.0
 11
522.00230105044795
 21
15.0
 31
0.0
  0
LINE
  5
572
  8
0
 62
     0
 10
385.50230105044818
 20
15.0
 30
0.0
 11
410.7523010504471
 21
15.0
 31
0.0
  0
LINE
  5
573
  8
0
 62
     0
 10
442.75230105044778
 20
16.5
 30
0.0
 11
464.76130070511931
 21
16.5
 31
0.0
  0
LINE
  5
574
  8
0
 62
     0
 10
496.74431636721692
 20
16.5
 30
0.0
 11
522.00230105044795
 21
16.5
 31
0.0
  0
LINE
  5
575
  8
0
 62
     0
 10
385.50230105044812
 20
16.5
 30
0.0
 11
410.7523010504471
 21
16.5
 31
0.0
  0
LINE
  5
576
  8
0
 62
     0
 10
442.75230105044778
 20
18.0
 30
0.0
 11
464.76130070511931
 21
18.0
 31
0.0
  0
LINE
  5
577
  8
0
 62
     0
 10
496.74431636721692
 20
18.0
 30
0.0
 11
522.00230105044795
 21
18.0
 31
0.0
  0
LINE
  5
578
  8
0
 62
     0
 10
385.50230105044812
 20
18.0
 30
0.0
 11
410.7523010504471
 21
18.0
 31
0.0
  0
LINE
  5
579
  8
0
 62
     0
 10
442.75230105044778
 20
19.5
 30
0.0
 11
464.76130070511931
 21
19.5
 31
0.0
  0
LINE
  5
57A
  8
0
 62
     0
 10
496.74431636721692
 20
19.5
 30
0.0
 11
522.00230105044795
 21
19.5
 31
0.0
  0
LINE
  5
57B
  8
0
 62
     0
 10
385.50230105044812
 20
19.5
 30
0.0
 11
410.7523010504471
 21
19.5
 31
0.0
  0
LINE
  5
57C
  8
0
 62
     0
 10
442.75230105044778
 20
21.0
 30
0.0
 11
464.76130070511931
 21
21.0
 31
0.0
  0
LINE
  5
57D
  8
0
 62
     0
 10
496.74431636721692
 20
21.0
 30
0.0
 11
522.00230105044795
 21
21.0
 31
0.0
  0
LINE
  5
57E
  8
0
 62
     0
 10
385.50230105044812
 20
21.0
 30
0.0
 11
410.7523010504471
 21
21.0
 31
0.0
  0
LINE
  5
57F
  8
0
 62
     0
 10
442.75230105044778
 20
22.5
 30
0.0
 11
464.76130070511931
 21
22.5
 31
0.0
  0
LINE
  5
580
  8
0
 62
     0
 10
496.74431636721692
 20
22.5
 30
0.0
 11
522.00230105044795
 21
22.5
 31
0.0
  0
LINE
  5
581
  8
0
 62
     0
 10
385.50230105044812
 20
22.5
 30
0.0
 11
410.7523010504471
 21
22.5
 31
0.0
  0
LINE
  5
582
  8
0
 62
     0
 10
442.75230105044778
 20
24.0
 30
0.0
 11
464.76130070511931
 21
24.0
 31
0.0
  0
LINE
  5
583
  8
0
 62
     0
 10
496.74431636721692
 20
24.0
 30
0.0
 11
522.00230105044784
 21
24.0
 31
0.0
  0
LINE
  5
584
  8
0
 62
     0
 10
385.50230105044812
 20
24.0
 30
0.0
 11
410.7523010504471
 21
24.0
 31
0.0
  0
LINE
  5
585
  8
0
 62
     0
 10
442.75230105044778
 20
25.5
 30
0.0
 11
464.76130070511931
 21
25.5
 31
0.0
  0
LINE
  5
586
  8
0
 62
     0
 10
496.74431636721692
 20
25.5
 30
0.0
 11
522.00230105044784
 21
25.5
 31
0.0
  0
LINE
  5
587
  8
0
 62
     0
 10
385.50230105044801
 20
25.5
 30
0.0
 11
410.7523010504471
 21
25.5
 31
0.0
  0
LINE
  5
588
  8
0
 62
     0
 10
442.75230105044778
 20
27.0
 30
0.0
 11
464.76130070511931
 21
27.0
 31
0.0
  0
LINE
  5
589
  8
0
 62
     0
 10
496.74431636721692
 20
27.0
 30
0.0
 11
522.00230105044784
 21
27.0
 31
0.0
  0
LINE
  5
58A
  8
0
 62
     0
 10
385.50230105044801
 20
27.0
 30
0.0
 11
410.7523010504471
 21
27.0
 31
0.0
  0
LINE
  5
58B
  8
0
 62
     0
 10
442.75230105044778
 20
28.5
 30
0.0
 11
464.76130070511931
 21
28.5
 31
0.0
  0
LINE
  5
58C
  8
0
 62
     0
 10
496.74431636721692
 20
28.5
 30
0.0
 11
522.00230105044784
 21
28.5
 31
0.0
  0
LINE
  5
58D
  8
0
 62
     0
 10
385.50230105044801
 20
28.5
 30
0.0
 11
410.7523010504471
 21
28.5
 31
0.0
  0
LINE
  5
58E
  8
0
 62
     0
 10
442.75230105044778
 20
30.0
 30
0.0
 11
464.76130070511931
 21
30.0
 31
0.0
  0
LINE
  5
58F
  8
0
 62
     0
 10
496.74431636721692
 20
30.0
 30
0.0
 11
522.00230105044784
 21
30.0
 31
0.0
  0
LINE
  5
590
  8
0
 62
     0
 10
385.50230105044801
 20
30.0
 30
0.0
 11
410.7523010504471
 21
30.0
 31
0.0
  0
LINE
  5
591
  8
0
 62
     0
 10
442.75230105044778
 20
31.5
 30
0.0
 11
464.76130070511931
 21
31.5
 31
0.0
  0
LINE
  5
592
  8
0
 62
     0
 10
496.74431636721692
 20
31.5
 30
0.0
 11
522.00230105044784
 21
31.5
 31
0.0
  0
LINE
  5
593
  8
0
 62
     0
 10
385.50230105044801
 20
31.5
 30
0.0
 11
410.7523010504471
 21
31.5
 31
0.0
  0
LINE
  5
594
  8
0
 62
     0
 10
442.75230105044778
 20
33.0
 30
0.0
 11
464.76130070511931
 21
33.0
 31
0.0
  0
LINE
  5
595
  8
0
 62
     0
 10
496.74431636721692
 20
33.0
 30
0.0
 11
522.00230105044784
 21
33.0
 31
0.0
  0
LINE
  5
596
  8
0
 62
     0
 10
385.50230105044801
 20
33.0
 30
0.0
 11
410.7523010504471
 21
33.0
 31
0.0
  0
LINE
  5
597
  8
0
 62
     0
 10
442.75230105044778
 20
34.5
 30
0.0
 11
464.76130070511931
 21
34.5
 31
0.0
  0
LINE
  5
598
  8
0
 62
     0
 10
496.74431636721692
 20
34.5
 30
0.0
 11
522.00230105044784
 21
34.5
 31
0.0
  0
LINE
  5
599
  8
0
 62
     0
 10
385.50230105044801
 20
34.5
 30
0.0
 11
410.7523010504471
 21
34.5
 31
0.0
  0
LINE
  5
59A
  8
0
 62
     0
 10
442.75230105044778
 20
36.0
 30
0.0
 11
464.76130070511931
 21
36.0
 31
0.0
  0
LINE
  5
59B
  8
0
 62
     0
 10
496.74431636721692
 20
36.0
 30
0.0
 11
522.00230105044773
 21
36.0
 31
0.0
  0
LINE
  5
59C
  8
0
 62
     0
 10
385.5023010504479
 20
36.0
 30
0.0
 11
410.7523010504471
 21
36.0
 31
0.0
  0
LINE
  5
59D
  8
0
 62
     0
 10
442.75230105044778
 20
37.5
 30
0.0
 11
464.76130070511931
 21
37.5
 31
0.0
  0
LINE
  5
59E
  8
0
 62
     0
 10
496.74431636721692
 20
37.5
 30
0.0
 11
522.00230105044773
 21
37.5
 31
0.0
  0
LINE
  5
59F
  8
0
 62
     0
 10
385.5023010504479
 20
37.5
 30
0.0
 11
410.7523010504471
 21
37.5
 31
0.0
  0
LINE
  5
5A0
  8
0
 62
     0
 10
442.75230105044778
 20
39.0
 30
0.0
 11
464.76130070511931
 21
39.0
 31
0.0
  0
LINE
  5
5A1
  8
0
 62
     0
 10
496.74431636721692
 20
39.0
 30
0.0
 11
522.00230105044773
 21
39.0
 31
0.0
  0
LINE
  5
5A2
  8
0
 62
     0
 10
385.5023010504479
 20
39.0
 30
0.0
 11
410.7523010504471
 21
39.0
 31
0.0
  0
LINE
  5
5A3
  8
0
 62
     0
 10
442.75230105044778
 20
40.499999999999993
 30
0.0
 11
464.76130070511931
 21
40.499999999999993
 31
0.0
  0
LINE
  5
5A4
  8
0
 62
     0
 10
496.74431636721692
 20
40.499999999999993
 30
0.0
 11
522.00230105044773
 21
40.499999999999993
 31
0.0
  0
LINE
  5
5A5
  8
0
 62
     0
 10
385.5023010504479
 20
40.499999999999993
 30
0.0
 11
410.7523010504471
 21
40.499999999999993
 31
0.0
  0
LINE
  5
5A6
  8
0
 62
     0
 10
442.75230105044778
 20
42.0
 30
0.0
 11
464.76130070511931
 21
42.0
 31
0.0
  0
LINE
  5
5A7
  8
0
 62
     0
 10
496.74431636721692
 20
42.0
 30
0.0
 11
522.00230105044773
 21
42.0
 31
0.0
  0
LINE
  5
5A8
  8
0
 62
     0
 10
385.5023010504479
 20
42.0
 30
0.0
 11
410.7523010504471
 21
42.0
 31
0.0
  0
LINE
  5
5A9
  8
0
 62
     0
 10
442.75230105044778
 20
43.5
 30
0.0
 11
464.76130070511931
 21
43.5
 31
0.0
  0
LINE
  5
5AA
  8
0
 62
     0
 10
496.74431636721692
 20
43.5
 30
0.0
 11
522.00230105044773
 21
43.5
 31
0.0
  0
LINE
  5
5AB
  8
0
 62
     0
 10
385.5023010504479
 20
43.5
 30
0.0
 11
410.7523010504471
 21
43.5
 31
0.0
  0
LINE
  5
5AC
  8
0
 62
     0
 10
442.75230105044778
 20
45.0
 30
0.0
 11
464.76130070511931
 21
45.0
 31
0.0
  0
LINE
  5
5AD
  8
0
 62
     0
 10
496.74431636721692
 20
45.0
 30
0.0
 11
522.00230105044773
 21
45.0
 31
0.0
  0
LINE
  5
5AE
  8
0
 62
     0
 10
385.50230105044778
 20
45.0
 30
0.0
 11
410.7523010504471
 21
45.0
 31
0.0
  0
LINE
  5
5AF
  8
0
 62
     0
 10
442.75230105044778
 20
46.5
 30
0.0
 11
464.76130070511931
 21
46.5
 31
0.0
  0
LINE
  5
5B0
  8
0
 62
     0
 10
496.74431636721692
 20
46.5
 30
0.0
 11
522.00230105044773
 21
46.5
 31
0.0
  0
LINE
  5
5B1
  8
0
 62
     0
 10
385.50230105044778
 20
46.5
 30
0.0
 11
410.7523010504471
 21
46.5
 31
0.0
  0
LINE
  5
5B2
  8
0
 62
     0
 10
442.75230105044778
 20
48.0
 30
0.0
 11
464.76130070511931
 21
48.0
 31
0.0
  0
LINE
  5
5B3
  8
0
 62
     0
 10
496.74431636721692
 20
48.0
 30
0.0
 11
522.0023010504475
 21
48.0
 31
0.0
  0
LINE
  5
5B4
  8
0
 62
     0
 10
385.50230105044778
 20
48.0
 30
0.0
 11
410.7523010504471
 21
48.0
 31
0.0
  0
LINE
  5
5B5
  8
0
 62
     0
 10
442.75230105044778
 20
49.5
 30
0.0
 11
464.76130070511931
 21
49.5
 31
0.0
  0
LINE
  5
5B6
  8
0
 62
     0
 10
496.74431636721692
 20
49.5
 30
0.0
 11
522.0023010504475
 21
49.5
 31
0.0
  0
LINE
  5
5B7
  8
0
 62
     0
 10
385.50230105044773
 20
49.5
 30
0.0
 11
410.7523010504471
 21
49.5
 31
0.0
  0
LINE
  5
5B8
  8
0
 62
     0
 10
442.75230105044778
 20
51.0
 30
0.0
 11
464.76130070511931
 21
51.0
 31
0.0
  0
LINE
  5
5B9
  8
0
 62
     0
 10
496.74431636721692
 20
51.0
 30
0.0
 11
522.0023010504475
 21
51.0
 31
0.0
  0
LINE
  5
5BA
  8
0
 62
     0
 10
385.50230105044773
 20
51.0
 30
0.0
 11
410.7523010504471
 21
51.0
 31
0.0
  0
LINE
  5
5BB
  8
0
 62
     0
 10
442.75230105044778
 20
52.5
 30
0.0
 11
464.76130070511931
 21
52.5
 31
0.0
  0
LINE
  5
5BC
  8
0
 62
     0
 10
496.74431636721692
 20
52.5
 30
0.0
 11
522.0023010504475
 21
52.5
 31
0.0
  0
LINE
  5
5BD
  8
0
 62
     0
 10
385.50230105044773
 20
52.5
 30
0.0
 11
410.7523010504471
 21
52.5
 31
0.0
  0
LINE
  5
5BE
  8
0
 62
     0
 10
442.75230105044778
 20
54.0
 30
0.0
 11
464.76130070511931
 21
54.0
 31
0.0
  0
LINE
  5
5BF
  8
0
 62
     0
 10
496.74431636721692
 20
54.0
 30
0.0
 11
522.0023010504475
 21
54.0
 31
0.0
  0
LINE
  5
5C0
  8
0
 62
     0
 10
385.50230105044773
 20
54.0
 30
0.0
 11
410.7523010504471
 21
54.0
 31
0.0
  0
LINE
  5
5C1
  8
0
 62
     0
 10
442.75230105044778
 20
55.5
 30
0.0
 11
464.76130070511931
 21
55.5
 31
0.0
  0
LINE
  5
5C2
  8
0
 62
     0
 10
496.74431636721692
 20
55.5
 30
0.0
 11
522.0023010504475
 21
55.5
 31
0.0
  0
LINE
  5
5C3
  8
0
 62
     0
 10
385.50230105044773
 20
55.5
 30
0.0
 11
410.7523010504471
 21
55.5
 31
0.0
  0
LINE
  5
5C4
  8
0
 62
     0
 10
442.75230105044778
 20
57.0
 30
0.0
 11
464.76130070511931
 21
57.0
 31
0.0
  0
LINE
  5
5C5
  8
0
 62
     0
 10
496.74431636721692
 20
57.0
 30
0.0
 11
522.0023010504475
 21
57.0
 31
0.0
  0
LINE
  5
5C6
  8
0
 62
     0
 10
385.50230105044773
 20
57.0
 30
0.0
 11
410.7523010504471
 21
57.0
 31
0.0
  0
LINE
  5
5C7
  8
0
 62
     0
 10
442.75230105044778
 20
58.5
 30
0.0
 11
464.76130070511931
 21
58.5
 31
0.0
  0
LINE
  5
5C8
  8
0
 62
     0
 10
496.74431636721692
 20
58.5
 30
0.0
 11
522.0023010504475
 21
58.5
 31
0.0
  0
LINE
  5
5C9
  8
0
 62
     0
 10
385.50230105044761
 20
58.5
 30
0.0
 11
410.7523010504471
 21
58.5
 31
0.0
  0
LINE
  5
5CA
  8
0
 62
     0
 10
442.75230105044778
 20
60.0
 30
0.0
 11
464.76130070511931
 21
60.0
 31
0.0
  0
LINE
  5
5CB
  8
0
 62
     0
 10
496.74431636721692
 20
60.0
 30
0.0
 11
522.0023010504475
 21
60.0
 31
0.0
  0
LINE
  5
5CC
  8
0
 62
     0
 10
385.50230105044761
 20
60.0
 30
0.0
 11
410.7523010504471
 21
60.0
 31
0.0
  0
LINE
  5
5CD
  8
0
 62
     0
 10
442.75230105044778
 20
61.5
 30
0.0
 11
464.76130070511931
 21
61.5
 31
0.0
  0
LINE
  5
5CE
  8
0
 62
     0
 10
496.74431636721692
 20
61.5
 30
0.0
 11
522.00230105044739
 21
61.5
 31
0.0
  0
LINE
  5
5CF
  8
0
 62
     0
 10
385.50230105044761
 20
61.5
 30
0.0
 11
410.7523010504471
 21
61.5
 31
0.0
  0
LINE
  5
5D0
  8
0
 62
     0
 10
442.75230105044778
 20
63.0
 30
0.0
 11
464.76130070511931
 21
63.0
 31
0.0
  0
LINE
  5
5D1
  8
0
 62
     0
 10
496.74431636721692
 20
63.0
 30
0.0
 11
522.00230105044739
 21
63.0
 31
0.0
  0
LINE
  5
5D2
  8
0
 62
     0
 10
385.50230105044761
 20
63.0
 30
0.0
 11
410.7523010504471
 21
63.0
 31
0.0
  0
LINE
  5
5D3
  8
0
 62
     0
 10
442.75230105044778
 20
64.5
 30
0.0
 11
464.76130070511931
 21
64.5
 31
0.0
  0
LINE
  5
5D4
  8
0
 62
     0
 10
496.74431636721692
 20
64.5
 30
0.0
 11
522.00230105044739
 21
64.5
 31
0.0
  0
LINE
  5
5D5
  8
0
 62
     0
 10
385.50230105044761
 20
64.5
 30
0.0
 11
410.7523010504471
 21
64.5
 31
0.0
  0
LINE
  5
5D6
  8
0
 62
     0
 10
442.75230105044778
 20
66.0
 30
0.0
 11
464.76130070511931
 21
66.0
 31
0.0
  0
LINE
  5
5D7
  8
0
 62
     0
 10
496.74431636721692
 20
66.0
 30
0.0
 11
522.00230105044739
 21
66.0
 31
0.0
  0
LINE
  5
5D8
  8
0
 62
     0
 10
385.50230105044761
 20
66.0
 30
0.0
 11
410.7523010504471
 21
66.0
 31
0.0
  0
LINE
  5
5D9
  8
0
 62
     0
 10
442.75230105044778
 20
67.5
 30
0.0
 11
464.76130070511931
 21
67.5
 31
0.0
  0
LINE
  5
5DA
  8
0
 62
     0
 10
496.74431636721692
 20
67.5
 30
0.0
 11
522.00230105044739
 21
67.5
 31
0.0
  0
LINE
  5
5DB
  8
0
 62
     0
 10
385.5023010504475
 20
67.5
 30
0.0
 11
410.7523010504471
 21
67.5
 31
0.0
  0
LINE
  5
5DC
  8
0
 62
     0
 10
442.75230105044778
 20
69.0
 30
0.0
 11
464.76130070511931
 21
69.0
 31
0.0
  0
LINE
  5
5DD
  8
0
 62
     0
 10
496.74431636721692
 20
69.0
 30
0.0
 11
522.00230105044739
 21
69.0
 31
0.0
  0
LINE
  5
5DE
  8
0
 62
     0
 10
385.5023010504475
 20
69.0
 30
0.0
 11
410.7523010504471
 21
69.0
 31
0.0
  0
LINE
  5
5DF
  8
0
 62
     0
 10
442.75230105044778
 20
70.5
 30
0.0
 11
464.76130070511931
 21
70.5
 31
0.0
  0
LINE
  5
5E0
  8
0
 62
     0
 10
496.74431636721692
 20
70.5
 30
0.0
 11
522.00230105044739
 21
70.5
 31
0.0
  0
LINE
  5
5E1
  8
0
 62
     0
 10
385.5023010504475
 20
70.5
 30
0.0
 11
410.7523010504471
 21
70.5
 31
0.0
  0
LINE
  5
5E2
  8
0
 62
     0
 10
442.75230105044778
 20
72.0
 30
0.0
 11
464.76130070511931
 21
72.0
 31
0.0
  0
LINE
  5
5E3
  8
0
 62
     0
 10
496.74431636721692
 20
72.0
 30
0.0
 11
522.00230105044739
 21
72.0
 31
0.0
  0
LINE
  5
5E4
  8
0
 62
     0
 10
385.5023010504475
 20
72.0
 30
0.0
 11
410.7523010504471
 21
72.0
 31
0.0
  0
LINE
  5
5E5
  8
0
 62
     0
 10
442.75230105044778
 20
73.5
 30
0.0
 11
464.76130070511931
 21
73.5
 31
0.0
  0
LINE
  5
5E6
  8
0
 62
     0
 10
496.74431636721692
 20
73.5
 30
0.0
 11
522.00230105044739
 21
73.5
 31
0.0
  0
LINE
  5
5E7
  8
0
 62
     0
 10
385.5023010504475
 20
73.5
 30
0.0
 11
410.7523010504471
 21
73.5
 31
0.0
  0
LINE
  5
5E8
  8
0
 62
     0
 10
442.75230105044778
 20
75.0
 30
0.0
 11
464.76130070511931
 21
75.0
 31
0.0
  0
LINE
  5
5E9
  8
0
 62
     0
 10
496.74431636721692
 20
75.0
 30
0.0
 11
522.00230105044739
 21
75.0
 31
0.0
  0
LINE
  5
5EA
  8
0
 62
     0
 10
385.5023010504475
 20
75.0
 30
0.0
 11
410.7523010504471
 21
75.0
 31
0.0
  0
LINE
  5
5EB
  8
0
 62
     0
 10
442.75230105044778
 20
76.5
 30
0.0
 11
464.76130070511931
 21
76.5
 31
0.0
  0
LINE
  5
5EC
  8
0
 62
     0
 10
496.74431636721692
 20
76.5
 30
0.0
 11
522.00230105044739
 21
76.5
 31
0.0
  0
LINE
  5
5ED
  8
0
 62
     0
 10
385.5023010504475
 20
76.5
 30
0.0
 11
410.7523010504471
 21
76.5
 31
0.0
  0
LINE
  5
5EE
  8
0
 62
     0
 10
442.75230105044778
 20
78.0
 30
0.0
 11
464.76130070511931
 21
78.0
 31
0.0
  0
LINE
  5
5EF
  8
0
 62
     0
 10
496.74431636721692
 20
78.0
 30
0.0
 11
522.00230105044739
 21
78.0
 31
0.0
  0
LINE
  5
5F0
  8
0
 62
     0
 10
385.50230105044739
 20
78.0
 30
0.0
 11
410.7523010504471
 21
78.0
 31
0.0
  0
ENDBLK
  5
5F2
  8
0
  0
BLOCK
  8
0
  2
*X4
 70
     1
 10
0.0
 20
0.0
 30
0.0
  3
*X4
  1

  0
LINE
  5
5F4
  8
0
 62
     0
 10
302.4031173164401
 20
340.49999999999989
 30
0.0
 11
212.4031173164403
 21
340.5
 31
0.0
  0
LINE
  5
5F5
  8
0
 62
     0
 10
302.4031173164401
 20
339.0
 30
0.0
 11
212.4031173164403
 21
339.0
 31
0.0
  0
LINE
  5
5F6
  8
0
 62
     0
 10
302.4031173164401
 20
337.5
 30
0.0
 11
212.4031173164403
 21
337.5
 31
0.0
  0
LINE
  5
5F7
  8
0
 62
     0
 10
302.4031173164401
 20
335.99999999999989
 30
0.0
 11
212.4031173164403
 21
336.0
 31
0.0
  0
LINE
  5
5F8
  8
0
 62
     0
 10
302.4031173164401
 20
334.49999999999989
 30
0.0
 11
212.4031173164403
 21
334.5
 31
0.0
  0
LINE
  5
5F9
  8
0
 62
     0
 10
302.4031173164401
 20
333.0
 30
0.0
 11
212.4031173164403
 21
333.0
 31
0.0
  0
LINE
  5
5FA
  8
0
 62
     0
 10
302.4031173164401
 20
331.49999999999989
 30
0.0
 11
212.4031173164403
 21
331.5
 31
0.0
  0
LINE
  5
5FB
  8
0
 62
     0
 10
302.4031173164401
 20
329.99999999999989
 30
0.0
 11
212.4031173164403
 21
330.0
 31
0.0
  0
LINE
  5
5FC
  8
0
 62
     0
 10
302.4031173164401
 20
328.5
 30
0.0
 11
212.4031173164403
 21
328.5
 31
0.0
  0
LINE
  5
5FD
  8
0
 62
     0
 10
302.4031173164401
 20
327.0
 30
0.0
 11
212.4031173164403
 21
327.0
 31
0.0
  0
LINE
  5
5FE
  8
0
 62
     0
 10
302.4031173164401
 20
325.49999999999989
 30
0.0
 11
212.4031173164403
 21
325.5
 31
0.0
  0
LINE
  5
5FF
  8
0
 62
     0
 10
302.40311731643999
 20
323.99999999999989
 30
0.0
 11
212.4031173164403
 21
324.0
 31
0.0
  0
LINE
  5
600
  8
0
 62
     0
 10
302.40311731643999
 20
322.5
 30
0.0
 11
212.4031173164403
 21
322.5
 31
0.0
  0
LINE
  5
601
  8
0
 62
     0
 10
302.40311731643999
 20
320.99999999999989
 30
0.0
 11
212.4031173164403
 21
321.0
 31
0.0
  0
LINE
  5
602
  8
0
 62
     0
 10
302.40311731643999
 20
319.49999999999989
 30
0.0
 11
212.40311731644019
 21
319.5
 31
0.0
  0
LINE
  5
603
  8
0
 62
     0
 10
302.40311731643999
 20
318.0
 30
0.0
 11
212.40311731644019
 21
318.0
 31
0.0
  0
LINE
  5
604
  8
0
 62
     0
 10
302.40311731643999
 20
316.5
 30
0.0
 11
212.40311731644019
 21
316.5
 31
0.0
  0
LINE
  5
605
  8
0
 62
     0
 10
302.40311731643999
 20
314.99999999999989
 30
0.0
 11
212.40311731644019
 21
315.0
 31
0.0
  0
LINE
  5
606
  8
0
 62
     0
 10
302.40311731643999
 20
313.49999999999989
 30
0.0
 11
212.40311731644019
 21
313.5
 31
0.0
  0
LINE
  5
607
  8
0
 62
     0
 10
302.40311731643999
 20
312.0
 30
0.0
 11
212.40311731644019
 21
312.0
 31
0.0
  0
LINE
  5
608
  8
0
 62
     0
 10
302.40311731643999
 20
310.49999999999989
 30
0.0
 11
212.40311731644019
 21
310.5
 31
0.0
  0
LINE
  5
609
  8
0
 62
     0
 10
302.40311731643999
 20
308.99999999999989
 30
0.0
 11
212.40311731644019
 21
309.0
 31
0.0
  0
LINE
  5
60A
  8
0
 62
     0
 10
302.40311731643999
 20
307.49999999999989
 30
0.0
 11
212.40311731644019
 21
307.5
 31
0.0
  0
LINE
  5
60B
  8
0
 62
     0
 10
302.40311731643999
 20
306.0
 30
0.0
 11
212.40311731644019
 21
306.0
 31
0.0
  0
LINE
  5
60C
  8
0
 62
     0
 10
302.40311731643999
 20
304.49999999999989
 30
0.0
 11
212.40311731644019
 21
304.5
 31
0.0
  0
LINE
  5
60D
  8
0
 62
     0
 10
302.40311731643999
 20
302.99999999999989
 30
0.0
 11
212.40311731644019
 21
303.0
 31
0.0
  0
LINE
  5
60E
  8
0
 62
     0
 10
302.40311731643999
 20
301.5
 30
0.0
 11
212.40311731644019
 21
301.5
 31
0.0
  0
LINE
  5
60F
  8
0
 62
     0
 10
302.40311731643999
 20
300.0
 30
0.0
 11
212.40311731644019
 21
300.0
 31
0.0
  0
LINE
  5
610
  8
0
 62
     0
 10
302.40311731643999
 20
298.49999999999989
 30
0.0
 11
212.40311731644019
 21
298.5
 31
0.0
  0
LINE
  5
611
  8
0
 62
     0
 10
302.40311731643999
 20
296.99999999999989
 30
0.0
 11
212.40311731644019
 21
297.0
 31
0.0
  0
LINE
  5
612
  8
0
 62
     0
 10
302.40311731643999
 20
295.5
 30
0.0
 11
212.40311731644019
 21
295.5
 31
0.0
  0
LINE
  5
613
  8
0
 62
     0
 10
302.40311731643999
 20
293.99999999999989
 30
0.0
 11
212.4031173164401
 21
294.0
 31
0.0
  0
LINE
  5
614
  8
0
 62
     0
 10
302.40311731643999
 20
292.49999999999989
 30
0.0
 11
212.4031173164401
 21
292.5
 31
0.0
  0
LINE
  5
615
  8
0
 62
     0
 10
302.40311731643999
 20
291.0
 30
0.0
 11
212.4031173164401
 21
291.0
 31
0.0
  0
LINE
  5
616
  8
0
 62
     0
 10
302.40311731643999
 20
289.49999999999989
 30
0.0
 11
212.4031173164401
 21
289.5
 31
0.0
  0
LINE
  5
617
  8
0
 62
     0
 10
302.40311731643999
 20
287.99999999999989
 30
0.0
 11
212.4031173164401
 21
288.0
 31
0.0
  0
LINE
  5
618
  8
0
 62
     0
 10
302.40311731643999
 20
286.49999999999989
 30
0.0
 11
212.4031173164401
 21
286.5
 31
0.0
  0
LINE
  5
619
  8
0
 62
     0
 10
302.40311731643999
 20
285.0
 30
0.0
 11
212.4031173164401
 21
285.0
 31
0.0
  0
LINE
  5
61A
  8
0
 62
     0
 10
302.40311731643999
 20
283.49999999999989
 30
0.0
 11
212.4031173164401
 21
283.5
 31
0.0
  0
LINE
  5
61B
  8
0
 62
     0
 10
302.40311731643999
 20
281.99999999999989
 30
0.0
 11
212.4031173164401
 21
282.0
 31
0.0
  0
LINE
  5
61C
  8
0
 62
     0
 10
302.40311731643999
 20
280.49999999999989
 30
0.0
 11
212.4031173164401
 21
280.5
 31
0.0
  0
LINE
  5
61D
  8
0
 62
     0
 10
302.40311731643999
 20
279.0
 30
0.0
 11
212.4031173164401
 21
279.0
 31
0.0
  0
LINE
  5
61E
  8
0
 62
     0
 10
302.40311731643999
 20
277.49999999999989
 30
0.0
 11
212.4031173164401
 21
277.5
 31
0.0
  0
LINE
  5
61F
  8
0
 62
     0
 10
302.40311731643999
 20
275.99999999999989
 30
0.0
 11
212.4031173164401
 21
276.0
 31
0.0
  0
LINE
  5
620
  8
0
 62
     0
 10
302.40311731643999
 20
274.5
 30
0.0
 11
212.4031173164401
 21
274.5
 31
0.0
  0
LINE
  5
621
  8
0
 62
     0
 10
302.40311731643999
 20
272.99999999999989
 30
0.0
 11
212.4031173164401
 21
273.0
 31
0.0
  0
LINE
  5
622
  8
0
 62
     0
 10
302.40311731643999
 20
271.49999999999989
 30
0.0
 11
212.4031173164401
 21
271.5
 31
0.0
  0
LINE
  5
623
  8
0
 62
     0
 10
302.40311731643999
 20
269.99999999999989
 30
0.0
 11
212.4031173164401
 21
270.0
 31
0.0
  0
LINE
  5
624
  8
0
 62
     0
 10
302.40311731643999
 20
268.5
 30
0.0
 11
212.4031173164401
 21
268.5
 31
0.0
  0
LINE
  5
625
  8
0
 62
     0
 10
302.40311731643999
 20
266.99999999999989
 30
0.0
 11
212.4031173164401
 21
267.0
 31
0.0
  0
LINE
  5
626
  8
0
 62
     0
 10
302.40311731643999
 20
265.49999999999989
 30
0.0
 11
212.4031173164401
 21
265.5
 31
0.0
  0
LINE
  5
627
  8
0
 62
     0
 10
302.40311731643999
 20
264.0
 30
0.0
 11
212.4031173164401
 21
264.0
 31
0.0
  0
LINE
  5
628
  8
0
 62
     0
 10
302.40311731643999
 20
262.5
 30
0.0
 11
212.4031173164401
 21
262.5
 31
0.0
  0
LINE
  5
629
  8
0
 62
     0
 10
302.40311731643999
 20
260.99999999999989
 30
0.0
 11
212.4031173164401
 21
261.0
 31
0.0
  0
LINE
  5
62A
  8
0
 62
     0
 10
302.40311731643999
 20
259.49999999999989
 30
0.0
 11
212.4031173164401
 21
259.5
 31
0.0
  0
LINE
  5
62B
  8
0
 62
     0
 10
302.40311731643999
 20
258.0
 30
0.0
 11
212.4031173164401
 21
258.0
 31
0.0
  0
LINE
  5
62C
  8
0
 62
     0
 10
302.40311731643999
 20
256.49999999999989
 30
0.0
 11
212.4031173164401
 21
256.5
 31
0.0
  0
LINE
  5
62D
  8
0
 62
     0
 10
302.40311731643988
 20
255.0
 30
0.0
 11
212.4031173164401
 21
255.0
 31
0.0
  0
LINE
  5
62E
  8
0
 62
     0
 10
302.40311731643988
 20
253.5
 30
0.0
 11
212.4031173164401
 21
253.5
 31
0.0
  0
LINE
  5
62F
  8
0
 62
     0
 10
302.40311731643988
 20
252.0
 30
0.0
 11
212.40311731643999
 21
252.0
 31
0.0
  0
LINE
  5
630
  8
0
 62
     0
 10
302.40311731643988
 20
250.5
 30
0.0
 11
212.40311731643999
 21
250.5
 31
0.0
  0
LINE
  5
631
  8
0
 62
     0
 10
302.40311731643988
 20
249.0
 30
0.0
 11
212.40311731643999
 21
249.0
 31
0.0
  0
LINE
  5
632
  8
0
 62
     0
 10
302.40311731643988
 20
247.5
 30
0.0
 11
212.40311731643999
 21
247.5
 31
0.0
  0
LINE
  5
633
  8
0
 62
     0
 10
302.40311731643988
 20
246.0
 30
0.0
 11
212.40311731643999
 21
246.0
 31
0.0
  0
LINE
  5
634
  8
0
 62
     0
 10
302.40311731643988
 20
244.5
 30
0.0
 11
212.40311731643999
 21
244.5
 31
0.0
  0
LINE
  5
635
  8
0
 62
     0
 10
302.40311731643988
 20
243.0
 30
0.0
 11
212.40311731643999
 21
243.0
 31
0.0
  0
LINE
  5
636
  8
0
 62
     0
 10
302.40311731643988
 20
241.5
 30
0.0
 11
212.40311731643999
 21
241.5
 31
0.0
  0
LINE
  5
637
  8
0
 62
     0
 10
302.40311731643988
 20
240.0
 30
0.0
 11
212.40311731643999
 21
240.0
 31
0.0
  0
LINE
  5
638
  8
0
 62
     0
 10
302.40311731643988
 20
238.5
 30
0.0
 11
212.40311731643999
 21
238.5
 31
0.0
  0
LINE
  5
639
  8
0
 62
     0
 10
302.40311731643988
 20
237.0
 30
0.0
 11
212.40311731643999
 21
237.0
 31
0.0
  0
LINE
  5
63A
  8
0
 62
     0
 10
302.40311731643988
 20
235.5
 30
0.0
 11
212.40311731643999
 21
235.5
 31
0.0
  0
LINE
  5
63B
  8
0
 62
     0
 10
302.40311731643988
 20
234.0
 30
0.0
 11
212.40311731643999
 21
234.0
 31
0.0
  0
LINE
  5
63C
  8
0
 62
     0
 10
302.40311731643988
 20
232.5
 30
0.0
 11
212.40311731643999
 21
232.5
 31
0.0
  0
LINE
  5
63D
  8
0
 62
     0
 10
302.40311731643988
 20
231.0
 30
0.0
 11
212.40311731643999
 21
231.0
 31
0.0
  0
LINE
  5
63E
  8
0
 62
     0
 10
302.40311731643988
 20
229.5
 30
0.0
 11
212.40311731643999
 21
229.5
 31
0.0
  0
LINE
  5
63F
  8
0
 62
     0
 10
302.40311731643988
 20
228.0
 30
0.0
 11
212.40311731643999
 21
228.0
 31
0.0
  0
LINE
  5
640
  8
0
 62
     0
 10
302.40311731643988
 20
226.5
 30
0.0
 11
212.40311731643999
 21
226.5
 31
0.0
  0
LINE
  5
641
  8
0
 62
     0
 10
302.40311731643988
 20
225.0
 30
0.0
 11
212.4031173164399
 21
225.0
 31
0.0
  0
LINE
  5
642
  8
0
 62
     0
 10
302.40311731643988
 20
223.5
 30
0.0
 11
212.4031173164399
 21
223.5
 31
0.0
  0
LINE
  5
643
  8
0
 62
     0
 10
302.40311731643988
 20
222.0
 30
0.0
 11
212.4031173164399
 21
222.0
 31
0.0
  0
LINE
  5
644
  8
0
 62
     0
 10
302.40311731643988
 20
220.5
 30
0.0
 11
212.4031173164399
 21
220.5
 31
0.0
  0
LINE
  5
645
  8
0
 62
     0
 10
302.40311731643988
 20
219.0
 30
0.0
 11
212.4031173164399
 21
219.0
 31
0.0
  0
LINE
  5
646
  8
0
 62
     0
 10
302.40311731643988
 20
217.5
 30
0.0
 11
212.4031173164399
 21
217.5
 31
0.0
  0
LINE
  5
647
  8
0
 62
     0
 10
302.40311731643988
 20
216.0
 30
0.0
 11
212.4031173164399
 21
216.0
 31
0.0
  0
LINE
  5
648
  8
0
 62
     0
 10
302.40311731643988
 20
214.5
 30
0.0
 11
212.4031173164399
 21
214.5
 31
0.0
  0
LINE
  5
649
  8
0
 62
     0
 10
302.40311731643988
 20
213.0
 30
0.0
 11
212.4031173164399
 21
213.0
 31
0.0
  0
LINE
  5
64A
  8
0
 62
     0
 10
302.40311731643988
 20
211.5
 30
0.0
 11
212.4031173164399
 21
211.5
 31
0.0
  0
LINE
  5
64B
  8
0
 62
     0
 10
302.40311731643988
 20
210.0
 30
0.0
 11
212.4031173164399
 21
210.0
 31
0.0
  0
LINE
  5
64C
  8
0
 62
     0
 10
302.40311731643988
 20
208.5
 30
0.0
 11
212.4031173164399
 21
208.5
 31
0.0
  0
LINE
  5
64D
  8
0
 62
     0
 10
302.40311731643988
 20
207.0
 30
0.0
 11
212.4031173164399
 21
207.0
 31
0.0
  0
LINE
  5
64E
  8
0
 62
     0
 10
302.40311731643988
 20
205.5
 30
0.0
 11
212.4031173164399
 21
205.5
 31
0.0
  0
ENDBLK
  5
650
  8
0
  0
ENDSEC
  0
SECTION
  2
ENTITIES
  0
LINE
  5
34D
  8
0
 10
210.7781173164399
 20
135.37500450375751
 30
0.0
 11
304.02811731643709
 21
135.37500450375751
 31
0.0
  0
LINE
  5
34E
  8
0
 10
304.02811731643709
 20
80.750004503757779
 30
0.0
 11
210.7781173164399
 21
80.750004503757779
 31
0.0
  0
LINE
  5
34F
  8
0
 10
210.7781173164399
 20
80.750004503757779
 30
0.0
 11
210.7781173164399
 21
135.37500450375751
 31
0.0
  0
LINE
  5
350
  8
0
 10
304.02811731643709
 20
80.750004503757779
 30
0.0
 11
304.02811731643709
 21
135.37500450375751
 31
0.0
  0
LINE
  5
351
  8
0
 10
210.77811731644061
 20
80.750004503757751
 30
0.0
 11
305.15311731644061
 21
80.750004503757751
 31
0.0
  0
LINE
  5
352
  8
0
 10
305.15311731644061
 20
0.0000045037577365
 30
0.0
 11
210.77811731644061
 21
0.0000045037577365
 31
0.0
  0
LINE
  5
353
  8
0
 10
210.77811731644061
 20
80.750004503757751
 30
0.0
 11
210.77811731644061
 21
0.0000045037577365
 31
0.0
  0
LINE
  5
354
  8
0
 10
305.15311731644061
 20
0.0000045037577365
 30
0.0
 11
305.15311731644061
 21
80.750004503757751
 31
0.0
  0
LINE
  5
355
  8
0
 10
210.5281173164403
 20
5.6250045037577348
 30
0.0
 11
210.77811731644081
 21
5.6250045037577348
 31
0.0
  0
LINE
  5
356
  8
0
 10
210.77811731644081
 20
7.6250045037576211
 30
0.0
 11
210.5281173164403
 21
7.6250045037576211
 31
0.0
  0
LINE
  5
357
  8
0
 10
210.5281173164399
 20
6.6250045037577614
 30
0.0
 11
210.5281173164399
 21
6.883823548860283
 31
0.0
  0
LINE
  5
358
  8
0
 10
210.5281173164399
 20
6.8838238598010228
 30
0.0
 11
210.5281173164399
 21
7.4910299075422024
 31
0.0
  0
LINE
  5
359
  8
0
 10
210.5281173164399
 20
7.4910302776756881
 30
0.0
 11
210.5281173164399
 21
7.5909303300468327
 31
0.0
  0
LINE
  5
35A
  8
0
 10
210.5281173164399
 20
7.5909310142285076
 30
0.0
 11
210.5281173164399
 21
7.6250045037577658
 31
0.0
  0
LINE
  5
35B
  8
0
 10
210.5281173164399
 20
5.6250045037577658
 30
0.0
 11
210.5281173164399
 21
5.6590784673940187
 31
0.0
  0
LINE
  5
35C
  8
0
 10
210.5281173164399
 20
5.6590786774686981
 30
0.0
 11
210.5281173164399
 21
5.7589790422400906
 31
0.0
  0
LINE
  5
35D
  8
0
 10
210.5281173164399
 20
5.7589790999733257
 30
0.0
 11
210.5281173164399
 21
6.1250045037577641
 31
0.0
  0
LINE
  5
35E
  8
0
 10
210.5281173164399
 20
6.1250047278856643
 30
0.0
 11
210.5281173164399
 21
6.3661853976966594
 31
0.0
  0
LINE
  5
35F
  8
0
 10
210.5281173164399
 20
6.3661854586552407
 30
0.0
 11
210.5281173164399
 21
6.6250042625935928
 31
0.0
  0
LINE
  5
360
  8
0
 10
304.27811731644169
 20
131.62500450375799
 30
0.0
 11
304.02811731644118
 21
131.62500450375799
 31
0.0
  0
LINE
  5
361
  8
0
 10
304.02811731644118
 20
123.62500450375779
 30
0.0
 11
304.27811731644169
 21
123.62500450375779
 31
0.0
  0
LINE
  5
362
  8
0
 10
304.27811731644027
 20
131.62500450375779
 30
0.0
 11
304.27811731644027
 21
131.488707808914
 31
0.0
  0
LINE
  5
363
  8
0
 10
304.27811731644027
 20
131.48870615499621
 30
0.0
 11
304.27811731644027
 21
130.45343162850401
 31
0.0
  0
LINE
  5
364
  8
0
 10
304.27811731644027
 20
130.45342753618439
 30
0.0
 11
304.27811731644027
 21
129.62500450375779
 31
0.0
  0
LINE
  5
365
  8
0
 10
304.27811731644027
 20
129.6250009177067
 30
0.0
 11
304.27811731644027
 21
128.6602806841679
 31
0.0
  0
LINE
  5
366
  8
0
 10
304.27811731644027
 20
128.6602753206659
 30
0.0
 11
304.27811731644027
 21
127.625008362382
 31
0.0
  0
LINE
  5
367
  8
0
 10
304.27811731644027
 20
127.62500450375779
 30
0.0
 11
304.27811731644027
 21
126.5897299597036
 31
0.0
  0
LINE
  5
368
  8
0
 10
304.27811731644027
 20
126.5897283233477
 30
0.0
 11
304.27811731644027
 21
124.7965780616025
 31
0.0
  0
LINE
  5
369
  8
0
 10
304.27811731644027
 20
124.79657737901159
 30
0.0
 11
304.27811731644027
 21
123.7613011986015
 31
0.0
  0
LINE
  5
36A
  8
0
 10
304.27811731644027
 20
123.7612984618732
 30
0.0
 11
304.27811731644027
 21
123.62500450375769
 31
0.0
  0
ARC
  5
36B
  8
0
 10
248.4031173164401
 20
50.000004503758127
 30
0.0
 40
0.7500000000000142
 50
359.99999999999858
 51
179.99999999999889
  0
ARC
  5
36C
  8
0
 10
248.4031173164401
 20
50.000004503758127
 30
0.0
 40
0.75
 50
180.0
 51
0.0
  0
ARC
  5
36D
  8
0
 10
215.5281173164401
 20
33.500004503758142
 30
0.0
 40
1.50000000000001
 50
359.99999999999898
 51
179.99999999999901
  0
ARC
  5
36E
  8
0
 10
215.5281173164401
 20
33.500004503758142
 30
0.0
 40
1.499999999999988
 50
180.00000000000071
 51
0.0000000000001527
  0
ARC
  5
36F
  8
0
 10
219.5281173164403
 20
12.00000450375817
 30
0.0
 40
3.9999999999999911
 50
359.9999999999996
 51
179.99999999999969
  0
ARC
  5
370
  8
0
 10
219.5281173164403
 20
12.00000450375817
 30
0.0
 40
4.000000000000008
 50
180.00000000000011
 51
359.9999999999992
  0
CIRCLE
  5
371
  8
0
 10
227.5281173164403
 20
50.125004503757737
 30
0.0
 40
11.18749999999997
  0
LINE
  5
372
  8
0
 10
383.8773010504537
 20
135.37500450375751
 30
0.0
 11
523.62730105044795
 21
135.37500450375751
 31
0.0
  0
LINE
  5
373
  8
0
 10
383.8773010504537
 20
80.750004503757779
 30
0.0
 11
383.8773010504537
 21
135.37500450375751
 31
0.0
  0
LINE
  5
374
  8
0
 10
523.62730105044795
 20
80.750004503757779
 30
0.0
 11
523.62730105044795
 21
135.37500450375751
 31
0.0
  0
LINE
  5
375
  8
0
 10
465.75230105044909
 20
6.0000045037577348
 30
0.0
 11
495.7523010504492
 21
6.0000045037577348
 31
0.0
  0
LINE
  5
376
  8
0
 10
465.75230105044818
 20
68.406158526918745
 30
0.0
 11
495.75230105044818
 21
68.406158526918702
 31
0.0
  0
LINE
  5
377
  8
0
 10
464.76130070511948
 20
4.0000045037577836
 30
0.0
 11
464.76130070511948
 21
79.125004503758333
 31
0.0
  0
LINE
  5
378
  8
0
 10
465.75230105044818
 20
79.125004503758333
 30
0.0
 11
465.75230105044812
 21
4.0000045037577836
 31
0.0
  0
LINE
  5
379
  8
0
 10
464.76130070511948
 20
4.0000045037577836
 30
0.0
 11
465.75230105044812
 21
4.0000045037577836
 31
0.0
  0
LINE
  5
37A
  8
0
 10
465.75230105044818
 20
79.125004503758333
 30
0.0
 11
464.76130070511948
 21
79.125004503758333
 31
0.0
  0
LINE
  5
37B
  8
0
 10
495.75230105044801
 20
4.0000045037577321
 30
0.0
 11
495.75230105044818
 21
79.125004503758305
 31
0.0
  0
LINE
  5
37C
  8
0
 10
496.74431636721732
 20
79.125004503758305
 30
0.0
 11
496.7443163672171
 21
4.0000045037577321
 31
0.0
  0
LINE
  5
37D
  8
0
 10
496.7443163672171
 20
4.0000045037577321
 30
0.0
 11
495.75230105044801
 21
4.0000045037577321
 31
0.0
  0
LINE
  5
37E
  8
0
 10
496.74431636721732
 20
79.125004503758305
 30
0.0
 11
495.75230105044818
 21
79.125004503758305
 31
0.0
  0
LINE
  5
37F
  8
0
 10
411.75230105044778
 20
6.0000045037577348
 30
0.0
 11
441.7523010504492
 21
6.0000045037577348
 31
0.0
  0
LINE
  5
380
  8
0
 10
411.75230105044739
 20
68.406158526918418
 30
0.0
 11
441.75230105044727
 21
68.406158526918745
 31
0.0
  0
LINE
  5
381
  8
0
 10
441.75230105044801
 20
4.000004503757828
 30
0.0
 11
441.75230105044801
 21
79.12500450375839
 31
0.0
  0
LINE
  5
382
  8
0
 10
442.75230105044801
 20
79.12500450375839
 30
0.0
 11
442.75230105044801
 21
4.000004503757828
 31
0.0
  0
LINE
  5
383
  8
0
 10
441.75230105044801
 20
4.000004503757828
 30
0.0
 11
442.75230105044801
 21
4.000004503757828
 31
0.0
  0
LINE
  5
384
  8
0
 10
442.75230105044801
 20
79.12500450375839
 30
0.0
 11
441.75230105044801
 21
79.12500450375839
 31
0.0
  0
LINE
  5
385
  8
0
 10
410.75230105044801
 20
4.0000045037578689
 30
0.0
 11
410.75230105044801
 21
79.125004503758419
 31
0.0
  0
LINE
  5
386
  8
0
 10
411.75230105044812
 20
79.125004503758419
 30
0.0
 11
411.75230105044812
 21
4.0000045037578689
 31
0.0
  0
LINE
  5
387
  8
0
 10
410.75230105044801
 20
4.0000045037578689
 30
0.0
 11
411.75230105044812
 21
4.0000045037578689
 31
0.0
  0
LINE
  5
388
  8
0
 10
411.75230105044812
 20
79.125004503758419
 30
0.0
 11
410.75230105044801
 21
79.125004503758419
 31
0.0
  0
LINE
  5
389
  8
0
 10
385.5023010504479
 20
79.125004503760181
 30
0.0
 11
385.5023010504479
 21
4.0000045037577321
 31
0.0
  0
LINE
  5
38A
  8
0
 10
385.5023010504479
 20
4.0000045037577321
 30
0.0
 11
410.7523010504471
 21
4.0000045037577321
 31
0.0
  0
LINE
  5
38B
  8
0
 10
410.7523010504471
 20
4.0000045037577321
 30
0.0
 11
410.7523010504471
 21
79.125004503760181
 31
0.0
1001
ACAD
1000
ASC_BOUNDS
1002
{
1070
    19
1005
4D0
1002
}
  0
LINE
  5
38C
  8
0
 10
410.7523010504471
 20
79.125004503760181
 30
0.0
 11
385.5023010504479
 21
79.125004503760181
 31
0.0
  0
LINE
  5
38D
  8
0
 10
464.76130070511931
 20
79.12500450375839
 30
0.0
 11
442.75230105044778
 21
79.12500450375839
 31
0.0
  0
LINE
  5
38E
  8
0
 10
442.75230105044778
 20
79.12500450375839
 30
0.0
 11
442.75230105044778
 21
4.000004503757828
 31
0.0
1001
ACAD
1000
ASC_BOUNDS
1002
{
1070
    19
1005
4D0
1002
}
  0
LINE
  5
38F
  8
0
 10
442.75230105044778
 20
4.0000045037578156
 30
0.0
 11
464.76130070511931
 21
4.000004503757828
 31
0.0
  0
LINE
  5
390
  8
0
 10
464.76130070511931
 20
4.000004503757828
 30
0.0
 11
464.76130070511931
 21
79.12500450375839
 31
0.0
1001
ACAD
1000
ASC_BOUNDS
1002
{
1070
    19
1005
4D0
1002
}
  0
LINE
  5
391
  8
0
 10
522.00230105044784
 20
79.12500450375839
 30
0.0
 11
496.74431636721692
 21
79.12500450375839
 31
0.0
  0
LINE
  5
392
  8
0
 10
496.74431636721692
 20
79.12500450375839
 30
0.0
 11
496.74431636721692
 21
4.000004503757828
 31
0.0
1001
ACAD
1000
ASC_BOUNDS
1002
{
1070
    19
1005
4D0
1002
}
  0
LINE
  5
393
  8
0
 10
496.74431636721692
 20
4.0000045037578156
 30
0.0
 11
522.00230105044784
 21
4.000004503757828
 31
0.0
  0
LINE
  5
394
  8
0
 10
522.00230105044784
 20
4.000004503757828
 30
0.0
 11
522.00230105044784
 21
79.12500450375839
 31
0.0
  0
LINE
  5
395
  8
0
 10
383.87730105044852
 20
80.750004503757751
 30
0.0
 11
523.6273010504483
 21
80.750004503757751
 31
0.0
  0
LINE
  5
396
  8
0
 10
523.6273010504483
 20
0.0000045037577365
 30
0.0
 11
383.87730105044852
 21
0.0000045037577365
 31
0.0
  0
LINE
  5
397
  8
0
 10
383.87730105044852
 20
0.0000045037577365
 30
0.0
 11
383.87730105044852
 21
80.750004503757751
 31
0.0
  0
LINE
  5
398
  8
0
 10
385.5023010504483
 20
4.0000045037566121
 30
0.0
 11
385.50230105044739
 21
79.12500450375714
 31
0.0
1001
ACAD
1000
ASC_BOUNDS
1002
{
1070
    19
1005
4D0
1002
}
  0
LINE
  5
399
  8
0
 10
385.50230105044739
 20
79.12500450375714
 30
0.0
 11
522.00230105044739
 21
79.125004503758561
 31
0.0
1001
ACAD
1000
ASC_BOUNDS
1002
{
1070
    19
1005
4D0
1005
4D0
1005
4D0
1002
}
  0
LINE
  5
39A
  8
0
 10
522.00230105044739
 20
79.125004503758561
 30
0.0
 11
522.00230105044807
 21
4.000004503758019
 31
0.0
1001
ACAD
1000
ASC_BOUNDS
1002
{
1070
    19
1005
4D0
1002
}
  0
LINE
  5
39B
  8
0
 10
522.00230105044807
 20
4.0000045037580083
 30
0.0
 11
385.5023010504483
 21
4.0000045037566032
 31
0.0
1001
ACAD
1000
ASC_BOUNDS
1002
{
1070
    19
1005
4D0
1005
4D0
1005
4D0
1002
}
  0
LINE
  5
39C
  8
0
 10
523.6273010504483
 20
0.0000045037577365
 30
0.0
 11
523.6273010504483
 21
80.750004503757751
 31
0.0
  0
ARC
  5
39D
  8
0
 10
453.75230105044761
 20
105.3750045037584
 30
0.0
 40
8.2500000000000053
 50
179.9999999999996
 51
359.99999999999881
  0
ARC
  5
39E
  8
0
 10
453.75230105044761
 20
105.3750045037584
 30
0.0
 40
8.2500000000000089
 50
359.99999999999949
 51
179.9999999999996
  0
ARC
  5
39F
  8
0
 10
453.75230105044761
 20
105.3750045037584
 30
0.0
 40
7.6874999999999956
 50
0.0000000000006679
 51
180.00000000000011
  0
ARC
  5
3A0
  8
0
 10
453.75230105044761
 20
105.3750045037584
 30
0.0
 40
7.687499999999992
 50
180.00000000000011
 51
359.9999999999996
  0
LINE
  5
3A1
  8
0
 10
458.87480182443551
 20
102.933148654961
 30
0.0
 11
458.67986134824491
 21
102.4842399248022
 31
0.0
  0
LINE
  5
3A2
  8
0
 10
458.67986134824491
 20
102.4842399248022
 30
0.0
 11
458.22896849110219
 21
102.3269978613102
 31
0.0
  0
LINE
  5
3A3
  8
0
 10
458.22896849110219
 20
102.3269978613102
 30
0.0
 11
457.90443972126081
 21
102.3912339724213
 31
0.0
  0
LINE
  5
3A4
  8
0
 10
457.90443972126081
 20
102.3912339724213
 30
0.0
 11
457.66894864983232
 21
102.5839423057546
 31
0.0
  0
LINE
  5
3A5
  8
0
 10
457.66894864983232
 20
102.5839423057546
 30
0.0
 11
457.4779764276102
 21
103.3418788136911
 31
0.0
  0
LINE
  5
3A6
  8
0
 10
457.4779764276102
 20
103.3418788136911
 30
0.0
 11
457.66200420538769
 21
104.10576770258
 31
0.0
  0
LINE
  5
3A7
  8
0
 10
457.66200420538769
 20
104.10576770258
 30
0.0
 11
457.89179091173719
 21
104.29549984543721
 31
0.0
  0
LINE
  5
3A8
  8
0
 10
457.89179091173719
 20
104.29549984543721
 30
0.0
 11
458.21309547522918
 21
104.3587438930562
 31
0.0
  0
LINE
  5
3A9
  8
0
 10
458.21309547522918
 20
104.3587438930562
 30
0.0
 11
458.6813494434831
 21
104.21539071845299
 31
0.0
  0
LINE
  5
3AA
  8
0
 10
458.6813494434831
 20
104.21539071845299
 30
0.0
 11
458.87480182443551
 21
103.79029151210381
 31
0.0
  0
LINE
  5
3AB
  8
0
 10
458.87480182443551
 20
103.79029151210381
 30
0.0
 11
460.0176589672925
 21
103.79029151210381
 31
0.0
  0
LINE
  5
3AC
  8
0
 10
460.0176589672925
 20
103.79029151210381
 30
0.0
 11
459.85744071332442
 21
104.4379849644848
 31
0.0
  0
LINE
  5
3AD
  8
0
 10
459.85744071332442
 20
104.4379849644848
 30
0.0
 11
459.48988118951479
 21
104.91677960734199
 31
0.0
  0
LINE
  5
3AE
  8
0
 10
459.48988118951479
 20
104.91677960734199
 30
0.0
 11
458.93085341173708
 21
105.2125385359134
 31
0.0
  0
LINE
  5
3AF
  8
0
 10
458.93085341173708
 20
105.2125385359134
 30
0.0
 11
458.19623039586418
 21
105.31112484543721
 31
0.0
  0
LINE
  5
3B0
  8
0
 10
458.19623039586418
 20
105.31112484543721
 30
0.0
 11
457.39823932443551
 21
105.17918040099271
 31
0.0
  0
LINE
  5
3B1
  8
0
 10
457.39823932443551
 20
105.17918040099271
 30
0.0
 11
456.78799626887979
 21
104.78334706765941
 31
0.0
  0
LINE
  5
3B2
  8
0
 10
456.78799626887979
 20
104.78334706765941
 30
0.0
 11
456.40071948316557
 21
104.1593391311515
 31
0.0
  0
LINE
  5
3B3
  8
0
 10
456.40071948316557
 20
104.1593391311515
 30
0.0
 11
456.27162722126081
 21
103.3428708771832
 31
0.0
  0
LINE
  5
3B4
  8
0
 10
456.27162722126081
 20
103.3428708771832
 30
0.0
 11
456.40133952284822
 21
102.5245425041673
 31
0.0
  0
LINE
  5
3B5
  8
0
 10
456.40133952284822
 20
102.5245425041673
 30
0.0
 11
456.7904764276102
 21
101.9009065914689
 31
0.0
  0
LINE
  5
3B6
  8
0
 10
456.7904764276102
 20
101.9009065914689
 30
0.0
 11
457.4058038085625
 21
101.50618932956409
 31
0.0
  0
LINE
  5
3B7
  8
0
 10
457.4058038085625
 20
101.50618932956409
 30
0.0
 11
458.21408753872129
 21
101.3746169089293
 31
0.0
  0
LINE
  5
3B8
  8
0
 10
458.21408753872129
 20
101.3746169089293
 30
0.0
 11
458.93717781649889
 21
101.4767994486118
 31
0.0
  0
LINE
  5
3B9
  8
0
 10
458.93717781649889
 20
101.4767994486118
 30
0.0
 11
459.49335341173708
 21
101.78334706765941
 31
0.0
  0
LINE
  5
3BA
  8
0
 10
459.49335341173708
 20
101.78334706765941
 30
0.0
 11
459.86078892761009
 21
102.2751625438499
 31
0.0
  0
LINE
  5
3BB
  8
0
 10
459.86078892761009
 20
102.2751625438499
 30
0.0
 11
460.0176589672925
 21
102.933148654961
 31
0.0
  0
LINE
  5
3BC
  8
0
 10
460.0176589672925
 20
102.933148654961
 30
0.0
 11
458.87480182443551
 21
102.933148654961
 31
0.0
  0
LINE
  5
3BD
  8
0
 10
451.6530744466678
 20
103.7072228438842
 30
0.0
 11
452.8306538117472
 21
103.7072228438842
 31
0.0
  0
LINE
  5
3BE
  8
0
 10
452.8306538117472
 20
103.7072228438842
 30
0.0
 11
452.97747920857239
 21
104.2151593518207
 31
0.0
  0
LINE
  5
3BF
  8
0
 10
452.97747920857239
 20
104.2151593518207
 30
0.0
 11
454.18085222444552
 21
104.2151593518207
 31
0.0
  0
LINE
  5
3C0
  8
0
 10
454.18085222444552
 20
104.2151593518207
 30
0.0
 11
454.32271730381052
 21
103.7072228438842
 31
0.0
  0
LINE
  5
3C1
  8
0
 10
454.32271730381052
 20
103.7072228438842
 30
0.0
 11
455.5260903196837
 21
103.7072228438842
 31
0.0
  0
LINE
  5
3C2
  8
0
 10
455.5260903196837
 20
103.7072228438842
 30
0.0
 11
454.19672524031847
 21
107.51674665340801
 31
0.0
  0
LINE
  5
3C3
  8
0
 10
454.19672524031847
 20
107.51674665340801
 30
0.0
 11
452.9675585736519
 21
107.51674665340801
 31
0.0
  0
LINE
  5
3C4
  8
0
 10
452.9675585736519
 20
107.51674665340801
 30
0.0
 11
451.6530744466678
 21
103.7072228438842
 31
0.0
  0
LINE
  5
3C5
  8
0
 10
453.19771730381069
 20
105.0405561772175
 30
0.0
 11
453.58363000222329
 21
106.3441276057889
 31
0.0
  0
LINE
  5
3C6
  8
0
 10
453.58363000222329
 20
106.3441276057889
 30
0.0
 11
453.96061412920739
 21
105.0405561772175
 31
0.0
  0
LINE
  5
3C7
  8
0
 10
453.96061412920739
 20
105.0405561772175
 30
0.0
 11
453.19771730381069
 21
105.0405561772175
 31
0.0
  0
LINE
  5
3C8
  8
0
 10
447.89234325640632
 20
105.4476111530644
 30
0.0
 11
449.59174801831108
 21
105.4476111530644
 31
0.0
  0
LINE
  5
3C9
  8
0
 10
449.59174801831108
 20
105.4476111530644
 30
0.0
 11
450.35960516116819
 21
105.4863016292549
 31
0.0
  0
LINE
  5
3CA
  8
0
 10
450.35960516116819
 20
105.4863016292549
 30
0.0
 11
450.77230357386679
 21
105.6182460736994
 31
0.0
  0
LINE
  5
3CB
  8
0
 10
450.77230357386679
 20
105.6182460736994
 30
0.0
 11
451.18053770085078
 21
106.0011825816359
 31
0.0
  0
LINE
  5
3CC
  8
0
 10
451.18053770085078
 20
106.0011825816359
 30
0.0
 11
451.32091468497788
 21
106.5884841689375
 31
0.0
  0
LINE
  5
3CD
  8
0
 10
451.32091468497788
 20
106.5884841689375
 30
0.0
 11
451.17706547862872
 21
107.15148020068349
 31
0.0
  0
LINE
  5
3CE
  8
0
 10
451.17706547862872
 20
107.15148020068349
 30
0.0
 11
450.7336130976762
 21
107.47638099433431
 31
0.0
  0
LINE
  5
3CF
  8
0
 10
450.7336130976762
 20
107.47638099433431
 30
0.0
 11
451.07885119291421
 21
107.79384131179459
 31
0.0
  0
LINE
  5
3D0
  8
0
 10
451.07885119291421
 20
107.79384131179459
 30
0.0
 11
451.19393055799378
 21
108.2462222641755
 31
0.0
  0
LINE
  5
3D1
  8
0
 10
451.19393055799378
 20
108.2462222641755
 30
0.0
 11
451.0401607167239
 21
108.80624210544541
 31
0.0
  0
LINE
  5
3D2
  8
0
 10
451.0401607167239
 20
108.80624210544541
 30
0.0
 11
450.59770039926372
 21
109.1460238514772
 31
0.0
  0
LINE
  5
3D3
  8
0
 10
450.59770039926372
 20
109.1460238514772
 30
0.0
 11
450.20236309767608
 21
109.23134131179459
 31
0.0
  0
LINE
  5
3D4
  8
0
 10
450.20236309767608
 20
109.23134131179459
 30
0.0
 11
449.46873214529518
 21
109.2571349625883
 31
0.0
  0
LINE
  5
3D5
  8
0
 10
449.46873214529518
 20
109.2571349625883
 30
0.0
 11
447.89234325640649
 21
109.2571349625883
 31
0.0
  0
LINE
  5
3D6
  8
0
 10
447.89234325640649
 20
109.2571349625883
 30
0.0
 11
447.89234325640632
 21
105.4476111530644
 31
0.0
  0
LINE
  5
3D7
  8
0
 10
449.09869246275571
 20
106.3365000419533
 30
0.0
 11
449.09869246275571
 21
107.034912740366
 31
0.0
  0
LINE
  5
3D8
  8
0
 10
449.09869246275571
 20
107.034912740366
 30
0.0
 11
449.64730357386668
 21
107.034912740366
 31
0.0
  0
LINE
  5
3D9
  8
0
 10
449.64730357386668
 20
107.034912740366
 30
0.0
 11
450.05652976434288
 21
106.95554766100091
 31
0.0
  0
LINE
  5
3DA
  8
0
 10
450.05652976434288
 20
106.95554766100091
 30
0.0
 11
450.17805754212071
 21
106.6886825816359
 31
0.0
  0
LINE
  5
3DB
  8
0
 10
450.17805754212071
 20
106.6886825816359
 30
0.0
 11
450.05900992307312
 21
106.41884131179459
 31
0.0
  0
LINE
  5
3DC
  8
0
 10
450.05900992307312
 20
106.41884131179459
 30
0.0
 11
449.65821627227928
 21
106.3365000419533
 31
0.0
  0
LINE
  5
3DD
  8
0
 10
449.65821627227928
 20
106.3365000419533
 30
0.0
 11
449.09869246275571
 21
106.3365000419533
 31
0.0
  0
LINE
  5
3DE
  8
0
 10
449.09869246275571
 20
107.73332543877871
 30
0.0
 11
449.09869246275571
 21
108.3682460736994
 31
0.0
  0
LINE
  5
3DF
  8
0
 10
449.09869246275571
 20
108.3682460736994
 30
0.0
 11
449.4330178595809
 21
108.3682460736994
 31
0.0
  0
LINE
  5
3E0
  8
0
 10
449.4330178595809
 20
108.3682460736994
 30
0.0
 11
449.9414503992636
 21
108.30078575623909
 31
0.0
  0
LINE
  5
3E1
  8
0
 10
449.9414503992636
 20
108.30078575623909
 30
0.0
 11
450.05107341513661
 21
108.05078575623899
 31
0.0
  0
LINE
  5
3E2
  8
0
 10
450.05107341513661
 20
108.05078575623899
 30
0.0
 11
449.94889087545403
 21
107.8057460736994
 31
0.0
  0
LINE
  5
3E3
  8
0
 10
449.94889087545403
 20
107.8057460736994
 30
0.0
 11
449.59670833577161
 21
107.73332543877871
 31
0.0
  0
LINE
  5
3E4
  8
0
 10
449.59670833577161
 20
107.73332543877871
 30
0.0
 11
449.09869246275571
 21
107.73332543877871
 31
0.0
  0
ARC
  5
3E5
  8
0
 10
453.7523010504471
 20
105.375004503759
 30
0.0
 40
9.0000000000000089
 50
179.99999999999969
 51
359.99999999999881
  0
ARC
  5
3E6
  8
0
 10
453.7523010504471
 20
105.375004503759
 30
0.0
 40
9.0000000000000089
 50
359.99999999999937
 51
179.99999999999969
  0
ARC
  5
3E7
  8
0
 10
453.752301050445
 20
127.62500450375769
 30
0.0
 40
4.0000000000000133
 50
90.0
 51
270.0
  0
ARC
  5
3E8
  8
0
 10
453.752301050445
 20
127.62500450375769
 30
0.0
 40
3.9999999999999978
 50
270.0
 51
90.0
  0
LINE
  5
3E9
  8
0
 10
383.62730105044938
 20
49.250004503757957
 30
0.0
 11
383.87730105044989
 21
49.250004503757957
 31
0.0
  0
LINE
  5
3EA
  8
0
 10
383.87730105044989
 20
50.750004503758298
 30
0.0
 11
383.62730105044938
 21
50.750004503758298
 31
0.0
  0
LINE
  5
3EB
  8
0
 10
383.62730105044972
 20
32.000004503757957
 30
0.0
 11
383.87730105045011
 21
32.000004503757957
 31
0.0
  0
LINE
  5
3EC
  8
0
 10
383.87730105045011
 20
35.000004503757957
 30
0.0
 11
383.62730105044972
 21
35.000004503757957
 31
0.0
  0
LINE
  5
3ED
  8
0
 10
383.6273010504483
 20
50.000004503758127
 30
0.0
 11
383.6273010504483
 21
50.649523485624002
 31
0.0
  0
LINE
  5
3EE
  8
0
 10
383.6273010504483
 20
50.649523556596442
 30
0.0
 11
383.6273010504483
 21
50.724448239941488
 31
0.0
  0
LINE
  5
3EF
  8
0
 10
383.6273010504483
 20
50.724448873474927
 30
0.0
 11
383.6273010504483
 21
50.750004503758127
 31
0.0
  0
LINE
  5
3F0
  8
0
 10
383.6273010504483
 20
49.25000450375812
 30
0.0
 11
383.6273010504483
 21
49.275560134041321
 31
0.0
  0
LINE
  5
3F1
  8
0
 10
383.6273010504483
 20
49.275562061288042
 30
0.0
 11
383.6273010504483
 21
49.350485450919798
 31
0.0
  0
LINE
  5
3F2
  8
0
 10
383.6273010504483
 20
49.35048709296165
 30
0.0
 11
383.6273010504483
 21
49.469671529667409
 31
0.0
  0
LINE
  5
3F3
  8
0
 10
383.6273010504483
 20
49.469674417868212
 30
0.0
 11
383.6273010504483
 21
49.625002415737782
 31
0.0
  0
LINE
  5
3F4
  8
0
 10
383.6273010504483
 20
49.625004503758127
 30
0.0
 11
383.6273010504483
 21
49.805887799380159
 31
0.0
  0
LINE
  5
3F5
  8
0
 10
383.6273010504483
 20
49.805890219931229
 30
0.0
 11
383.6273010504483
 21
50.000002574445581
 31
0.0
  0
LINE
  5
3F6
  8
0
 10
383.62730105044852
 20
33.500005468413562
 30
0.0
 11
383.62730105044852
 21
34.250004503758127
 31
0.0
  0
LINE
  5
3F7
  8
0
 10
383.62730105044852
 20
34.250005547768133
 30
0.0
 11
383.62730105044852
 21
34.799041681957313
 31
0.0
  0
LINE
  5
3F8
  8
0
 10
383.62730105044852
 20
34.7990426094348
 30
0.0
 11
383.62730105044852
 21
34.948893243191733
 31
0.0
  0
LINE
  5
3F9
  8
0
 10
383.62730105044852
 20
34.948893321248363
 30
0.0
 11
383.62730105044881
 21
35.000004503758127
 31
0.0
  0
LINE
  5
3FA
  8
0
 10
383.62730105044852
 20
32.000004503758142
 30
0.0
 11
383.62730105044852
 21
32.051113789843143
 31
0.0
  0
LINE
  5
3FB
  8
0
 10
383.62730105044852
 20
32.051115764324521
 30
0.0
 11
383.62730105044852
 21
32.200966398081484
 31
0.0
  0
LINE
  5
3FC
  8
0
 10
383.62730105044852
 20
32.200966540025362
 30
0.0
 11
383.62730105044852
 21
32.439344110111541
 31
0.0
  0
LINE
  5
3FD
  8
0
 10
383.62730105044852
 20
32.439344331978333
 30
0.0
 11
383.62730105044852
 21
33.500004503758127
 31
0.0
  0
LINE
  5
3FE
  8
0
 10
383.62730105044972
 20
8.0000045037583032
 30
0.0
 11
383.87730105044989
 21
8.0000045037583032
 31
0.0
  0
LINE
  5
3FF
  8
0
 10
383.87730105044989
 20
16.000004503758181
 30
0.0
 11
383.62730105044972
 21
16.000004503758181
 31
0.0
  0
LINE
  5
400
  8
0
 10
383.62730105044852
 20
12.00000450375815
 30
0.0
 11
383.62730105044852
 21
13.035280684168219
 31
0.0
  0
LINE
  5
401
  8
0
 10
383.62730105044852
 20
13.03528142796559
 30
0.0
 11
383.62730105044852
 21
14.0000040555016
 31
0.0
  0
LINE
  5
402
  8
0
 10
383.62730105044852
 20
14.00000450375815
 30
0.0
 11
383.62730105044852
 21
14.82843162850433
 31
0.0
  0
LINE
  5
403
  8
0
 10
383.62730105044852
 20
14.828431849844071
 30
0.0
 11
383.62730105044852
 21
15.464106118895909
 31
0.0
  0
LINE
  5
404
  8
0
 10
383.62730105044852
 20
15.46410697462845
 30
0.0
 11
383.62730105044852
 21
15.863707448683311
 31
0.0
  0
LINE
  5
405
  8
0
 10
383.62730105044852
 20
15.86370780891442
 30
0.0
 11
383.62730105044852
 21
16.000004503758149
 31
0.0
  0
LINE
  5
406
  8
0
 10
383.62730105044852
 20
8.0000045037581646
 30
0.0
 11
383.62730105044852
 21
8.1363008324130135
 31
0.0
  0
LINE
  5
407
  8
0
 10
383.62730105044852
 20
8.1363011986018918
 30
0.0
 11
383.62730105044852
 21
8.5359028886204094
 31
0.0
  0
LINE
  5
408
  8
0
 10
383.62730105044852
 20
8.5359029398326918
 30
0.0
 11
383.62730105044852
 21
9.1715771576712761
 31
0.0
  0
LINE
  5
409
  8
0
 10
383.62730105044852
 20
9.1715773790119712
 30
0.0
 11
383.62730105044852
 21
10.00000424275526
 31
0.0
  0
LINE
  5
40A
  8
0
 10
383.62730105044852
 20
10.00000450375815
 30
0.0
 11
383.62730105044852
 21
12.00000450375815
 31
0.0
  0
LINE
  5
40B
  8
0
 10
-0.0000002920971838
 20
135.37500450375751
 30
0.0
 11
139.7499997078971
 21
135.37500450375751
 31
0.0
  0
LINE
  5
40C
  8
0
 10
139.7499997078971
 20
80.750004503757779
 30
0.0
 11
-0.0000002920971838
 21
80.750004503757779
 31
0.0
  0
LINE
  5
40D
  8
0
 10
-0.0000002920971838
 20
135.37500450375751
 30
0.0
 11
-0.0000002920971838
 21
80.750004503757779
 31
0.0
  0
LINE
  5
40E
  8
0
 10
139.7499997078971
 20
80.750004503757779
 30
0.0
 11
139.7499997078971
 21
135.37500450375751
 31
0.0
  0
LINE
  5
40F
  8
0
 10
-0.0000002920971838
 20
80.750004503757751
 30
0.0
 11
139.74999970790279
 21
80.750004503757751
 31
0.0
  0
LINE
  5
410
  8
0
 10
139.74999970790279
 20
0.0000045037577365
 30
0.0
 11
-0.0000002920971838
 21
0.0000045037577365
 31
0.0
  0
LINE
  5
411
  8
0
 10
139.74999970790279
 20
80.750004503757751
 30
0.0
 11
139.74999970790279
 21
0.0000045037577365
 31
0.0
  0
LINE
  5
412
  8
0
 10
-0.0000002920971838
 20
0.0000045037577365
 30
0.0
 11
-0.0000002920971838
 21
80.750004503757751
 31
0.0
  0
ARC
  5
413
  8
0
 10
69.874999707903726
 20
105.3750045037592
 30
0.0
 40
8.2500000000000018
 50
179.99999999999969
 51
359.99999999999881
  0
ARC
  5
414
  8
0
 10
69.874999707903726
 20
105.3750045037592
 30
0.0
 40
8.25
 50
359.99999999999937
 51
179.99999999999969
  0
ARC
  5
415
  8
0
 10
69.874999707903726
 20
105.3750045037592
 30
0.0
 40
7.6875000000000018
 50
0.0000000000006107
 51
180.0000000000002
  0
ARC
  5
416
  8
0
 10
69.874999707903726
 20
105.3750045037592
 30
0.0
 40
7.6874999999999831
 50
180.00000000000031
 51
359.9999999999996
  0
LINE
  5
417
  8
0
 10
74.997500481891393
 20
102.9331486549618
 30
0.0
 11
74.802560005701025
 21
102.48423992480301
 31
0.0
  0
LINE
  5
418
  8
0
 10
74.802560005701025
 20
102.48423992480301
 30
0.0
 11
74.351667148558136
 21
102.326997861311
 31
0.0
  0
LINE
  5
419
  8
0
 10
74.351667148558136
 20
102.326997861311
 30
0.0
 11
74.027138378716927
 21
102.3912339724221
 31
0.0
  0
LINE
  5
41A
  8
0
 10
74.027138378716927
 20
102.3912339724221
 30
0.0
 11
73.791647307288258
 21
102.5839423057554
 31
0.0
  0
LINE
  5
41B
  8
0
 10
73.791647307288258
 20
102.5839423057554
 30
0.0
 11
73.600675085066086
 21
103.34187881369191
 31
0.0
  0
LINE
  5
41C
  8
0
 10
73.600675085066086
 20
103.34187881369191
 30
0.0
 11
73.784702862843915
 21
104.10576770258081
 31
0.0
  0
LINE
  5
41D
  8
0
 10
73.784702862843915
 20
104.10576770258081
 30
0.0
 11
74.014489569193074
 21
104.295499845438
 31
0.0
  0
LINE
  5
41E
  8
0
 10
74.014489569193074
 20
104.295499845438
 30
0.0
 11
74.335794132685123
 21
104.358743893057
 31
0.0
  0
LINE
  5
41F
  8
0
 10
74.335794132685123
 20
104.358743893057
 30
0.0
 11
74.804048100939099
 21
104.2153907184538
 31
0.0
  0
LINE
  5
420
  8
0
 10
74.804048100939099
 20
104.2153907184538
 30
0.0
 11
74.997500481891393
 21
103.7902915121046
 31
0.0
  0
LINE
  5
421
  8
0
 10
74.997500481891393
 20
103.7902915121046
 30
0.0
 11
76.140357624748503
 21
103.7902915121046
 31
0.0
  0
LINE
  5
422
  8
0
 10
76.140357624748503
 20
103.7902915121046
 30
0.0
 11
75.980139370780307
 21
104.43798496448559
 31
0.0
  0
LINE
  5
423
  8
0
 10
75.980139370780307
 20
104.43798496448559
 30
0.0
 11
75.612579846970903
 21
104.9167796073427
 31
0.0
  0
LINE
  5
424
  8
0
 10
75.612579846970903
 20
104.9167796073427
 30
0.0
 11
75.053552069193074
 21
105.21253853591421
 31
0.0
  0
LINE
  5
425
  8
0
 10
75.053552069193074
 20
105.21253853591421
 30
0.0
 11
74.318929053320062
 21
105.311124845438
 31
0.0
  0
LINE
  5
426
  8
0
 10
74.318929053320062
 20
105.311124845438
 30
0.0
 11
73.520937981891393
 21
105.1791804009935
 31
0.0
  0
LINE
  5
427
  8
0
 10
73.520937981891393
 20
105.1791804009935
 30
0.0
 11
72.910694926335964
 21
104.7833470676602
 31
0.0
  0
LINE
  5
428
  8
0
 10
72.910694926335964
 20
104.7833470676602
 30
0.0
 11
72.523418140621516
 21
104.15933913115229
 31
0.0
  0
LINE
  5
429
  8
0
 10
72.523418140621516
 20
104.15933913115229
 30
0.0
 11
72.394325878716927
 21
103.342870877184
 31
0.0
  0
LINE
  5
42A
  8
0
 10
72.394325878716927
 20
103.342870877184
 30
0.0
 11
72.52403818030416
 21
102.5245425041681
 31
0.0
  0
LINE
  5
42B
  8
0
 10
72.52403818030416
 20
102.5245425041681
 30
0.0
 11
72.913175085066086
 21
101.90090659146971
 31
0.0
  0
LINE
  5
42C
  8
0
 10
72.913175085066086
 20
101.90090659146971
 30
0.0
 11
73.528502466018381
 21
101.5061893295649
 31
0.0
  0
LINE
  5
42D
  8
0
 10
73.528502466018381
 20
101.5061893295649
 30
0.0
 11
74.336786196177172
 21
101.37461690892999
 31
0.0
  0
LINE
  5
42E
  8
0
 10
74.336786196177172
 20
101.37461690892999
 30
0.0
 11
75.059876473955001
 21
101.4767994486126
 31
0.0
  0
LINE
  5
42F
  8
0
 10
75.059876473955001
 20
101.4767994486126
 30
0.0
 11
75.616052069193074
 21
101.7833470676602
 31
0.0
  0
LINE
  5
430
  8
0
 10
75.616052069193074
 20
101.7833470676602
 30
0.0
 11
75.983487585066086
 21
102.2751625438506
 31
0.0
  0
LINE
  5
431
  8
0
 10
75.983487585066086
 20
102.2751625438506
 30
0.0
 11
76.140357624748503
 21
102.9331486549618
 31
0.0
  0
LINE
  5
432
  8
0
 10
76.140357624748503
 20
102.9331486549618
 30
0.0
 11
74.997500481891393
 21
102.9331486549618
 31
0.0
  0
LINE
  5
433
  8
0
 10
67.7757731041238
 20
103.70722284388501
 30
0.0
 11
68.953352469203082
 21
103.70722284388501
 31
0.0
  0
LINE
  5
434
  8
0
 10
68.953352469203082
 20
103.70722284388501
 30
0.0
 11
69.100177866028616
 21
104.2151593518215
 31
0.0
  0
LINE
  5
435
  8
0
 10
69.100177866028616
 20
104.2151593518215
 30
0.0
 11
70.303550881901614
 21
104.2151593518215
 31
0.0
  0
LINE
  5
436
  8
0
 10
70.303550881901614
 20
104.2151593518215
 30
0.0
 11
70.44541596126669
 21
103.70722284388501
 31
0.0
  0
LINE
  5
437
  8
0
 10
70.44541596126669
 20
103.70722284388501
 30
0.0
 11
71.648788977139702
 21
103.70722284388501
 31
0.0
  0
LINE
  5
438
  8
0
 10
71.648788977139702
 20
103.70722284388501
 30
0.0
 11
70.319423897774641
 21
107.5167466534088
 31
0.0
  0
LINE
  5
439
  8
0
 10
70.319423897774641
 20
107.5167466534088
 30
0.0
 11
69.090257231107898
 21
107.5167466534088
 31
0.0
  0
LINE
  5
43A
  8
0
 10
69.090257231107898
 20
107.5167466534088
 30
0.0
 11
67.7757731041238
 21
103.70722284388501
 31
0.0
  0
LINE
  5
43B
  8
0
 10
69.32041596126669
 20
105.04055617721831
 30
0.0
 11
69.706328659679457
 21
106.34412760578969
 31
0.0
  0
LINE
  5
43C
  8
0
 10
69.706328659679457
 20
106.34412760578969
 30
0.0
 11
70.083312786663555
 21
105.04055617721831
 31
0.0
  0
LINE
  5
43D
  8
0
 10
70.083312786663555
 20
105.04055617721831
 30
0.0
 11
69.32041596126669
 21
105.04055617721831
 31
0.0
  0
LINE
  5
43E
  8
0
 10
64.015041913862433
 20
105.4476111530652
 30
0.0
 11
65.714446675767249
 21
105.4476111530652
 31
0.0
  0
LINE
  5
43F
  8
0
 10
65.714446675767249
 20
105.4476111530652
 30
0.0
 11
66.482303818624359
 21
105.48630162925571
 31
0.0
  0
LINE
  5
440
  8
0
 10
66.482303818624359
 20
105.48630162925571
 30
0.0
 11
66.895002231322664
 21
105.61824607370011
 31
0.0
  0
LINE
  5
441
  8
0
 10
66.895002231322664
 20
105.61824607370011
 30
0.0
 11
67.303236358306776
 21
106.0011825816367
 31
0.0
  0
LINE
  5
442
  8
0
 10
67.303236358306776
 20
106.0011825816367
 30
0.0
 11
67.443613342433764
 21
106.58848416893829
 31
0.0
  0
LINE
  5
443
  8
0
 10
67.443613342433764
 20
106.58848416893829
 30
0.0
 11
67.299764136084605
 21
107.1514802006843
 31
0.0
  0
LINE
  5
444
  8
0
 10
67.299764136084605
 20
107.1514802006843
 30
0.0
 11
66.85631175513231
 21
107.4763809943351
 31
0.0
  0
LINE
  5
445
  8
0
 10
66.85631175513231
 20
107.4763809943351
 30
0.0
 11
67.201549850370384
 21
107.7938413117954
 31
0.0
  0
LINE
  5
446
  8
0
 10
67.201549850370384
 20
107.7938413117954
 30
0.0
 11
67.316629215449666
 21
108.2462222641763
 31
0.0
  0
LINE
  5
447
  8
0
 10
67.316629215449666
 20
108.2462222641763
 30
0.0
 11
67.162859374179774
 21
108.8062421054462
 31
0.0
  0
LINE
  5
448
  8
0
 10
67.162859374179774
 20
108.8062421054462
 30
0.0
 11
66.720399056719543
 21
109.14602385147801
 31
0.0
  0
LINE
  5
449
  8
0
 10
66.720399056719543
 20
109.14602385147801
 30
0.0
 11
66.32506175513231
 21
109.2313413117954
 31
0.0
  0
LINE
  5
44A
  8
0
 10
66.32506175513231
 20
109.2313413117954
 30
0.0
 11
65.591430802751347
 21
109.25713496258911
 31
0.0
  0
LINE
  5
44B
  8
0
 10
65.591430802751347
 20
109.25713496258911
 30
0.0
 11
64.015041913862433
 21
109.25713496258911
 31
0.0
  0
LINE
  5
44C
  8
0
 10
64.015041913862433
 20
109.25713496258911
 30
0.0
 11
64.015041913862433
 21
105.4476111530652
 31
0.0
  0
LINE
  5
44D
  8
0
 10
65.221391120211592
 20
106.3365000419541
 30
0.0
 11
65.221391120211592
 21
107.03491274036681
 31
0.0
  0
LINE
  5
44E
  8
0
 10
65.221391120211592
 20
107.03491274036681
 30
0.0
 11
65.770002231322678
 21
107.03491274036681
 31
0.0
  0
LINE
  5
44F
  8
0
 10
65.770002231322678
 20
107.03491274036681
 30
0.0
 11
66.179228421798825
 21
106.9555476610017
 31
0.0
  0
LINE
  5
450
  8
0
 10
66.179228421798825
 20
106.9555476610017
 30
0.0
 11
66.300756199576654
 21
106.6886825816367
 31
0.0
  0
LINE
  5
451
  8
0
 10
66.300756199576654
 20
106.6886825816367
 30
0.0
 11
66.181708580528948
 21
106.4188413117954
 31
0.0
  0
LINE
  5
452
  8
0
 10
66.181708580528948
 20
106.4188413117954
 30
0.0
 11
65.780914929735445
 21
106.3365000419541
 31
0.0
  0
LINE
  5
453
  8
0
 10
65.780914929735445
 20
106.3365000419541
 30
0.0
 11
65.221391120211592
 21
106.3365000419541
 31
0.0
  0
LINE
  5
454
  8
0
 10
65.221391120211592
 20
107.7333254387795
 30
0.0
 11
65.221391120211592
 21
108.36824607370021
 31
0.0
  0
LINE
  5
455
  8
0
 10
65.221391120211592
 20
108.36824607370021
 30
0.0
 11
65.555716517036899
 21
108.36824607370021
 31
0.0
  0
LINE
  5
456
  8
0
 10
65.555716517036899
 20
108.36824607370021
 30
0.0
 11
66.064149056719543
 21
108.3007857562398
 31
0.0
  0
LINE
  5
457
  8
0
 10
66.064149056719543
 20
108.3007857562398
 30
0.0
 11
66.173772072592556
 21
108.0507857562398
 31
0.0
  0
LINE
  5
458
  8
0
 10
66.173772072592556
 20
108.0507857562398
 30
0.0
 11
66.071589532909911
 21
107.80574607370021
 31
0.0
  0
LINE
  5
459
  8
0
 10
66.071589532909911
 20
107.80574607370021
 30
0.0
 11
65.719406993227494
 21
107.7333254387795
 31
0.0
  0
LINE
  5
45A
  8
0
 10
65.719406993227494
 20
107.7333254387795
 30
0.0
 11
65.221391120211592
 21
107.7333254387795
 31
0.0
  0
ARC
  5
45B
  8
0
 10
69.874999707903044
 20
105.3750045037598
 30
0.0
 40
9.0000000000000124
 50
179.99999999999969
 51
359.99999999999881
  0
ARC
  5
45C
  8
0
 10
69.874999707903044
 20
105.3750045037598
 30
0.0
 40
9.0000000000000124
 50
359.99999999999949
 51
179.9999999999996
  0
ARC
  5
45D
  8
0
 10
135.6249997079037
 20
6.6250045037577658
 30
0.0
 40
0.9999999999999854
 50
359.99999999999949
 51
179.99999999999969
  0
ARC
  5
45E
  8
0
 10
135.6249997079037
 20
6.6250045037577658
 30
0.0
 40
1.0000000000000271
 50
180.00000000000011
 51
359.9999999999992
  0
LINE
  5
45F
  8
0
 10
139.74999970790299
 20
49.250004503757957
 30
0.0
 11
139.9999997079035
 21
49.250004503757957
 31
0.0
  0
LINE
  5
460
  8
0
 10
139.9999997079035
 20
50.750004503758298
 30
0.0
 11
139.74999970790299
 21
50.750004503758298
 31
0.0
  0
LINE
  5
461
  8
0
 10
139.74999970790299
 20
32.000004503757957
 30
0.0
 11
139.99999970790321
 21
32.000004503757957
 31
0.0
  0
LINE
  5
462
  8
0
 10
139.99999970790321
 20
35.000004503757957
 30
0.0
 11
139.74999970790299
 21
35.000004503757957
 31
0.0
  0
LINE
  5
463
  8
0
 10
139.99999970790299
 20
50.750004503758127
 30
0.0
 11
139.99999970790299
 21
50.37500450375812
 31
0.0
  0
LINE
  5
464
  8
0
 10
139.99999970790299
 20
50.3750027107317
 30
0.0
 11
139.99999970790299
 21
50.194118787585019
 31
0.0
  0
LINE
  5
465
  8
0
 10
139.99999970790299
 20
50.194117316034529
 30
0.0
 11
139.99999970790299
 21
50.000004503758127
 31
0.0
  0
LINE
  5
466
  8
0
 10
139.99999970790299
 20
50.000002574445581
 30
0.0
 11
139.99999970790299
 21
49.805890219931229
 31
0.0
  0
LINE
  5
467
  8
0
 10
139.99999970790299
 20
49.805887799380173
 30
0.0
 11
139.99999970790299
 21
49.625004503758127
 31
0.0
  0
LINE
  5
468
  8
0
 10
139.99999970790299
 20
49.625002415737782
 30
0.0
 11
139.99999970790299
 21
49.469674417868212
 31
0.0
  0
LINE
  5
469
  8
0
 10
139.99999970790299
 20
49.469671529667423
 30
0.0
 11
139.99999970790299
 21
49.25000450375812
 31
0.0
  0
LINE
  5
46A
  8
0
 10
139.99999970790299
 20
35.000004503758127
 30
0.0
 11
139.99999970790299
 21
34.94889332124837
 31
0.0
  0
LINE
  5
46B
  8
0
 10
139.99999970790299
 20
34.948893243191748
 30
0.0
 11
139.99999970790299
 21
34.25000554776814
 31
0.0
  0
LINE
  5
46C
  8
0
 10
139.99999970790299
 20
34.250004503758149
 30
0.0
 11
139.99999970790299
 21
33.888233071411932
 31
0.0
  0
LINE
  5
46D
  8
0
 10
139.99999970790299
 20
33.888231991884858
 30
0.0
 11
139.99999970790299
 21
33.500005468413583
 31
0.0
  0
LINE
  5
46E
  8
0
 10
139.99999970790299
 20
33.500004503758127
 30
0.0
 11
139.99999970790299
 21
33.111776083844113
 31
0.0
  0
LINE
  5
46F
  8
0
 10
139.99999970790299
 20
33.111775936104351
 30
0.0
 11
139.99999970790299
 21
32.750005400270233
 31
0.0
  0
LINE
  5
470
  8
0
 10
139.99999970790299
 20
32.750004503758127
 30
0.0
 11
139.99999970790299
 21
32.439344331978312
 31
0.0
  0
LINE
  5
471
  8
0
 10
139.99999970790299
 20
32.439344110111527
 30
0.0
 11
139.99999970790299
 21
32.051115764324521
 31
0.0
  0
LINE
  5
472
  8
0
 10
139.99999970790299
 20
32.051113789843143
 30
0.0
 11
139.99999970790299
 21
32.000004503758142
 31
0.0
  0
LINE
  5
473
  8
0
 10
139.74999970790299
 20
8.0000045037583032
 30
0.0
 11
139.99999970790321
 21
8.0000045037583032
 31
0.0
  0
LINE
  5
474
  8
0
 10
139.99999970790321
 20
16.000004503758181
 30
0.0
 11
139.74999970790299
 21
16.000004503758181
 31
0.0
  0
LINE
  5
475
  8
0
 10
139.99999970790299
 20
16.000004503758149
 30
0.0
 11
139.99999970790299
 21
15.46410697462847
 31
0.0
  0
LINE
  5
476
  8
0
 10
139.99999970790299
 20
15.464106118895931
 30
0.0
 11
139.99999970790299
 21
14.828431849844099
 31
0.0
  0
LINE
  5
477
  8
0
 10
139.99999970790299
 20
14.82843162850437
 30
0.0
 11
139.99999970790299
 21
13.03528142796563
 31
0.0
  0
LINE
  5
478
  8
0
 10
139.99999970790299
 20
13.03528068416826
 30
0.0
 11
139.99999970790299
 21
12.000004503758181
 31
0.0
  0
LINE
  5
479
  8
0
 10
139.99999970790299
 20
12.000004503758131
 30
0.0
 11
139.99999970790299
 21
10.00000450375814
 31
0.0
  0
LINE
  5
47A
  8
0
 10
139.99999970790299
 20
10.000004242755249
 30
0.0
 11
139.99999970790299
 21
9.1715773790119641
 31
0.0
  0
LINE
  5
47B
  8
0
 10
139.99999970790299
 20
9.1715771576712708
 30
0.0
 11
139.99999970790299
 21
8.1363011986018883
 31
0.0
  0
LINE
  5
47C
  8
0
 10
139.99999970790299
 20
8.1363008324130117
 30
0.0
 11
139.99999970790299
 21
8.0000045037581646
 31
0.0
  0
LINE
  5
47D
  8
0
 10
210.7781173164399
 20
343.25401730847398
 30
0.0
 11
210.7781173164399
 21
203.50401730847969
 31
0.0
  0
LINE
  5
47E
  8
0
 10
210.7781173164399
 20
203.50401730847969
 30
0.0
 11
304.02811731643709
 21
203.5040173084794
 31
0.0
  0
LINE
  5
47F
  8
0
 10
304.02811731643709
 20
203.5040173084794
 30
0.0
 11
304.02811731643737
 21
343.25401730847381
 31
0.0
  0
LINE
  5
480
  8
0
 10
304.02811731643737
 20
343.25401730847381
 30
0.0
 11
210.7781173164399
 21
343.25401730847398
 31
0.0
  0
LINE
  5
481
  8
0
 10
302.4031173164401
 20
341.62901730847409
 30
0.0
 11
302.40311731643988
 21
205.12901730847409
 31
0.0
1001
ACAD
1000
ASC_BOUNDS
1002
{
1070
    19
1005
4D9
1002
}
  0
LINE
  5
482
  8
0
 10
302.40311731643988
 20
205.12901730847409
 30
0.0
 11
212.4031173164399
 21
205.1290173084744
 31
0.0
1001
ACAD
1000
ASC_BOUNDS
1002
{
1070
    19
1005
4D9
1002
}
  0
LINE
  5
483
  8
0
 10
212.4031173164399
 20
205.1290173084744
 30
0.0
 11
212.4031173164403
 21
341.62901730847432
 31
0.0
1001
ACAD
1000
ASC_BOUNDS
1002
{
1070
    19
1005
4D9
1002
}
  0
LINE
  5
484
  8
0
 10
212.4031173164403
 20
341.62901730847432
 30
0.0
 11
302.4031173164401
 21
341.62901730847409
 31
0.0
1001
ACAD
1000
ASC_BOUNDS
1002
{
1070
    19
1005
4D9
1002
}
  0
LINE
  5
485
  8
0
 10
304.02811731643692
 20
203.504017308474
 30
0.0
 11
305.15311731644061
 21
203.504017308474
 31
0.0
  0
LINE
  5
486
  8
0
 10
305.15311731644061
 20
203.504017308474
 30
0.0
 11
305.15311731644061
 21
343.25401730847392
 31
0.0
  0
LINE
  5
487
  8
0
 10
305.15311731644061
 20
343.25401730847392
 30
0.0
 11
304.02811731643737
 21
343.25401730847392
 31
0.0
  0
LINE
  5
488
  8
0
 10
210.5281173164401
 20
206.62901730847199
 30
0.0
 11
210.7781173164399
 21
206.62901730847199
 31
0.0
  0
LINE
  5
489
  8
0
 10
210.7781173164399
 20
208.62901730847159
 30
0.0
 11
210.5281173164401
 21
208.62901730847159
 31
0.0
  0
LINE
  5
48A
  8
0
 10
210.5281173164399
 20
206.62901730847301
 30
0.0
 11
210.5281173164399
 21
206.663091482184
 31
0.0
  0
LINE
  5
48B
  8
0
 10
210.5281173164399
 20
206.66309306594169
 30
0.0
 11
210.5281173164399
 21
206.76298848454161
 31
0.0
  0
LINE
  5
48C
  8
0
 10
210.5281173164399
 20
206.76299190468859
 30
0.0
 11
210.5281173164399
 21
207.1290171092696
 31
0.0
  0
LINE
  5
48D
  8
0
 10
210.5281173164399
 20
207.1290173084731
 30
0.0
 11
210.5281173164399
 21
207.37019826337061
 31
0.0
  0
LINE
  5
48E
  8
0
 10
210.5281173164399
 20
207.37020129003011
 30
0.0
 11
210.5281173164399
 21
207.6290173084731
 31
0.0
  0
LINE
  5
48F
  8
0
 10
210.5281173164399
 20
207.62902098303431
 30
0.0
 11
210.5281173164399
 21
207.88783635357569
 31
0.0
  0
LINE
  5
490
  8
0
 10
210.5281173164399
 20
207.8878407234233
 30
0.0
 11
210.5281173164399
 21
208.12901355135759
 31
0.0
  0
LINE
  5
491
  8
0
 10
210.5281173164399
 20
208.1290173084731
 30
0.0
 11
210.5281173164399
 21
208.33612408965959
 31
0.0
  0
LINE
  5
492
  8
0
 10
210.5281173164399
 20
208.336129209831
 30
0.0
 11
210.5281173164399
 21
208.49504142036551
 31
0.0
  0
LINE
  5
493
  8
0
 10
210.5281173164399
 20
208.4950427122576
 30
0.0
 11
210.5281173164399
 21
208.5949431347621
 31
0.0
  0
LINE
  5
494
  8
0
 10
210.5281173164399
 20
208.59495293861249
 30
0.0
 11
210.5281173164399
 21
208.62901730847301
 31
0.0
  0
LINE
  5
495
  8
0
 10
304.27811731644061
 20
277.37901730847108
 30
0.0
 11
304.02811731644061
 21
277.37901730847108
 31
0.0
  0
LINE
  5
496
  8
0
 10
304.02811731644061
 20
269.37901730847022
 30
0.0
 11
304.27811731644061
 21
269.37901730847022
 31
0.0
  0
LINE
  5
497
  8
0
 10
304.27811731644027
 20
273.37901615975528
 30
0.0
 11
304.27811731644027
 21
272.34374112806069
 31
0.0
  0
LINE
  5
498
  8
0
 10
304.27811731644027
 20
272.34374069343733
 30
0.0
 11
304.27811731644027
 21
270.55059018372458
 31
0.0
  0
LINE
  5
499
  8
0
 10
304.27811731644027
 20
270.55058863951052
 30
0.0
 11
304.27811731644027
 21
269.91491569333311
 31
0.0
  0
LINE
  5
49A
  8
0
 10
304.27811731644027
 20
269.91491522397098
 30
0.0
 11
304.27811731644027
 21
269.51531400331447
 31
0.0
  0
LINE
  5
49B
  8
0
 10
304.27811731644027
 20
269.51531280117121
 30
0.0
 11
304.27811731644027
 21
269.37901730847079
 31
0.0
  0
LINE
  5
49C
  8
0
 10
304.27811731644027
 20
277.37901730847091
 30
0.0
 11
304.27811731644027
 21
277.24272298851122
 31
0.0
  0
LINE
  5
49D
  8
0
 10
304.27811731644027
 20
277.24272061362711
 30
0.0
 11
304.27811731644027
 21
276.84312016571357
 31
0.0
  0
LINE
  5
49E
  8
0
 10
304.27811731644027
 20
276.84311892360859
 30
0.0
 11
304.27811731644027
 21
274.4142945418547
 31
0.0
  0
LINE
  5
49F
  8
0
 10
304.27811731644027
 20
274.4142934888809
 30
0.0
 11
304.27811731644027
 21
273.37901730847091
 31
0.0
  0
LINE
  5
4A0
  8
0
 10
249.1531173164403
 20
203.25401730847341
 30
0.0
 11
249.1531173164403
 21
203.50401730847389
 31
0.0
  0
LINE
  5
4A1
  8
0
 10
247.6531173164399
 20
203.50401730847389
 30
0.0
 11
247.6531173164399
 21
203.25401730847341
 31
0.0
  0
LINE
  5
4A2
  8
0
 10
217.0281173164401
 20
203.25401730847349
 30
0.0
 11
217.0281173164401
 21
203.50401730847389
 31
0.0
  0
LINE
  5
4A3
  8
0
 10
214.0281173164401
 20
203.50401730847389
 30
0.0
 11
214.0281173164401
 21
203.25401730847349
 31
0.0
  0
LINE
  5
4A4
  8
0
 10
249.1531173164401
 20
203.25401730847369
 30
0.0
 11
248.77811836045609
 21
203.25401730847369
 31
0.0
  0
LINE
  5
4A5
  8
0
 10
248.7781173164401
 20
203.25401730847369
 30
0.0
 11
248.59723302089361
 21
203.25401730847369
 31
0.0
  0
LINE
  5
4A6
  8
0
 10
248.59723160026689
 20
203.25401730847369
 30
0.0
 11
248.40311828110089
 21
203.25401730847369
 31
0.0
  0
LINE
  5
4A7
  8
0
 10
248.4031173164401
 20
203.25401730847369
 30
0.0
 11
247.75359826360179
 21
203.25401730847369
 31
0.0
  0
LINE
  5
4A8
  8
0
 10
247.75359712691011
 20
203.25401730847369
 30
0.0
 11
247.67867294672331
 21
203.25401730847369
 31
0.0
  0
LINE
  5
4A9
  8
0
 10
247.6786729077044
 20
203.25401730847369
 30
0.0
 11
247.6531173164401
 21
203.25401730847369
 31
0.0
  0
LINE
  5
4AA
  8
0
 10
217.0281173164401
 20
203.25401730847381
 30
0.0
 11
216.8271554221167
 21
203.25401730847381
 31
0.0
  0
LINE
  5
4AB
  8
0
 10
216.82715528017661
 20
203.25401730847381
 30
0.0
 11
216.2781194044662
 21
203.25401730847381
 31
0.0
  0
LINE
  5
4AC
  8
0
 10
216.2781173164401
 20
203.25401730847381
 30
0.0
 11
215.91634872534269
 21
203.25401730847381
 31
0.0
  0
LINE
  5
4AD
  8
0
 10
215.9163458840938
 20
203.25401730847381
 30
0.0
 11
215.5281192457571
 21
203.25401730847381
 31
0.0
  0
LINE
  5
4AE
  8
0
 10
215.5281173164401
 20
203.25401730847381
 30
0.0
 11
215.13988982831779
 21
203.25401730847381
 31
0.0
  0
LINE
  5
4AF
  8
0
 10
215.13988874878621
 20
203.25401730847381
 30
0.0
 11
214.2290792107633
 21
203.25401730847381
 31
0.0
  0
LINE
  5
4B0
  8
0
 10
214.2290769373738
 20
203.25401730847381
 30
0.0
 11
214.07922857700649
 21
203.25401730847381
 31
0.0
  0
LINE
  5
4B1
  8
0
 10
214.07922849895891
 20
203.25401730847381
 30
0.0
 11
214.0281173164401
 21
203.25401730847381
 31
0.0
  0
LINE
  5
4B2
  8
0
 10
223.5281173164401
 20
203.25401730847349
 30
0.0
 11
223.5281173164401
 21
203.50401730847389
 31
0.0
  0
LINE
  5
4B3
  8
0
 10
223.5281173164401
 20
203.25401730847381
 30
0.0
 11
223.39182062159651
 21
203.25401730847381
 31
0.0
  0
LINE
  5
4B4
  8
0
 10
223.39181896768201
 20
203.25401730847381
 30
0.0
 11
222.99221916251739
 21
203.25401730847381
 31
0.0
  0
LINE
  5
4B5
  8
0
 10
222.99221893157801
 20
203.25401730847381
 30
0.0
 11
222.3565457734415
 21
203.25401730847381
 31
0.0
  0
LINE
  5
4B6
  8
0
 10
222.35654444118629
 20
203.25401730847381
 30
0.0
 11
221.52811940446671
 21
203.25401730847381
 31
0.0
  0
LINE
  5
4B7
  8
0
 10
221.5281173164401
 20
203.25401730847381
 30
0.0
 11
220.5633937406885
 21
203.25401730847381
 31
0.0
  0
LINE
  5
4B8
  8
0
 10
220.5633934968503
 20
203.25401730847381
 30
0.0
 11
219.5281173164403
 21
203.25401730847381
 31
0.0
  0
LINE
  5
4B9
  8
0
 10
219.52811538713311
 20
203.25401730847381
 30
0.0
 11
217.0079468748886
 21
203.25401730847381
 31
0.0
  0
INSERT
  5
4D0
  8
0
  6
CONTINUOUS
  2
*X3
 10
0.0
 20
0.0
 30
0.0
1001
GRADIENTCOLOR1ACI
1070
     5
1001
GRADIENTCOLOR2ACI
1070
     2
1001
ACAD
1000
HATCH
1002
{
1070
    19
1000
NET
1040
12.0
1040
0.0
1000
ASC_BOUNDS
1070
     3
1070
     1
1070
     4
1005
39A
1005
39B
1005
392
1005
399
1070
     1
1070
     4
1005
390
1005
39B
1005
38E
1005
399
1070
     1
1070
     4
1005
38B
1005
39B
1005
398
1005
399
1000
ASC_SEEDPOINT
1011
397.36200487916062
1021
0.0
1031
0.0
1021
63.937807361708671
1031
0.0
1000
R14_HATCH_DATA
1000
4D0
1011
1.0
1021
0.0
1031
0.0
1021
0.0
1031
0.0
1011
0.0
1021
0.0
1031
0.0
1021
1.0
1031
0.0
1011
0.0
1021
0.0
1031
0.0
1021
0.0
1031
1.0
1040
0.0
1010
0.0
1020
0.0
1030
1.0
1000
NET
1070
     0
1070
     1
1071
        3
1071
        7
1070
     0
1070
     1
1071
        4
1040
410.7523010504471
1040
79.125004503757395
1040
385.50230105044739
1040
79.12500450375714
1040
385.5023010504483
1040
4.0000045037565988
1040
410.7523010504471
1040
4.0000045037568546
1071
        4
1005
399
1005
398
1005
39B
1005
38B
1071
        7
1070
     0
1070
     1
1071
        4
1040
464.76130070511931
1040
79.125004503757964
1040
442.75230105044778
1040
79.125004503757737
1040
442.75230105044778
1040
4.0000045037571894
1040
464.76130070511931
1040
4.0000045037574017
1071
        4
1005
399
1005
38E
1005
39B
1005
390
1071
        7
1070
     0
1070
     1
1071
        4
1040
522.00230105044739
1040
79.125004503758561
1040
496.74431636721692
1040
79.125004503758305
1040
496.74431636721692
1040
4.0000045037577427
1040
522.00230105044807
1040
4.0000045037580056
1071
        4
1005
399
1005
392
1005
39B
1005
39A
1070
     1
1070
     1
1040
0.0
1040
12.0
1070
     0
1070
     2
1040
0.0
1040
0.0
1040
0.0
1040
0.0
1040
1.5
1070
     0
1040
1.5707963267948959
1040
0.0
1040
0.0
1040
-1.5
1040
0.0000000000000001
1070
     0
1040
0.1506384059597427
1071
        3
1040
397.36200487916062
1040
63.937807361708671
1040
0.0
1040
450.26160238539381
1040
52.639926798777651
1040
0.0
1040
513.108134289801
1040
44.957368176887933
1040
0.0
1002
}
  0
INSERT
  5
4D9
  8
0
  6
CONTINUOUS
  2
*X4
 10
0.0
 20
0.0
 30
0.0
1001
GRADIENTCOLOR1ACI
1070
     5
1001
GRADIENTCOLOR2ACI
1070
     2
1001
ACAD
1000
HATCH
1002
{
1070
    19
1000
ANSI31
1040
12.0
1040
2.3561944901923439
1000
ASC_BOUNDS
1070
     1
1070
     1
1070
     4
1005
481
1005
482
1005
483
1005
484
1000
ASC_SEEDPOINT
1011
257.15863357931181
1021
0.0
1031
0.0
1021
308.38081372861291
1031
0.0
1000
R14_HATCH_DATA
1000
4D9
1011
1.0
1021
0.0
1031
0.0
1021
0.0
1031
0.0
1011
0.0
1021
0.0
1031
0.0
1021
1.0
1031
0.0
1011
0.0
1021
0.0
1031
0.0
1021
0.0
1031
1.0
1040
0.0
1010
0.0
1020
0.0
1030
1.0
1000
ANSI31
1070
     0
1070
     1
1071
        1
1071
        7
1070
     0
1070
     1
1071
        4
1040
302.4031173164401
1040
341.62901730847409
1040
212.4031173164403
1040
341.62901730847432
1040
212.4031173164399
1040
205.1290173084744
1040
302.40311731643988
1040
205.12901730847409
1071
        4
1005
484
1005
483
1005
482
1005
481
1070
     1
1070
     1
1040
2.3561944901923439
1040
12.0
1070
     0
1070
     1
1040
3.1415926535897931
1040
0.0
1040
0.0
1040
-0.0000000000000002
1040
-1.5
1070
     0
1040
0.2430556745164029
1071
        1
1040
257.15863357931181
1040
308.38081372861291
1040
0.0
1002
}
  0
ENDSEC
  0
EOF
