  0
SECTION
  2
HEADER
  9
$ACADVER
  1
AC1015
  9
$ACADMAINTVER
 70
    20
  9
$DWGCODEPAGE
  3
ANSI_1252
  9
$INSBASE
 10
0.0
 20
0.0
 30
0.0
  9
$EXTMIN
 10
1.15639124745121
 20
-0.0100207673873456
 30
-0.0000000000000053
  9
$EXTMAX
 10
670.685551550396
 20
436.6345522092761
 30
0.0000000000000099
  9
$LIMMIN
 10
0.0
 20
0.0
  9
$LIMMAX
 10
12.0
 20
9.0
  9
$ORTHOMODE
 70
     0
  9
$REGENMODE
 70
     1
  9
$FILLMODE
 70
     1
  9
$QTEXTMODE
 70
     0
  9
$MIRRTEXT
 70
     0
  9
$LTSCALE
 40
1.0
  9
$ATTMODE
 70
     1
  9
$TEXTSIZE
 40
0.2
  9
$TRACEWID
 40
0.05
  9
$TEXTSTYLE
  7
ROMANS
  9
$CLAYER
  8
0
  9
$CELTYPE
  6
ByLayer
  9
$CECOLOR
 62
   256
  9
$CELTSCALE
 40
1.0
  9
$DISPSILH
 70
     0
  9
$DIMSCALE
 40
1.0
  9
$DIMASZ
 40
0.09375
  9
$DIMEXO
 40
0.0625
  9
$DIMDLI
 40
0.375
  9
$DIMRND
 40
0.0
  9
$DIMDLE
 40
0.0
  9
$DIMEXE
 40
0.03125
  9
$DIMTP
 40
0.0
  9
$DIMTM
 40
0.0
  9
$DIMTXT
 40
0.09375
  9
$DIMCEN
 40
0.09375
  9
$DIMTSZ
 40
0.0
  9
$DIMTOL
 70
     0
  9
$DIMLIM
 70
     0
  9
$DIMTIH
 70
     0
  9
$DIMTOH
 70
     0
  9
$DIMSE1
 70
     0
  9
$DIMSE2
 70
     0
  9
$DIMTAD
 70
     0
  9
$DIMZIN
 70
     0
  9
$DIMBLK
  1

  9
$DIMASO
 70
     1
  9
$DIMSHO
 70
     1
  9
$DIMPOST
  1

  9
$DIMAPOST
  1

  9
$DIMALT
 70
     0
  9
$DIMALTD
 70
     2
  9
$DIMALTF
 40
25.4
  9
$DIMLFAC
 40
1.0
  9
$DIMTOFL
 70
     0
  9
$DIMTVP
 40
0.0
  9
$DIMTIX
 70
     0
  9
$DIMSOXD
 70
     0
  9
$DIMSAH
 70
     0
  9
$DIMBLK1
  1

  9
$DIMBLK2
  1

  9
$DIMSTYLE
  2
BAC
  9
$DIMCLRD
 70
     0
  9
$DIMCLRE
 70
     6
  9
$DIMCLRT
 70
     0
  9
$DIMTFAC
 40
1.0
  9
$DIMGAP
 40
0.0625
  9
$DIMJUST
 70
     0
  9
$DIMSD1
 70
     0
  9
$DIMSD2
 70
     0
  9
$DIMTOLJ
 70
     1
  9
$DIMTZIN
 70
     0
  9
$DIMALTZ
 70
     0
  9
$DIMALTTZ
 70
     0
  9
$DIMUPT
 70
     0
  9
$DIMDEC
 70
     4
  9
$DIMTDEC
 70
     4
  9
$DIMALTU
 70
     2
  9
$DIMALTTD
 70
     2
  9
$DIMTXSTY
  7
STANDARD
  9
$DIMAUNIT
 70
     0
  9
$DIMADEC
 70
     0
  9
$DIMALTRND
 40
0.0
  9
$DIMAZIN
 70
     0
  9
$DIMDSEP
 70
    46
  9
$DIMATFIT
 70
     3
  9
$DIMFRAC
 70
     0
  9
$DIMLDRBLK
  1

  9
$DIMLUNIT
 70
     2
  9
$DIMLWD
 70
    -2
  9
$DIMLWE
 70
    -2
  9
$DIMTMOVE
 70
     0
  9
$LUNITS
 70
     5
  9
$LUPREC
 70
     6
  9
$SKETCHINC
 40
0.1
  9
$FILLETRAD
 40
0.5
  9
$AUNITS
 70
     0
  9
$AUPREC
 70
     0
  9
$MENU
  1
.
  9
$ELEVATION
 40
0.0
  9
$PELEVATION
 40
0.0
  9
$THICKNESS
 40
0.0
  9
$LIMCHECK
 70
     0
  9
$CHAMFERA
 40
0.5
  9
$CHAMFERB
 40
0.5
  9
$CHAMFERC
 40
0.0
  9
$CHAMFERD
 40
0.0
  9
$SKPOLY
 70
     0
  9
$TDCREATE
 40
2456828.723376308
  9
$TDUCREATE
 40
2456828.890042975
  9
$TDUPDATE
 40
2457205.359180730
  9
$TDUUPDATE
 40
2457205.525847396
  9
$TDINDWG
 40
0.0875132986
  9
$TDUSRTIMER
 40
0.0875123843
  9
$USRTIMER
 70
     1
  9
$ANGBASE
 50
0.0
  9
$ANGDIR
 70
     0
  9
$PDMODE
 70
     0
  9
$PDSIZE
 40
0.0
  9
$PLINEWID
 40
0.0
  9
$SPLFRAME
 70
     0
  9
$SPLINETYPE
 70
     6
  9
$SPLINESEGS
 70
     8
  9
$HANDSEED
  5
F0D
  9
$SURFTAB1
 70
     6
  9
$SURFTAB2
 70
     6
  9
$SURFTYPE
 70
     6
  9
$SURFU
 70
     6
  9
$SURFV
 70
     6
  9
$UCSBASE
  2

  9
$UCSNAME
  2

  9
$UCSORG
 10
0.0
 20
0.0
 30
0.0
  9
$UCSXDIR
 10
1.0
 20
0.0
 30
0.0
  9
$UCSYDIR
 10
0.0
 20
1.0
 30
0.0
  9
$UCSORTHOREF
  2

  9
$UCSORTHOVIEW
 70
     0
  9
$UCSORGTOP
 10
0.0
 20
0.0
 30
0.0
  9
$UCSORGBOTTOM
 10
0.0
 20
0.0
 30
0.0
  9
$UCSORGLEFT
 10
0.0
 20
0.0
 30
0.0
  9
$UCSORGRIGHT
 10
0.0
 20
0.0
 30
0.0
  9
$UCSORGFRONT
 10
0.0
 20
0.0
 30
0.0
  9
$UCSORGBACK
 10
0.0
 20
0.0
 30
0.0
  9
$PUCSBASE
  2

  9
$PUCSNAME
  2

  9
$PUCSORG
 10
0.0
 20
0.0
 30
0.0
  9
$PUCSXDIR
 10
1.0
 20
0.0
 30
0.0
  9
$PUCSYDIR
 10
0.0
 20
1.0
 30
0.0
  9
$PUCSORTHOREF
  2

  9
$PUCSORTHOVIEW
 70
     0
  9
$PUCSORGTOP
 10
0.0
 20
0.0
 30
0.0
  9
$PUCSORGBOTTOM
 10
0.0
 20
0.0
 30
0.0
  9
$PUCSORGLEFT
 10
0.0
 20
0.0
 30
0.0
  9
$PUCSORGRIGHT
 10
0.0
 20
0.0
 30
0.0
  9
$PUCSORGFRONT
 10
0.0
 20
0.0
 30
0.0
  9
$PUCSORGBACK
 10
0.0
 20
0.0
 30
0.0
  9
$USERI1
 70
     0
  9
$USERI2
 70
     0
  9
$USERI3
 70
     0
  9
$USERI4
 70
     0
  9
$USERI5
 70
     0
  9
$USERR1
 40
0.0
  9
$USERR2
 40
0.0
  9
$USERR3
 40
0.0
  9
$USERR4
 40
0.0
  9
$USERR5
 40
0.0
  9
$WORLDVIEW
 70
     1
  9
$SHADEDGE
 70
     3
  9
$SHADEDIF
 70
    70
  9
$TILEMODE
 70
     1
  9
$MAXACTVP
 70
    48
  9
$PINSBASE
 10
0.0
 20
0.0
 30
0.0
  9
$PLIMCHECK
 70
     0
  9
$PEXTMIN
 10
1.000000000000000E+20
 20
1.000000000000000E+20
 30
1.000000000000000E+20
  9
$PEXTMAX
 10
-1.000000000000000E+20
 20
-1.000000000000000E+20
 30
-1.000000000000000E+20
  9
$PLIMMIN
 10
0.0
 20
0.0
  9
$PLIMMAX
 10
12.0
 20
9.0
  9
$UNITMODE
 70
     0
  9
$VISRETAIN
 70
     1
  9
$PLINEGEN
 70
     0
  9
$PSLTSCALE
 70
     1
  9
$TREEDEPTH
 70
  3020
  9
$CMLSTYLE
  2
Standard
  9
$CMLJUST
 70
     0
  9
$CMLSCALE
 40
1.0
  9
$PROXYGRAPHICS
 70
     1
  9
$MEASUREMENT
 70
     0
  9
$CELWEIGHT
370
    -1
  9
$ENDCAPS
280
     0
  9
$JOINSTYLE
280
     0
  9
$LWDISPLAY
290
     0
  9
$INSUNITS
 70
     0
  9
$HYPERLINKBASE
  1

  9
$STYLESHEET
  1

  9
$XEDIT
290
     1
  9
$CEPSNTYPE
380
     0
  9
$PSTYLEMODE
290
     1
  9
$FINGERPRINTGUID
  2
{CCC0C92E-2161-4645-A086-B6B41F7FFD2C}
  9
$VERSIONGUID
  2
{F66003D8-6902-4AFD-8887-5FAAE53CA3AE}
  9
$EXTNAMES
290
     1
  9
$PSVPSCALE
 40
0.0
  9
$OLESTARTUP
290
     0
  0
ENDSEC
  0
SECTION
  2
CLASSES
  0
CLASS
  1
ACDBDICTIONARYWDFLT
  2
AcDbDictionaryWithDefault
  3
ObjectDBX Classes
 90
        0
280
     0
281
     0
  0
CLASS
  1
MATERIAL
  2
AcDbMaterial
  3
ObjectDBX Classes
 90
     1153
280
     0
281
     0
  0
CLASS
  1
VISUALSTYLE
  2
AcDbVisualStyle
  3
ObjectDBX Classes
 90
     4095
280
     0
281
     0
  0
CLASS
  1
SCALE
  2
AcDbScale
  3
ObjectDBX Classes
 90
     1153
280
     0
281
     0
  0
CLASS
  1
TABLESTYLE
  2
AcDbTableStyle
  3
ObjectDBX Classes
 90
     4095
280
     0
281
     0
  0
CLASS
  1
MLEADERSTYLE
  2
AcDbMLeaderStyle
  3
ACDB_MLEADERSTYLE_CLASS
 90
     4095
280
     0
281
     0
  0
CLASS
  1
ACDBSECTIONVIEWSTYLE
  2
AcDbSectionViewStyle
  3
ObjectDBX Classes
 90
     1025
280
     0
281
     0
  0
CLASS
  1
ACDBDETAILVIEWSTYLE
  2
AcDbDetailViewStyle
  3
ObjectDBX Classes
 90
     1025
280
     0
281
     0
  0
CLASS
  1
EXACXREFPANELOBJECT
  2
ExAcXREFPanelObject
  3
EXAC_ESW
 90
     1025
280
     0
281
     0
  0
CLASS
  1
NPOCOLLECTION
  2
AcDbImpNonPersistentObjectsCollection
  3
ObjectDBX Classes
 90
     1153
280
     0
281
     0
  0
CLASS
  1
DICTIONARYVAR
  2
AcDbDictionaryVar
  3
ObjectDBX Classes
 90
        0
280
     0
281
     0
  0
CLASS
  1
CELLSTYLEMAP
  2
AcDbCellStyleMap
  3
ObjectDBX Classes
 90
     1152
280
     0
281
     0
  0
CLASS
  1
ACDBPLACEHOLDER
  2
AcDbPlaceHolder
  3
ObjectDBX Classes
 90
        0
280
     0
281
     0
  0
CLASS
  1
LAYOUT
  2
AcDbLayout
  3
ObjectDBX Classes
 90
        0
280
     0
281
     0
  0
ENDSEC
  0
SECTION
  2
TABLES
  0
TABLE
  2
VPORT
  5
6EF
330
0
100
AcDbSymbolTable
 70
     1
  0
VPORT
  5
75C
330
6EF
100
AcDbSymbolTableRecord
100
AcDbViewportTableRecord
  2
*ACTIVE
 70
     0
 10
0.0
 20
0.0
 11
1.0
 21
1.0
 12
335.9209713989236
 22
218.3122657209445
 13
0.0
 23
0.0
 14
0.5
 24
0.5
 15
0.5
 25
0.5
 16
0.0
 26
0.0
 36
1.0
 17
0.0
 27
0.0
 37
0.0
 40
439.7972413736069
 41
2.30722891566265
 42
50.0
 43
0.0
 44
0.0
 50
0.0
 51
0.0
 71
     0
 72
   100
 73
     1
 74
     1
 75
     0
 76
     0
 77
     0
 78
     0
281
     0
 65
     1
110
0.0
120
0.0
130
0.0
111
1.0
121
0.0
131
0.0
112
0.0
122
1.0
132
0.0
 79
     0
146
0.0
1001
ACAD_NAV_VCDISPLAY
1070
     3
  0
ENDTAB
  0
TABLE
  2
LTYPE
  5
6EC
330
0
100
AcDbSymbolTable
 70
    11
  0
LTYPE
  5
741
330
6EC
100
AcDbSymbolTableRecord
100
AcDbLinetypeTableRecord
  2
ByBlock
 70
     0
  3

 72
    65
 73
     0
 40
0.0
  0
LTYPE
  5
742
330
6EC
100
AcDbSymbolTableRecord
100
AcDbLinetypeTableRecord
  2
ByLayer
 70
     0
  3

 72
    65
 73
     0
 40
0.0
  0
LTYPE
  5
743
330
6EC
100
AcDbSymbolTableRecord
100
AcDbLinetypeTableRecord
  2
CONTINUOUS
 70
     0
  3
Solid line
 72
    65
 73
     0
 40
0.0
  0
LTYPE
  5
74F
330
6EC
100
AcDbSymbolTableRecord
100
AcDbLinetypeTableRecord
  2
PHANTOM2
 70
     0
  3
Phantom (.5x) ___ _ _ ___ _ _ ___ _ _ ___ _ _
 72
    65
 73
     6
 40
1.25
 49
0.625
 74
     0
 49
-0.125
 74
     0
 49
0.125
 74
     0
 49
-0.125
 74
     0
 49
0.125
 74
     0
 49
-0.125
 74
     0
  0
LTYPE
  5
75D
330
6EC
100
AcDbSymbolTableRecord
100
AcDbLinetypeTableRecord
  2
CENTER
 70
     0
  3
Center ____ _ ____ _ ____ _ ____ _ ____ _ ____
 72
    65
 73
     4
 40
2.0
 49
1.25
 74
     0
 49
-0.25
 74
     0
 49
0.25
 74
     0
 49
-0.25
 74
     0
  0
LTYPE
  5
75E
330
6EC
100
AcDbSymbolTableRecord
100
AcDbLinetypeTableRecord
  2
CENTER2
 70
     0
  3
Center (.5x) ___ _ ___ _ ___ _ ___ _ ___ _ ___
 72
    65
 73
     4
 40
1.125
 49
0.75
 74
     0
 49
-0.125
 74
     0
 49
0.125
 74
     0
 49
-0.125
 74
     0
  0
LTYPE
  5
75F
330
6EC
100
AcDbSymbolTableRecord
100
AcDbLinetypeTableRecord
  2
HIDDEN
 70
     0
  3
Hidden __ __ __ __ __ __ __ __ __ __ __ __ __ _
 72
    65
 73
     2
 40
0.375
 49
0.25
 74
     0
 49
-0.125
 74
     0
  0
LTYPE
  5
760
330
6EC
100
AcDbSymbolTableRecord
100
AcDbLinetypeTableRecord
  2
HIDDEN2
 70
     0
  3
Hidden (.5x) _ _ _ _ _ _ _ _ _ _ _ _ _ _ _ _ _
 72
    65
 73
     2
 40
0.1875
 49
0.125
 74
     0
 49
-0.0625
 74
     0
  0
LTYPE
  5
761
330
6EC
100
AcDbSymbolTableRecord
100
AcDbLinetypeTableRecord
  2
AMCONSTR
 70
     0
  3
_______________________
 72
    65
 73
     2
 40
9999.0
 49
9999.0
 74
     0
 49
0.0
 74
     0
  0
LTYPE
  5
762
330
6EC
100
AcDbSymbolTableRecord
100
AcDbLinetypeTableRecord
  2
AMZIGZAG2
 70
     0
  3
/\/-/\/-/\/-/\/-/\/-/\/
 72
    65
 73
     2
 40
0.4401
 49
0.0001
 74
     0
 49
-0.4400000000000003
 74
     0
  0
LTYPE
  5
763
330
6EC
100
AcDbSymbolTableRecord
100
AcDbLinetypeTableRecord
  2
ACANSTGB
 70
     0
  3
__ . . __ . .
 72
    65
 73
     6
 40
0.35433070866
 49
0.15748031496
 74
     0
 49
-0.03937007874
 74
     0
 49
0.03937007874
 74
     0
 49
-0.03937007874
 74
     0
 49
0.03937007874
 74
     0
 49
-0.03937007874
 74
     0
  0
LTYPE
  5
764
330
6EC
100
AcDbSymbolTableRecord
100
AcDbLinetypeTableRecord
  2
ACANSTGL
 70
     0
  3
_ _ _ _ _
 72
    65
 73
     2
 40
0.11811023622
 49
0.07874015748
 74
     0
 49
-0.03937007874
 74
     0
  0
ENDTAB
  0
TABLE
  2
LAYER
  5
6E9
330
0
100
AcDbSymbolTable
 70
     1
  0
LAYER
  5
73B
102
{ACAD_XDICTIONARY
360
78F
102
}
330
6E9
100
AcDbSymbolTableRecord
100
AcDbLayerTableRecord
  2
0
 70
     0
 62
     7
  6
CONTINUOUS
370
    -3
390
6F6
  0
ENDTAB
  0
TABLE
  2
STYLE
  5
6EA
330
0
100
AcDbSymbolTable
 70
     5
  0
STYLE
  5
73C
330
6EA
100
AcDbSymbolTableRecord
100
AcDbTextStyleTableRecord
  2
STANDARD
 70
     0
 40
0.0
 41
1.0
 50
0.0
 71
     0
 42
0.2
  3
txt
  4

  0
STYLE
  5
740
330
6EA
100
AcDbSymbolTableRecord
100
AcDbTextStyleTableRecord
  2
Annotative
 70
     0
 40
0.0
 41
1.0
 50
0.0
 71
     0
 42
0.2
  3
txt
  4

1001
AcadAnnotative
1000
AnnotativeData
1002
{
1070
     1
1070
     1
1002
}
  0
STYLE
  5
75B
330
6EA
100
AcDbSymbolTableRecord
100
AcDbTextStyleTableRecord
  2
ROMANS
 70
     0
 40
0.0
 41
0.75
 50
0.0
 71
     0
 42
0.2
  3
romans.shx
  4

  0
STYLE
  5
765
330
6EA
100
AcDbSymbolTableRecord
100
AcDbTextStyleTableRecord
  2

 70
     1
 40
0.0
 41
1.0
 50
0.0
 71
     0
 42
0.2
  3
genltshp.shx
  4

  0
STYLE
  5
766
330
6EA
100
AcDbSymbolTableRecord
100
AcDbTextStyleTableRecord
  2
ACANSGDT
 70
     0
 40
0.0
 41
1.0
 50
0.0
 71
     0
 42
0.2
  3
amgdt.shx
  4

  0
ENDTAB
  0
TABLE
  2
VIEW
  5
6ED
330
0
100
AcDbSymbolTable
 70
     0
  0
ENDTAB
  0
TABLE
  2
UCS
  5
6EE
330
0
100
AcDbSymbolTable
 70
     0
  0
ENDTAB
  0
TABLE
  2
APPID
  5
6F0
330
0
100
AcDbSymbolTable
 70
    16
  0
APPID
  5
73D
330
6F0
100
AcDbSymbolTableRecord
100
AcDbRegAppTableRecord
  2
ACAD
 70
     0
  0
APPID
  5
744
330
6F0
100
AcDbSymbolTableRecord
100
AcDbRegAppTableRecord
  2
AcadAnnotative
 70
     0
  0
APPID
  5
767
330
6F0
100
AcDbSymbolTableRecord
100
AcDbRegAppTableRecord
  2
ACAD_MLEADERVER
 70
     0
  0
APPID
  5
768
330
6F0
100
AcDbSymbolTableRecord
100
AcDbRegAppTableRecord
  2
ACAD_DSTYLE_DIMJAG
 70
     0
  0
APPID
  5
769
330
6F0
100
AcDbSymbolTableRecord
100
AcDbRegAppTableRecord
  2
ACAD_DSTYLE_DIMTALN
 70
     0
  0
APPID
  5
76A
330
6F0
100
AcDbSymbolTableRecord
100
AcDbRegAppTableRecord
  2
ACAD_PSEXT
 70
     0
  0
APPID
  5
76B
330
6F0
100
AcDbSymbolTableRecord
100
AcDbRegAppTableRecord
  2
ACADANNOPO
 70
     0
  0
APPID
  5
76C
330
6F0
100
AcDbSymbolTableRecord
100
AcDbRegAppTableRecord
  2
MCAD_NO_VIS
 70
     0
  0
APPID
  5
76D
330
6F0
100
AcDbSymbolTableRecord
100
AcDbRegAppTableRecord
  2
ACAD_TEMP_GRAPHIC
 70
     0
  0
APPID
  5
76E
330
6F0
100
AcDbSymbolTableRecord
100
AcDbRegAppTableRecord
  2
ACATTRIBSERVICES
 70
     0
  0
APPID
  5
76F
330
6F0
100
AcDbSymbolTableRecord
100
AcDbRegAppTableRecord
  2
DESIGNERASSEMBLIES
 70
     0
  0
APPID
  5
770
330
6F0
100
AcDbSymbolTableRecord
100
AcDbRegAppTableRecord
  2
ACAD_DSTYLE_DIMBREAK
 70
     0
  0
APPID
  5
771
330
6F0
100
AcDbSymbolTableRecord
100
AcDbRegAppTableRecord
  2
ACAD_NAV_VCDISPLAY
 70
     0
  0
APPID
  5
772
330
6F0
100
AcDbSymbolTableRecord
100
AcDbRegAppTableRecord
  2
GRADIENTCOLOR1ACI
 70
     0
  0
APPID
  5
773
330
6F0
100
AcDbSymbolTableRecord
100
AcDbRegAppTableRecord
  2
GRADIENTCOLOR2ACI
 70
     0
  0
APPID
  5
7D7
330
6F0
100
AcDbSymbolTableRecord
100
AcDbRegAppTableRecord
  2
ACAD_EXEMPT_FROM_CAD_STANDARDS
 70
     0
  0
ENDTAB
  0
TABLE
  2
DIMSTYLE
  5
6F1
330
0
100
AcDbSymbolTable
 70
    10
100
AcDbDimStyleTable
 71
     1
340
774
  0
DIMSTYLE
105
73E
330
6F1
100
AcDbSymbolTableRecord
100
AcDbDimStyleTableRecord
  2
STANDARD
 70
     0
271
     6
272
     6
273
     5
277
     5
279
     2
340
75B
  0
DIMSTYLE
105
73F
330
6F1
100
AcDbSymbolTableRecord
100
AcDbDimStyleTableRecord
  2
Annotative
 70
     0
340
73C
1001
AcadAnnotative
1000
AnnotativeData
1002
{
1070
     1
1070
     1
1002
}
  0
DIMSTYLE
105
774
330
6F1
100
AcDbSymbolTableRecord
100
AcDbDimStyleTableRecord
  2
BAC
 70
     0
 41
0.09375
 43
0.375
 44
0.03125
 73
     0
 74
     0
140
0.09375
141
0.09375
147
0.0625
177
     6
271
     6
272
     6
273
     5
277
     5
279
     2
340
75B
  0
DIMSTYLE
105
775
330
6F1
100
AcDbSymbolTableRecord
100
AcDbDimStyleTableRecord
  2
AM_ANSI
 70
     0
  4
mm
 41
0.12
 42
0.05
 43
0.5
 44
0.1
 47
0.1
 48
0.1
 78
     7
140
0.12
141
0.0
146
0.71
147
0.06
176
   256
177
   256
178
     2
271
     6
272
     6
273
     5
277
     5
279
     2
340
75B
  0
DIMSTYLE
105
776
330
6F1
100
AcDbSymbolTableRecord
100
AcDbDimStyleTableRecord
  2
AM_ANSI$3
 70
     0
  4
mm
 41
0.12
 42
0.05
 43
0.5
 44
0.1
 47
0.1
 48
0.1
 78
     7
140
0.12
141
0.0
146
0.71
147
0.06
176
   256
177
   256
178
     2
271
     6
272
     6
273
     5
277
     5
279
     2
340
75B
  0
DIMSTYLE
105
777
330
6F1
100
AcDbSymbolTableRecord
100
AcDbDimStyleTableRecord
  2
AM_ANSI$4
 70
     0
  4
mm
 41
0.12
 42
0.05
 43
0.5
 44
0.1
 47
0.1
 48
0.1
 78
     7
140
0.12
141
0.0
146
0.71
147
0.06
176
   256
177
   256
178
     2
271
     6
272
     6
273
     5
277
     5
279
     2
340
75B
  0
DIMSTYLE
105
778
330
6F1
100
AcDbSymbolTableRecord
100
AcDbDimStyleTableRecord
  2
AM_ANSI$7
 70
     0
  4
mm
 41
0.12
 42
0.05
 43
0.5
 44
0.1
 47
0.1
 48
0.1
 78
     7
140
0.12
141
0.0
146
0.71
147
0.06
176
   256
177
   256
178
     2
271
     6
272
     6
273
     5
277
     5
279
     2
340
75B
  0
DIMSTYLE
105
779
330
6F1
100
AcDbSymbolTableRecord
100
AcDbDimStyleTableRecord
  2
AM_ANSI$SF
 70
     0
  4
mm
 41
0.12
 42
0.05
 43
0.5
 44
0.1
 47
0.1
 48
0.1
 75
     1
 76
     1
 78
     7
140
0.12
141
0.0
146
0.71
147
0.06
176
   256
177
   256
178
     2
271
     6
272
     6
273
     5
277
     5
279
     2
340
75B
  0
DIMSTYLE
105
77A
330
6F1
100
AcDbSymbolTableRecord
100
AcDbDimStyleTableRecord
  2
AM_ANSI$SH
 70
     0
  4
mm
 41
0.12
 42
0.05
 43
0.5
 44
0.1
 47
0.1
 48
0.1
 75
     1
 76
     1
 78
     7
140
0.12
141
0.0
146
0.71
147
0.06
173
     1
176
   256
177
   256
178
     2
271
     6
272
     6
273
     5
277
     5
279
     2
340
75B
  0
ENDTAB
  0
TABLE
  2
BLOCK_RECORD
  5
6E8
330
0
100
AcDbSymbolTable
 70
     9
  0
BLOCK_RECORD
  5
757
330
6E8
100
AcDbSymbolTableRecord
100
AcDbBlockTableRecord
  2
*Model_Space
340
75A
  0
BLOCK_RECORD
  5
753
330
6E8
100
AcDbSymbolTableRecord
100
AcDbBlockTableRecord
  2
*Paper_Space
340
756
  0
BLOCK_RECORD
  5
77F
330
6E8
100
AcDbSymbolTableRecord
100
AcDbBlockTableRecord
  2
$MODEL_SPACE
340
0
  0
BLOCK_RECORD
  5
781
330
6E8
100
AcDbSymbolTableRecord
100
AcDbBlockTableRecord
  2
$PAPER_SPACE
340
0
  0
BLOCK_RECORD
  5
783
330
6E8
100
AcDbSymbolTableRecord
100
AcDbBlockTableRecord
  2
*U2
340
0
  0
BLOCK_RECORD
  5
785
330
6E8
100
AcDbSymbolTableRecord
100
AcDbBlockTableRecord
  2
GENAXEH
340
0
  0
BLOCK_RECORD
  5
787
330
6E8
100
AcDbSymbolTableRecord
100
AcDbBlockTableRecord
  2
*X4
340
0
  0
BLOCK_RECORD
  5
AC1
330
6E8
100
AcDbSymbolTableRecord
100
AcDbBlockTableRecord
  2
*X5
340
0
102
{BLKREFS
331
D72
102
}
  0
ENDTAB
  0
ENDSEC
  0
SECTION
  2
BLOCKS
  0
BLOCK
  5
758
330
757
100
AcDbEntity
  8
0
100
AcDbBlockBegin
  2
*Model_Space
 70
     0
 10
0.0
 20
0.0
 30
0.0
  3
*Model_Space
  1

  0
ENDBLK
  5
759
330
757
100
AcDbEntity
  8
0
100
AcDbBlockEnd
  0
BLOCK
  5
754
330
753
100
AcDbEntity
 67
     1
  8
0
100
AcDbBlockBegin
  2
*Paper_Space
 70
     0
 10
0.0
 20
0.0
 30
0.0
  3
*Paper_Space
  1

  0
ENDBLK
  5
755
330
753
100
AcDbEntity
 67
     1
  8
0
100
AcDbBlockEnd
  0
BLOCK
  5
780
330
77F
100
AcDbEntity
  8
0
100
AcDbBlockBegin
  2
$MODEL_SPACE
 70
     0
 10
0.0
 20
0.0
 30
0.0
  3
$MODEL_SPACE
  1

  0
ENDBLK
  5
1A
330
77F
100
AcDbEntity
  8
0
100
AcDbBlockEnd
  0
BLOCK
  5
782
330
781
100
AcDbEntity
  8
0
100
AcDbBlockBegin
  2
$PAPER_SPACE
 70
     0
 10
0.0
 20
0.0
 30
0.0
  3
$PAPER_SPACE
  1

  0
ENDBLK
  5
17
330
781
100
AcDbEntity
  8
0
100
AcDbBlockEnd
  0
BLOCK
  5
784
330
783
100
AcDbEntity
  8
0
100
AcDbBlockBegin
  2
*U2
 70
     1
 10
0.0
 20
0.0
 30
0.0
  3
*U2
  1

  0
ENDBLK
  5
17A
330
783
100
AcDbEntity
  8
0
100
AcDbBlockEnd
  0
BLOCK
  5
786
330
785
100
AcDbEntity
  8
0
100
AcDbBlockBegin
  2
GENAXEH
 70
     0
 10
0.0
 20
0.0
 30
0.0
  3
GENAXEH
  1

  0
LINE
  5
1AD
330
785
100
AcDbEntity
  8
0
100
AcDbLine
 10
-1.0
 20
0.0
 30
0.0
 11
1.0
 21
0.0
 31
0.0
  0
ENDBLK
  5
1AF
330
785
100
AcDbEntity
  8
0
100
AcDbBlockEnd
  0
BLOCK
  5
788
330
787
100
AcDbEntity
  8
0
100
AcDbBlockBegin
  2
*X4
 70
     1
 10
0.0
 20
0.0
 30
0.0
  3
*X4
  1

  0
LINE
  5
567
330
787
100
AcDbEntity
  8
0
 62
     0
100
AcDbLine
 10
595.2518166441866
 20
4.000004503757993
 30
0.0
 11
595.2518166441866
 21
98.37500450375856
 31
0.0
  0
LINE
  5
568
330
787
100
AcDbEntity
  8
0
 62
     0
100
AcDbLine
 10
593.7518166441866
 20
4.000004503757979
 30
0.0
 11
593.7518166441866
 21
98.37500450375856
 31
0.0
  0
LINE
  5
569
330
787
100
AcDbEntity
  8
0
 62
     0
100
AcDbLine
 10
592.2518166441866
 20
4.000004503757968
 30
0.0
 11
592.2518166441866
 21
98.37500450375856
 31
0.0
  0
LINE
  5
56A
330
787
100
AcDbEntity
  8
0
 62
     0
100
AcDbLine
 10
590.7518166441867
 20
4.000004503757955
 30
0.0
 11
590.7518166441867
 21
98.3750045037585
 31
0.0
  0
LINE
  5
56B
330
787
100
AcDbEntity
  8
0
 62
     0
100
AcDbLine
 10
589.2518166441866
 20
4.000004503757943
 30
0.0
 11
589.2518166441866
 21
98.37500450375848
 31
0.0
  0
LINE
  5
56C
330
787
100
AcDbEntity
  8
0
 62
     0
100
AcDbLine
 10
587.7518166441866
 20
4.000004503757928
 30
0.0
 11
587.7518166441866
 21
98.37500450375848
 31
0.0
  0
LINE
  5
56D
330
787
100
AcDbEntity
  8
0
 62
     0
100
AcDbLine
 10
586.2518166441866
 20
4.000004503757915
 30
0.0
 11
586.2518166441866
 21
98.37500450375848
 31
0.0
  0
LINE
  5
56E
330
787
100
AcDbEntity
  8
0
 62
     0
100
AcDbLine
 10
584.7518166441866
 20
4.000004503757903
 30
0.0
 11
584.7518166441866
 21
98.37500450375843
 31
0.0
  0
LINE
  5
56F
330
787
100
AcDbEntity
  8
0
 62
     0
100
AcDbLine
 10
556.2518166441866
 20
4.000004503757609
 30
0.0
 11
556.2518166441866
 21
98.37500450375816
 31
0.0
  0
LINE
  5
570
330
787
100
AcDbEntity
  8
0
 62
     0
100
AcDbLine
 10
554.7518166441866
 20
4.000004503757589
 30
0.0
 11
554.7518166441866
 21
98.37500450375813
 31
0.0
  0
LINE
  5
571
330
787
100
AcDbEntity
  8
0
 62
     0
100
AcDbLine
 10
553.2518166441867
 20
4.000004503757576
 30
0.0
 11
553.2518166441867
 21
98.37500450375813
 31
0.0
  0
LINE
  5
572
330
787
100
AcDbEntity
  8
0
 62
     0
100
AcDbLine
 10
551.7518166441866
 20
4.00000450375756
 30
0.0
 11
551.7518166441866
 21
98.37500450375809
 31
0.0
  0
LINE
  5
573
330
787
100
AcDbEntity
  8
0
 62
     0
100
AcDbLine
 10
550.2518166441866
 20
4.000004503757542
 30
0.0
 11
550.2518166441866
 21
98.37500450375809
 31
0.0
  0
LINE
  5
574
330
787
100
AcDbEntity
  8
0
 62
     0
100
AcDbLine
 10
548.7518166441866
 20
4.000004503757526
 30
0.0
 11
548.7518166441866
 21
98.37500450375809
 31
0.0
  0
LINE
  5
575
330
787
100
AcDbEntity
  8
0
 62
     0
100
AcDbLine
 10
547.2518166441866
 20
4.000004503757513
 30
0.0
 11
547.2518166441866
 21
98.37500450375806
 31
0.0
  0
LINE
  5
576
330
787
100
AcDbEntity
  8
0
 62
     0
100
AcDbLine
 10
545.7518166441866
 20
4.000004503757493
 30
0.0
 11
545.7518166441866
 21
98.37500450375806
 31
0.0
  0
LINE
  5
577
330
787
100
AcDbEntity
  8
0
 62
     0
100
AcDbLine
 10
544.2518166441866
 20
4.000004503757481
 30
0.0
 11
544.2518166441866
 21
98.37500450375799
 31
0.0
  0
LINE
  5
578
330
787
100
AcDbEntity
  8
0
 62
     0
100
AcDbLine
 10
542.7518166441866
 20
4.000004503757462
 30
0.0
 11
542.7518166441866
 21
98.37500450375799
 31
0.0
  0
LINE
  5
579
330
787
100
AcDbEntity
  8
0
 62
     0
100
AcDbLine
 10
514.2518166441866
 20
4.000004503757183
 30
0.0
 11
514.2518166441866
 21
98.37500450375769
 31
0.0
  0
LINE
  5
57A
330
787
100
AcDbEntity
  8
0
 62
     0
100
AcDbLine
 10
512.7518166441866
 20
4.000004503757168
 30
0.0
 11
512.7518166441866
 21
98.37500450375769
 31
0.0
  0
LINE
  5
57B
330
787
100
AcDbEntity
  8
0
 62
     0
100
AcDbLine
 10
511.2518166441865
 20
4.000004503757152
 30
0.0
 11
511.2518166441865
 21
98.37500450375769
 31
0.0
  0
LINE
  5
57C
330
787
100
AcDbEntity
  8
0
 62
     0
100
AcDbLine
 10
509.7518166441864
 20
4.000004503757136
 30
0.0
 11
509.7518166441864
 21
98.37500450375765
 31
0.0
  0
LINE
  5
57D
330
787
100
AcDbEntity
  8
0
 62
     0
100
AcDbLine
 10
508.2518166441865
 20
4.00000450375712
 30
0.0
 11
508.2518166441865
 21
98.37500450375765
 31
0.0
  0
LINE
  5
57E
330
787
100
AcDbEntity
  8
0
 62
     0
100
AcDbLine
 10
506.7518166441864
 20
4.000004503757103
 30
0.0
 11
506.7518166441864
 21
98.37500450375765
 31
0.0
  0
LINE
  5
57F
330
787
100
AcDbEntity
  8
0
 62
     0
100
AcDbLine
 10
505.2518166441863
 20
4.000004503757088
 30
0.0
 11
505.2518166441863
 21
98.37500450375765
 31
0.0
  0
LINE
  5
580
330
787
100
AcDbEntity
  8
0
 62
     0
100
AcDbLine
 10
503.7518166441865
 20
4.000004503757071
 30
0.0
 11
503.7518166441865
 21
98.3750045037576
 31
0.0
  0
LINE
  5
581
330
787
100
AcDbEntity
  8
0
 62
     0
100
AcDbLine
 10
502.2518166441864
 20
4.000004503757056
 30
0.0
 11
502.2518166441864
 21
98.37500450375756
 31
0.0
  0
LINE
  5
582
330
787
100
AcDbEntity
  8
0
 62
     0
100
AcDbLine
 10
500.7518166441863
 20
4.00000450375704
 30
0.0
 11
500.7518166441863
 21
98.37500450375756
 31
0.0
  0
LINE
  5
583
330
787
100
AcDbEntity
  8
0
 62
     0
100
AcDbLine
 10
472.2518166441864
 20
4.000004503756731
 30
0.0
 11
472.2518166441864
 21
98.37500450375728
 31
0.0
  0
LINE
  5
584
330
787
100
AcDbEntity
  8
0
 62
     0
100
AcDbLine
 10
470.7518166441865
 20
4.000004503756716
 30
0.0
 11
470.7518166441865
 21
98.37500450375721
 31
0.0
  0
LINE
  5
585
330
787
100
AcDbEntity
  8
0
 62
     0
100
AcDbLine
 10
469.2518166441864
 20
4.0000045037567
 30
0.0
 11
469.2518166441864
 21
98.37500450375728
 31
0.0
  0
LINE
  5
586
330
787
100
AcDbEntity
  8
0
 62
     0
100
AcDbLine
 10
467.7518166441863
 20
4.000004503756683
 30
0.0
 11
467.7518166441863
 21
98.37500450375721
 31
0.0
  0
LINE
  5
587
330
787
100
AcDbEntity
  8
0
 62
     0
100
AcDbLine
 10
466.2518166441865
 20
4.000004503756671
 30
0.0
 11
466.2518166441865
 21
98.37500450375721
 31
0.0
  0
LINE
  5
588
330
787
100
AcDbEntity
  8
0
 62
     0
100
AcDbLine
 10
464.7518166441864
 20
4.000004503756653
 30
0.0
 11
464.7518166441864
 21
98.37500450375721
 31
0.0
  0
LINE
  5
589
330
787
100
AcDbEntity
  8
0
 62
     0
100
AcDbLine
 10
463.2518166441863
 20
4.000004503756643
 30
0.0
 11
463.2518166441863
 21
98.37500450375715
 31
0.0
  0
LINE
  5
58A
330
787
100
AcDbEntity
  8
0
 62
     0
100
AcDbLine
 10
461.7518166441865
 20
4.000004503756628
 30
0.0
 11
461.7518166441865
 21
98.37500450375715
 31
0.0
  0
LINE
  5
58B
330
787
100
AcDbEntity
  8
0
 62
     0
100
AcDbLine
 10
460.2518166441864
 20
4.000004503756612
 30
0.0
 11
460.2518166441864
 21
98.37500450375713
 31
0.0
  0
LINE
  5
58C
330
787
100
AcDbEntity
  8
0
 62
     0
100
AcDbLine
 10
541.3939014265734
 20
4.5
 30
0.0
 11
557.4104154804984
 21
4.5
 31
0.0
  0
LINE
  5
58D
330
787
100
AcDbEntity
  8
0
 62
     0
100
AcDbLine
 10
499.4014158258267
 20
4.5
 30
0.0
 11
515.3986377970002
 21
4.5
 31
0.0
  0
LINE
  5
58E
330
787
100
AcDbEntity
  8
0
 62
     0
100
AcDbLine
 10
583.3934311425958
 20
4.5
 30
0.0
 11
596.6514158258272
 21
4.5
 31
0.0
  0
LINE
  5
58F
330
787
100
AcDbEntity
  8
0
 62
     0
100
AcDbLine
 10
460.1514158258271
 20
4.5
 30
0.0
 11
473.4014158258258
 21
4.5
 31
0.0
  0
LINE
  5
590
330
787
100
AcDbEntity
  8
0
 62
     0
100
AcDbLine
 10
541.3939014265734
 20
6.0
 30
0.0
 11
557.4104154804984
 21
6.0
 31
0.0
  0
LINE
  5
591
330
787
100
AcDbEntity
  8
0
 62
     0
100
AcDbLine
 10
499.4014158258267
 20
6.0
 30
0.0
 11
515.3986377970002
 21
6.0
 31
0.0
  0
LINE
  5
592
330
787
100
AcDbEntity
  8
0
 62
     0
100
AcDbLine
 10
583.3934311425958
 20
6.0
 30
0.0
 11
596.6514158258272
 21
6.0
 31
0.0
  0
LINE
  5
593
330
787
100
AcDbEntity
  8
0
 62
     0
100
AcDbLine
 10
460.1514158258271
 20
6.0
 30
0.0
 11
473.4014158258258
 21
6.0
 31
0.0
  0
LINE
  5
594
330
787
100
AcDbEntity
  8
0
 62
     0
100
AcDbLine
 10
541.3939014265734
 20
7.5
 30
0.0
 11
557.4104154804984
 21
7.5
 31
0.0
  0
LINE
  5
595
330
787
100
AcDbEntity
  8
0
 62
     0
100
AcDbLine
 10
499.4014158258267
 20
7.5
 30
0.0
 11
515.3986377970002
 21
7.5
 31
0.0
  0
LINE
  5
596
330
787
100
AcDbEntity
  8
0
 62
     0
100
AcDbLine
 10
583.3934311425958
 20
7.5
 30
0.0
 11
596.6514158258272
 21
7.5
 31
0.0
  0
LINE
  5
597
330
787
100
AcDbEntity
  8
0
 62
     0
100
AcDbLine
 10
460.1514158258271
 20
7.5
 30
0.0
 11
473.4014158258258
 21
7.5
 31
0.0
  0
LINE
  5
598
330
787
100
AcDbEntity
  8
0
 62
     0
100
AcDbLine
 10
541.3939014265734
 20
9.0
 30
0.0
 11
557.4104154804984
 21
9.0
 31
0.0
  0
LINE
  5
599
330
787
100
AcDbEntity
  8
0
 62
     0
100
AcDbLine
 10
499.4014158258267
 20
9.0
 30
0.0
 11
515.3986377970002
 21
9.0
 31
0.0
  0
LINE
  5
59A
330
787
100
AcDbEntity
  8
0
 62
     0
100
AcDbLine
 10
583.3934311425958
 20
9.0
 30
0.0
 11
596.6514158258272
 21
9.0
 31
0.0
  0
LINE
  5
59B
330
787
100
AcDbEntity
  8
0
 62
     0
100
AcDbLine
 10
460.1514158258271
 20
9.0
 30
0.0
 11
473.4014158258258
 21
9.0
 31
0.0
  0
LINE
  5
59C
330
787
100
AcDbEntity
  8
0
 62
     0
100
AcDbLine
 10
541.3939014265734
 20
10.5
 30
0.0
 11
557.4104154804984
 21
10.5
 31
0.0
  0
LINE
  5
59D
330
787
100
AcDbEntity
  8
0
 62
     0
100
AcDbLine
 10
499.4014158258267
 20
10.5
 30
0.0
 11
515.3986377970002
 21
10.5
 31
0.0
  0
LINE
  5
59E
330
787
100
AcDbEntity
  8
0
 62
     0
100
AcDbLine
 10
583.3934311425958
 20
10.5
 30
0.0
 11
596.651415825827
 21
10.5
 31
0.0
  0
LINE
  5
59F
330
787
100
AcDbEntity
  8
0
 62
     0
100
AcDbLine
 10
460.1514158258271
 20
10.5
 30
0.0
 11
473.4014158258258
 21
10.5
 31
0.0
  0
LINE
  5
5A0
330
787
100
AcDbEntity
  8
0
 62
     0
100
AcDbLine
 10
541.3939014265734
 20
12.0
 30
0.0
 11
557.4104154804984
 21
12.0
 31
0.0
  0
LINE
  5
5A1
330
787
100
AcDbEntity
  8
0
 62
     0
100
AcDbLine
 10
499.4014158258267
 20
12.0
 30
0.0
 11
515.3986377970002
 21
12.0
 31
0.0
  0
LINE
  5
5A2
330
787
100
AcDbEntity
  8
0
 62
     0
100
AcDbLine
 10
583.3934311425958
 20
12.0
 30
0.0
 11
596.651415825827
 21
12.0
 31
0.0
  0
LINE
  5
5A3
330
787
100
AcDbEntity
  8
0
 62
     0
100
AcDbLine
 10
460.1514158258271
 20
12.0
 30
0.0
 11
473.4014158258258
 21
12.0
 31
0.0
  0
LINE
  5
5A4
330
787
100
AcDbEntity
  8
0
 62
     0
100
AcDbLine
 10
541.3939014265734
 20
13.5
 30
0.0
 11
557.4104154804984
 21
13.5
 31
0.0
  0
LINE
  5
5A5
330
787
100
AcDbEntity
  8
0
 62
     0
100
AcDbLine
 10
499.4014158258267
 20
13.5
 30
0.0
 11
515.3986377970002
 21
13.5
 31
0.0
  0
LINE
  5
5A6
330
787
100
AcDbEntity
  8
0
 62
     0
100
AcDbLine
 10
583.3934311425958
 20
13.5
 30
0.0
 11
596.651415825827
 21
13.5
 31
0.0
  0
LINE
  5
5A7
330
787
100
AcDbEntity
  8
0
 62
     0
100
AcDbLine
 10
460.1514158258267
 20
13.5
 30
0.0
 11
473.4014158258258
 21
13.5
 31
0.0
  0
LINE
  5
5A8
330
787
100
AcDbEntity
  8
0
 62
     0
100
AcDbLine
 10
541.3939014265734
 20
15.0
 30
0.0
 11
557.4104154804984
 21
15.0
 31
0.0
  0
LINE
  5
5A9
330
787
100
AcDbEntity
  8
0
 62
     0
100
AcDbLine
 10
499.4014158258267
 20
15.0
 30
0.0
 11
515.3986377970002
 21
15.0
 31
0.0
  0
LINE
  5
5AA
330
787
100
AcDbEntity
  8
0
 62
     0
100
AcDbLine
 10
583.3934311425958
 20
15.0
 30
0.0
 11
596.651415825827
 21
15.0
 31
0.0
  0
LINE
  5
5AB
330
787
100
AcDbEntity
  8
0
 62
     0
100
AcDbLine
 10
460.1514158258267
 20
15.0
 30
0.0
 11
473.4014158258258
 21
15.0
 31
0.0
  0
LINE
  5
5AC
330
787
100
AcDbEntity
  8
0
 62
     0
100
AcDbLine
 10
541.3939014265734
 20
16.5
 30
0.0
 11
557.4104154804984
 21
16.5
 31
0.0
  0
LINE
  5
5AD
330
787
100
AcDbEntity
  8
0
 62
     0
100
AcDbLine
 10
499.4014158258267
 20
16.5
 30
0.0
 11
515.3986377970002
 21
16.5
 31
0.0
  0
LINE
  5
5AE
330
787
100
AcDbEntity
  8
0
 62
     0
100
AcDbLine
 10
583.3934311425958
 20
16.5
 30
0.0
 11
596.651415825827
 21
16.5
 31
0.0
  0
LINE
  5
5AF
330
787
100
AcDbEntity
  8
0
 62
     0
100
AcDbLine
 10
460.1514158258267
 20
16.5
 30
0.0
 11
473.4014158258258
 21
16.5
 31
0.0
  0
LINE
  5
5B0
330
787
100
AcDbEntity
  8
0
 62
     0
100
AcDbLine
 10
541.3939014265734
 20
18.0
 30
0.0
 11
557.4104154804984
 21
18.0
 31
0.0
  0
LINE
  5
5B1
330
787
100
AcDbEntity
  8
0
 62
     0
100
AcDbLine
 10
499.4014158258267
 20
18.0
 30
0.0
 11
515.3986377970002
 21
18.0
 31
0.0
  0
LINE
  5
5B2
330
787
100
AcDbEntity
  8
0
 62
     0
100
AcDbLine
 10
583.3934311425958
 20
18.0
 30
0.0
 11
596.651415825827
 21
18.0
 31
0.0
  0
LINE
  5
5B3
330
787
100
AcDbEntity
  8
0
 62
     0
100
AcDbLine
 10
460.1514158258267
 20
18.0
 30
0.0
 11
473.4014158258258
 21
18.0
 31
0.0
  0
LINE
  5
5B4
330
787
100
AcDbEntity
  8
0
 62
     0
100
AcDbLine
 10
541.3939014265734
 20
19.5
 30
0.0
 11
557.4104154804984
 21
19.5
 31
0.0
  0
LINE
  5
5B5
330
787
100
AcDbEntity
  8
0
 62
     0
100
AcDbLine
 10
499.4014158258267
 20
19.5
 30
0.0
 11
515.3986377970002
 21
19.5
 31
0.0
  0
LINE
  5
5B6
330
787
100
AcDbEntity
  8
0
 62
     0
100
AcDbLine
 10
583.3934311425958
 20
19.5
 30
0.0
 11
596.651415825827
 21
19.5
 31
0.0
  0
LINE
  5
5B7
330
787
100
AcDbEntity
  8
0
 62
     0
100
AcDbLine
 10
460.1514158258267
 20
19.5
 30
0.0
 11
473.4014158258258
 21
19.5
 31
0.0
  0
LINE
  5
5B8
330
787
100
AcDbEntity
  8
0
 62
     0
100
AcDbLine
 10
541.3939014265734
 20
21.0
 30
0.0
 11
557.4104154804984
 21
21.0
 31
0.0
  0
LINE
  5
5B9
330
787
100
AcDbEntity
  8
0
 62
     0
100
AcDbLine
 10
499.4014158258267
 20
21.0
 30
0.0
 11
515.3986377970002
 21
21.0
 31
0.0
  0
LINE
  5
5BA
330
787
100
AcDbEntity
  8
0
 62
     0
100
AcDbLine
 10
583.3934311425958
 20
21.0
 30
0.0
 11
596.651415825827
 21
21.0
 31
0.0
  0
LINE
  5
5BB
330
787
100
AcDbEntity
  8
0
 62
     0
100
AcDbLine
 10
460.1514158258267
 20
21.0
 30
0.0
 11
473.4014158258258
 21
21.0
 31
0.0
  0
LINE
  5
5BC
330
787
100
AcDbEntity
  8
0
 62
     0
100
AcDbLine
 10
541.3939014265734
 20
22.5
 30
0.0
 11
557.4104154804984
 21
22.5
 31
0.0
  0
LINE
  5
5BD
330
787
100
AcDbEntity
  8
0
 62
     0
100
AcDbLine
 10
499.4014158258267
 20
22.5
 30
0.0
 11
515.3986377970002
 21
22.5
 31
0.0
  0
LINE
  5
5BE
330
787
100
AcDbEntity
  8
0
 62
     0
100
AcDbLine
 10
583.3934311425958
 20
22.5
 30
0.0
 11
596.6514158258269
 21
22.5
 31
0.0
  0
LINE
  5
5BF
330
787
100
AcDbEntity
  8
0
 62
     0
100
AcDbLine
 10
460.1514158258267
 20
22.5
 30
0.0
 11
473.4014158258258
 21
22.5
 31
0.0
  0
LINE
  5
5C0
330
787
100
AcDbEntity
  8
0
 62
     0
100
AcDbLine
 10
541.3939014265734
 20
24.0
 30
0.0
 11
557.4104154804984
 21
24.0
 31
0.0
  0
LINE
  5
5C1
330
787
100
AcDbEntity
  8
0
 62
     0
100
AcDbLine
 10
499.4014158258267
 20
24.0
 30
0.0
 11
515.3986377970002
 21
24.0
 31
0.0
  0
LINE
  5
5C2
330
787
100
AcDbEntity
  8
0
 62
     0
100
AcDbLine
 10
583.3934311425958
 20
24.0
 30
0.0
 11
596.6514158258269
 21
24.0
 31
0.0
  0
LINE
  5
5C3
330
787
100
AcDbEntity
  8
0
 62
     0
100
AcDbLine
 10
460.1514158258267
 20
24.0
 30
0.0
 11
473.4014158258258
 21
24.0
 31
0.0
  0
LINE
  5
5C4
330
787
100
AcDbEntity
  8
0
 62
     0
100
AcDbLine
 10
541.3939014265734
 20
25.5
 30
0.0
 11
557.4104154804984
 21
25.5
 31
0.0
  0
LINE
  5
5C5
330
787
100
AcDbEntity
  8
0
 62
     0
100
AcDbLine
 10
499.4014158258267
 20
25.5
 30
0.0
 11
515.3986377970002
 21
25.5
 31
0.0
  0
LINE
  5
5C6
330
787
100
AcDbEntity
  8
0
 62
     0
100
AcDbLine
 10
583.3934311425958
 20
25.5
 30
0.0
 11
596.6514158258269
 21
25.5
 31
0.0
  0
LINE
  5
5C7
330
787
100
AcDbEntity
  8
0
 62
     0
100
AcDbLine
 10
460.1514158258267
 20
25.5
 30
0.0
 11
473.4014158258258
 21
25.5
 31
0.0
  0
LINE
  5
5C8
330
787
100
AcDbEntity
  8
0
 62
     0
100
AcDbLine
 10
541.3939014265734
 20
27.0
 30
0.0
 11
557.4104154804984
 21
27.0
 31
0.0
  0
LINE
  5
5C9
330
787
100
AcDbEntity
  8
0
 62
     0
100
AcDbLine
 10
499.4014158258267
 20
27.0
 30
0.0
 11
515.3986377970002
 21
27.0
 31
0.0
  0
LINE
  5
5CA
330
787
100
AcDbEntity
  8
0
 62
     0
100
AcDbLine
 10
583.3934311425958
 20
27.0
 30
0.0
 11
596.6514158258269
 21
27.0
 31
0.0
  0
LINE
  5
5CB
330
787
100
AcDbEntity
  8
0
 62
     0
100
AcDbLine
 10
460.1514158258267
 20
27.0
 30
0.0
 11
473.4014158258258
 21
27.0
 31
0.0
  0
LINE
  5
5CC
330
787
100
AcDbEntity
  8
0
 62
     0
100
AcDbLine
 10
541.3939014265734
 20
28.5
 30
0.0
 11
557.4104154804984
 21
28.5
 31
0.0
  0
LINE
  5
5CD
330
787
100
AcDbEntity
  8
0
 62
     0
100
AcDbLine
 10
499.4014158258267
 20
28.5
 30
0.0
 11
515.3986377970002
 21
28.5
 31
0.0
  0
LINE
  5
5CE
330
787
100
AcDbEntity
  8
0
 62
     0
100
AcDbLine
 10
583.3934311425958
 20
28.5
 30
0.0
 11
596.6514158258269
 21
28.5
 31
0.0
  0
LINE
  5
5CF
330
787
100
AcDbEntity
  8
0
 62
     0
100
AcDbLine
 10
460.1514158258267
 20
28.5
 30
0.0
 11
473.4014158258258
 21
28.5
 31
0.0
  0
LINE
  5
5D0
330
787
100
AcDbEntity
  8
0
 62
     0
100
AcDbLine
 10
541.3939014265734
 20
30.0
 30
0.0
 11
557.4104154804984
 21
30.0
 31
0.0
  0
LINE
  5
5D1
330
787
100
AcDbEntity
  8
0
 62
     0
100
AcDbLine
 10
499.4014158258267
 20
30.0
 30
0.0
 11
515.3986377970002
 21
30.0
 31
0.0
  0
LINE
  5
5D2
330
787
100
AcDbEntity
  8
0
 62
     0
100
AcDbLine
 10
583.3934311425958
 20
30.0
 30
0.0
 11
596.6514158258269
 21
30.0
 31
0.0
  0
LINE
  5
5D3
330
787
100
AcDbEntity
  8
0
 62
     0
100
AcDbLine
 10
460.1514158258267
 20
30.0
 30
0.0
 11
473.4014158258258
 21
30.0
 31
0.0
  0
LINE
  5
5D4
330
787
100
AcDbEntity
  8
0
 62
     0
100
AcDbLine
 10
541.3939014265734
 20
31.5
 30
0.0
 11
557.4104154804984
 21
31.5
 31
0.0
  0
LINE
  5
5D5
330
787
100
AcDbEntity
  8
0
 62
     0
100
AcDbLine
 10
499.4014158258267
 20
31.5
 30
0.0
 11
515.3986377970002
 21
31.5
 31
0.0
  0
LINE
  5
5D6
330
787
100
AcDbEntity
  8
0
 62
     0
100
AcDbLine
 10
583.3934311425958
 20
31.5
 30
0.0
 11
596.6514158258269
 21
31.5
 31
0.0
  0
LINE
  5
5D7
330
787
100
AcDbEntity
  8
0
 62
     0
100
AcDbLine
 10
460.1514158258267
 20
31.5
 30
0.0
 11
473.4014158258258
 21
31.5
 31
0.0
  0
LINE
  5
5D8
330
787
100
AcDbEntity
  8
0
 62
     0
100
AcDbLine
 10
541.3939014265734
 20
33.0
 30
0.0
 11
557.4104154804984
 21
33.0
 31
0.0
  0
LINE
  5
5D9
330
787
100
AcDbEntity
  8
0
 62
     0
100
AcDbLine
 10
499.4014158258267
 20
33.0
 30
0.0
 11
515.3986377970002
 21
33.0
 31
0.0
  0
LINE
  5
5DA
330
787
100
AcDbEntity
  8
0
 62
     0
100
AcDbLine
 10
583.3934311425958
 20
33.0
 30
0.0
 11
596.6514158258269
 21
33.0
 31
0.0
  0
LINE
  5
5DB
330
787
100
AcDbEntity
  8
0
 62
     0
100
AcDbLine
 10
460.1514158258267
 20
33.0
 30
0.0
 11
473.4014158258258
 21
33.0
 31
0.0
  0
LINE
  5
5DC
330
787
100
AcDbEntity
  8
0
 62
     0
100
AcDbLine
 10
541.3939014265734
 20
34.5
 30
0.0
 11
557.4104154804984
 21
34.5
 31
0.0
  0
LINE
  5
5DD
330
787
100
AcDbEntity
  8
0
 62
     0
100
AcDbLine
 10
499.4014158258267
 20
34.5
 30
0.0
 11
515.3986377970002
 21
34.5
 31
0.0
  0
LINE
  5
5DE
330
787
100
AcDbEntity
  8
0
 62
     0
100
AcDbLine
 10
583.3934311425958
 20
34.5
 30
0.0
 11
596.6514158258267
 21
34.5
 31
0.0
  0
LINE
  5
5DF
330
787
100
AcDbEntity
  8
0
 62
     0
100
AcDbLine
 10
460.1514158258267
 20
34.5
 30
0.0
 11
473.4014158258258
 21
34.5
 31
0.0
  0
LINE
  5
5E0
330
787
100
AcDbEntity
  8
0
 62
     0
100
AcDbLine
 10
541.3939014265734
 20
36.0
 30
0.0
 11
557.4104154804984
 21
36.0
 31
0.0
  0
LINE
  5
5E1
330
787
100
AcDbEntity
  8
0
 62
     0
100
AcDbLine
 10
499.4014158258267
 20
36.0
 30
0.0
 11
515.3986377970002
 21
36.0
 31
0.0
  0
LINE
  5
5E2
330
787
100
AcDbEntity
  8
0
 62
     0
100
AcDbLine
 10
583.3934311425958
 20
36.0
 30
0.0
 11
596.6514158258267
 21
36.0
 31
0.0
  0
LINE
  5
5E3
330
787
100
AcDbEntity
  8
0
 62
     0
100
AcDbLine
 10
460.1514158258267
 20
36.0
 30
0.0
 11
473.4014158258258
 21
36.0
 31
0.0
  0
LINE
  5
5E4
330
787
100
AcDbEntity
  8
0
 62
     0
100
AcDbLine
 10
541.3939014265734
 20
37.5
 30
0.0
 11
557.4104154804984
 21
37.5
 31
0.0
  0
LINE
  5
5E5
330
787
100
AcDbEntity
  8
0
 62
     0
100
AcDbLine
 10
499.4014158258267
 20
37.5
 30
0.0
 11
515.3986377970002
 21
37.5
 31
0.0
  0
LINE
  5
5E6
330
787
100
AcDbEntity
  8
0
 62
     0
100
AcDbLine
 10
583.3934311425958
 20
37.5
 30
0.0
 11
596.6514158258267
 21
37.5
 31
0.0
  0
LINE
  5
5E7
330
787
100
AcDbEntity
  8
0
 62
     0
100
AcDbLine
 10
460.1514158258266
 20
37.5
 30
0.0
 11
473.4014158258258
 21
37.5
 31
0.0
  0
LINE
  5
5E8
330
787
100
AcDbEntity
  8
0
 62
     0
100
AcDbLine
 10
541.3939014265734
 20
39.0
 30
0.0
 11
557.4104154804984
 21
39.0
 31
0.0
  0
LINE
  5
5E9
330
787
100
AcDbEntity
  8
0
 62
     0
100
AcDbLine
 10
499.4014158258267
 20
39.0
 30
0.0
 11
515.3986377970002
 21
39.0
 31
0.0
  0
LINE
  5
5EA
330
787
100
AcDbEntity
  8
0
 62
     0
100
AcDbLine
 10
583.3934311425958
 20
39.0
 30
0.0
 11
596.6514158258267
 21
39.0
 31
0.0
  0
LINE
  5
5EB
330
787
100
AcDbEntity
  8
0
 62
     0
100
AcDbLine
 10
460.1514158258266
 20
39.0
 30
0.0
 11
473.4014158258258
 21
39.0
 31
0.0
  0
LINE
  5
5EC
330
787
100
AcDbEntity
  8
0
 62
     0
100
AcDbLine
 10
541.3939014265734
 20
40.49999999999999
 30
0.0
 11
557.4104154804984
 21
40.49999999999999
 31
0.0
  0
LINE
  5
5ED
330
787
100
AcDbEntity
  8
0
 62
     0
100
AcDbLine
 10
499.4014158258267
 20
40.49999999999999
 30
0.0
 11
515.3986377970002
 21
40.49999999999999
 31
0.0
  0
LINE
  5
5EE
330
787
100
AcDbEntity
  8
0
 62
     0
100
AcDbLine
 10
583.3934311425958
 20
40.49999999999999
 30
0.0
 11
596.6514158258267
 21
40.49999999999999
 31
0.0
  0
LINE
  5
5EF
330
787
100
AcDbEntity
  8
0
 62
     0
100
AcDbLine
 10
460.1514158258266
 20
40.49999999999999
 30
0.0
 11
473.4014158258258
 21
40.49999999999999
 31
0.0
  0
LINE
  5
5F0
330
787
100
AcDbEntity
  8
0
 62
     0
100
AcDbLine
 10
541.3939014265734
 20
42.0
 30
0.0
 11
557.4104154804984
 21
42.0
 31
0.0
  0
LINE
  5
5F1
330
787
100
AcDbEntity
  8
0
 62
     0
100
AcDbLine
 10
499.4014158258267
 20
42.0
 30
0.0
 11
515.3986377970002
 21
42.0
 31
0.0
  0
LINE
  5
5F2
330
787
100
AcDbEntity
  8
0
 62
     0
100
AcDbLine
 10
583.3934311425958
 20
42.0
 30
0.0
 11
596.6514158258267
 21
42.0
 31
0.0
  0
LINE
  5
5F3
330
787
100
AcDbEntity
  8
0
 62
     0
100
AcDbLine
 10
460.1514158258266
 20
42.0
 30
0.0
 11
473.4014158258258
 21
42.0
 31
0.0
  0
LINE
  5
5F4
330
787
100
AcDbEntity
  8
0
 62
     0
100
AcDbLine
 10
541.3939014265734
 20
43.5
 30
0.0
 11
557.4104154804984
 21
43.5
 31
0.0
  0
LINE
  5
5F5
330
787
100
AcDbEntity
  8
0
 62
     0
100
AcDbLine
 10
499.4014158258267
 20
43.5
 30
0.0
 11
515.3986377970002
 21
43.5
 31
0.0
  0
LINE
  5
5F6
330
787
100
AcDbEntity
  8
0
 62
     0
100
AcDbLine
 10
583.3934311425958
 20
43.5
 30
0.0
 11
596.6514158258267
 21
43.5
 31
0.0
  0
LINE
  5
5F7
330
787
100
AcDbEntity
  8
0
 62
     0
100
AcDbLine
 10
460.1514158258266
 20
43.5
 30
0.0
 11
473.4014158258258
 21
43.5
 31
0.0
  0
LINE
  5
5F8
330
787
100
AcDbEntity
  8
0
 62
     0
100
AcDbLine
 10
541.3939014265734
 20
45.0
 30
0.0
 11
557.4104154804984
 21
45.0
 31
0.0
  0
LINE
  5
5F9
330
787
100
AcDbEntity
  8
0
 62
     0
100
AcDbLine
 10
499.4014158258267
 20
45.0
 30
0.0
 11
515.3986377970002
 21
45.0
 31
0.0
  0
LINE
  5
5FA
330
787
100
AcDbEntity
  8
0
 62
     0
100
AcDbLine
 10
583.3934311425958
 20
45.0
 30
0.0
 11
596.6514158258267
 21
45.0
 31
0.0
  0
LINE
  5
5FB
330
787
100
AcDbEntity
  8
0
 62
     0
100
AcDbLine
 10
460.1514158258266
 20
45.0
 30
0.0
 11
473.4014158258258
 21
45.0
 31
0.0
  0
LINE
  5
5FC
330
787
100
AcDbEntity
  8
0
 62
     0
100
AcDbLine
 10
541.3939014265734
 20
46.5
 30
0.0
 11
557.4104154804984
 21
46.5
 31
0.0
  0
LINE
  5
5FD
330
787
100
AcDbEntity
  8
0
 62
     0
100
AcDbLine
 10
499.4014158258267
 20
46.5
 30
0.0
 11
515.3986377970002
 21
46.5
 31
0.0
  0
LINE
  5
5FE
330
787
100
AcDbEntity
  8
0
 62
     0
100
AcDbLine
 10
583.3934311425958
 20
46.5
 30
0.0
 11
596.6514158258267
 21
46.5
 31
0.0
  0
LINE
  5
5FF
330
787
100
AcDbEntity
  8
0
 62
     0
100
AcDbLine
 10
460.1514158258266
 20
46.5
 30
0.0
 11
473.4014158258258
 21
46.5
 31
0.0
  0
LINE
  5
600
330
787
100
AcDbEntity
  8
0
 62
     0
100
AcDbLine
 10
541.3939014265734
 20
48.0
 30
0.0
 11
557.4104154804984
 21
48.0
 31
0.0
  0
LINE
  5
601
330
787
100
AcDbEntity
  8
0
 62
     0
100
AcDbLine
 10
499.4014158258267
 20
48.0
 30
0.0
 11
515.3986377970002
 21
48.0
 31
0.0
  0
LINE
  5
602
330
787
100
AcDbEntity
  8
0
 62
     0
100
AcDbLine
 10
583.3934311425958
 20
48.0
 30
0.0
 11
596.6514158258267
 21
48.0
 31
0.0
  0
LINE
  5
603
330
787
100
AcDbEntity
  8
0
 62
     0
100
AcDbLine
 10
460.1514158258266
 20
48.0
 30
0.0
 11
473.4014158258258
 21
48.0
 31
0.0
  0
LINE
  5
604
330
787
100
AcDbEntity
  8
0
 62
     0
100
AcDbLine
 10
541.3939014265734
 20
49.5
 30
0.0
 11
557.4104154804984
 21
49.5
 31
0.0
  0
LINE
  5
605
330
787
100
AcDbEntity
  8
0
 62
     0
100
AcDbLine
 10
499.4014158258267
 20
49.5
 30
0.0
 11
515.3986377970002
 21
49.5
 31
0.0
  0
LINE
  5
606
330
787
100
AcDbEntity
  8
0
 62
     0
100
AcDbLine
 10
583.3934311425958
 20
49.5
 30
0.0
 11
596.6514158258267
 21
49.5
 31
0.0
  0
LINE
  5
607
330
787
100
AcDbEntity
  8
0
 62
     0
100
AcDbLine
 10
460.1514158258265
 20
49.5
 30
0.0
 11
473.4014158258258
 21
49.5
 31
0.0
  0
LINE
  5
608
330
787
100
AcDbEntity
  8
0
 62
     0
100
AcDbLine
 10
541.3939014265734
 20
51.0
 30
0.0
 11
557.4104154804984
 21
51.0
 31
0.0
  0
LINE
  5
609
330
787
100
AcDbEntity
  8
0
 62
     0
100
AcDbLine
 10
499.4014158258267
 20
51.0
 30
0.0
 11
515.3986377970002
 21
51.0
 31
0.0
  0
LINE
  5
60A
330
787
100
AcDbEntity
  8
0
 62
     0
100
AcDbLine
 10
583.3934311425958
 20
51.0
 30
0.0
 11
596.6514158258267
 21
51.0
 31
0.0
  0
LINE
  5
60B
330
787
100
AcDbEntity
  8
0
 62
     0
100
AcDbLine
 10
460.1514158258265
 20
51.0
 30
0.0
 11
473.4014158258258
 21
51.0
 31
0.0
  0
LINE
  5
60C
330
787
100
AcDbEntity
  8
0
 62
     0
100
AcDbLine
 10
541.3939014265734
 20
52.5
 30
0.0
 11
557.4104154804984
 21
52.5
 31
0.0
  0
LINE
  5
60D
330
787
100
AcDbEntity
  8
0
 62
     0
100
AcDbLine
 10
499.4014158258267
 20
52.5
 30
0.0
 11
515.3986377970002
 21
52.5
 31
0.0
  0
LINE
  5
60E
330
787
100
AcDbEntity
  8
0
 62
     0
100
AcDbLine
 10
583.3934311425958
 20
52.5
 30
0.0
 11
596.6514158258267
 21
52.5
 31
0.0
  0
LINE
  5
60F
330
787
100
AcDbEntity
  8
0
 62
     0
100
AcDbLine
 10
460.1514158258265
 20
52.5
 30
0.0
 11
473.4014158258258
 21
52.5
 31
0.0
  0
LINE
  5
610
330
787
100
AcDbEntity
  8
0
 62
     0
100
AcDbLine
 10
541.3939014265734
 20
54.0
 30
0.0
 11
557.4104154804984
 21
54.0
 31
0.0
  0
LINE
  5
611
330
787
100
AcDbEntity
  8
0
 62
     0
100
AcDbLine
 10
499.4014158258267
 20
54.0
 30
0.0
 11
515.3986377970002
 21
54.0
 31
0.0
  0
LINE
  5
612
330
787
100
AcDbEntity
  8
0
 62
     0
100
AcDbLine
 10
583.3934311425958
 20
54.0
 30
0.0
 11
596.6514158258267
 21
54.0
 31
0.0
  0
LINE
  5
613
330
787
100
AcDbEntity
  8
0
 62
     0
100
AcDbLine
 10
460.1514158258265
 20
54.0
 30
0.0
 11
473.4014158258258
 21
54.0
 31
0.0
  0
LINE
  5
614
330
787
100
AcDbEntity
  8
0
 62
     0
100
AcDbLine
 10
541.3939014265734
 20
55.5
 30
0.0
 11
557.4104154804984
 21
55.5
 31
0.0
  0
LINE
  5
615
330
787
100
AcDbEntity
  8
0
 62
     0
100
AcDbLine
 10
499.4014158258267
 20
55.5
 30
0.0
 11
515.3986377970002
 21
55.5
 31
0.0
  0
LINE
  5
616
330
787
100
AcDbEntity
  8
0
 62
     0
100
AcDbLine
 10
583.3934311425958
 20
55.5
 30
0.0
 11
596.6514158258267
 21
55.5
 31
0.0
  0
LINE
  5
617
330
787
100
AcDbEntity
  8
0
 62
     0
100
AcDbLine
 10
460.1514158258265
 20
55.5
 30
0.0
 11
473.4014158258258
 21
55.5
 31
0.0
  0
LINE
  5
618
330
787
100
AcDbEntity
  8
0
 62
     0
100
AcDbLine
 10
541.3939014265734
 20
57.0
 30
0.0
 11
557.4104154804984
 21
57.0
 31
0.0
  0
LINE
  5
619
330
787
100
AcDbEntity
  8
0
 62
     0
100
AcDbLine
 10
499.4014158258267
 20
57.0
 30
0.0
 11
515.3986377970002
 21
57.0
 31
0.0
  0
LINE
  5
61A
330
787
100
AcDbEntity
  8
0
 62
     0
100
AcDbLine
 10
583.3934311425958
 20
57.0
 30
0.0
 11
596.6514158258267
 21
57.0
 31
0.0
  0
LINE
  5
61B
330
787
100
AcDbEntity
  8
0
 62
     0
100
AcDbLine
 10
460.1514158258265
 20
57.0
 30
0.0
 11
473.4014158258258
 21
57.0
 31
0.0
  0
LINE
  5
61C
330
787
100
AcDbEntity
  8
0
 62
     0
100
AcDbLine
 10
541.3939014265734
 20
58.5
 30
0.0
 11
557.4104154804984
 21
58.5
 31
0.0
  0
LINE
  5
61D
330
787
100
AcDbEntity
  8
0
 62
     0
100
AcDbLine
 10
499.4014158258267
 20
58.5
 30
0.0
 11
515.3986377970002
 21
58.5
 31
0.0
  0
LINE
  5
61E
330
787
100
AcDbEntity
  8
0
 62
     0
100
AcDbLine
 10
583.3934311425958
 20
58.5
 30
0.0
 11
596.6514158258262
 21
58.5
 31
0.0
  0
LINE
  5
61F
330
787
100
AcDbEntity
  8
0
 62
     0
100
AcDbLine
 10
460.1514158258265
 20
58.5
 30
0.0
 11
473.4014158258258
 21
58.5
 31
0.0
  0
LINE
  5
620
330
787
100
AcDbEntity
  8
0
 62
     0
100
AcDbLine
 10
541.3939014265734
 20
60.0
 30
0.0
 11
557.4104154804984
 21
60.0
 31
0.0
  0
LINE
  5
621
330
787
100
AcDbEntity
  8
0
 62
     0
100
AcDbLine
 10
499.4014158258267
 20
60.0
 30
0.0
 11
515.3986377970002
 21
60.0
 31
0.0
  0
LINE
  5
622
330
787
100
AcDbEntity
  8
0
 62
     0
100
AcDbLine
 10
583.3934311425958
 20
60.0
 30
0.0
 11
596.6514158258262
 21
60.0
 31
0.0
  0
LINE
  5
623
330
787
100
AcDbEntity
  8
0
 62
     0
100
AcDbLine
 10
460.1514158258265
 20
60.0
 30
0.0
 11
473.4014158258258
 21
60.0
 31
0.0
  0
LINE
  5
624
330
787
100
AcDbEntity
  8
0
 62
     0
100
AcDbLine
 10
541.3939014265734
 20
61.5
 30
0.0
 11
557.4104154804984
 21
61.5
 31
0.0
  0
LINE
  5
625
330
787
100
AcDbEntity
  8
0
 62
     0
100
AcDbLine
 10
499.4014158258267
 20
61.5
 30
0.0
 11
515.3986377970002
 21
61.5
 31
0.0
  0
LINE
  5
626
330
787
100
AcDbEntity
  8
0
 62
     0
100
AcDbLine
 10
583.3934311425958
 20
61.5
 30
0.0
 11
596.6514158258262
 21
61.5
 31
0.0
  0
LINE
  5
627
330
787
100
AcDbEntity
  8
0
 62
     0
100
AcDbLine
 10
460.1514158258265
 20
61.5
 30
0.0
 11
473.4014158258258
 21
61.5
 31
0.0
  0
LINE
  5
628
330
787
100
AcDbEntity
  8
0
 62
     0
100
AcDbLine
 10
541.3939014265734
 20
63.0
 30
0.0
 11
557.4104154804984
 21
63.0
 31
0.0
  0
LINE
  5
629
330
787
100
AcDbEntity
  8
0
 62
     0
100
AcDbLine
 10
499.4014158258267
 20
63.0
 30
0.0
 11
515.3986377970002
 21
63.0
 31
0.0
  0
LINE
  5
62A
330
787
100
AcDbEntity
  8
0
 62
     0
100
AcDbLine
 10
583.3934311425958
 20
63.0
 30
0.0
 11
596.6514158258262
 21
63.0
 31
0.0
  0
LINE
  5
62B
330
787
100
AcDbEntity
  8
0
 62
     0
100
AcDbLine
 10
460.1514158258265
 20
63.0
 30
0.0
 11
473.4014158258258
 21
63.0
 31
0.0
  0
LINE
  5
62C
330
787
100
AcDbEntity
  8
0
 62
     0
100
AcDbLine
 10
541.3939014265734
 20
64.5
 30
0.0
 11
557.4104154804984
 21
64.5
 31
0.0
  0
LINE
  5
62D
330
787
100
AcDbEntity
  8
0
 62
     0
100
AcDbLine
 10
499.4014158258267
 20
64.5
 30
0.0
 11
515.3986377970002
 21
64.5
 31
0.0
  0
LINE
  5
62E
330
787
100
AcDbEntity
  8
0
 62
     0
100
AcDbLine
 10
583.3934311425958
 20
64.5
 30
0.0
 11
596.6514158258262
 21
64.5
 31
0.0
  0
LINE
  5
62F
330
787
100
AcDbEntity
  8
0
 62
     0
100
AcDbLine
 10
460.1514158258265
 20
64.5
 30
0.0
 11
473.4014158258258
 21
64.5
 31
0.0
  0
LINE
  5
630
330
787
100
AcDbEntity
  8
0
 62
     0
100
AcDbLine
 10
541.3939014265734
 20
66.0
 30
0.0
 11
557.4104154804984
 21
66.0
 31
0.0
  0
LINE
  5
631
330
787
100
AcDbEntity
  8
0
 62
     0
100
AcDbLine
 10
499.4014158258267
 20
66.0
 30
0.0
 11
515.3986377970002
 21
66.0
 31
0.0
  0
LINE
  5
632
330
787
100
AcDbEntity
  8
0
 62
     0
100
AcDbLine
 10
583.3934311425958
 20
66.0
 30
0.0
 11
596.6514158258262
 21
66.0
 31
0.0
  0
LINE
  5
633
330
787
100
AcDbEntity
  8
0
 62
     0
100
AcDbLine
 10
460.1514158258265
 20
66.0
 30
0.0
 11
473.4014158258258
 21
66.0
 31
0.0
  0
LINE
  5
634
330
787
100
AcDbEntity
  8
0
 62
     0
100
AcDbLine
 10
541.3939014265734
 20
67.5
 30
0.0
 11
557.4104154804984
 21
67.5
 31
0.0
  0
LINE
  5
635
330
787
100
AcDbEntity
  8
0
 62
     0
100
AcDbLine
 10
499.4014158258267
 20
67.5
 30
0.0
 11
515.3986377970002
 21
67.5
 31
0.0
  0
LINE
  5
636
330
787
100
AcDbEntity
  8
0
 62
     0
100
AcDbLine
 10
583.3934311425958
 20
67.5
 30
0.0
 11
596.6514158258262
 21
67.5
 31
0.0
  0
LINE
  5
637
330
787
100
AcDbEntity
  8
0
 62
     0
100
AcDbLine
 10
460.1514158258265
 20
67.5
 30
0.0
 11
473.4014158258258
 21
67.5
 31
0.0
  0
LINE
  5
638
330
787
100
AcDbEntity
  8
0
 62
     0
100
AcDbLine
 10
541.3939014265734
 20
69.0
 30
0.0
 11
557.4104154804984
 21
69.0
 31
0.0
  0
LINE
  5
639
330
787
100
AcDbEntity
  8
0
 62
     0
100
AcDbLine
 10
499.4014158258267
 20
69.0
 30
0.0
 11
515.3986377970002
 21
69.0
 31
0.0
  0
LINE
  5
63A
330
787
100
AcDbEntity
  8
0
 62
     0
100
AcDbLine
 10
583.3934311425958
 20
69.0
 30
0.0
 11
596.6514158258262
 21
69.0
 31
0.0
  0
LINE
  5
63B
330
787
100
AcDbEntity
  8
0
 62
     0
100
AcDbLine
 10
460.1514158258265
 20
69.0
 30
0.0
 11
473.4014158258258
 21
69.0
 31
0.0
  0
LINE
  5
63C
330
787
100
AcDbEntity
  8
0
 62
     0
100
AcDbLine
 10
541.3939014265734
 20
70.5
 30
0.0
 11
557.4104154804984
 21
70.5
 31
0.0
  0
LINE
  5
63D
330
787
100
AcDbEntity
  8
0
 62
     0
100
AcDbLine
 10
499.4014158258267
 20
70.5
 30
0.0
 11
515.3986377970002
 21
70.5
 31
0.0
  0
LINE
  5
63E
330
787
100
AcDbEntity
  8
0
 62
     0
100
AcDbLine
 10
583.3934311425958
 20
70.5
 30
0.0
 11
596.6514158258262
 21
70.5
 31
0.0
  0
LINE
  5
63F
330
787
100
AcDbEntity
  8
0
 62
     0
100
AcDbLine
 10
460.1514158258265
 20
70.5
 30
0.0
 11
473.4014158258258
 21
70.5
 31
0.0
  0
LINE
  5
640
330
787
100
AcDbEntity
  8
0
 62
     0
100
AcDbLine
 10
541.3939014265734
 20
72.0
 30
0.0
 11
557.4104154804984
 21
72.0
 31
0.0
  0
LINE
  5
641
330
787
100
AcDbEntity
  8
0
 62
     0
100
AcDbLine
 10
499.4014158258267
 20
72.0
 30
0.0
 11
515.3986377970002
 21
72.0
 31
0.0
  0
LINE
  5
642
330
787
100
AcDbEntity
  8
0
 62
     0
100
AcDbLine
 10
583.3934311425958
 20
72.0
 30
0.0
 11
596.6514158258262
 21
72.0
 31
0.0
  0
LINE
  5
643
330
787
100
AcDbEntity
  8
0
 62
     0
100
AcDbLine
 10
460.1514158258265
 20
72.0
 30
0.0
 11
473.4014158258258
 21
72.0
 31
0.0
  0
LINE
  5
644
330
787
100
AcDbEntity
  8
0
 62
     0
100
AcDbLine
 10
541.3939014265734
 20
73.5
 30
0.0
 11
557.4104154804984
 21
73.5
 31
0.0
  0
LINE
  5
645
330
787
100
AcDbEntity
  8
0
 62
     0
100
AcDbLine
 10
499.4014158258267
 20
73.5
 30
0.0
 11
515.3986377970002
 21
73.5
 31
0.0
  0
LINE
  5
646
330
787
100
AcDbEntity
  8
0
 62
     0
100
AcDbLine
 10
583.3934311425958
 20
73.5
 30
0.0
 11
596.6514158258262
 21
73.5
 31
0.0
  0
LINE
  5
647
330
787
100
AcDbEntity
  8
0
 62
     0
100
AcDbLine
 10
460.1514158258265
 20
73.5
 30
0.0
 11
473.4014158258258
 21
73.5
 31
0.0
  0
LINE
  5
648
330
787
100
AcDbEntity
  8
0
 62
     0
100
AcDbLine
 10
541.3939014265734
 20
75.0
 30
0.0
 11
557.4104154804984
 21
75.0
 31
0.0
  0
LINE
  5
649
330
787
100
AcDbEntity
  8
0
 62
     0
100
AcDbLine
 10
499.4014158258267
 20
75.0
 30
0.0
 11
515.3986377970002
 21
75.0
 31
0.0
  0
LINE
  5
64A
330
787
100
AcDbEntity
  8
0
 62
     0
100
AcDbLine
 10
583.3934311425958
 20
75.0
 30
0.0
 11
596.6514158258262
 21
75.0
 31
0.0
  0
LINE
  5
64B
330
787
100
AcDbEntity
  8
0
 62
     0
100
AcDbLine
 10
460.1514158258265
 20
75.0
 30
0.0
 11
473.4014158258258
 21
75.0
 31
0.0
  0
LINE
  5
64C
330
787
100
AcDbEntity
  8
0
 62
     0
100
AcDbLine
 10
541.3939014265734
 20
76.5
 30
0.0
 11
557.4104154804984
 21
76.5
 31
0.0
  0
LINE
  5
64D
330
787
100
AcDbEntity
  8
0
 62
     0
100
AcDbLine
 10
499.4014158258267
 20
76.5
 30
0.0
 11
515.3986377970002
 21
76.5
 31
0.0
  0
LINE
  5
64E
330
787
100
AcDbEntity
  8
0
 62
     0
100
AcDbLine
 10
583.3934311425958
 20
76.5
 30
0.0
 11
596.6514158258262
 21
76.5
 31
0.0
  0
LINE
  5
64F
330
787
100
AcDbEntity
  8
0
 62
     0
100
AcDbLine
 10
460.1514158258265
 20
76.5
 30
0.0
 11
473.4014158258258
 21
76.5
 31
0.0
  0
LINE
  5
650
330
787
100
AcDbEntity
  8
0
 62
     0
100
AcDbLine
 10
541.3939014265734
 20
78.0
 30
0.0
 11
557.4104154804984
 21
78.0
 31
0.0
  0
LINE
  5
651
330
787
100
AcDbEntity
  8
0
 62
     0
100
AcDbLine
 10
499.4014158258267
 20
78.0
 30
0.0
 11
515.3986377970002
 21
78.0
 31
0.0
  0
LINE
  5
652
330
787
100
AcDbEntity
  8
0
 62
     0
100
AcDbLine
 10
583.3934311425958
 20
78.0
 30
0.0
 11
596.6514158258262
 21
78.0
 31
0.0
  0
LINE
  5
653
330
787
100
AcDbEntity
  8
0
 62
     0
100
AcDbLine
 10
460.1514158258263
 20
78.0
 30
0.0
 11
473.4014158258258
 21
78.0
 31
0.0
  0
LINE
  5
654
330
787
100
AcDbEntity
  8
0
 62
     0
100
AcDbLine
 10
541.3939014265734
 20
79.5
 30
0.0
 11
557.4104154804984
 21
79.5
 31
0.0
  0
LINE
  5
655
330
787
100
AcDbEntity
  8
0
 62
     0
100
AcDbLine
 10
499.4014158258267
 20
79.5
 30
0.0
 11
515.3986377970002
 21
79.5
 31
0.0
  0
LINE
  5
656
330
787
100
AcDbEntity
  8
0
 62
     0
100
AcDbLine
 10
583.3934311425958
 20
79.5
 30
0.0
 11
596.6514158258262
 21
79.5
 31
0.0
  0
LINE
  5
657
330
787
100
AcDbEntity
  8
0
 62
     0
100
AcDbLine
 10
460.1514158258263
 20
79.5
 30
0.0
 11
473.4014158258258
 21
79.5
 31
0.0
  0
LINE
  5
658
330
787
100
AcDbEntity
  8
0
 62
     0
100
AcDbLine
 10
541.3939014265734
 20
81.0
 30
0.0
 11
557.4104154804984
 21
81.0
 31
0.0
  0
LINE
  5
659
330
787
100
AcDbEntity
  8
0
 62
     0
100
AcDbLine
 10
499.4014158258267
 20
81.0
 30
0.0
 11
515.3986377970002
 21
81.0
 31
0.0
  0
LINE
  5
65A
330
787
100
AcDbEntity
  8
0
 62
     0
100
AcDbLine
 10
583.3934311425958
 20
81.0
 30
0.0
 11
596.6514158258262
 21
81.0
 31
0.0
  0
LINE
  5
65B
330
787
100
AcDbEntity
  8
0
 62
     0
100
AcDbLine
 10
460.1514158258263
 20
81.0
 30
0.0
 11
473.4014158258258
 21
81.0
 31
0.0
  0
LINE
  5
65C
330
787
100
AcDbEntity
  8
0
 62
     0
100
AcDbLine
 10
541.3939014265734
 20
82.5
 30
0.0
 11
557.4104154804984
 21
82.5
 31
0.0
  0
LINE
  5
65D
330
787
100
AcDbEntity
  8
0
 62
     0
100
AcDbLine
 10
499.4014158258267
 20
82.5
 30
0.0
 11
515.3986377970002
 21
82.5
 31
0.0
  0
LINE
  5
65E
330
787
100
AcDbEntity
  8
0
 62
     0
100
AcDbLine
 10
583.3934311425958
 20
82.5
 30
0.0
 11
596.6514158258262
 21
82.5
 31
0.0
  0
LINE
  5
65F
330
787
100
AcDbEntity
  8
0
 62
     0
100
AcDbLine
 10
460.1514158258263
 20
82.5
 30
0.0
 11
473.4014158258258
 21
82.5
 31
0.0
  0
LINE
  5
660
330
787
100
AcDbEntity
  8
0
 62
     0
100
AcDbLine
 10
541.3939014265734
 20
84.0
 30
0.0
 11
557.4104154804984
 21
84.0
 31
0.0
  0
LINE
  5
661
330
787
100
AcDbEntity
  8
0
 62
     0
100
AcDbLine
 10
499.4014158258267
 20
84.0
 30
0.0
 11
515.3986377970002
 21
84.0
 31
0.0
  0
LINE
  5
662
330
787
100
AcDbEntity
  8
0
 62
     0
100
AcDbLine
 10
583.3934311425958
 20
84.0
 30
0.0
 11
596.6514158258262
 21
84.0
 31
0.0
  0
LINE
  5
663
330
787
100
AcDbEntity
  8
0
 62
     0
100
AcDbLine
 10
460.1514158258263
 20
84.0
 30
0.0
 11
473.4014158258258
 21
84.0
 31
0.0
  0
LINE
  5
664
330
787
100
AcDbEntity
  8
0
 62
     0
100
AcDbLine
 10
541.3939014265734
 20
85.5
 30
0.0
 11
557.4104154804984
 21
85.5
 31
0.0
  0
LINE
  5
665
330
787
100
AcDbEntity
  8
0
 62
     0
100
AcDbLine
 10
499.4014158258267
 20
85.5
 30
0.0
 11
515.3986377970002
 21
85.5
 31
0.0
  0
LINE
  5
666
330
787
100
AcDbEntity
  8
0
 62
     0
100
AcDbLine
 10
583.3934311425958
 20
85.5
 30
0.0
 11
596.6514158258262
 21
85.5
 31
0.0
  0
LINE
  5
667
330
787
100
AcDbEntity
  8
0
 62
     0
100
AcDbLine
 10
460.1514158258263
 20
85.5
 30
0.0
 11
473.4014158258258
 21
85.5
 31
0.0
  0
LINE
  5
668
330
787
100
AcDbEntity
  8
0
 62
     0
100
AcDbLine
 10
541.3939014265734
 20
87.0
 30
0.0
 11
557.4104154804984
 21
87.0
 31
0.0
  0
LINE
  5
669
330
787
100
AcDbEntity
  8
0
 62
     0
100
AcDbLine
 10
499.4014158258267
 20
87.0
 30
0.0
 11
515.3986377970002
 21
87.0
 31
0.0
  0
LINE
  5
66A
330
787
100
AcDbEntity
  8
0
 62
     0
100
AcDbLine
 10
583.3934311425958
 20
87.0
 30
0.0
 11
596.6514158258262
 21
87.0
 31
0.0
  0
LINE
  5
66B
330
787
100
AcDbEntity
  8
0
 62
     0
100
AcDbLine
 10
460.1514158258263
 20
87.0
 30
0.0
 11
473.4014158258258
 21
87.0
 31
0.0
  0
LINE
  5
66C
330
787
100
AcDbEntity
  8
0
 62
     0
100
AcDbLine
 10
541.3939014265734
 20
88.49999999999999
 30
0.0
 11
557.4104154804984
 21
88.49999999999999
 31
0.0
  0
LINE
  5
66D
330
787
100
AcDbEntity
  8
0
 62
     0
100
AcDbLine
 10
499.4014158258267
 20
88.49999999999999
 30
0.0
 11
515.3986377970002
 21
88.49999999999999
 31
0.0
  0
LINE
  5
66E
330
787
100
AcDbEntity
  8
0
 62
     0
100
AcDbLine
 10
583.3934311425958
 20
88.49999999999999
 30
0.0
 11
596.6514158258262
 21
88.49999999999999
 31
0.0
  0
LINE
  5
66F
330
787
100
AcDbEntity
  8
0
 62
     0
100
AcDbLine
 10
460.1514158258263
 20
88.49999999999999
 30
0.0
 11
473.4014158258258
 21
88.49999999999999
 31
0.0
  0
LINE
  5
670
330
787
100
AcDbEntity
  8
0
 62
     0
100
AcDbLine
 10
541.3939014265734
 20
90.0
 30
0.0
 11
557.4104154804984
 21
90.0
 31
0.0
  0
LINE
  5
671
330
787
100
AcDbEntity
  8
0
 62
     0
100
AcDbLine
 10
499.4014158258267
 20
90.0
 30
0.0
 11
515.3986377970002
 21
90.0
 31
0.0
  0
LINE
  5
672
330
787
100
AcDbEntity
  8
0
 62
     0
100
AcDbLine
 10
583.3934311425958
 20
90.0
 30
0.0
 11
596.6514158258262
 21
90.0
 31
0.0
  0
LINE
  5
673
330
787
100
AcDbEntity
  8
0
 62
     0
100
AcDbLine
 10
460.1514158258263
 20
90.0
 30
0.0
 11
473.4014158258258
 21
90.0
 31
0.0
  0
LINE
  5
674
330
787
100
AcDbEntity
  8
0
 62
     0
100
AcDbLine
 10
541.3939014265734
 20
91.5
 30
0.0
 11
557.4104154804984
 21
91.5
 31
0.0
  0
LINE
  5
675
330
787
100
AcDbEntity
  8
0
 62
     0
100
AcDbLine
 10
499.4014158258267
 20
91.5
 30
0.0
 11
515.3986377970002
 21
91.5
 31
0.0
  0
LINE
  5
676
330
787
100
AcDbEntity
  8
0
 62
     0
100
AcDbLine
 10
583.3934311425958
 20
91.5
 30
0.0
 11
596.6514158258262
 21
91.5
 31
0.0
  0
LINE
  5
677
330
787
100
AcDbEntity
  8
0
 62
     0
100
AcDbLine
 10
460.1514158258263
 20
91.5
 30
0.0
 11
473.4014158258258
 21
91.5
 31
0.0
  0
LINE
  5
678
330
787
100
AcDbEntity
  8
0
 62
     0
100
AcDbLine
 10
541.3939014265734
 20
93.0
 30
0.0
 11
557.4104154804984
 21
93.0
 31
0.0
  0
LINE
  5
679
330
787
100
AcDbEntity
  8
0
 62
     0
100
AcDbLine
 10
499.4014158258267
 20
93.0
 30
0.0
 11
515.3986377970002
 21
93.0
 31
0.0
  0
LINE
  5
67A
330
787
100
AcDbEntity
  8
0
 62
     0
100
AcDbLine
 10
583.3934311425958
 20
93.0
 30
0.0
 11
596.6514158258262
 21
93.0
 31
0.0
  0
LINE
  5
67B
330
787
100
AcDbEntity
  8
0
 62
     0
100
AcDbLine
 10
460.1514158258263
 20
93.0
 30
0.0
 11
473.4014158258258
 21
93.0
 31
0.0
  0
LINE
  5
67C
330
787
100
AcDbEntity
  8
0
 62
     0
100
AcDbLine
 10
541.3939014265734
 20
94.50000000000001
 30
0.0
 11
557.4104154804984
 21
94.50000000000001
 31
0.0
  0
LINE
  5
67D
330
787
100
AcDbEntity
  8
0
 62
     0
100
AcDbLine
 10
499.4014158258267
 20
94.50000000000001
 30
0.0
 11
515.3986377970002
 21
94.50000000000001
 31
0.0
  0
LINE
  5
67E
330
787
100
AcDbEntity
  8
0
 62
     0
100
AcDbLine
 10
583.3934311425958
 20
94.50000000000001
 30
0.0
 11
596.6514158258262
 21
94.50000000000001
 31
0.0
  0
LINE
  5
67F
330
787
100
AcDbEntity
  8
0
 62
     0
100
AcDbLine
 10
460.1514158258263
 20
94.50000000000001
 30
0.0
 11
473.4014158258258
 21
94.50000000000001
 31
0.0
  0
LINE
  5
680
330
787
100
AcDbEntity
  8
0
 62
     0
100
AcDbLine
 10
541.3939014265734
 20
96.0
 30
0.0
 11
557.4104154804984
 21
96.0
 31
0.0
  0
LINE
  5
681
330
787
100
AcDbEntity
  8
0
 62
     0
100
AcDbLine
 10
499.4014158258267
 20
96.0
 30
0.0
 11
515.3986377970002
 21
96.0
 31
0.0
  0
LINE
  5
682
330
787
100
AcDbEntity
  8
0
 62
     0
100
AcDbLine
 10
583.3934311425958
 20
96.0
 30
0.0
 11
596.6514158258262
 21
96.0
 31
0.0
  0
LINE
  5
683
330
787
100
AcDbEntity
  8
0
 62
     0
100
AcDbLine
 10
460.1514158258261
 20
96.0
 30
0.0
 11
473.4014158258258
 21
96.0
 31
0.0
  0
LINE
  5
684
330
787
100
AcDbEntity
  8
0
 62
     0
100
AcDbLine
 10
541.3939014265734
 20
97.5
 30
0.0
 11
557.4104154804984
 21
97.5
 31
0.0
  0
LINE
  5
685
330
787
100
AcDbEntity
  8
0
 62
     0
100
AcDbLine
 10
499.4014158258267
 20
97.5
 30
0.0
 11
515.3986377970002
 21
97.5
 31
0.0
  0
LINE
  5
686
330
787
100
AcDbEntity
  8
0
 62
     0
100
AcDbLine
 10
583.3934311425958
 20
97.5
 30
0.0
 11
596.6514158258262
 21
97.5
 31
0.0
  0
LINE
  5
687
330
787
100
AcDbEntity
  8
0
 62
     0
100
AcDbLine
 10
460.1514158258261
 20
97.5
 30
0.0
 11
473.4014158258258
 21
97.5
 31
0.0
  0
ENDBLK
  5
689
330
787
100
AcDbEntity
  8
0
100
AcDbBlockEnd
  0
BLOCK
  5
AC2
330
AC1
100
AcDbEntity
  8
0
100
AcDbBlockBegin
  2
*X5
 70
     1
 10
0.0
 20
0.0
 30
0.0
  3
*X5
  1

  0
LINE
  5
AC3
330
AC1
100
AcDbEntity
  8
0
 62
     0
100
AcDbLine
 10
720.0
 20
4.000004503758384
 30
0.0
 11
720.0
 21
98.37500450375893
 31
0.0
  0
LINE
  5
AC4
330
AC1
100
AcDbEntity
  8
0
 62
     0
100
AcDbLine
 10
718.5
 20
4.000004503758367
 30
0.0
 11
718.5
 21
98.37500450375893
 31
0.0
  0
LINE
  5
AC5
330
AC1
100
AcDbEntity
  8
0
 62
     0
100
AcDbLine
 10
717.0
 20
4.00000450375835
 30
0.0
 11
717.0
 21
98.37500450375893
 31
0.0
  0
LINE
  5
AC6
330
AC1
100
AcDbEntity
  8
0
 62
     0
100
AcDbLine
 10
715.5
 20
4.00000450375833
 30
0.0
 11
715.5
 21
98.37500450375888
 31
0.0
  0
LINE
  5
AC7
330
AC1
100
AcDbEntity
  8
0
 62
     0
100
AcDbLine
 10
714.0
 20
4.000004503758313
 30
0.0
 11
714.0
 21
98.37500450375888
 31
0.0
  0
LINE
  5
AC8
330
AC1
100
AcDbEntity
  8
0
 62
     0
100
AcDbLine
 10
712.5
 20
4.000004503758296
 30
0.0
 11
712.5
 21
98.37500450375884
 31
0.0
  0
LINE
  5
AC9
330
AC1
100
AcDbEntity
  8
0
 62
     0
100
AcDbLine
 10
711.0
 20
4.00000450375828
 30
0.0
 11
711.0
 21
98.37500450375884
 31
0.0
  0
LINE
  5
ACA
330
AC1
100
AcDbEntity
  8
0
 62
     0
100
AcDbLine
 10
684.0
 20
4.000004503758
 30
0.0
 11
684.0
 21
98.37500450375856
 31
0.0
  0
LINE
  5
ACB
330
AC1
100
AcDbEntity
  8
0
 62
     0
100
AcDbLine
 10
682.5
 20
4.000004503757984
 30
0.0
 11
682.5
 21
98.37500450375856
 31
0.0
  0
LINE
  5
ACC
330
AC1
100
AcDbEntity
  8
0
 62
     0
100
AcDbLine
 10
681.0
 20
4.000004503757968
 30
0.0
 11
681.0
 21
98.37500450375856
 31
0.0
  0
LINE
  5
ACD
330
AC1
100
AcDbEntity
  8
0
 62
     0
100
AcDbLine
 10
679.4999999999999
 20
4.000004503757953
 30
0.0
 11
679.4999999999999
 21
98.3750045037585
 31
0.0
  0
LINE
  5
ACE
330
AC1
100
AcDbEntity
  8
0
 62
     0
100
AcDbLine
 10
678.0
 20
4.000004503757939
 30
0.0
 11
678.0
 21
98.3750045037585
 31
0.0
  0
LINE
  5
ACF
330
AC1
100
AcDbEntity
  8
0
 62
     0
100
AcDbLine
 10
676.5
 20
4.000004503757923
 30
0.0
 11
676.5
 21
98.37500450375848
 31
0.0
  0
LINE
  5
AD0
330
AC1
100
AcDbEntity
  8
0
 62
     0
100
AcDbLine
 10
675.0
 20
4.000004503757906
 30
0.0
 11
675.0
 21
98.37500450375848
 31
0.0
  0
LINE
  5
AD1
330
AC1
100
AcDbEntity
  8
0
 62
     0
100
AcDbLine
 10
673.5
 20
4.000004503757891
 30
0.0
 11
673.5
 21
98.37500450375848
 31
0.0
  0
LINE
  5
AD2
330
AC1
100
AcDbEntity
  8
0
 62
     0
100
AcDbLine
 10
672.0
 20
4.000004503757876
 30
0.0
 11
672.0
 21
98.37500450375843
 31
0.0
  0
LINE
  5
AD3
330
AC1
100
AcDbEntity
  8
0
 62
     0
100
AcDbLine
 10
670.5
 20
4.00000450375786
 30
0.0
 11
670.5
 21
98.37500450375841
 31
0.0
  0
LINE
  5
AD4
330
AC1
100
AcDbEntity
  8
0
 62
     0
100
AcDbLine
 10
669.0
 20
4.000004503757846
 30
0.0
 11
669.0
 21
98.37500450375841
 31
0.0
  0
LINE
  5
AD5
330
AC1
100
AcDbEntity
  8
0
 62
     0
100
AcDbLine
 10
667.4999999999998
 20
4.00000450375783
 30
0.0
 11
667.4999999999998
 21
98.37500450375841
 31
0.0
  0
LINE
  5
AD6
330
AC1
100
AcDbEntity
  8
0
 62
     0
100
AcDbLine
 10
666.0
 20
4.000004503757817
 30
0.0
 11
666.0
 21
98.37500450375834
 31
0.0
  0
LINE
  5
AD7
330
AC1
100
AcDbEntity
  8
0
 62
     0
100
AcDbLine
 10
664.5
 20
4.000004503757801
 30
0.0
 11
664.5
 21
98.37500450375834
 31
0.0
  0
LINE
  5
AD8
330
AC1
100
AcDbEntity
  8
0
 62
     0
100
AcDbLine
 10
663.0
 20
4.000004503757785
 30
0.0
 11
663.0
 21
98.37500450375832
 31
0.0
  0
LINE
  5
AD9
330
AC1
100
AcDbEntity
  8
0
 62
     0
100
AcDbLine
 10
661.5
 20
4.000004503757771
 30
0.0
 11
661.5
 21
98.37500450375832
 31
0.0
  0
LINE
  5
ADA
330
AC1
100
AcDbEntity
  8
0
 62
     0
100
AcDbLine
 10
660.0
 20
4.000004503757756
 30
0.0
 11
660.0
 21
98.37500450375834
 31
0.0
  0
LINE
  5
ADB
330
AC1
100
AcDbEntity
  8
0
 62
     0
100
AcDbLine
 10
658.4999999999999
 20
4.00000450375774
 30
0.0
 11
658.4999999999999
 21
98.37500450375827
 31
0.0
  0
LINE
  5
ADC
330
AC1
100
AcDbEntity
  8
0
 62
     0
100
AcDbLine
 10
657.0
 20
4.000004503757723
 30
0.0
 11
657.0
 21
98.37500450375827
 31
0.0
  0
LINE
  5
ADD
330
AC1
100
AcDbEntity
  8
0
 62
     0
100
AcDbLine
 10
630.0
 20
4.000004503757458
 30
0.0
 11
630.0
 21
98.37500450375799
 31
0.0
  0
LINE
  5
ADE
330
AC1
100
AcDbEntity
  8
0
 62
     0
100
AcDbLine
 10
628.5
 20
4.000004503757443
 30
0.0
 11
628.5
 21
98.37500450375799
 31
0.0
  0
LINE
  5
ADF
330
AC1
100
AcDbEntity
  8
0
 62
     0
100
AcDbLine
 10
627.0
 20
4.000004503757426
 30
0.0
 11
627.0
 21
98.37500450375799
 31
0.0
  0
LINE
  5
AE0
330
AC1
100
AcDbEntity
  8
0
 62
     0
100
AcDbLine
 10
625.4999999999999
 20
4.000004503757409
 30
0.0
 11
625.4999999999999
 21
98.37500450375795
 31
0.0
  0
LINE
  5
AE1
330
AC1
100
AcDbEntity
  8
0
 62
     0
100
AcDbLine
 10
624.0
 20
4.000004503757393
 30
0.0
 11
624.0
 21
98.37500450375795
 31
0.0
  0
LINE
  5
AE2
330
AC1
100
AcDbEntity
  8
0
 62
     0
100
AcDbLine
 10
622.5
 20
4.000004503757377
 30
0.0
 11
622.5
 21
98.37500450375792
 31
0.0
  0
LINE
  5
AE3
330
AC1
100
AcDbEntity
  8
0
 62
     0
100
AcDbLine
 10
621.0
 20
4.000004503757361
 30
0.0
 11
621.0
 21
98.37500450375792
 31
0.0
  0
LINE
  5
AE4
330
AC1
100
AcDbEntity
  8
0
 62
     0
100
AcDbLine
 10
619.5
 20
4.000004503757346
 30
0.0
 11
619.5
 21
98.37500450375792
 31
0.0
  0
LINE
  5
AE5
330
AC1
100
AcDbEntity
  8
0
 62
     0
100
AcDbLine
 10
618.0
 20
4.000004503757329
 30
0.0
 11
618.0
 21
98.37500450375792
 31
0.0
  0
LINE
  5
AE6
330
AC1
100
AcDbEntity
  8
0
 62
     0
100
AcDbLine
 10
616.5
 20
4.000004503757313
 30
0.0
 11
616.5
 21
98.37500450375786
 31
0.0
  0
LINE
  5
AE7
330
AC1
100
AcDbEntity
  8
0
 62
     0
100
AcDbLine
 10
615.0
 20
4.000004503757298
 30
0.0
 11
615.0
 21
98.37500450375785
 31
0.0
  0
LINE
  5
AE8
330
AC1
100
AcDbEntity
  8
0
 62
     0
100
AcDbLine
 10
613.4999999999998
 20
4.000004503757281
 30
0.0
 11
613.4999999999998
 21
98.37500450375785
 31
0.0
  0
LINE
  5
AE9
330
AC1
100
AcDbEntity
  8
0
 62
     0
100
AcDbLine
 10
612.0
 20
4.000004503757266
 30
0.0
 11
612.0
 21
98.37500450375785
 31
0.0
  0
LINE
  5
AEA
330
AC1
100
AcDbEntity
  8
0
 62
     0
100
AcDbLine
 10
610.5
 20
4.000004503757249
 30
0.0
 11
610.5
 21
98.37500450375781
 31
0.0
  0
LINE
  5
AEB
330
AC1
100
AcDbEntity
  8
0
 62
     0
100
AcDbLine
 10
609.0
 20
4.000004503757233
 30
0.0
 11
609.0
 21
98.37500450375781
 31
0.0
  0
LINE
  5
AEC
330
AC1
100
AcDbEntity
  8
0
 62
     0
100
AcDbLine
 10
607.5
 20
4.000004503757217
 30
0.0
 11
607.5
 21
98.37500450375777
 31
0.0
  0
LINE
  5
AED
330
AC1
100
AcDbEntity
  8
0
 62
     0
100
AcDbLine
 10
606.0
 20
4.000004503757201
 30
0.0
 11
606.0
 21
98.37500450375777
 31
0.0
  0
LINE
  5
AEE
330
AC1
100
AcDbEntity
  8
0
 62
     0
100
AcDbLine
 10
604.4999999999999
 20
4.000004503757185
 30
0.0
 11
604.4999999999999
 21
98.37500450375772
 31
0.0
  0
LINE
  5
AEF
330
AC1
100
AcDbEntity
  8
0
 62
     0
100
AcDbLine
 10
603.0
 20
4.000004503757169
 30
0.0
 11
603.0
 21
98.37500450375772
 31
0.0
  0
LINE
  5
AF0
330
AC1
100
AcDbEntity
  8
0
 62
     0
100
AcDbLine
 10
576.0
 20
4.000004503756876
 30
0.0
 11
576.0
 21
98.37500450375744
 31
0.0
  0
LINE
  5
AF1
330
AC1
100
AcDbEntity
  8
0
 62
     0
100
AcDbLine
 10
574.5
 20
4.00000450375686
 30
0.0
 11
574.5
 21
98.37500450375742
 31
0.0
  0
LINE
  5
AF2
330
AC1
100
AcDbEntity
  8
0
 62
     0
100
AcDbLine
 10
573.0
 20
4.000004503756846
 30
0.0
 11
573.0
 21
98.37500450375742
 31
0.0
  0
LINE
  5
AF3
330
AC1
100
AcDbEntity
  8
0
 62
     0
100
AcDbLine
 10
571.4999999999998
 20
4.000004503756831
 30
0.0
 11
571.4999999999998
 21
98.3750045037574
 31
0.0
  0
LINE
  5
AF4
330
AC1
100
AcDbEntity
  8
0
 62
     0
100
AcDbLine
 10
570.0
 20
4.000004503756817
 30
0.0
 11
570.0
 21
98.37500450375738
 31
0.0
  0
LINE
  5
AF5
330
AC1
100
AcDbEntity
  8
0
 62
     0
100
AcDbLine
 10
568.5
 20
4.000004503756803
 30
0.0
 11
568.5
 21
98.37500450375737
 31
0.0
  0
LINE
  5
AF6
330
AC1
100
AcDbEntity
  8
0
 62
     0
100
AcDbLine
 10
567.0
 20
4.000004503756787
 30
0.0
 11
567.0
 21
98.37500450375737
 31
0.0
  0
LINE
  5
AF7
330
AC1
100
AcDbEntity
  8
0
 62
     0
100
AcDbLine
 10
565.5
 20
4.000004503756771
 30
0.0
 11
565.5
 21
98.37500450375737
 31
0.0
  0
LINE
  5
AF8
330
AC1
100
AcDbEntity
  8
0
 62
     0
100
AcDbLine
 10
564.0
 20
4.000004503756756
 30
0.0
 11
564.0
 21
98.37500450375731
 31
0.0
  0
LINE
  5
AF9
330
AC1
100
AcDbEntity
  8
0
 62
     0
100
AcDbLine
 10
562.5
 20
4.000004503756742
 30
0.0
 11
562.5
 21
98.37500450375731
 31
0.0
  0
LINE
  5
AFA
330
AC1
100
AcDbEntity
  8
0
 62
     0
100
AcDbLine
 10
561.0
 20
4.000004503756726
 30
0.0
 11
561.0
 21
98.37500450375728
 31
0.0
  0
LINE
  5
AFB
330
AC1
100
AcDbEntity
  8
0
 62
     0
100
AcDbLine
 10
559.4999999999998
 20
4.000004503756712
 30
0.0
 11
559.4999999999998
 21
98.37500450375728
 31
0.0
  0
LINE
  5
AFC
330
AC1
100
AcDbEntity
  8
0
 62
     0
100
AcDbLine
 10
558.0
 20
4.000004503756699
 30
0.0
 11
558.0
 21
98.37500450375728
 31
0.0
  0
LINE
  5
AFD
330
AC1
100
AcDbEntity
  8
0
 62
     0
100
AcDbLine
 10
556.5
 20
4.000004503756683
 30
0.0
 11
556.5
 21
98.37500450375721
 31
0.0
  0
LINE
  5
AFE
330
AC1
100
AcDbEntity
  8
0
 62
     0
100
AcDbLine
 10
555.0
 20
4.000004503756668
 30
0.0
 11
555.0
 21
98.37500450375728
 31
0.0
  0
LINE
  5
AFF
330
AC1
100
AcDbEntity
  8
0
 62
     0
100
AcDbLine
 10
553.5
 20
4.000004503756652
 30
0.0
 11
553.5
 21
98.37500450375721
 31
0.0
  0
LINE
  5
B00
330
AC1
100
AcDbEntity
  8
0
 62
     0
100
AcDbLine
 10
552.0
 20
4.000004503756638
 30
0.0
 11
552.0
 21
98.37500450375721
 31
0.0
  0
LINE
  5
B01
330
AC1
100
AcDbEntity
  8
0
 62
     0
100
AcDbLine
 10
550.4999999999999
 20
4.000004503756623
 30
0.0
 11
550.4999999999999
 21
98.37500450375721
 31
0.0
  0
LINE
  5
B02
330
AC1
100
AcDbEntity
  8
0
 62
     0
100
AcDbLine
 10
549.0
 20
4.000004503756608
 30
0.0
 11
549.0
 21
98.37500450375715
 31
0.0
  0
LINE
  5
B03
330
AC1
100
AcDbEntity
  8
0
 62
     0
100
AcDbLine
 10
522.0
 20
4.00000450375635
 30
0.0
 11
522.0
 21
98.37500450375687
 31
0.0
  0
LINE
  5
B04
330
AC1
100
AcDbEntity
  8
0
 62
     0
100
AcDbLine
 10
520.5
 20
4.000004503756333
 30
0.0
 11
520.5
 21
98.37500450375687
 31
0.0
  0
LINE
  5
B05
330
AC1
100
AcDbEntity
  8
0
 62
     0
100
AcDbLine
 10
519.0
 20
4.000004503756315
 30
0.0
 11
519.0
 21
98.37500450375685
 31
0.0
  0
LINE
  5
B06
330
AC1
100
AcDbEntity
  8
0
 62
     0
100
AcDbLine
 10
517.4999999999998
 20
4.000004503756296
 30
0.0
 11
517.4999999999998
 21
98.37500450375685
 31
0.0
  0
LINE
  5
B07
330
AC1
100
AcDbEntity
  8
0
 62
     0
100
AcDbLine
 10
516.0
 20
4.000004503756279
 30
0.0
 11
516.0
 21
98.37500450375678
 31
0.0
  0
LINE
  5
B08
330
AC1
100
AcDbEntity
  8
0
 62
     0
100
AcDbLine
 10
514.5
 20
4.000004503756263
 30
0.0
 11
514.5
 21
98.37500450375678
 31
0.0
  0
LINE
  5
B09
330
AC1
100
AcDbEntity
  8
0
 62
     0
100
AcDbLine
 10
513.0
 20
4.000004503756246
 30
0.0
 11
513.0
 21
98.37500450375678
 31
0.0
  0
LINE
  5
B0A
330
AC1
100
AcDbEntity
  8
0
 62
     0
100
AcDbLine
 10
602.6645974657212
 20
4.5
 30
0.0
 11
630.6735971203927
 21
4.5
 31
0.0
  0
LINE
  5
B0B
330
AC1
100
AcDbEntity
  8
0
 62
     0
100
AcDbLine
 10
656.6566127824905
 20
4.5
 30
0.0
 11
684.6652765229896
 21
4.5
 31
0.0
  0
LINE
  5
B0C
330
AC1
100
AcDbEntity
  8
0
 62
     0
100
AcDbLine
 10
548.6721861568383
 20
4.5
 30
0.0
 11
576.6645974657214
 21
4.5
 31
0.0
  0
LINE
  5
B0D
330
AC1
100
AcDbEntity
  8
0
 62
     0
100
AcDbLine
 10
710.6505829355699
 20
4.5
 30
0.0
 11
721.1020974657217
 21
4.5
 31
0.0
  0
LINE
  5
B0E
330
AC1
100
AcDbEntity
  8
0
 62
     0
100
AcDbLine
 10
512.2270974657216
 20
4.5
 30
0.0
 11
522.6631466264696
 21
4.5
 31
0.0
  0
LINE
  5
B0F
330
AC1
100
AcDbEntity
  8
0
 62
     0
100
AcDbLine
 10
602.6645974657212
 20
6.0
 30
0.0
 11
630.6735971203927
 21
6.0
 31
0.0
  0
LINE
  5
B10
330
AC1
100
AcDbEntity
  8
0
 62
     0
100
AcDbLine
 10
656.6566127824905
 20
6.0
 30
0.0
 11
684.6652765229896
 21
6.0
 31
0.0
  0
LINE
  5
B11
330
AC1
100
AcDbEntity
  8
0
 62
     0
100
AcDbLine
 10
548.6721861568383
 20
6.0
 30
0.0
 11
576.6645974657214
 21
6.0
 31
0.0
  0
LINE
  5
B12
330
AC1
100
AcDbEntity
  8
0
 62
     0
100
AcDbLine
 10
710.6505829355699
 20
6.0
 30
0.0
 11
721.1020974657217
 21
6.0
 31
0.0
  0
LINE
  5
B13
330
AC1
100
AcDbEntity
  8
0
 62
     0
100
AcDbLine
 10
512.2270974657216
 20
6.0
 30
0.0
 11
522.6631466264696
 21
6.0
 31
0.0
  0
LINE
  5
B14
330
AC1
100
AcDbEntity
  8
0
 62
     0
100
AcDbLine
 10
602.6645974657212
 20
7.5
 30
0.0
 11
630.6735971203927
 21
7.5
 31
0.0
  0
LINE
  5
B15
330
AC1
100
AcDbEntity
  8
0
 62
     0
100
AcDbLine
 10
656.6566127824905
 20
7.5
 30
0.0
 11
684.6652765229896
 21
7.5
 31
0.0
  0
LINE
  5
B16
330
AC1
100
AcDbEntity
  8
0
 62
     0
100
AcDbLine
 10
548.6721861568383
 20
7.5
 30
0.0
 11
576.6645974657214
 21
7.5
 31
0.0
  0
LINE
  5
B17
330
AC1
100
AcDbEntity
  8
0
 62
     0
100
AcDbLine
 10
710.6505829355699
 20
7.5
 30
0.0
 11
721.1020974657217
 21
7.5
 31
0.0
  0
LINE
  5
B18
330
AC1
100
AcDbEntity
  8
0
 62
     0
100
AcDbLine
 10
512.2270974657216
 20
7.5
 30
0.0
 11
522.6631466264696
 21
7.5
 31
0.0
  0
LINE
  5
B19
330
AC1
100
AcDbEntity
  8
0
 62
     0
100
AcDbLine
 10
602.6645974657212
 20
9.0
 30
0.0
 11
630.6735971203927
 21
9.0
 31
0.0
  0
LINE
  5
B1A
330
AC1
100
AcDbEntity
  8
0
 62
     0
100
AcDbLine
 10
656.6566127824905
 20
9.0
 30
0.0
 11
684.6652765229896
 21
9.0
 31
0.0
  0
LINE
  5
B1B
330
AC1
100
AcDbEntity
  8
0
 62
     0
100
AcDbLine
 10
548.6721861568383
 20
9.0
 30
0.0
 11
576.6645974657214
 21
9.0
 31
0.0
  0
LINE
  5
B1C
330
AC1
100
AcDbEntity
  8
0
 62
     0
100
AcDbLine
 10
710.6505829355699
 20
9.0
 30
0.0
 11
721.1020974657217
 21
9.0
 31
0.0
  0
LINE
  5
B1D
330
AC1
100
AcDbEntity
  8
0
 62
     0
100
AcDbLine
 10
512.2270974657216
 20
9.0
 30
0.0
 11
522.6631466264696
 21
9.0
 31
0.0
  0
LINE
  5
B1E
330
AC1
100
AcDbEntity
  8
0
 62
     0
100
AcDbLine
 10
602.6645974657212
 20
10.5
 30
0.0
 11
630.6735971203927
 21
10.5
 31
0.0
  0
LINE
  5
B1F
330
AC1
100
AcDbEntity
  8
0
 62
     0
100
AcDbLine
 10
656.6566127824905
 20
10.5
 30
0.0
 11
684.6652765229896
 21
10.5
 31
0.0
  0
LINE
  5
B20
330
AC1
100
AcDbEntity
  8
0
 62
     0
100
AcDbLine
 10
548.6721861568383
 20
10.5
 30
0.0
 11
576.6645974657214
 21
10.5
 31
0.0
  0
LINE
  5
B21
330
AC1
100
AcDbEntity
  8
0
 62
     0
100
AcDbLine
 10
710.6505829355699
 20
10.5
 30
0.0
 11
721.1020974657216
 21
10.5
 31
0.0
  0
LINE
  5
B22
330
AC1
100
AcDbEntity
  8
0
 62
     0
100
AcDbLine
 10
512.2270974657216
 20
10.5
 30
0.0
 11
522.6631466264696
 21
10.5
 31
0.0
  0
LINE
  5
B23
330
AC1
100
AcDbEntity
  8
0
 62
     0
100
AcDbLine
 10
602.6645974657212
 20
12.0
 30
0.0
 11
630.6735971203927
 21
12.0
 31
0.0
  0
LINE
  5
B24
330
AC1
100
AcDbEntity
  8
0
 62
     0
100
AcDbLine
 10
656.6566127824905
 20
12.0
 30
0.0
 11
684.6652765229896
 21
12.0
 31
0.0
  0
LINE
  5
B25
330
AC1
100
AcDbEntity
  8
0
 62
     0
100
AcDbLine
 10
548.6721861568383
 20
12.0
 30
0.0
 11
576.6645974657214
 21
12.0
 31
0.0
  0
LINE
  5
B26
330
AC1
100
AcDbEntity
  8
0
 62
     0
100
AcDbLine
 10
710.6505829355699
 20
12.0
 30
0.0
 11
721.1020974657216
 21
12.0
 31
0.0
  0
LINE
  5
B27
330
AC1
100
AcDbEntity
  8
0
 62
     0
100
AcDbLine
 10
512.2270974657216
 20
12.0
 30
0.0
 11
522.6631466264696
 21
12.0
 31
0.0
  0
LINE
  5
B28
330
AC1
100
AcDbEntity
  8
0
 62
     0
100
AcDbLine
 10
602.6645974657212
 20
13.5
 30
0.0
 11
630.6735971203927
 21
13.5
 31
0.0
  0
LINE
  5
B29
330
AC1
100
AcDbEntity
  8
0
 62
     0
100
AcDbLine
 10
656.6566127824905
 20
13.5
 30
0.0
 11
684.6652765229896
 21
13.5
 31
0.0
  0
LINE
  5
B2A
330
AC1
100
AcDbEntity
  8
0
 62
     0
100
AcDbLine
 10
548.6721861568383
 20
13.5
 30
0.0
 11
576.6645974657214
 21
13.5
 31
0.0
  0
LINE
  5
B2B
330
AC1
100
AcDbEntity
  8
0
 62
     0
100
AcDbLine
 10
710.6505829355699
 20
13.5
 30
0.0
 11
721.1020974657216
 21
13.5
 31
0.0
  0
LINE
  5
B2C
330
AC1
100
AcDbEntity
  8
0
 62
     0
100
AcDbLine
 10
512.2270974657216
 20
13.5
 30
0.0
 11
522.6631466264696
 21
13.5
 31
0.0
  0
LINE
  5
B2D
330
AC1
100
AcDbEntity
  8
0
 62
     0
100
AcDbLine
 10
602.6645974657212
 20
15.0
 30
0.0
 11
630.6735971203927
 21
15.0
 31
0.0
  0
LINE
  5
B2E
330
AC1
100
AcDbEntity
  8
0
 62
     0
100
AcDbLine
 10
656.6566127824905
 20
15.0
 30
0.0
 11
684.6652765229896
 21
15.0
 31
0.0
  0
LINE
  5
B2F
330
AC1
100
AcDbEntity
  8
0
 62
     0
100
AcDbLine
 10
548.6721861568383
 20
15.0
 30
0.0
 11
576.6645974657214
 21
15.0
 31
0.0
  0
LINE
  5
B30
330
AC1
100
AcDbEntity
  8
0
 62
     0
100
AcDbLine
 10
710.6505829355699
 20
15.0
 30
0.0
 11
721.1020974657216
 21
15.0
 31
0.0
  0
LINE
  5
B31
330
AC1
100
AcDbEntity
  8
0
 62
     0
100
AcDbLine
 10
512.2270974657216
 20
15.0
 30
0.0
 11
522.6631466264696
 21
15.0
 31
0.0
  0
LINE
  5
B32
330
AC1
100
AcDbEntity
  8
0
 62
     0
100
AcDbLine
 10
602.6645974657212
 20
16.5
 30
0.0
 11
630.6735971203927
 21
16.5
 31
0.0
  0
LINE
  5
B33
330
AC1
100
AcDbEntity
  8
0
 62
     0
100
AcDbLine
 10
656.6566127824905
 20
16.5
 30
0.0
 11
684.6652765229896
 21
16.5
 31
0.0
  0
LINE
  5
B34
330
AC1
100
AcDbEntity
  8
0
 62
     0
100
AcDbLine
 10
548.6721861568383
 20
16.5
 30
0.0
 11
576.6645974657214
 21
16.5
 31
0.0
  0
LINE
  5
B35
330
AC1
100
AcDbEntity
  8
0
 62
     0
100
AcDbLine
 10
710.6505829355699
 20
16.5
 30
0.0
 11
721.1020974657216
 21
16.5
 31
0.0
  0
LINE
  5
B36
330
AC1
100
AcDbEntity
  8
0
 62
     0
100
AcDbLine
 10
512.2270974657216
 20
16.5
 30
0.0
 11
522.6631466264696
 21
16.5
 31
0.0
  0
LINE
  5
B37
330
AC1
100
AcDbEntity
  8
0
 62
     0
100
AcDbLine
 10
602.6645974657212
 20
18.0
 30
0.0
 11
630.6735971203927
 21
18.0
 31
0.0
  0
LINE
  5
B38
330
AC1
100
AcDbEntity
  8
0
 62
     0
100
AcDbLine
 10
656.6566127824905
 20
18.0
 30
0.0
 11
684.6652765229896
 21
18.0
 31
0.0
  0
LINE
  5
B39
330
AC1
100
AcDbEntity
  8
0
 62
     0
100
AcDbLine
 10
548.6721861568383
 20
18.0
 30
0.0
 11
576.6645974657214
 21
18.0
 31
0.0
  0
LINE
  5
B3A
330
AC1
100
AcDbEntity
  8
0
 62
     0
100
AcDbLine
 10
710.6505829355699
 20
18.0
 30
0.0
 11
721.1020974657216
 21
18.0
 31
0.0
  0
LINE
  5
B3B
330
AC1
100
AcDbEntity
  8
0
 62
     0
100
AcDbLine
 10
512.2270974657216
 20
18.0
 30
0.0
 11
522.6631466264696
 21
18.0
 31
0.0
  0
LINE
  5
B3C
330
AC1
100
AcDbEntity
  8
0
 62
     0
100
AcDbLine
 10
602.6645974657212
 20
19.5
 30
0.0
 11
630.6735971203927
 21
19.5
 31
0.0
  0
LINE
  5
B3D
330
AC1
100
AcDbEntity
  8
0
 62
     0
100
AcDbLine
 10
656.6566127824905
 20
19.5
 30
0.0
 11
684.6652765229896
 21
19.5
 31
0.0
  0
LINE
  5
B3E
330
AC1
100
AcDbEntity
  8
0
 62
     0
100
AcDbLine
 10
548.6721861568383
 20
19.5
 30
0.0
 11
576.6645974657214
 21
19.5
 31
0.0
  0
LINE
  5
B3F
330
AC1
100
AcDbEntity
  8
0
 62
     0
100
AcDbLine
 10
710.6505829355699
 20
19.5
 30
0.0
 11
721.1020974657216
 21
19.5
 31
0.0
  0
LINE
  5
B40
330
AC1
100
AcDbEntity
  8
0
 62
     0
100
AcDbLine
 10
512.2270974657216
 20
19.5
 30
0.0
 11
522.6631466264696
 21
19.5
 31
0.0
  0
LINE
  5
B41
330
AC1
100
AcDbEntity
  8
0
 62
     0
100
AcDbLine
 10
602.6645974657212
 20
21.0
 30
0.0
 11
630.6735971203927
 21
21.0
 31
0.0
  0
LINE
  5
B42
330
AC1
100
AcDbEntity
  8
0
 62
     0
100
AcDbLine
 10
656.6566127824905
 20
21.0
 30
0.0
 11
684.6652765229896
 21
21.0
 31
0.0
  0
LINE
  5
B43
330
AC1
100
AcDbEntity
  8
0
 62
     0
100
AcDbLine
 10
548.6721861568383
 20
21.0
 30
0.0
 11
576.6645974657214
 21
21.0
 31
0.0
  0
LINE
  5
B44
330
AC1
100
AcDbEntity
  8
0
 62
     0
100
AcDbLine
 10
710.6505829355699
 20
21.0
 30
0.0
 11
721.1020974657216
 21
21.0
 31
0.0
  0
LINE
  5
B45
330
AC1
100
AcDbEntity
  8
0
 62
     0
100
AcDbLine
 10
512.2270974657216
 20
21.0
 30
0.0
 11
522.6631466264696
 21
21.0
 31
0.0
  0
LINE
  5
B46
330
AC1
100
AcDbEntity
  8
0
 62
     0
100
AcDbLine
 10
602.6645974657212
 20
22.5
 30
0.0
 11
630.6735971203927
 21
22.5
 31
0.0
  0
LINE
  5
B47
330
AC1
100
AcDbEntity
  8
0
 62
     0
100
AcDbLine
 10
656.6566127824905
 20
22.5
 30
0.0
 11
684.6652765229896
 21
22.5
 31
0.0
  0
LINE
  5
B48
330
AC1
100
AcDbEntity
  8
0
 62
     0
100
AcDbLine
 10
548.6721861568383
 20
22.5
 30
0.0
 11
576.6645974657214
 21
22.5
 31
0.0
  0
LINE
  5
B49
330
AC1
100
AcDbEntity
  8
0
 62
     0
100
AcDbLine
 10
710.6505829355699
 20
22.5
 30
0.0
 11
721.1020974657214
 21
22.5
 31
0.0
  0
LINE
  5
B4A
330
AC1
100
AcDbEntity
  8
0
 62
     0
100
AcDbLine
 10
512.2270974657216
 20
22.5
 30
0.0
 11
522.6631466264696
 21
22.5
 31
0.0
  0
LINE
  5
B4B
330
AC1
100
AcDbEntity
  8
0
 62
     0
100
AcDbLine
 10
602.6645974657212
 20
24.0
 30
0.0
 11
630.6735971203927
 21
24.0
 31
0.0
  0
LINE
  5
B4C
330
AC1
100
AcDbEntity
  8
0
 62
     0
100
AcDbLine
 10
656.6566127824905
 20
24.0
 30
0.0
 11
684.6652765229896
 21
24.0
 31
0.0
  0
LINE
  5
B4D
330
AC1
100
AcDbEntity
  8
0
 62
     0
100
AcDbLine
 10
548.6721861568383
 20
24.0
 30
0.0
 11
576.6645974657214
 21
24.0
 31
0.0
  0
LINE
  5
B4E
330
AC1
100
AcDbEntity
  8
0
 62
     0
100
AcDbLine
 10
710.6505829355699
 20
24.0
 30
0.0
 11
721.1020974657214
 21
24.0
 31
0.0
  0
LINE
  5
B4F
330
AC1
100
AcDbEntity
  8
0
 62
     0
100
AcDbLine
 10
512.2270974657216
 20
24.0
 30
0.0
 11
522.6631466264696
 21
24.0
 31
0.0
  0
LINE
  5
B50
330
AC1
100
AcDbEntity
  8
0
 62
     0
100
AcDbLine
 10
602.6645974657212
 20
25.5
 30
0.0
 11
630.6735971203927
 21
25.5
 31
0.0
  0
LINE
  5
B51
330
AC1
100
AcDbEntity
  8
0
 62
     0
100
AcDbLine
 10
656.6566127824905
 20
25.5
 30
0.0
 11
684.6652765229896
 21
25.5
 31
0.0
  0
LINE
  5
B52
330
AC1
100
AcDbEntity
  8
0
 62
     0
100
AcDbLine
 10
548.6721861568383
 20
25.5
 30
0.0
 11
576.6645974657214
 21
25.5
 31
0.0
  0
LINE
  5
B53
330
AC1
100
AcDbEntity
  8
0
 62
     0
100
AcDbLine
 10
710.6505829355699
 20
25.5
 30
0.0
 11
721.1020974657214
 21
25.5
 31
0.0
  0
LINE
  5
B54
330
AC1
100
AcDbEntity
  8
0
 62
     0
100
AcDbLine
 10
512.2270974657216
 20
25.5
 30
0.0
 11
522.6631466264696
 21
25.5
 31
0.0
  0
LINE
  5
B55
330
AC1
100
AcDbEntity
  8
0
 62
     0
100
AcDbLine
 10
602.6645974657212
 20
27.0
 30
0.0
 11
630.6735971203927
 21
27.0
 31
0.0
  0
LINE
  5
B56
330
AC1
100
AcDbEntity
  8
0
 62
     0
100
AcDbLine
 10
656.6566127824905
 20
27.0
 30
0.0
 11
684.6652765229896
 21
27.0
 31
0.0
  0
LINE
  5
B57
330
AC1
100
AcDbEntity
  8
0
 62
     0
100
AcDbLine
 10
548.6721861568383
 20
27.0
 30
0.0
 11
576.6645974657214
 21
27.0
 31
0.0
  0
LINE
  5
B58
330
AC1
100
AcDbEntity
  8
0
 62
     0
100
AcDbLine
 10
710.6505829355699
 20
27.0
 30
0.0
 11
721.1020974657214
 21
27.0
 31
0.0
  0
LINE
  5
B59
330
AC1
100
AcDbEntity
  8
0
 62
     0
100
AcDbLine
 10
512.2270974657216
 20
27.0
 30
0.0
 11
522.6631466264696
 21
27.0
 31
0.0
  0
LINE
  5
B5A
330
AC1
100
AcDbEntity
  8
0
 62
     0
100
AcDbLine
 10
602.6645974657212
 20
28.5
 30
0.0
 11
630.6735971203927
 21
28.5
 31
0.0
  0
LINE
  5
B5B
330
AC1
100
AcDbEntity
  8
0
 62
     0
100
AcDbLine
 10
656.6566127824905
 20
28.5
 30
0.0
 11
684.6652765229896
 21
28.5
 31
0.0
  0
LINE
  5
B5C
330
AC1
100
AcDbEntity
  8
0
 62
     0
100
AcDbLine
 10
548.6721861568383
 20
28.5
 30
0.0
 11
576.6645974657214
 21
28.5
 31
0.0
  0
LINE
  5
B5D
330
AC1
100
AcDbEntity
  8
0
 62
     0
100
AcDbLine
 10
710.6505829355699
 20
28.5
 30
0.0
 11
721.1020974657214
 21
28.5
 31
0.0
  0
LINE
  5
B5E
330
AC1
100
AcDbEntity
  8
0
 62
     0
100
AcDbLine
 10
512.2270974657216
 20
28.5
 30
0.0
 11
522.6631466264696
 21
28.5
 31
0.0
  0
LINE
  5
B5F
330
AC1
100
AcDbEntity
  8
0
 62
     0
100
AcDbLine
 10
602.6645974657212
 20
30.0
 30
0.0
 11
630.6735971203927
 21
30.0
 31
0.0
  0
LINE
  5
B60
330
AC1
100
AcDbEntity
  8
0
 62
     0
100
AcDbLine
 10
656.6566127824905
 20
30.0
 30
0.0
 11
684.6652765229896
 21
30.0
 31
0.0
  0
LINE
  5
B61
330
AC1
100
AcDbEntity
  8
0
 62
     0
100
AcDbLine
 10
548.6721861568383
 20
30.0
 30
0.0
 11
576.6645974657214
 21
30.0
 31
0.0
  0
LINE
  5
B62
330
AC1
100
AcDbEntity
  8
0
 62
     0
100
AcDbLine
 10
710.6505829355699
 20
30.0
 30
0.0
 11
721.1020974657214
 21
30.0
 31
0.0
  0
LINE
  5
B63
330
AC1
100
AcDbEntity
  8
0
 62
     0
100
AcDbLine
 10
512.2270974657216
 20
30.0
 30
0.0
 11
522.6631466264696
 21
30.0
 31
0.0
  0
LINE
  5
B64
330
AC1
100
AcDbEntity
  8
0
 62
     0
100
AcDbLine
 10
602.6645974657212
 20
31.5
 30
0.0
 11
630.6735971203927
 21
31.5
 31
0.0
  0
LINE
  5
B65
330
AC1
100
AcDbEntity
  8
0
 62
     0
100
AcDbLine
 10
656.6566127824905
 20
31.5
 30
0.0
 11
684.6652765229896
 21
31.5
 31
0.0
  0
LINE
  5
B66
330
AC1
100
AcDbEntity
  8
0
 62
     0
100
AcDbLine
 10
548.6721861568383
 20
31.5
 30
0.0
 11
576.6645974657214
 21
31.5
 31
0.0
  0
LINE
  5
B67
330
AC1
100
AcDbEntity
  8
0
 62
     0
100
AcDbLine
 10
710.6505829355699
 20
31.5
 30
0.0
 11
721.1020974657214
 21
31.5
 31
0.0
  0
LINE
  5
B68
330
AC1
100
AcDbEntity
  8
0
 62
     0
100
AcDbLine
 10
512.2270974657213
 20
31.5
 30
0.0
 11
522.6631466264696
 21
31.5
 31
0.0
  0
LINE
  5
B69
330
AC1
100
AcDbEntity
  8
0
 62
     0
100
AcDbLine
 10
602.6645974657212
 20
33.0
 30
0.0
 11
630.6735971203927
 21
33.0
 31
0.0
  0
LINE
  5
B6A
330
AC1
100
AcDbEntity
  8
0
 62
     0
100
AcDbLine
 10
656.6566127824905
 20
33.0
 30
0.0
 11
684.6652765229896
 21
33.0
 31
0.0
  0
LINE
  5
B6B
330
AC1
100
AcDbEntity
  8
0
 62
     0
100
AcDbLine
 10
548.6721861568383
 20
33.0
 30
0.0
 11
576.6645974657214
 21
33.0
 31
0.0
  0
LINE
  5
B6C
330
AC1
100
AcDbEntity
  8
0
 62
     0
100
AcDbLine
 10
710.6505829355699
 20
33.0
 30
0.0
 11
721.1020974657214
 21
33.0
 31
0.0
  0
LINE
  5
B6D
330
AC1
100
AcDbEntity
  8
0
 62
     0
100
AcDbLine
 10
512.2270974657213
 20
33.0
 30
0.0
 11
522.6631466264696
 21
33.0
 31
0.0
  0
LINE
  5
B6E
330
AC1
100
AcDbEntity
  8
0
 62
     0
100
AcDbLine
 10
602.6645974657212
 20
34.5
 30
0.0
 11
630.6735971203927
 21
34.5
 31
0.0
  0
LINE
  5
B6F
330
AC1
100
AcDbEntity
  8
0
 62
     0
100
AcDbLine
 10
656.6566127824905
 20
34.5
 30
0.0
 11
684.6652765229896
 21
34.5
 31
0.0
  0
LINE
  5
B70
330
AC1
100
AcDbEntity
  8
0
 62
     0
100
AcDbLine
 10
548.6721861568383
 20
34.5
 30
0.0
 11
576.6645974657214
 21
34.5
 31
0.0
  0
LINE
  5
B71
330
AC1
100
AcDbEntity
  8
0
 62
     0
100
AcDbLine
 10
710.6505829355699
 20
34.5
 30
0.0
 11
721.1020974657214
 21
34.5
 31
0.0
  0
LINE
  5
B72
330
AC1
100
AcDbEntity
  8
0
 62
     0
100
AcDbLine
 10
512.2270974657213
 20
34.5
 30
0.0
 11
522.6631466264696
 21
34.5
 31
0.0
  0
LINE
  5
B73
330
AC1
100
AcDbEntity
  8
0
 62
     0
100
AcDbLine
 10
602.6645974657212
 20
36.0
 30
0.0
 11
630.6735971203927
 21
36.0
 31
0.0
  0
LINE
  5
B74
330
AC1
100
AcDbEntity
  8
0
 62
     0
100
AcDbLine
 10
656.6566127824905
 20
36.0
 30
0.0
 11
684.6652765229896
 21
36.0
 31
0.0
  0
LINE
  5
B75
330
AC1
100
AcDbEntity
  8
0
 62
     0
100
AcDbLine
 10
548.6721861568383
 20
36.0
 30
0.0
 11
576.6645974657214
 21
36.0
 31
0.0
  0
LINE
  5
B76
330
AC1
100
AcDbEntity
  8
0
 62
     0
100
AcDbLine
 10
710.6505829355699
 20
36.0
 30
0.0
 11
721.1020974657214
 21
36.0
 31
0.0
  0
LINE
  5
B77
330
AC1
100
AcDbEntity
  8
0
 62
     0
100
AcDbLine
 10
512.2270974657213
 20
36.0
 30
0.0
 11
522.6631466264696
 21
36.0
 31
0.0
  0
LINE
  5
B78
330
AC1
100
AcDbEntity
  8
0
 62
     0
100
AcDbLine
 10
602.6645974657212
 20
37.5
 30
0.0
 11
630.6735971203927
 21
37.5
 31
0.0
  0
LINE
  5
B79
330
AC1
100
AcDbEntity
  8
0
 62
     0
100
AcDbLine
 10
656.6566127824905
 20
37.5
 30
0.0
 11
684.6652765229896
 21
37.5
 31
0.0
  0
LINE
  5
B7A
330
AC1
100
AcDbEntity
  8
0
 62
     0
100
AcDbLine
 10
548.6721861568383
 20
37.5
 30
0.0
 11
576.6645974657214
 21
37.5
 31
0.0
  0
LINE
  5
B7B
330
AC1
100
AcDbEntity
  8
0
 62
     0
100
AcDbLine
 10
710.6505829355699
 20
37.5
 30
0.0
 11
721.1020974657214
 21
37.5
 31
0.0
  0
LINE
  5
B7C
330
AC1
100
AcDbEntity
  8
0
 62
     0
100
AcDbLine
 10
512.2270974657213
 20
37.5
 30
0.0
 11
522.6631466264696
 21
37.5
 31
0.0
  0
LINE
  5
B7D
330
AC1
100
AcDbEntity
  8
0
 62
     0
100
AcDbLine
 10
602.6645974657212
 20
39.0
 30
0.0
 11
630.6735971203927
 21
39.0
 31
0.0
  0
LINE
  5
B7E
330
AC1
100
AcDbEntity
  8
0
 62
     0
100
AcDbLine
 10
656.6566127824905
 20
39.0
 30
0.0
 11
684.6652765229896
 21
39.0
 31
0.0
  0
LINE
  5
B7F
330
AC1
100
AcDbEntity
  8
0
 62
     0
100
AcDbLine
 10
548.6721861568383
 20
39.0
 30
0.0
 11
576.6645974657214
 21
39.0
 31
0.0
  0
LINE
  5
B80
330
AC1
100
AcDbEntity
  8
0
 62
     0
100
AcDbLine
 10
710.6505829355699
 20
39.0
 30
0.0
 11
721.1020974657214
 21
39.0
 31
0.0
  0
LINE
  5
B81
330
AC1
100
AcDbEntity
  8
0
 62
     0
100
AcDbLine
 10
512.2270974657213
 20
39.0
 30
0.0
 11
522.6631466264696
 21
39.0
 31
0.0
  0
LINE
  5
B82
330
AC1
100
AcDbEntity
  8
0
 62
     0
100
AcDbLine
 10
602.6645974657212
 20
40.49999999999999
 30
0.0
 11
630.6735971203927
 21
40.49999999999999
 31
0.0
  0
LINE
  5
B83
330
AC1
100
AcDbEntity
  8
0
 62
     0
100
AcDbLine
 10
656.6566127824905
 20
40.49999999999999
 30
0.0
 11
684.6652765229896
 21
40.49999999999999
 31
0.0
  0
LINE
  5
B84
330
AC1
100
AcDbEntity
  8
0
 62
     0
100
AcDbLine
 10
548.6721861568383
 20
40.49999999999999
 30
0.0
 11
576.6645974657214
 21
40.49999999999999
 31
0.0
  0
LINE
  5
B85
330
AC1
100
AcDbEntity
  8
0
 62
     0
100
AcDbLine
 10
710.6505829355699
 20
40.49999999999999
 30
0.0
 11
721.1020974657214
 21
40.49999999999999
 31
0.0
  0
LINE
  5
B86
330
AC1
100
AcDbEntity
  8
0
 62
     0
100
AcDbLine
 10
512.2270974657213
 20
40.49999999999999
 30
0.0
 11
522.6631466264696
 21
40.49999999999999
 31
0.0
  0
LINE
  5
B87
330
AC1
100
AcDbEntity
  8
0
 62
     0
100
AcDbLine
 10
602.6645974657212
 20
42.0
 30
0.0
 11
630.6735971203927
 21
42.0
 31
0.0
  0
LINE
  5
B88
330
AC1
100
AcDbEntity
  8
0
 62
     0
100
AcDbLine
 10
656.6566127824905
 20
42.0
 30
0.0
 11
684.6652765229896
 21
42.0
 31
0.0
  0
LINE
  5
B89
330
AC1
100
AcDbEntity
  8
0
 62
     0
100
AcDbLine
 10
548.6721861568383
 20
42.0
 30
0.0
 11
576.6645974657214
 21
42.0
 31
0.0
  0
LINE
  5
B8A
330
AC1
100
AcDbEntity
  8
0
 62
     0
100
AcDbLine
 10
710.6505829355699
 20
42.0
 30
0.0
 11
721.1020974657214
 21
42.0
 31
0.0
  0
LINE
  5
B8B
330
AC1
100
AcDbEntity
  8
0
 62
     0
100
AcDbLine
 10
512.2270974657213
 20
42.0
 30
0.0
 11
522.6631466264696
 21
42.0
 31
0.0
  0
LINE
  5
B8C
330
AC1
100
AcDbEntity
  8
0
 62
     0
100
AcDbLine
 10
602.6645974657212
 20
43.5
 30
0.0
 11
630.6735971203927
 21
43.5
 31
0.0
  0
LINE
  5
B8D
330
AC1
100
AcDbEntity
  8
0
 62
     0
100
AcDbLine
 10
656.6566127824905
 20
43.5
 30
0.0
 11
684.6652765229896
 21
43.5
 31
0.0
  0
LINE
  5
B8E
330
AC1
100
AcDbEntity
  8
0
 62
     0
100
AcDbLine
 10
548.6721861568383
 20
43.5
 30
0.0
 11
576.6645974657214
 21
43.5
 31
0.0
  0
LINE
  5
B8F
330
AC1
100
AcDbEntity
  8
0
 62
     0
100
AcDbLine
 10
710.6505829355699
 20
43.5
 30
0.0
 11
721.1020974657214
 21
43.5
 31
0.0
  0
LINE
  5
B90
330
AC1
100
AcDbEntity
  8
0
 62
     0
100
AcDbLine
 10
512.2270974657213
 20
43.5
 30
0.0
 11
522.6631466264696
 21
43.5
 31
0.0
  0
LINE
  5
B91
330
AC1
100
AcDbEntity
  8
0
 62
     0
100
AcDbLine
 10
602.6645974657212
 20
45.0
 30
0.0
 11
630.6735971203927
 21
45.0
 31
0.0
  0
LINE
  5
B92
330
AC1
100
AcDbEntity
  8
0
 62
     0
100
AcDbLine
 10
656.6566127824905
 20
45.0
 30
0.0
 11
684.6652765229896
 21
45.0
 31
0.0
  0
LINE
  5
B93
330
AC1
100
AcDbEntity
  8
0
 62
     0
100
AcDbLine
 10
548.6721861568383
 20
45.0
 30
0.0
 11
576.6645974657214
 21
45.0
 31
0.0
  0
LINE
  5
B94
330
AC1
100
AcDbEntity
  8
0
 62
     0
100
AcDbLine
 10
710.6505829355699
 20
45.0
 30
0.0
 11
721.1020974657214
 21
45.0
 31
0.0
  0
LINE
  5
B95
330
AC1
100
AcDbEntity
  8
0
 62
     0
100
AcDbLine
 10
512.2270974657213
 20
45.0
 30
0.0
 11
522.6631466264696
 21
45.0
 31
0.0
  0
LINE
  5
B96
330
AC1
100
AcDbEntity
  8
0
 62
     0
100
AcDbLine
 10
602.6645974657212
 20
46.5
 30
0.0
 11
630.6735971203927
 21
46.5
 31
0.0
  0
LINE
  5
B97
330
AC1
100
AcDbEntity
  8
0
 62
     0
100
AcDbLine
 10
656.6566127824905
 20
46.5
 30
0.0
 11
684.6652765229896
 21
46.5
 31
0.0
  0
LINE
  5
B98
330
AC1
100
AcDbEntity
  8
0
 62
     0
100
AcDbLine
 10
548.6721861568383
 20
46.5
 30
0.0
 11
576.6645974657214
 21
46.5
 31
0.0
  0
LINE
  5
B99
330
AC1
100
AcDbEntity
  8
0
 62
     0
100
AcDbLine
 10
710.6505829355699
 20
46.5
 30
0.0
 11
721.1020974657213
 21
46.5
 31
0.0
  0
LINE
  5
B9A
330
AC1
100
AcDbEntity
  8
0
 62
     0
100
AcDbLine
 10
512.2270974657213
 20
46.5
 30
0.0
 11
522.6631466264696
 21
46.5
 31
0.0
  0
LINE
  5
B9B
330
AC1
100
AcDbEntity
  8
0
 62
     0
100
AcDbLine
 10
602.6645974657212
 20
48.0
 30
0.0
 11
630.6735971203927
 21
48.0
 31
0.0
  0
LINE
  5
B9C
330
AC1
100
AcDbEntity
  8
0
 62
     0
100
AcDbLine
 10
656.6566127824905
 20
48.0
 30
0.0
 11
684.6652765229896
 21
48.0
 31
0.0
  0
LINE
  5
B9D
330
AC1
100
AcDbEntity
  8
0
 62
     0
100
AcDbLine
 10
548.6721861568383
 20
48.0
 30
0.0
 11
576.6645974657214
 21
48.0
 31
0.0
  0
LINE
  5
B9E
330
AC1
100
AcDbEntity
  8
0
 62
     0
100
AcDbLine
 10
710.6505829355699
 20
48.0
 30
0.0
 11
721.1020974657213
 21
48.0
 31
0.0
  0
LINE
  5
B9F
330
AC1
100
AcDbEntity
  8
0
 62
     0
100
AcDbLine
 10
512.2270974657213
 20
48.0
 30
0.0
 11
522.6631466264696
 21
48.0
 31
0.0
  0
LINE
  5
BA0
330
AC1
100
AcDbEntity
  8
0
 62
     0
100
AcDbLine
 10
602.6645974657212
 20
49.5
 30
0.0
 11
630.6735971203927
 21
49.5
 31
0.0
  0
LINE
  5
BA1
330
AC1
100
AcDbEntity
  8
0
 62
     0
100
AcDbLine
 10
656.6566127824905
 20
49.5
 30
0.0
 11
684.6652765229896
 21
49.5
 31
0.0
  0
LINE
  5
BA2
330
AC1
100
AcDbEntity
  8
0
 62
     0
100
AcDbLine
 10
548.6721861568383
 20
49.5
 30
0.0
 11
576.6645974657214
 21
49.5
 31
0.0
  0
LINE
  5
BA3
330
AC1
100
AcDbEntity
  8
0
 62
     0
100
AcDbLine
 10
710.6505829355699
 20
49.5
 30
0.0
 11
721.1020974657213
 21
49.5
 31
0.0
  0
LINE
  5
BA4
330
AC1
100
AcDbEntity
  8
0
 62
     0
100
AcDbLine
 10
512.2270974657213
 20
49.5
 30
0.0
 11
522.6631466264696
 21
49.5
 31
0.0
  0
LINE
  5
BA5
330
AC1
100
AcDbEntity
  8
0
 62
     0
100
AcDbLine
 10
602.6645974657212
 20
51.0
 30
0.0
 11
630.6735971203927
 21
51.0
 31
0.0
  0
LINE
  5
BA6
330
AC1
100
AcDbEntity
  8
0
 62
     0
100
AcDbLine
 10
656.6566127824905
 20
51.0
 30
0.0
 11
684.6652765229896
 21
51.0
 31
0.0
  0
LINE
  5
BA7
330
AC1
100
AcDbEntity
  8
0
 62
     0
100
AcDbLine
 10
548.6721861568383
 20
51.0
 30
0.0
 11
576.6645974657214
 21
51.0
 31
0.0
  0
LINE
  5
BA8
330
AC1
100
AcDbEntity
  8
0
 62
     0
100
AcDbLine
 10
710.6505829355699
 20
51.0
 30
0.0
 11
721.1020974657213
 21
51.0
 31
0.0
  0
LINE
  5
BA9
330
AC1
100
AcDbEntity
  8
0
 62
     0
100
AcDbLine
 10
512.2270974657213
 20
51.0
 30
0.0
 11
522.6631466264696
 21
51.0
 31
0.0
  0
LINE
  5
BAA
330
AC1
100
AcDbEntity
  8
0
 62
     0
100
AcDbLine
 10
602.6645974657212
 20
52.5
 30
0.0
 11
630.6735971203927
 21
52.5
 31
0.0
  0
LINE
  5
BAB
330
AC1
100
AcDbEntity
  8
0
 62
     0
100
AcDbLine
 10
656.6566127824905
 20
52.5
 30
0.0
 11
684.6652765229896
 21
52.5
 31
0.0
  0
LINE
  5
BAC
330
AC1
100
AcDbEntity
  8
0
 62
     0
100
AcDbLine
 10
548.6721861568383
 20
52.5
 30
0.0
 11
576.6645974657214
 21
52.5
 31
0.0
  0
LINE
  5
BAD
330
AC1
100
AcDbEntity
  8
0
 62
     0
100
AcDbLine
 10
710.6505829355699
 20
52.5
 30
0.0
 11
721.1020974657213
 21
52.5
 31
0.0
  0
LINE
  5
BAE
330
AC1
100
AcDbEntity
  8
0
 62
     0
100
AcDbLine
 10
512.2270974657213
 20
52.5
 30
0.0
 11
522.6631466264696
 21
52.5
 31
0.0
  0
LINE
  5
BAF
330
AC1
100
AcDbEntity
  8
0
 62
     0
100
AcDbLine
 10
602.6645974657212
 20
54.0
 30
0.0
 11
630.6735971203927
 21
54.0
 31
0.0
  0
LINE
  5
BB0
330
AC1
100
AcDbEntity
  8
0
 62
     0
100
AcDbLine
 10
656.6566127824905
 20
54.0
 30
0.0
 11
684.6652765229896
 21
54.0
 31
0.0
  0
LINE
  5
BB1
330
AC1
100
AcDbEntity
  8
0
 62
     0
100
AcDbLine
 10
548.6721861568383
 20
54.0
 30
0.0
 11
576.6645974657214
 21
54.0
 31
0.0
  0
LINE
  5
BB2
330
AC1
100
AcDbEntity
  8
0
 62
     0
100
AcDbLine
 10
710.6505829355699
 20
54.0
 30
0.0
 11
721.1020974657213
 21
54.0
 31
0.0
  0
LINE
  5
BB3
330
AC1
100
AcDbEntity
  8
0
 62
     0
100
AcDbLine
 10
512.2270974657213
 20
54.0
 30
0.0
 11
522.6631466264696
 21
54.0
 31
0.0
  0
LINE
  5
BB4
330
AC1
100
AcDbEntity
  8
0
 62
     0
100
AcDbLine
 10
602.6645974657212
 20
55.5
 30
0.0
 11
630.6735971203927
 21
55.5
 31
0.0
  0
LINE
  5
BB5
330
AC1
100
AcDbEntity
  8
0
 62
     0
100
AcDbLine
 10
656.6566127824905
 20
55.5
 30
0.0
 11
684.6652765229896
 21
55.5
 31
0.0
  0
LINE
  5
BB6
330
AC1
100
AcDbEntity
  8
0
 62
     0
100
AcDbLine
 10
548.6721861568383
 20
55.5
 30
0.0
 11
576.6645974657214
 21
55.5
 31
0.0
  0
LINE
  5
BB7
330
AC1
100
AcDbEntity
  8
0
 62
     0
100
AcDbLine
 10
710.6505829355699
 20
55.5
 30
0.0
 11
721.1020974657213
 21
55.5
 31
0.0
  0
LINE
  5
BB8
330
AC1
100
AcDbEntity
  8
0
 62
     0
100
AcDbLine
 10
512.2270974657213
 20
55.5
 30
0.0
 11
522.6631466264696
 21
55.5
 31
0.0
  0
LINE
  5
BB9
330
AC1
100
AcDbEntity
  8
0
 62
     0
100
AcDbLine
 10
602.6645974657212
 20
57.0
 30
0.0
 11
630.6735971203927
 21
57.0
 31
0.0
  0
LINE
  5
BBA
330
AC1
100
AcDbEntity
  8
0
 62
     0
100
AcDbLine
 10
656.6566127824905
 20
57.0
 30
0.0
 11
684.6652765229896
 21
57.0
 31
0.0
  0
LINE
  5
BBB
330
AC1
100
AcDbEntity
  8
0
 62
     0
100
AcDbLine
 10
548.6721861568383
 20
57.0
 30
0.0
 11
576.6645974657214
 21
57.0
 31
0.0
  0
LINE
  5
BBC
330
AC1
100
AcDbEntity
  8
0
 62
     0
100
AcDbLine
 10
710.6505829355699
 20
57.0
 30
0.0
 11
721.1020974657213
 21
57.0
 31
0.0
  0
LINE
  5
BBD
330
AC1
100
AcDbEntity
  8
0
 62
     0
100
AcDbLine
 10
512.2270974657213
 20
57.0
 30
0.0
 11
522.6631466264696
 21
57.0
 31
0.0
  0
LINE
  5
BBE
330
AC1
100
AcDbEntity
  8
0
 62
     0
100
AcDbLine
 10
602.6645974657212
 20
58.5
 30
0.0
 11
630.6735971203927
 21
58.5
 31
0.0
  0
LINE
  5
BBF
330
AC1
100
AcDbEntity
  8
0
 62
     0
100
AcDbLine
 10
656.6566127824905
 20
58.5
 30
0.0
 11
684.6652765229896
 21
58.5
 31
0.0
  0
LINE
  5
BC0
330
AC1
100
AcDbEntity
  8
0
 62
     0
100
AcDbLine
 10
548.6721861568383
 20
58.5
 30
0.0
 11
576.6645974657214
 21
58.5
 31
0.0
  0
LINE
  5
BC1
330
AC1
100
AcDbEntity
  8
0
 62
     0
100
AcDbLine
 10
710.6505829355699
 20
58.5
 30
0.0
 11
721.1020974657208
 21
58.5
 31
0.0
  0
LINE
  5
BC2
330
AC1
100
AcDbEntity
  8
0
 62
     0
100
AcDbLine
 10
512.2270974657213
 20
58.5
 30
0.0
 11
522.6631466264696
 21
58.5
 31
0.0
  0
LINE
  5
BC3
330
AC1
100
AcDbEntity
  8
0
 62
     0
100
AcDbLine
 10
602.6645974657212
 20
60.0
 30
0.0
 11
630.6735971203927
 21
60.0
 31
0.0
  0
LINE
  5
BC4
330
AC1
100
AcDbEntity
  8
0
 62
     0
100
AcDbLine
 10
656.6566127824905
 20
60.0
 30
0.0
 11
684.6652765229896
 21
60.0
 31
0.0
  0
LINE
  5
BC5
330
AC1
100
AcDbEntity
  8
0
 62
     0
100
AcDbLine
 10
548.6721861568383
 20
60.0
 30
0.0
 11
576.6645974657214
 21
60.0
 31
0.0
  0
LINE
  5
BC6
330
AC1
100
AcDbEntity
  8
0
 62
     0
100
AcDbLine
 10
710.6505829355699
 20
60.0
 30
0.0
 11
721.1020974657208
 21
60.0
 31
0.0
  0
LINE
  5
BC7
330
AC1
100
AcDbEntity
  8
0
 62
     0
100
AcDbLine
 10
512.2270974657213
 20
60.0
 30
0.0
 11
522.6631466264696
 21
60.0
 31
0.0
  0
LINE
  5
BC8
330
AC1
100
AcDbEntity
  8
0
 62
     0
100
AcDbLine
 10
602.6645974657212
 20
61.5
 30
0.0
 11
630.6735971203927
 21
61.5
 31
0.0
  0
LINE
  5
BC9
330
AC1
100
AcDbEntity
  8
0
 62
     0
100
AcDbLine
 10
656.6566127824905
 20
61.5
 30
0.0
 11
684.6652765229896
 21
61.5
 31
0.0
  0
LINE
  5
BCA
330
AC1
100
AcDbEntity
  8
0
 62
     0
100
AcDbLine
 10
548.6721861568383
 20
61.5
 30
0.0
 11
576.6645974657214
 21
61.5
 31
0.0
  0
LINE
  5
BCB
330
AC1
100
AcDbEntity
  8
0
 62
     0
100
AcDbLine
 10
710.6505829355699
 20
61.5
 30
0.0
 11
721.1020974657208
 21
61.5
 31
0.0
  0
LINE
  5
BCC
330
AC1
100
AcDbEntity
  8
0
 62
     0
100
AcDbLine
 10
512.2270974657213
 20
61.5
 30
0.0
 11
522.6631466264696
 21
61.5
 31
0.0
  0
LINE
  5
BCD
330
AC1
100
AcDbEntity
  8
0
 62
     0
100
AcDbLine
 10
602.6645974657212
 20
63.0
 30
0.0
 11
630.6735971203927
 21
63.0
 31
0.0
  0
LINE
  5
BCE
330
AC1
100
AcDbEntity
  8
0
 62
     0
100
AcDbLine
 10
656.6566127824905
 20
63.0
 30
0.0
 11
684.6652765229896
 21
63.0
 31
0.0
  0
LINE
  5
BCF
330
AC1
100
AcDbEntity
  8
0
 62
     0
100
AcDbLine
 10
548.6721861568383
 20
63.0
 30
0.0
 11
576.6645974657214
 21
63.0
 31
0.0
  0
LINE
  5
BD0
330
AC1
100
AcDbEntity
  8
0
 62
     0
100
AcDbLine
 10
710.6505829355699
 20
63.0
 30
0.0
 11
721.1020974657208
 21
63.0
 31
0.0
  0
LINE
  5
BD1
330
AC1
100
AcDbEntity
  8
0
 62
     0
100
AcDbLine
 10
512.2270974657209
 20
63.0
 30
0.0
 11
522.6631466264696
 21
63.0
 31
0.0
  0
LINE
  5
BD2
330
AC1
100
AcDbEntity
  8
0
 62
     0
100
AcDbLine
 10
602.6645974657212
 20
64.5
 30
0.0
 11
630.6735971203927
 21
64.5
 31
0.0
  0
LINE
  5
BD3
330
AC1
100
AcDbEntity
  8
0
 62
     0
100
AcDbLine
 10
656.6566127824905
 20
64.5
 30
0.0
 11
684.6652765229896
 21
64.5
 31
0.0
  0
LINE
  5
BD4
330
AC1
100
AcDbEntity
  8
0
 62
     0
100
AcDbLine
 10
548.6721861568383
 20
64.5
 30
0.0
 11
576.6645974657214
 21
64.5
 31
0.0
  0
LINE
  5
BD5
330
AC1
100
AcDbEntity
  8
0
 62
     0
100
AcDbLine
 10
710.6505829355699
 20
64.5
 30
0.0
 11
721.1020974657208
 21
64.5
 31
0.0
  0
LINE
  5
BD6
330
AC1
100
AcDbEntity
  8
0
 62
     0
100
AcDbLine
 10
512.2270974657209
 20
64.5
 30
0.0
 11
522.6631466264696
 21
64.5
 31
0.0
  0
LINE
  5
BD7
330
AC1
100
AcDbEntity
  8
0
 62
     0
100
AcDbLine
 10
602.6645974657212
 20
66.0
 30
0.0
 11
630.6735971203927
 21
66.0
 31
0.0
  0
LINE
  5
BD8
330
AC1
100
AcDbEntity
  8
0
 62
     0
100
AcDbLine
 10
656.6566127824905
 20
66.0
 30
0.0
 11
684.6652765229896
 21
66.0
 31
0.0
  0
LINE
  5
BD9
330
AC1
100
AcDbEntity
  8
0
 62
     0
100
AcDbLine
 10
548.6721861568383
 20
66.0
 30
0.0
 11
576.6645974657214
 21
66.0
 31
0.0
  0
LINE
  5
BDA
330
AC1
100
AcDbEntity
  8
0
 62
     0
100
AcDbLine
 10
710.6505829355699
 20
66.0
 30
0.0
 11
721.1020974657208
 21
66.0
 31
0.0
  0
LINE
  5
BDB
330
AC1
100
AcDbEntity
  8
0
 62
     0
100
AcDbLine
 10
512.2270974657209
 20
66.0
 30
0.0
 11
522.6631466264696
 21
66.0
 31
0.0
  0
LINE
  5
BDC
330
AC1
100
AcDbEntity
  8
0
 62
     0
100
AcDbLine
 10
602.6645974657212
 20
67.5
 30
0.0
 11
630.6735971203927
 21
67.5
 31
0.0
  0
LINE
  5
BDD
330
AC1
100
AcDbEntity
  8
0
 62
     0
100
AcDbLine
 10
656.6566127824905
 20
67.5
 30
0.0
 11
684.6652765229896
 21
67.5
 31
0.0
  0
LINE
  5
BDE
330
AC1
100
AcDbEntity
  8
0
 62
     0
100
AcDbLine
 10
548.6721861568383
 20
67.5
 30
0.0
 11
576.6645974657214
 21
67.5
 31
0.0
  0
LINE
  5
BDF
330
AC1
100
AcDbEntity
  8
0
 62
     0
100
AcDbLine
 10
710.6505829355699
 20
67.5
 30
0.0
 11
721.1020974657208
 21
67.5
 31
0.0
  0
LINE
  5
BE0
330
AC1
100
AcDbEntity
  8
0
 62
     0
100
AcDbLine
 10
512.2270974657209
 20
67.5
 30
0.0
 11
522.6631466264696
 21
67.5
 31
0.0
  0
LINE
  5
BE1
330
AC1
100
AcDbEntity
  8
0
 62
     0
100
AcDbLine
 10
602.6645974657212
 20
69.0
 30
0.0
 11
630.6735971203927
 21
69.0
 31
0.0
  0
LINE
  5
BE2
330
AC1
100
AcDbEntity
  8
0
 62
     0
100
AcDbLine
 10
656.6566127824905
 20
69.0
 30
0.0
 11
684.6652765229896
 21
69.0
 31
0.0
  0
LINE
  5
BE3
330
AC1
100
AcDbEntity
  8
0
 62
     0
100
AcDbLine
 10
548.6721861568383
 20
69.0
 30
0.0
 11
576.6645974657214
 21
69.0
 31
0.0
  0
LINE
  5
BE4
330
AC1
100
AcDbEntity
  8
0
 62
     0
100
AcDbLine
 10
710.6505829355699
 20
69.0
 30
0.0
 11
721.1020974657208
 21
69.0
 31
0.0
  0
LINE
  5
BE5
330
AC1
100
AcDbEntity
  8
0
 62
     0
100
AcDbLine
 10
512.2270974657209
 20
69.0
 30
0.0
 11
522.6631466264696
 21
69.0
 31
0.0
  0
LINE
  5
BE6
330
AC1
100
AcDbEntity
  8
0
 62
     0
100
AcDbLine
 10
602.6645974657212
 20
70.5
 30
0.0
 11
630.6735971203927
 21
70.5
 31
0.0
  0
LINE
  5
BE7
330
AC1
100
AcDbEntity
  8
0
 62
     0
100
AcDbLine
 10
656.6566127824905
 20
70.5
 30
0.0
 11
684.6652765229896
 21
70.5
 31
0.0
  0
LINE
  5
BE8
330
AC1
100
AcDbEntity
  8
0
 62
     0
100
AcDbLine
 10
548.6721861568383
 20
70.5
 30
0.0
 11
576.6645974657214
 21
70.5
 31
0.0
  0
LINE
  5
BE9
330
AC1
100
AcDbEntity
  8
0
 62
     0
100
AcDbLine
 10
710.6505829355699
 20
70.5
 30
0.0
 11
721.1020974657208
 21
70.5
 31
0.0
  0
LINE
  5
BEA
330
AC1
100
AcDbEntity
  8
0
 62
     0
100
AcDbLine
 10
512.2270974657209
 20
70.5
 30
0.0
 11
522.6631466264696
 21
70.5
 31
0.0
  0
LINE
  5
BEB
330
AC1
100
AcDbEntity
  8
0
 62
     0
100
AcDbLine
 10
602.6645974657212
 20
72.0
 30
0.0
 11
630.6735971203927
 21
72.0
 31
0.0
  0
LINE
  5
BEC
330
AC1
100
AcDbEntity
  8
0
 62
     0
100
AcDbLine
 10
656.6566127824905
 20
72.0
 30
0.0
 11
684.6652765229896
 21
72.0
 31
0.0
  0
LINE
  5
BED
330
AC1
100
AcDbEntity
  8
0
 62
     0
100
AcDbLine
 10
548.6721861568383
 20
72.0
 30
0.0
 11
576.6645974657214
 21
72.0
 31
0.0
  0
LINE
  5
BEE
330
AC1
100
AcDbEntity
  8
0
 62
     0
100
AcDbLine
 10
710.6505829355699
 20
72.0
 30
0.0
 11
721.1020974657208
 21
72.0
 31
0.0
  0
LINE
  5
BEF
330
AC1
100
AcDbEntity
  8
0
 62
     0
100
AcDbLine
 10
512.2270974657209
 20
72.0
 30
0.0
 11
522.6631466264696
 21
72.0
 31
0.0
  0
LINE
  5
BF0
330
AC1
100
AcDbEntity
  8
0
 62
     0
100
AcDbLine
 10
602.6645974657212
 20
73.5
 30
0.0
 11
630.6735971203927
 21
73.5
 31
0.0
  0
LINE
  5
BF1
330
AC1
100
AcDbEntity
  8
0
 62
     0
100
AcDbLine
 10
656.6566127824905
 20
73.5
 30
0.0
 11
684.6652765229896
 21
73.5
 31
0.0
  0
LINE
  5
BF2
330
AC1
100
AcDbEntity
  8
0
 62
     0
100
AcDbLine
 10
548.6721861568383
 20
73.5
 30
0.0
 11
576.6645974657214
 21
73.5
 31
0.0
  0
LINE
  5
BF3
330
AC1
100
AcDbEntity
  8
0
 62
     0
100
AcDbLine
 10
710.6505829355699
 20
73.5
 30
0.0
 11
721.1020974657208
 21
73.5
 31
0.0
  0
LINE
  5
BF4
330
AC1
100
AcDbEntity
  8
0
 62
     0
100
AcDbLine
 10
512.2270974657209
 20
73.5
 30
0.0
 11
522.6631466264696
 21
73.5
 31
0.0
  0
LINE
  5
BF5
330
AC1
100
AcDbEntity
  8
0
 62
     0
100
AcDbLine
 10
602.6645974657212
 20
75.0
 30
0.0
 11
630.6735971203927
 21
75.0
 31
0.0
  0
LINE
  5
BF6
330
AC1
100
AcDbEntity
  8
0
 62
     0
100
AcDbLine
 10
656.6566127824905
 20
75.0
 30
0.0
 11
684.6652765229896
 21
75.0
 31
0.0
  0
LINE
  5
BF7
330
AC1
100
AcDbEntity
  8
0
 62
     0
100
AcDbLine
 10
548.6721861568383
 20
75.0
 30
0.0
 11
576.6645974657214
 21
75.0
 31
0.0
  0
LINE
  5
BF8
330
AC1
100
AcDbEntity
  8
0
 62
     0
100
AcDbLine
 10
710.6505829355699
 20
75.0
 30
0.0
 11
721.1020974657208
 21
75.0
 31
0.0
  0
LINE
  5
BF9
330
AC1
100
AcDbEntity
  8
0
 62
     0
100
AcDbLine
 10
512.2270974657209
 20
75.0
 30
0.0
 11
522.6631466264696
 21
75.0
 31
0.0
  0
LINE
  5
BFA
330
AC1
100
AcDbEntity
  8
0
 62
     0
100
AcDbLine
 10
602.6645974657212
 20
76.5
 30
0.0
 11
630.6735971203927
 21
76.5
 31
0.0
  0
LINE
  5
BFB
330
AC1
100
AcDbEntity
  8
0
 62
     0
100
AcDbLine
 10
656.6566127824905
 20
76.5
 30
0.0
 11
684.6652765229896
 21
76.5
 31
0.0
  0
LINE
  5
BFC
330
AC1
100
AcDbEntity
  8
0
 62
     0
100
AcDbLine
 10
548.6721861568383
 20
76.5
 30
0.0
 11
576.6645974657214
 21
76.5
 31
0.0
  0
LINE
  5
BFD
330
AC1
100
AcDbEntity
  8
0
 62
     0
100
AcDbLine
 10
710.6505829355699
 20
76.5
 30
0.0
 11
721.1020974657208
 21
76.5
 31
0.0
  0
LINE
  5
BFE
330
AC1
100
AcDbEntity
  8
0
 62
     0
100
AcDbLine
 10
512.2270974657209
 20
76.5
 30
0.0
 11
522.6631466264696
 21
76.5
 31
0.0
  0
LINE
  5
BFF
330
AC1
100
AcDbEntity
  8
0
 62
     0
100
AcDbLine
 10
602.6645974657212
 20
78.0
 30
0.0
 11
630.6735971203927
 21
78.0
 31
0.0
  0
LINE
  5
C00
330
AC1
100
AcDbEntity
  8
0
 62
     0
100
AcDbLine
 10
656.6566127824905
 20
78.0
 30
0.0
 11
684.6652765229896
 21
78.0
 31
0.0
  0
LINE
  5
C01
330
AC1
100
AcDbEntity
  8
0
 62
     0
100
AcDbLine
 10
548.6721861568383
 20
78.0
 30
0.0
 11
576.6645974657214
 21
78.0
 31
0.0
  0
LINE
  5
C02
330
AC1
100
AcDbEntity
  8
0
 62
     0
100
AcDbLine
 10
710.6505829355699
 20
78.0
 30
0.0
 11
721.1020974657208
 21
78.0
 31
0.0
  0
LINE
  5
C03
330
AC1
100
AcDbEntity
  8
0
 62
     0
100
AcDbLine
 10
512.2270974657209
 20
78.0
 30
0.0
 11
522.6631466264696
 21
78.0
 31
0.0
  0
LINE
  5
C04
330
AC1
100
AcDbEntity
  8
0
 62
     0
100
AcDbLine
 10
602.6645974657212
 20
79.5
 30
0.0
 11
630.6735971203927
 21
79.5
 31
0.0
  0
LINE
  5
C05
330
AC1
100
AcDbEntity
  8
0
 62
     0
100
AcDbLine
 10
656.6566127824905
 20
79.5
 30
0.0
 11
684.6652765229896
 21
79.5
 31
0.0
  0
LINE
  5
C06
330
AC1
100
AcDbEntity
  8
0
 62
     0
100
AcDbLine
 10
548.6721861568383
 20
79.5
 30
0.0
 11
576.6645974657214
 21
79.5
 31
0.0
  0
LINE
  5
C07
330
AC1
100
AcDbEntity
  8
0
 62
     0
100
AcDbLine
 10
710.6505829355699
 20
79.5
 30
0.0
 11
721.1020974657208
 21
79.5
 31
0.0
  0
LINE
  5
C08
330
AC1
100
AcDbEntity
  8
0
 62
     0
100
AcDbLine
 10
512.2270974657209
 20
79.5
 30
0.0
 11
522.6631466264696
 21
79.5
 31
0.0
  0
LINE
  5
C09
330
AC1
100
AcDbEntity
  8
0
 62
     0
100
AcDbLine
 10
602.6645974657212
 20
81.0
 30
0.0
 11
630.6735971203927
 21
81.0
 31
0.0
  0
LINE
  5
C0A
330
AC1
100
AcDbEntity
  8
0
 62
     0
100
AcDbLine
 10
656.6566127824905
 20
81.0
 30
0.0
 11
684.6652765229896
 21
81.0
 31
0.0
  0
LINE
  5
C0B
330
AC1
100
AcDbEntity
  8
0
 62
     0
100
AcDbLine
 10
548.6721861568383
 20
81.0
 30
0.0
 11
576.6645974657214
 21
81.0
 31
0.0
  0
LINE
  5
C0C
330
AC1
100
AcDbEntity
  8
0
 62
     0
100
AcDbLine
 10
710.6505829355699
 20
81.0
 30
0.0
 11
721.1020974657208
 21
81.0
 31
0.0
  0
LINE
  5
C0D
330
AC1
100
AcDbEntity
  8
0
 62
     0
100
AcDbLine
 10
512.2270974657209
 20
81.0
 30
0.0
 11
522.6631466264696
 21
81.0
 31
0.0
  0
LINE
  5
C0E
330
AC1
100
AcDbEntity
  8
0
 62
     0
100
AcDbLine
 10
602.6645974657212
 20
82.5
 30
0.0
 11
630.6735971203927
 21
82.5
 31
0.0
  0
LINE
  5
C0F
330
AC1
100
AcDbEntity
  8
0
 62
     0
100
AcDbLine
 10
656.6566127824905
 20
82.5
 30
0.0
 11
684.6652765229896
 21
82.5
 31
0.0
  0
LINE
  5
C10
330
AC1
100
AcDbEntity
  8
0
 62
     0
100
AcDbLine
 10
548.6721861568383
 20
82.5
 30
0.0
 11
576.6645974657214
 21
82.5
 31
0.0
  0
LINE
  5
C11
330
AC1
100
AcDbEntity
  8
0
 62
     0
100
AcDbLine
 10
710.6505829355699
 20
82.5
 30
0.0
 11
721.1020974657208
 21
82.5
 31
0.0
  0
LINE
  5
C12
330
AC1
100
AcDbEntity
  8
0
 62
     0
100
AcDbLine
 10
512.2270974657209
 20
82.5
 30
0.0
 11
522.6631466264696
 21
82.5
 31
0.0
  0
LINE
  5
C13
330
AC1
100
AcDbEntity
  8
0
 62
     0
100
AcDbLine
 10
602.6645974657212
 20
84.0
 30
0.0
 11
630.6735971203927
 21
84.0
 31
0.0
  0
LINE
  5
C14
330
AC1
100
AcDbEntity
  8
0
 62
     0
100
AcDbLine
 10
656.6566127824905
 20
84.0
 30
0.0
 11
684.6652765229896
 21
84.0
 31
0.0
  0
LINE
  5
C15
330
AC1
100
AcDbEntity
  8
0
 62
     0
100
AcDbLine
 10
548.6721861568383
 20
84.0
 30
0.0
 11
576.6645974657214
 21
84.0
 31
0.0
  0
LINE
  5
C16
330
AC1
100
AcDbEntity
  8
0
 62
     0
100
AcDbLine
 10
710.6505829355699
 20
84.0
 30
0.0
 11
721.1020974657208
 21
84.0
 31
0.0
  0
LINE
  5
C17
330
AC1
100
AcDbEntity
  8
0
 62
     0
100
AcDbLine
 10
512.2270974657209
 20
84.0
 30
0.0
 11
522.6631466264696
 21
84.0
 31
0.0
  0
LINE
  5
C18
330
AC1
100
AcDbEntity
  8
0
 62
     0
100
AcDbLine
 10
602.6645974657212
 20
85.5
 30
0.0
 11
630.6735971203927
 21
85.5
 31
0.0
  0
LINE
  5
C19
330
AC1
100
AcDbEntity
  8
0
 62
     0
100
AcDbLine
 10
656.6566127824905
 20
85.5
 30
0.0
 11
684.6652765229896
 21
85.5
 31
0.0
  0
LINE
  5
C1A
330
AC1
100
AcDbEntity
  8
0
 62
     0
100
AcDbLine
 10
548.6721861568383
 20
85.5
 30
0.0
 11
576.6645974657214
 21
85.5
 31
0.0
  0
LINE
  5
C1B
330
AC1
100
AcDbEntity
  8
0
 62
     0
100
AcDbLine
 10
710.6505829355699
 20
85.5
 30
0.0
 11
721.1020974657208
 21
85.5
 31
0.0
  0
LINE
  5
C1C
330
AC1
100
AcDbEntity
  8
0
 62
     0
100
AcDbLine
 10
512.2270974657209
 20
85.5
 30
0.0
 11
522.6631466264696
 21
85.5
 31
0.0
  0
LINE
  5
C1D
330
AC1
100
AcDbEntity
  8
0
 62
     0
100
AcDbLine
 10
602.6645974657212
 20
87.0
 30
0.0
 11
630.6735971203927
 21
87.0
 31
0.0
  0
LINE
  5
C1E
330
AC1
100
AcDbEntity
  8
0
 62
     0
100
AcDbLine
 10
656.6566127824905
 20
87.0
 30
0.0
 11
684.6652765229896
 21
87.0
 31
0.0
  0
LINE
  5
C1F
330
AC1
100
AcDbEntity
  8
0
 62
     0
100
AcDbLine
 10
548.6721861568383
 20
87.0
 30
0.0
 11
576.6645974657214
 21
87.0
 31
0.0
  0
LINE
  5
C20
330
AC1
100
AcDbEntity
  8
0
 62
     0
100
AcDbLine
 10
710.6505829355699
 20
87.0
 30
0.0
 11
721.1020974657208
 21
87.0
 31
0.0
  0
LINE
  5
C21
330
AC1
100
AcDbEntity
  8
0
 62
     0
100
AcDbLine
 10
512.2270974657209
 20
87.0
 30
0.0
 11
522.6631466264696
 21
87.0
 31
0.0
  0
LINE
  5
C22
330
AC1
100
AcDbEntity
  8
0
 62
     0
100
AcDbLine
 10
602.6645974657212
 20
88.49999999999999
 30
0.0
 11
630.6735971203927
 21
88.49999999999999
 31
0.0
  0
LINE
  5
C23
330
AC1
100
AcDbEntity
  8
0
 62
     0
100
AcDbLine
 10
656.6566127824905
 20
88.49999999999999
 30
0.0
 11
684.6652765229896
 21
88.49999999999999
 31
0.0
  0
LINE
  5
C24
330
AC1
100
AcDbEntity
  8
0
 62
     0
100
AcDbLine
 10
548.6721861568383
 20
88.49999999999999
 30
0.0
 11
576.6645974657214
 21
88.49999999999999
 31
0.0
  0
LINE
  5
C25
330
AC1
100
AcDbEntity
  8
0
 62
     0
100
AcDbLine
 10
710.6505829355699
 20
88.49999999999999
 30
0.0
 11
721.1020974657208
 21
88.49999999999999
 31
0.0
  0
LINE
  5
C26
330
AC1
100
AcDbEntity
  8
0
 62
     0
100
AcDbLine
 10
512.2270974657209
 20
88.49999999999999
 30
0.0
 11
522.6631466264696
 21
88.49999999999999
 31
0.0
  0
LINE
  5
C27
330
AC1
100
AcDbEntity
  8
0
 62
     0
100
AcDbLine
 10
602.6645974657212
 20
90.0
 30
0.0
 11
630.6735971203927
 21
90.0
 31
0.0
  0
LINE
  5
C28
330
AC1
100
AcDbEntity
  8
0
 62
     0
100
AcDbLine
 10
656.6566127824905
 20
90.0
 30
0.0
 11
684.6652765229896
 21
90.0
 31
0.0
  0
LINE
  5
C29
330
AC1
100
AcDbEntity
  8
0
 62
     0
100
AcDbLine
 10
548.6721861568383
 20
90.0
 30
0.0
 11
576.6645974657214
 21
90.0
 31
0.0
  0
LINE
  5
C2A
330
AC1
100
AcDbEntity
  8
0
 62
     0
100
AcDbLine
 10
710.6505829355699
 20
90.0
 30
0.0
 11
721.1020974657208
 21
90.0
 31
0.0
  0
LINE
  5
C2B
330
AC1
100
AcDbEntity
  8
0
 62
     0
100
AcDbLine
 10
512.2270974657209
 20
90.0
 30
0.0
 11
522.6631466264696
 21
90.0
 31
0.0
  0
LINE
  5
C2C
330
AC1
100
AcDbEntity
  8
0
 62
     0
100
AcDbLine
 10
602.6645974657212
 20
91.5
 30
0.0
 11
630.6735971203927
 21
91.5
 31
0.0
  0
LINE
  5
C2D
330
AC1
100
AcDbEntity
  8
0
 62
     0
100
AcDbLine
 10
656.6566127824905
 20
91.5
 30
0.0
 11
684.6652765229896
 21
91.5
 31
0.0
  0
LINE
  5
C2E
330
AC1
100
AcDbEntity
  8
0
 62
     0
100
AcDbLine
 10
548.6721861568383
 20
91.5
 30
0.0
 11
576.6645974657214
 21
91.5
 31
0.0
  0
LINE
  5
C2F
330
AC1
100
AcDbEntity
  8
0
 62
     0
100
AcDbLine
 10
710.6505829355699
 20
91.5
 30
0.0
 11
721.1020974657208
 21
91.5
 31
0.0
  0
LINE
  5
C30
330
AC1
100
AcDbEntity
  8
0
 62
     0
100
AcDbLine
 10
512.2270974657209
 20
91.5
 30
0.0
 11
522.6631466264696
 21
91.5
 31
0.0
  0
LINE
  5
C31
330
AC1
100
AcDbEntity
  8
0
 62
     0
100
AcDbLine
 10
602.6645974657212
 20
93.0
 30
0.0
 11
630.6735971203927
 21
93.0
 31
0.0
  0
LINE
  5
C32
330
AC1
100
AcDbEntity
  8
0
 62
     0
100
AcDbLine
 10
656.6566127824905
 20
93.0
 30
0.0
 11
684.6652765229896
 21
93.0
 31
0.0
  0
LINE
  5
C33
330
AC1
100
AcDbEntity
  8
0
 62
     0
100
AcDbLine
 10
548.6721861568383
 20
93.0
 30
0.0
 11
576.6645974657214
 21
93.0
 31
0.0
  0
LINE
  5
C34
330
AC1
100
AcDbEntity
  8
0
 62
     0
100
AcDbLine
 10
710.6505829355699
 20
93.0
 30
0.0
 11
721.1020974657208
 21
93.0
 31
0.0
  0
LINE
  5
C35
330
AC1
100
AcDbEntity
  8
0
 62
     0
100
AcDbLine
 10
512.2270974657209
 20
93.0
 30
0.0
 11
522.6631466264696
 21
93.0
 31
0.0
  0
LINE
  5
C36
330
AC1
100
AcDbEntity
  8
0
 62
     0
100
AcDbLine
 10
602.6645974657212
 20
94.50000000000001
 30
0.0
 11
630.6735971203927
 21
94.50000000000001
 31
0.0
  0
LINE
  5
C37
330
AC1
100
AcDbEntity
  8
0
 62
     0
100
AcDbLine
 10
656.6566127824905
 20
94.50000000000001
 30
0.0
 11
684.6652765229896
 21
94.50000000000001
 31
0.0
  0
LINE
  5
C38
330
AC1
100
AcDbEntity
  8
0
 62
     0
100
AcDbLine
 10
548.6721861568383
 20
94.50000000000001
 30
0.0
 11
576.6645974657214
 21
94.50000000000001
 31
0.0
  0
LINE
  5
C39
330
AC1
100
AcDbEntity
  8
0
 62
     0
100
AcDbLine
 10
710.6505829355699
 20
94.50000000000001
 30
0.0
 11
721.1020974657208
 21
94.50000000000001
 31
0.0
  0
LINE
  5
C3A
330
AC1
100
AcDbEntity
  8
0
 62
     0
100
AcDbLine
 10
512.2270974657208
 20
94.50000000000001
 30
0.0
 11
522.6631466264696
 21
94.50000000000001
 31
0.0
  0
LINE
  5
C3B
330
AC1
100
AcDbEntity
  8
0
 62
     0
100
AcDbLine
 10
602.6645974657212
 20
96.0
 30
0.0
 11
630.6735971203927
 21
96.0
 31
0.0
  0
LINE
  5
C3C
330
AC1
100
AcDbEntity
  8
0
 62
     0
100
AcDbLine
 10
656.6566127824905
 20
96.0
 30
0.0
 11
684.6652765229896
 21
96.0
 31
0.0
  0
LINE
  5
C3D
330
AC1
100
AcDbEntity
  8
0
 62
     0
100
AcDbLine
 10
548.6721861568383
 20
96.0
 30
0.0
 11
576.6645974657214
 21
96.0
 31
0.0
  0
LINE
  5
C3E
330
AC1
100
AcDbEntity
  8
0
 62
     0
100
AcDbLine
 10
710.6505829355699
 20
96.0
 30
0.0
 11
721.1020974657208
 21
96.0
 31
0.0
  0
LINE
  5
C3F
330
AC1
100
AcDbEntity
  8
0
 62
     0
100
AcDbLine
 10
512.2270974657208
 20
96.0
 30
0.0
 11
522.6631466264696
 21
96.0
 31
0.0
  0
LINE
  5
C40
330
AC1
100
AcDbEntity
  8
0
 62
     0
100
AcDbLine
 10
602.6645974657212
 20
97.5
 30
0.0
 11
630.6735971203927
 21
97.5
 31
0.0
  0
LINE
  5
C41
330
AC1
100
AcDbEntity
  8
0
 62
     0
100
AcDbLine
 10
656.6566127824905
 20
97.5
 30
0.0
 11
684.6652765229896
 21
97.5
 31
0.0
  0
LINE
  5
C42
330
AC1
100
AcDbEntity
  8
0
 62
     0
100
AcDbLine
 10
548.6721861568383
 20
97.5
 30
0.0
 11
576.6645974657214
 21
97.5
 31
0.0
  0
LINE
  5
C43
330
AC1
100
AcDbEntity
  8
0
 62
     0
100
AcDbLine
 10
710.6505829355699
 20
97.5
 30
0.0
 11
721.1020974657208
 21
97.5
 31
0.0
  0
LINE
  5
C44
330
AC1
100
AcDbEntity
  8
0
 62
     0
100
AcDbLine
 10
512.2270974657208
 20
97.5
 30
0.0
 11
522.6631466264696
 21
97.5
 31
0.0
  0
ENDBLK
  5
C45
330
AC1
100
AcDbEntity
  8
0
100
AcDbBlockEnd
  0
ENDSEC
  0
SECTION
  2
ENTITIES
  0
LINE
  5
368
330
757
100
AcDbEntity
  8
0
100
AcDbLine
 10
261.4759165142211
 20
162.0000045037577
 30
0.0
 11
379.4759165142212
 21
162.0000045037577
 31
0.0
  0
LINE
  5
369
330
757
100
AcDbEntity
  8
0
100
AcDbLine
 10
379.6009165142212
 20
100.0000045037577
 30
0.0
 11
261.4759165142211
 21
100.0000045037577
 31
0.0
  0
LINE
  5
36A
330
757
100
AcDbEntity
  8
0
100
AcDbLine
 10
261.4759165142211
 20
100.0000045037577
 30
0.0
 11
261.4759165142211
 21
162.0000045037577
 31
0.0
  0
LINE
  5
36B
330
757
100
AcDbEntity
  8
0
100
AcDbLine
 10
379.4759165142212
 20
100.0000045037575
 30
0.0
 11
379.4759165142212
 21
162.0000045037577
 31
0.0
  0
LINE
  5
36C
330
757
100
AcDbEntity
  8
0
100
AcDbLine
 10
261.4759165142217
 20
100.0000045037577
 30
0.0
 11
379.6009165142212
 21
100.0000045037577
 31
0.0
  0
LINE
  5
36E
330
757
100
AcDbEntity
  8
0
100
AcDbLine
 10
261.4759165142217
 20
100.0000045037577
 30
0.0
 11
261.4759165142217
 21
0.0000045037577365
 31
0.0
  0
LINE
  5
36F
330
757
100
AcDbEntity
  8
0
100
AcDbLine
 10
379.6009165142212
 20
0.0000045037576228
 30
0.0
 11
379.6009165142212
 21
100.0000045037575
 31
0.0
  0
LINE
  5
370
330
757
100
AcDbEntity
  8
0
100
AcDbLine
 10
379.7259165142198
 20
156.2500045037579
 30
0.0
 11
379.4759165142208
 21
156.2500045037579
 31
0.0
  0
LINE
  5
371
330
757
100
AcDbEntity
  8
0
100
AcDbLine
 10
379.4759165142208
 20
148.2500045037575
 30
0.0
 11
379.7259165142198
 21
148.2500045037575
 31
0.0
  0
LINE
  5
372
330
757
100
AcDbEntity
  8
0
100
AcDbLine
 10
379.7259165142198
 20
156.2500045037577
 30
0.0
 11
379.7259165142198
 21
148.2500045037575
 31
0.0
  0
LINE
  5
384
330
757
100
AcDbEntity
  8
0
100
AcDbLine
 10
458.5264158258328
 20
162.0000045037577
 30
0.0
 11
670.6514158258272
 21
162.0000045037577
 31
0.0
  0
LINE
  5
385
330
757
100
AcDbEntity
  8
0
100
AcDbLine
 10
458.5264158258328
 20
100.0000045037577
 30
0.0
 11
458.5264158258328
 21
162.0000045037577
 31
0.0
  0
LINE
  5
386
330
757
100
AcDbEntity
  8
0
100
AcDbLine
 10
670.6514158258272
 20
100.0000045037577
 30
0.0
 11
670.6514158258272
 21
162.0000045037577
 31
0.0
  0
LINE
  5
3B6
330
757
100
AcDbEntity
  8
0
100
AcDbLine
 10
670.6514158258275
 20
0.0000045037577365
 30
0.0
 11
458.5264158258276
 21
0.0000045037577365
 31
0.0
  0
LINE
  5
3B7
330
757
100
AcDbEntity
  8
0
100
AcDbLine
 10
458.5264158258276
 20
0.0000045037577365
 30
0.0
 11
458.5264158258276
 21
100.0000045037577
 31
0.0
  0
LINE
  5
3BC
330
757
100
AcDbEntity
  8
0
100
AcDbLine
 10
670.6514158258275
 20
0.0000045037577365
 30
0.0
 11
670.6514158258275
 21
100.0000045037577
 31
0.0
  0
ARC
  5
3BD
330
757
100
AcDbEntity
  8
0
100
AcDbCircle
 10
564.5889158258325
 20
132.0000045037584
 30
0.0
 40
8.25
100
AcDbArc
 50
179.9999999999996
 51
359.9999999999988
  0
ARC
  5
3BE
330
757
100
AcDbEntity
  8
0
100
AcDbCircle
 10
564.5889158258325
 20
132.0000045037584
 30
0.0
 40
8.25
100
AcDbArc
 50
359.9999999999996
 51
179.9999999999996
  0
ARC
  5
3BF
330
757
100
AcDbEntity
  8
0
100
AcDbCircle
 10
564.5889158258325
 20
132.0000045037584
 30
0.0
 40
7.687499999999995
100
AcDbArc
 50
0.0000000000006107
 51
180.0000000000002
  0
ARC
  5
3C0
330
757
100
AcDbEntity
  8
0
100
AcDbCircle
 10
564.5889158258325
 20
132.0000045037584
 30
0.0
 40
7.687499999999992
100
AcDbArc
 50
180.0000000000002
 51
359.9999999999996
  0
LINE
  5
3C1
330
757
100
AcDbEntity
  8
0
100
AcDbLine
 10
569.7114165998202
 20
129.558148654961
 30
0.0
 11
569.5164761236298
 21
129.1092399248023
 31
0.0
  0
LINE
  5
3C2
330
757
100
AcDbEntity
  8
0
100
AcDbLine
 10
569.5164761236298
 20
129.1092399248023
 30
0.0
 11
569.0655832664868
 21
128.9519978613102
 31
0.0
  0
LINE
  5
3C3
330
757
100
AcDbEntity
  8
0
100
AcDbLine
 10
569.0655832664868
 20
128.9519978613102
 30
0.0
 11
568.7410544966452
 21
129.0162339724214
 31
0.0
  0
LINE
  5
3C4
330
757
100
AcDbEntity
  8
0
100
AcDbLine
 10
568.7410544966452
 20
129.0162339724214
 30
0.0
 11
568.5055634252172
 21
129.2089423057546
 31
0.0
  0
LINE
  5
3C5
330
757
100
AcDbEntity
  8
0
100
AcDbLine
 10
568.5055634252172
 20
129.2089423057546
 30
0.0
 11
568.3145912029947
 21
129.9668788136912
 31
0.0
  0
LINE
  5
3C6
330
757
100
AcDbEntity
  8
0
100
AcDbLine
 10
568.3145912029947
 20
129.9668788136912
 30
0.0
 11
568.4986189807728
 21
130.7307677025801
 31
0.0
  0
LINE
  5
3C7
330
757
100
AcDbEntity
  8
0
100
AcDbLine
 10
568.4986189807728
 20
130.7307677025801
 30
0.0
 11
568.7284056871217
 21
130.9204998454371
 31
0.0
  0
LINE
  5
3C8
330
757
100
AcDbEntity
  8
0
100
AcDbLine
 10
568.7284056871217
 20
130.9204998454371
 30
0.0
 11
569.0497102506139
 21
130.9837438930563
 31
0.0
  0
LINE
  5
3C9
330
757
100
AcDbEntity
  8
0
100
AcDbLine
 10
569.0497102506139
 20
130.9837438930563
 30
0.0
 11
569.5179642188681
 21
130.8403907184531
 31
0.0
  0
LINE
  5
3CA
330
757
100
AcDbEntity
  8
0
100
AcDbLine
 10
569.5179642188681
 20
130.8403907184531
 30
0.0
 11
569.7114165998202
 21
130.4152915121039
 31
0.0
  0
LINE
  5
3CB
330
757
100
AcDbEntity
  8
0
100
AcDbLine
 10
569.7114165998202
 20
130.4152915121039
 30
0.0
 11
570.8542737426775
 21
130.4152915121039
 31
0.0
  0
LINE
  5
3CC
330
757
100
AcDbEntity
  8
0
100
AcDbLine
 10
570.8542737426775
 20
130.4152915121039
 30
0.0
 11
570.694055488709
 21
131.0629849644848
 31
0.0
  0
LINE
  5
3CD
330
757
100
AcDbEntity
  8
0
100
AcDbLine
 10
570.694055488709
 20
131.0629849644848
 30
0.0
 11
570.3264959648995
 21
131.541779607342
 31
0.0
  0
LINE
  5
3CE
330
757
100
AcDbEntity
  8
0
100
AcDbLine
 10
570.3264959648995
 20
131.541779607342
 30
0.0
 11
569.7674681871217
 21
131.8375385359134
 31
0.0
  0
LINE
  5
3CF
330
757
100
AcDbEntity
  8
0
100
AcDbLine
 10
569.7674681871217
 20
131.8375385359134
 30
0.0
 11
569.032845171249
 21
131.9361248454371
 31
0.0
  0
LINE
  5
3D0
330
757
100
AcDbEntity
  8
0
100
AcDbLine
 10
569.032845171249
 20
131.9361248454371
 30
0.0
 11
568.2348540998202
 21
131.8041804009928
 31
0.0
  0
LINE
  5
3D1
330
757
100
AcDbEntity
  8
0
100
AcDbLine
 10
568.2348540998202
 20
131.8041804009928
 30
0.0
 11
567.6246110442646
 21
131.4083470676594
 31
0.0
  0
LINE
  5
3D2
330
757
100
AcDbEntity
  8
0
100
AcDbLine
 10
567.6246110442646
 20
131.4083470676594
 30
0.0
 11
567.2373342585505
 21
130.7843391311515
 31
0.0
  0
LINE
  5
3D3
330
757
100
AcDbEntity
  8
0
100
AcDbLine
 10
567.2373342585505
 20
130.7843391311515
 30
0.0
 11
567.1082419966457
 21
129.9678708771832
 31
0.0
  0
LINE
  5
3D4
330
757
100
AcDbEntity
  8
0
100
AcDbLine
 10
567.1082419966457
 20
129.9678708771832
 30
0.0
 11
567.2379542982331
 21
129.1495425041674
 31
0.0
  0
LINE
  5
3D5
330
757
100
AcDbEntity
  8
0
100
AcDbLine
 10
567.2379542982331
 20
129.1495425041674
 30
0.0
 11
567.6270912029947
 21
128.5259065914689
 31
0.0
  0
LINE
  5
3D6
330
757
100
AcDbEntity
  8
0
100
AcDbLine
 10
567.6270912029947
 20
128.5259065914689
 30
0.0
 11
568.2424185839471
 21
128.1311893295642
 31
0.0
  0
LINE
  5
3D7
330
757
100
AcDbEntity
  8
0
100
AcDbLine
 10
568.2424185839471
 20
128.1311893295642
 30
0.0
 11
569.0507023141059
 21
127.9996169089293
 31
0.0
  0
LINE
  5
3D8
330
757
100
AcDbEntity
  8
0
100
AcDbLine
 10
569.0507023141059
 20
127.9996169089293
 30
0.0
 11
569.773792591884
 21
128.1017994486118
 31
0.0
  0
LINE
  5
3D9
330
757
100
AcDbEntity
  8
0
100
AcDbLine
 10
569.773792591884
 20
128.1017994486118
 30
0.0
 11
570.3299681871221
 21
128.4083470676594
 31
0.0
  0
LINE
  5
3DA
330
757
100
AcDbEntity
  8
0
100
AcDbLine
 10
570.3299681871221
 20
128.4083470676594
 30
0.0
 11
570.6974037029952
 21
128.9001625438499
 31
0.0
  0
LINE
  5
3DB
330
757
100
AcDbEntity
  8
0
100
AcDbLine
 10
570.6974037029952
 20
128.9001625438499
 30
0.0
 11
570.8542737426775
 21
129.558148654961
 31
0.0
  0
LINE
  5
3DC
330
757
100
AcDbEntity
  8
0
100
AcDbLine
 10
570.8542737426775
 20
129.558148654961
 30
0.0
 11
569.7114165998202
 21
129.558148654961
 31
0.0
  0
LINE
  5
3DD
330
757
100
AcDbEntity
  8
0
100
AcDbLine
 10
562.4896892220528
 20
130.3322228438841
 30
0.0
 11
563.6672685871316
 21
130.3322228438841
 31
0.0
  0
LINE
  5
3DE
330
757
100
AcDbEntity
  8
0
100
AcDbLine
 10
563.6672685871316
 20
130.3322228438841
 30
0.0
 11
563.8140939839572
 21
130.8401593518207
 31
0.0
  0
LINE
  5
3DF
330
757
100
AcDbEntity
  8
0
100
AcDbLine
 10
563.8140939839572
 20
130.8401593518207
 30
0.0
 11
565.01746699983
 21
130.8401593518207
 31
0.0
  0
LINE
  5
3E0
330
757
100
AcDbEntity
  8
0
100
AcDbLine
 10
565.01746699983
 20
130.8401593518207
 30
0.0
 11
565.1593320791954
 21
130.3322228438841
 31
0.0
  0
LINE
  5
3E1
330
757
100
AcDbEntity
  8
0
100
AcDbLine
 10
565.1593320791954
 20
130.3322228438841
 30
0.0
 11
566.3627050950687
 21
130.3322228438841
 31
0.0
  0
LINE
  5
3E2
330
757
100
AcDbEntity
  8
0
100
AcDbLine
 10
566.3627050950687
 20
130.3322228438841
 30
0.0
 11
565.0333400157034
 21
134.141746653408
 31
0.0
  0
LINE
  5
3E3
330
757
100
AcDbEntity
  8
0
100
AcDbLine
 10
565.0333400157034
 20
134.141746653408
 30
0.0
 11
563.8041733490369
 21
134.1417466534081
 31
0.0
  0
LINE
  5
3E4
330
757
100
AcDbEntity
  8
0
100
AcDbLine
 10
563.8041733490369
 20
134.1417466534081
 30
0.0
 11
562.4896892220528
 21
130.3322228438841
 31
0.0
  0
LINE
  5
3E5
330
757
100
AcDbEntity
  8
0
100
AcDbLine
 10
564.0343320791954
 20
131.6655561772176
 30
0.0
 11
564.4202447776081
 21
132.969127605789
 31
0.0
  0
LINE
  5
3E6
330
757
100
AcDbEntity
  8
0
100
AcDbLine
 10
564.4202447776081
 20
132.969127605789
 30
0.0
 11
564.7972289045923
 21
131.6655561772176
 31
0.0
  0
LINE
  5
3E7
330
757
100
AcDbEntity
  8
0
100
AcDbLine
 10
564.7972289045923
 20
131.6655561772176
 30
0.0
 11
564.0343320791954
 21
131.6655561772176
 31
0.0
  0
LINE
  5
3E8
330
757
100
AcDbEntity
  8
0
100
AcDbLine
 10
558.7289580317908
 20
132.0726111530645
 30
0.0
 11
560.4283627936959
 21
132.0726111530645
 31
0.0
  0
LINE
  5
3E9
330
757
100
AcDbEntity
  8
0
100
AcDbLine
 10
560.4283627936959
 20
132.0726111530645
 30
0.0
 11
561.1962199365526
 21
132.111301629255
 31
0.0
  0
LINE
  5
3EA
330
757
100
AcDbEntity
  8
0
100
AcDbLine
 10
561.1962199365526
 20
132.111301629255
 30
0.0
 11
561.6089183492514
 21
132.2432460736994
 31
0.0
  0
LINE
  5
3EB
330
757
100
AcDbEntity
  8
0
100
AcDbLine
 10
561.6089183492514
 20
132.2432460736994
 30
0.0
 11
562.0171524762355
 21
132.6261825816359
 31
0.0
  0
LINE
  5
3EC
330
757
100
AcDbEntity
  8
0
100
AcDbLine
 10
562.0171524762355
 20
132.6261825816359
 30
0.0
 11
562.1575294603627
 21
133.2134841689375
 31
0.0
  0
LINE
  5
3ED
330
757
100
AcDbEntity
  8
0
100
AcDbLine
 10
562.1575294603627
 20
133.2134841689375
 30
0.0
 11
562.0136802540136
 21
133.7764802006835
 31
0.0
  0
LINE
  5
3EE
330
757
100
AcDbEntity
  8
0
100
AcDbLine
 10
562.0136802540136
 20
133.7764802006835
 30
0.0
 11
561.5702278730613
 21
134.1013809943343
 31
0.0
  0
LINE
  5
3EF
330
757
100
AcDbEntity
  8
0
100
AcDbLine
 10
561.5702278730613
 20
134.1013809943343
 30
0.0
 11
561.9154659682993
 21
134.4188413117947
 31
0.0
  0
LINE
  5
3F0
330
757
100
AcDbEntity
  8
0
100
AcDbLine
 10
561.9154659682993
 20
134.4188413117947
 30
0.0
 11
562.0305453333786
 21
134.8712222641756
 31
0.0
  0
LINE
  5
3F1
330
757
100
AcDbEntity
  8
0
100
AcDbLine
 10
562.0305453333786
 20
134.8712222641756
 30
0.0
 11
561.8767754921086
 21
135.4312421054455
 31
0.0
  0
LINE
  5
3F2
330
757
100
AcDbEntity
  8
0
100
AcDbLine
 10
561.8767754921086
 20
135.4312421054455
 30
0.0
 11
561.4343151746485
 21
135.7710238514772
 31
0.0
  0
LINE
  5
3F3
330
757
100
AcDbEntity
  8
0
100
AcDbLine
 10
561.4343151746485
 20
135.7710238514772
 30
0.0
 11
561.0389778730612
 21
135.8563413117947
 31
0.0
  0
LINE
  5
3F4
330
757
100
AcDbEntity
  8
0
100
AcDbLine
 10
561.0389778730612
 20
135.8563413117947
 30
0.0
 11
560.3053469206801
 21
135.8821349625882
 31
0.0
  0
LINE
  5
3F5
330
757
100
AcDbEntity
  8
0
100
AcDbLine
 10
560.3053469206801
 20
135.8821349625882
 30
0.0
 11
558.7289580317908
 21
135.8821349625882
 31
0.0
  0
LINE
  5
3F6
330
757
100
AcDbEntity
  8
0
100
AcDbLine
 10
558.7289580317908
 20
135.8821349625882
 30
0.0
 11
558.7289580317908
 21
132.0726111530645
 31
0.0
  0
LINE
  5
3F7
330
757
100
AcDbEntity
  8
0
100
AcDbLine
 10
559.9353072381407
 20
132.9615000419534
 30
0.0
 11
559.9353072381407
 21
133.6599127403661
 31
0.0
  0
LINE
  5
3F8
330
757
100
AcDbEntity
  8
0
100
AcDbLine
 10
559.9353072381407
 20
133.6599127403661
 30
0.0
 11
560.4839183492516
 21
133.6599127403661
 31
0.0
  0
LINE
  5
3F9
330
757
100
AcDbEntity
  8
0
100
AcDbLine
 10
560.4839183492516
 20
133.6599127403661
 30
0.0
 11
560.8931445397278
 21
133.580547661001
 31
0.0
  0
LINE
  5
3FA
330
757
100
AcDbEntity
  8
0
100
AcDbLine
 10
560.8931445397278
 20
133.580547661001
 30
0.0
 11
561.0146723175056
 21
133.3136825816359
 31
0.0
  0
LINE
  5
3FB
330
757
100
AcDbEntity
  8
0
100
AcDbLine
 10
561.0146723175056
 20
133.3136825816359
 30
0.0
 11
560.8956246984578
 21
133.0438413117946
 31
0.0
  0
LINE
  5
3FC
330
757
100
AcDbEntity
  8
0
100
AcDbLine
 10
560.8956246984578
 20
133.0438413117946
 30
0.0
 11
560.494831047664
 21
132.9615000419534
 31
0.0
  0
LINE
  5
3FD
330
757
100
AcDbEntity
  8
0
100
AcDbLine
 10
560.494831047664
 20
132.9615000419534
 30
0.0
 11
559.9353072381407
 21
132.9615000419534
 31
0.0
  0
LINE
  5
3FE
330
757
100
AcDbEntity
  8
0
100
AcDbLine
 10
559.9353072381407
 20
134.3583254387788
 30
0.0
 11
559.9353072381407
 21
134.9932460736994
 31
0.0
  0
LINE
  5
3FF
330
757
100
AcDbEntity
  8
0
100
AcDbLine
 10
559.9353072381407
 20
134.9932460736994
 30
0.0
 11
560.2696326349659
 21
134.9932460736994
 31
0.0
  0
LINE
  5
400
330
757
100
AcDbEntity
  8
0
100
AcDbLine
 10
560.2696326349659
 20
134.9932460736994
 30
0.0
 11
560.7780651746485
 21
134.925785756239
 31
0.0
  0
LINE
  5
401
330
757
100
AcDbEntity
  8
0
100
AcDbLine
 10
560.7780651746485
 20
134.925785756239
 30
0.0
 11
560.8876881905214
 21
134.6757857562391
 31
0.0
  0
LINE
  5
402
330
757
100
AcDbEntity
  8
0
100
AcDbLine
 10
560.8876881905214
 20
134.6757857562391
 30
0.0
 11
560.7855056508387
 21
134.4307460736994
 31
0.0
  0
LINE
  5
403
330
757
100
AcDbEntity
  8
0
100
AcDbLine
 10
560.7855056508387
 20
134.4307460736994
 30
0.0
 11
560.4333231111561
 21
134.3583254387788
 31
0.0
  0
LINE
  5
404
330
757
100
AcDbEntity
  8
0
100
AcDbLine
 10
560.4333231111561
 20
134.3583254387788
 30
0.0
 11
559.9353072381407
 21
134.3583254387788
 31
0.0
  0
ARC
  5
405
330
757
100
AcDbEntity
  8
0
100
AcDbCircle
 10
564.588915825832
 20
132.0000045037591
 30
0.0
 40
9.000000000000019
100
AcDbArc
 50
179.9999999999996
 51
359.9999999999988
  0
ARC
  5
406
330
757
100
AcDbEntity
  8
0
100
AcDbCircle
 10
564.588915825832
 20
132.0000045037591
 30
0.0
 40
9.0
100
AcDbArc
 50
359.9999999999994
 51
179.9999999999996
  0
LINE
  5
438
330
757
100
AcDbEntity
  8
0
100
AcDbLine
 10
1.166856421551442
 20
162.0000045037577
 30
0.0
 11
213.2918564215461
 21
162.0000045037577
 31
0.0
  0
LINE
  5
439
330
757
100
AcDbEntity
  8
0
100
AcDbLine
 10
213.2918564215461
 20
100.0000045037577
 30
0.0
 11
1.16685642155147
 21
100.0000045037577
 31
0.0
  0
LINE
  5
43A
330
757
100
AcDbEntity
  8
0
100
AcDbLine
 10
1.166856421551446
 20
162.0000045037577
 30
0.0
 11
1.16685642155147
 21
100.0000045037577
 31
0.0
  0
LINE
  5
43B
330
757
100
AcDbEntity
  8
0
100
AcDbLine
 10
213.2918564215461
 20
100.0000045037577
 30
0.0
 11
213.2918564215461
 21
162.0000045037577
 31
0.0
  0
LINE
  5
43C
330
757
100
AcDbEntity
  8
0
100
AcDbLine
 10
1.16685642155147
 20
100.0000045037577
 30
0.0
 11
213.2918564215517
 21
100.0000045037577
 31
0.0
  0
LINE
  5
43D
330
757
100
AcDbEntity
  8
0
100
AcDbLine
 10
213.2918564215517
 20
0.0000045037577365
 30
0.0
 11
1.166856421551698
 21
0.0000045037577365
 31
0.0
  0
LINE
  5
43E
330
757
100
AcDbEntity
  8
0
100
AcDbLine
 10
213.2918564215517
 20
100.0000045037577
 30
0.0
 11
213.2918564215517
 21
0.0000045037577365
 31
0.0
  0
LINE
  5
43F
330
757
100
AcDbEntity
  8
0
100
AcDbLine
 10
1.166856421551698
 20
0.0000045037577365
 30
0.0
 11
1.166856421551698
 21
100.0000045037577
 31
0.0
  0
ARC
  5
440
330
757
100
AcDbEntity
  8
0
100
AcDbCircle
 10
107.2293564215492
 20
132.0000045037588
 30
0.0
 40
8.250000000000012
100
AcDbArc
 50
179.9999999999996
 51
359.9999999999986
  0
ARC
  5
441
330
757
100
AcDbEntity
  8
0
100
AcDbCircle
 10
107.2293564215492
 20
132.0000045037588
 30
0.0
 40
8.249999999999991
100
AcDbArc
 50
359.9999999999994
 51
179.9999999999998
  0
ARC
  5
442
330
757
100
AcDbEntity
  8
0
100
AcDbCircle
 10
107.2293564215492
 20
132.0000045037588
 30
0.0
 40
7.6875
100
AcDbArc
 50
0.0000000000006107
 51
179.9999999999998
  0
ARC
  5
443
330
757
100
AcDbEntity
  8
0
100
AcDbCircle
 10
107.2293564215492
 20
132.0000045037588
 30
0.0
 40
7.687499999999982
100
AcDbArc
 50
180.0000000000004
 51
359.9999999999996
  0
LINE
  5
444
330
757
100
AcDbEntity
  8
0
100
AcDbLine
 10
112.3518571955369
 20
129.5581486549614
 30
0.0
 11
112.1569167193465
 21
129.1092399248026
 31
0.0
  0
LINE
  5
445
330
757
100
AcDbEntity
  8
0
100
AcDbLine
 10
112.1569167193465
 20
129.1092399248026
 30
0.0
 11
111.7060238622036
 21
128.9519978613105
 31
0.0
  0
LINE
  5
446
330
757
100
AcDbEntity
  8
0
100
AcDbLine
 10
111.7060238622036
 20
128.9519978613105
 30
0.0
 11
111.3814950923624
 21
129.0162339724218
 31
0.0
  0
LINE
  5
447
330
757
100
AcDbEntity
  8
0
100
AcDbLine
 10
111.3814950923624
 20
129.0162339724218
 30
0.0
 11
111.1460040209337
 21
129.208942305755
 31
0.0
  0
LINE
  5
448
330
757
100
AcDbEntity
  8
0
100
AcDbLine
 10
111.1460040209337
 20
129.208942305755
 30
0.0
 11
110.9550317987116
 21
129.9668788136916
 31
0.0
  0
LINE
  5
449
330
757
100
AcDbEntity
  8
0
100
AcDbLine
 10
110.9550317987116
 20
129.9668788136916
 30
0.0
 11
111.1390595764893
 21
130.7307677025805
 31
0.0
  0
LINE
  5
44A
330
757
100
AcDbEntity
  8
0
100
AcDbLine
 10
111.1390595764893
 20
130.7307677025805
 30
0.0
 11
111.3688462828386
 21
130.9204998454375
 31
0.0
  0
LINE
  5
44B
330
757
100
AcDbEntity
  8
0
100
AcDbLine
 10
111.3688462828386
 20
130.9204998454375
 30
0.0
 11
111.6901508463306
 21
130.9837438930566
 31
0.0
  0
LINE
  5
44C
330
757
100
AcDbEntity
  8
0
100
AcDbLine
 10
111.6901508463306
 20
130.9837438930566
 30
0.0
 11
112.1584048145845
 21
130.8403907184534
 31
0.0
  0
LINE
  5
44D
330
757
100
AcDbEntity
  8
0
100
AcDbLine
 10
112.1584048145845
 20
130.8403907184534
 30
0.0
 11
112.3518571955369
 21
130.4152915121043
 31
0.0
  0
LINE
  5
44E
330
757
100
AcDbEntity
  8
0
100
AcDbLine
 10
112.3518571955369
 20
130.4152915121043
 30
0.0
 11
113.494714338394
 21
130.4152915121043
 31
0.0
  0
LINE
  5
44F
330
757
100
AcDbEntity
  8
0
100
AcDbLine
 10
113.494714338394
 20
130.4152915121043
 30
0.0
 11
113.3344960844257
 21
131.062984964485
 31
0.0
  0
LINE
  5
450
330
757
100
AcDbEntity
  8
0
100
AcDbLine
 10
113.3344960844257
 20
131.062984964485
 30
0.0
 11
112.9669365606164
 21
131.5417796073424
 31
0.0
  0
LINE
  5
451
330
757
100
AcDbEntity
  8
0
100
AcDbLine
 10
112.9669365606164
 20
131.5417796073424
 30
0.0
 11
112.4079087828386
 21
131.8375385359138
 31
0.0
  0
LINE
  5
452
330
757
100
AcDbEntity
  8
0
100
AcDbLine
 10
112.4079087828386
 20
131.8375385359138
 30
0.0
 11
111.6732857669656
 21
131.9361248454376
 31
0.0
  0
LINE
  5
453
330
757
100
AcDbEntity
  8
0
100
AcDbLine
 10
111.6732857669656
 20
131.9361248454376
 30
0.0
 11
110.8752946955368
 21
131.8041804009932
 31
0.0
  0
LINE
  5
454
330
757
100
AcDbEntity
  8
0
100
AcDbLine
 10
110.8752946955368
 20
131.8041804009932
 30
0.0
 11
110.2650516399815
 21
131.4083470676599
 31
0.0
  0
LINE
  5
455
330
757
100
AcDbEntity
  8
0
100
AcDbLine
 10
110.2650516399815
 20
131.4083470676599
 30
0.0
 11
109.8777748542669
 21
130.7843391311519
 31
0.0
  0
LINE
  5
456
330
757
100
AcDbEntity
  8
0
100
AcDbLine
 10
109.8777748542669
 20
130.7843391311519
 30
0.0
 11
109.7486825923624
 21
129.9678708771835
 31
0.0
  0
LINE
  5
457
330
757
100
AcDbEntity
  8
0
100
AcDbLine
 10
109.7486825923624
 20
129.9678708771835
 30
0.0
 11
109.8783948939497
 21
129.1495425041677
 31
0.0
  0
LINE
  5
458
330
757
100
AcDbEntity
  8
0
100
AcDbLine
 10
109.8783948939497
 20
129.1495425041677
 30
0.0
 11
110.2675317987116
 21
128.5259065914694
 31
0.0
  0
LINE
  5
459
330
757
100
AcDbEntity
  8
0
100
AcDbLine
 10
110.2675317987116
 20
128.5259065914694
 30
0.0
 11
110.8828591796639
 21
128.1311893295645
 31
0.0
  0
LINE
  5
45A
330
757
100
AcDbEntity
  8
0
100
AcDbLine
 10
110.8828591796639
 20
128.1311893295645
 30
0.0
 11
111.6911429098226
 21
127.9996169089297
 31
0.0
  0
LINE
  5
45B
330
757
100
AcDbEntity
  8
0
100
AcDbLine
 10
111.6911429098226
 20
127.9996169089297
 30
0.0
 11
112.4142331876005
 21
128.1017994486121
 31
0.0
  0
LINE
  5
45C
330
757
100
AcDbEntity
  8
0
100
AcDbLine
 10
112.4142331876005
 20
128.1017994486121
 30
0.0
 11
112.9704087828386
 21
128.4083470676598
 31
0.0
  0
LINE
  5
45D
330
757
100
AcDbEntity
  8
0
100
AcDbLine
 10
112.9704087828386
 20
128.4083470676598
 30
0.0
 11
113.3378442987115
 21
128.9001625438503
 31
0.0
  0
LINE
  5
45E
330
757
100
AcDbEntity
  8
0
100
AcDbLine
 10
113.3378442987115
 20
128.9001625438503
 30
0.0
 11
113.494714338394
 21
129.5581486549614
 31
0.0
  0
LINE
  5
45F
330
757
100
AcDbEntity
  8
0
100
AcDbLine
 10
113.494714338394
 20
129.5581486549614
 30
0.0
 11
112.3518571955369
 21
129.5581486549614
 31
0.0
  0
LINE
  5
460
330
757
100
AcDbEntity
  8
0
100
AcDbLine
 10
105.1301298177692
 20
130.3322228438846
 30
0.0
 11
106.3077091828485
 21
130.3322228438846
 31
0.0
  0
LINE
  5
461
330
757
100
AcDbEntity
  8
0
100
AcDbLine
 10
106.3077091828485
 20
130.3322228438846
 30
0.0
 11
106.4545345796741
 21
130.8401593518211
 31
0.0
  0
LINE
  5
462
330
757
100
AcDbEntity
  8
0
100
AcDbLine
 10
106.4545345796741
 20
130.8401593518211
 30
0.0
 11
107.6579075955471
 21
130.8401593518211
 31
0.0
  0
LINE
  5
463
330
757
100
AcDbEntity
  8
0
100
AcDbLine
 10
107.6579075955471
 20
130.8401593518211
 30
0.0
 11
107.7997726749122
 21
130.3322228438846
 31
0.0
  0
LINE
  5
464
330
757
100
AcDbEntity
  8
0
100
AcDbLine
 10
107.7997726749122
 20
130.3322228438846
 30
0.0
 11
109.0031456907851
 21
130.3322228438846
 31
0.0
  0
LINE
  5
465
330
757
100
AcDbEntity
  8
0
100
AcDbLine
 10
109.0031456907851
 20
130.3322228438846
 30
0.0
 11
107.6737806114201
 21
134.1417466534085
 31
0.0
  0
LINE
  5
466
330
757
100
AcDbEntity
  8
0
100
AcDbLine
 10
107.6737806114201
 20
134.1417466534085
 30
0.0
 11
106.4446139447534
 21
134.1417466534085
 31
0.0
  0
LINE
  5
467
330
757
100
AcDbEntity
  8
0
100
AcDbLine
 10
106.4446139447534
 20
134.1417466534085
 30
0.0
 11
105.1301298177692
 21
130.3322228438846
 31
0.0
  0
LINE
  5
468
330
757
100
AcDbEntity
  8
0
100
AcDbLine
 10
106.6747726749122
 20
131.665556177218
 30
0.0
 11
107.060685373325
 21
132.9691276057894
 31
0.0
  0
LINE
  5
469
330
757
100
AcDbEntity
  8
0
100
AcDbLine
 10
107.060685373325
 20
132.9691276057894
 30
0.0
 11
107.437669500309
 21
131.665556177218
 31
0.0
  0
LINE
  5
46A
330
757
100
AcDbEntity
  8
0
100
AcDbLine
 10
107.437669500309
 20
131.665556177218
 30
0.0
 11
106.6747726749122
 21
131.665556177218
 31
0.0
  0
LINE
  5
46B
330
757
100
AcDbEntity
  8
0
100
AcDbLine
 10
101.3693986275078
 20
132.0726111530649
 30
0.0
 11
103.0688033894127
 21
132.0726111530649
 31
0.0
  0
LINE
  5
46C
330
757
100
AcDbEntity
  8
0
100
AcDbLine
 10
103.0688033894127
 20
132.0726111530649
 30
0.0
 11
103.8366605322698
 21
132.1113016292554
 31
0.0
  0
LINE
  5
46D
330
757
100
AcDbEntity
  8
0
100
AcDbLine
 10
103.8366605322698
 20
132.1113016292554
 30
0.0
 11
104.2493589449681
 21
132.2432460736998
 31
0.0
  0
LINE
  5
46E
330
757
100
AcDbEntity
  8
0
100
AcDbLine
 10
104.2493589449681
 20
132.2432460736998
 30
0.0
 11
104.6575930719525
 21
132.6261825816363
 31
0.0
  0
LINE
  5
46F
330
757
100
AcDbEntity
  8
0
100
AcDbLine
 10
104.6575930719525
 20
132.6261825816363
 30
0.0
 11
104.7979700560792
 21
133.2134841689379
 31
0.0
  0
LINE
  5
470
330
757
100
AcDbEntity
  8
0
100
AcDbLine
 10
104.7979700560792
 20
133.2134841689379
 30
0.0
 11
104.6541208497301
 21
133.776480200684
 31
0.0
  0
LINE
  5
471
330
757
100
AcDbEntity
  8
0
100
AcDbLine
 10
104.6541208497301
 20
133.776480200684
 30
0.0
 11
104.2106684687778
 21
134.1013809943345
 31
0.0
  0
LINE
  5
472
330
757
100
AcDbEntity
  8
0
100
AcDbLine
 10
104.2106684687778
 20
134.1013809943345
 30
0.0
 11
104.5559065640159
 21
134.4188413117952
 31
0.0
  0
LINE
  5
473
330
757
100
AcDbEntity
  8
0
100
AcDbLine
 10
104.5559065640159
 20
134.4188413117952
 30
0.0
 11
104.6709859290951
 21
134.8712222641759
 31
0.0
  0
LINE
  5
474
330
757
100
AcDbEntity
  8
0
100
AcDbLine
 10
104.6709859290951
 20
134.8712222641759
 30
0.0
 11
104.5172160878254
 21
135.4312421054458
 31
0.0
  0
LINE
  5
475
330
757
100
AcDbEntity
  8
0
100
AcDbLine
 10
104.5172160878254
 20
135.4312421054458
 30
0.0
 11
104.0747557703651
 21
135.7710238514776
 31
0.0
  0
LINE
  5
476
330
757
100
AcDbEntity
  8
0
100
AcDbLine
 10
104.0747557703651
 20
135.7710238514776
 30
0.0
 11
103.6794184687777
 21
135.856341311795
 31
0.0
  0
LINE
  5
477
330
757
100
AcDbEntity
  8
0
100
AcDbLine
 10
103.6794184687777
 20
135.856341311795
 30
0.0
 11
102.9457875163968
 21
135.8821349625886
 31
0.0
  0
LINE
  5
478
330
757
100
AcDbEntity
  8
0
100
AcDbLine
 10
102.9457875163968
 20
135.8821349625886
 30
0.0
 11
101.3693986275078
 21
135.8821349625886
 31
0.0
  0
LINE
  5
479
330
757
100
AcDbEntity
  8
0
100
AcDbLine
 10
101.3693986275078
 20
135.8821349625886
 30
0.0
 11
101.3693986275078
 21
132.0726111530649
 31
0.0
  0
LINE
  5
47A
330
757
100
AcDbEntity
  8
0
100
AcDbLine
 10
102.5757478338571
 20
132.9615000419537
 30
0.0
 11
102.5757478338571
 21
133.6599127403665
 31
0.0
  0
LINE
  5
47B
330
757
100
AcDbEntity
  8
0
100
AcDbLine
 10
102.5757478338571
 20
133.6599127403665
 30
0.0
 11
103.1243589449681
 21
133.6599127403665
 31
0.0
  0
LINE
  5
47C
330
757
100
AcDbEntity
  8
0
100
AcDbLine
 10
103.1243589449681
 20
133.6599127403665
 30
0.0
 11
103.5335851354443
 21
133.5805476610014
 31
0.0
  0
LINE
  5
47D
330
757
100
AcDbEntity
  8
0
100
AcDbLine
 10
103.5335851354443
 20
133.5805476610014
 30
0.0
 11
103.6551129132222
 21
133.3136825816363
 31
0.0
  0
LINE
  5
47E
330
757
100
AcDbEntity
  8
0
100
AcDbLine
 10
103.6551129132222
 20
133.3136825816363
 30
0.0
 11
103.5360652941746
 21
133.0438413117949
 31
0.0
  0
LINE
  5
47F
330
757
100
AcDbEntity
  8
0
100
AcDbLine
 10
103.5360652941746
 20
133.0438413117949
 30
0.0
 11
103.1352716433809
 21
132.9615000419537
 31
0.0
  0
LINE
  5
480
330
757
100
AcDbEntity
  8
0
100
AcDbLine
 10
103.1352716433809
 20
132.9615000419537
 30
0.0
 11
102.5757478338571
 21
132.9615000419537
 31
0.0
  0
LINE
  5
481
330
757
100
AcDbEntity
  8
0
100
AcDbLine
 10
102.5757478338571
 20
134.3583254387791
 30
0.0
 11
102.5757478338571
 21
134.9932460736998
 31
0.0
  0
LINE
  5
482
330
757
100
AcDbEntity
  8
0
100
AcDbLine
 10
102.5757478338571
 20
134.9932460736998
 30
0.0
 11
102.9100732306824
 21
134.9932460736998
 31
0.0
  0
LINE
  5
483
330
757
100
AcDbEntity
  8
0
100
AcDbLine
 10
102.9100732306824
 20
134.9932460736998
 30
0.0
 11
103.4185057703651
 21
134.9257857562394
 31
0.0
  0
LINE
  5
484
330
757
100
AcDbEntity
  8
0
100
AcDbLine
 10
103.4185057703651
 20
134.9257857562394
 30
0.0
 11
103.528128786238
 21
134.6757857562394
 31
0.0
  0
LINE
  5
485
330
757
100
AcDbEntity
  8
0
100
AcDbLine
 10
103.528128786238
 20
134.6757857562394
 30
0.0
 11
103.4259462465553
 21
134.4307460736998
 31
0.0
  0
LINE
  5
486
330
757
100
AcDbEntity
  8
0
100
AcDbLine
 10
103.4259462465553
 20
134.4307460736998
 30
0.0
 11
103.073763706873
 21
134.3583254387791
 31
0.0
  0
LINE
  5
487
330
757
100
AcDbEntity
  8
0
100
AcDbLine
 10
103.073763706873
 20
134.3583254387791
 30
0.0
 11
102.5757478338571
 21
134.3583254387791
 31
0.0
  0
ARC
  5
488
330
757
100
AcDbEntity
  8
0
100
AcDbCircle
 10
107.2293564215486
 20
132.0000045037594
 30
0.0
 40
9.000000000000008
100
AcDbArc
 50
179.9999999999996
 51
359.9999999999988
  0
ARC
  5
489
330
757
100
AcDbEntity
  8
0
100
AcDbCircle
 10
107.2293564215486
 20
132.0000045037594
 30
0.0
 40
9.000000000000008
100
AcDbArc
 50
359.9999999999994
 51
179.9999999999996
  0
LINE
  5
8DF
330
757
100
AcDbEntity
  8
0
100
AcDbLine
 10
261.4759165142213
 20
436.6271550569869
 30
0.0
 11
261.4759165142213
 21
220.8771550569869
 31
0.0
  0
LINE
  5
8E0
330
757
100
AcDbEntity
  8
0
100
AcDbLine
 10
379.4759165142211
 20
220.8771550569869
 30
0.0
 11
379.4759165142215
 21
436.6271550569863
 31
0.0
  0
LINE
  5
8E1
330
757
100
AcDbEntity
  8
0
100
AcDbLine
 10
379.4759165142214
 20
436.6271550569863
 30
0.0
 11
261.4759165142213
 21
436.6271550569869
 31
0.0
  0
LINE
  5
8E2
330
757
100
AcDbEntity
  8
0
100
AcDbLine
 10
377.8509165142245
 20
435.0021550569868
 30
0.0
 11
377.8509165142243
 21
220.8771550569869
 31
0.0
  0
LINE
  5
8E3
330
757
100
AcDbEntity
  8
0
100
AcDbLine
 10
377.8509165142236
 20
222.5021550569814
 30
0.0
 11
263.1009165142211
 21
222.5021550569817
 31
0.0
  0
LINE
  5
8E4
330
757
100
AcDbEntity
  8
0
100
AcDbLine
 10
263.1009165142216
 20
220.8771550569869
 30
0.0
 11
263.1009165142216
 21
435.002155056987
 31
0.0
  0
LINE
  5
8E5
330
757
100
AcDbEntity
  8
0
100
AcDbLine
 10
263.1009165142216
 20
435.002155056987
 30
0.0
 11
377.8509165142241
 21
435.0021550569868
 31
0.0
  0
LINE
  5
8E6
330
757
100
AcDbEntity
  8
0
100
AcDbLine
 10
379.7259165142242
 20
333.7521550569867
 30
0.0
 11
379.4759165142242
 21
333.7521550569867
 31
0.0
  0
LINE
  5
8E7
330
757
100
AcDbEntity
  8
0
100
AcDbLine
 10
379.4759165142243
 20
323.7521550569867
 30
0.0
 11
379.7259165142243
 21
323.7521550569867
 31
0.0
  0
LINE
  5
8EC
330
757
100
AcDbEntity
  8
0
100
AcDbLine
 10
379.7259165142242
 20
333.7521550569867
 30
0.0
 11
379.725916514225
 21
323.7521550569867
 31
0.0
  0
LINE
  5
8F1
330
757
100
AcDbEntity
  8
0
100
AcDbLine
 10
296.9759165142212
 20
218.5021550569821
 30
0.0
 11
296.9759165142212
 21
220.8771550569869
 31
0.0
  0
LINE
  5
8F2
330
757
100
AcDbEntity
  8
0
100
AcDbLine
 10
295.4759165142212
 20
220.8771550569869
 30
0.0
 11
295.4759165142212
 21
218.5021550569821
 31
0.0
  0
LINE
  5
8F3
330
757
100
AcDbEntity
  8
0
100
AcDbLine
 10
267.7259165142207
 20
216.8771550569821
 30
0.0
 11
267.7259165142207
 21
220.8771550569869
 31
0.0
  0
LINE
  5
8F4
330
757
100
AcDbEntity
  8
0
100
AcDbLine
 10
264.7259165142207
 20
220.8771550569869
 30
0.0
 11
264.7259165142207
 21
216.8771550569821
 31
0.0
  0
LINE
  5
8F5
330
757
100
AcDbEntity
  8
0
100
AcDbLine
 10
263.8509165142202
 20
220.8771550569812
 30
0.0
 11
263.8509165142202
 21
220.6271550569821
 31
0.0
  0
LINE
  5
8F6
330
757
100
AcDbEntity
  8
0
100
AcDbLine
 10
296.9759165142217
 20
218.502155056981
 30
0.0
 11
295.4759165142212
 21
218.502155056981
 31
0.0
  0
LINE
  5
8F7
330
757
100
AcDbEntity
  8
0
100
AcDbLine
 10
267.7259165142207
 20
216.8771550569812
 30
0.0
 11
264.7259165142212
 21
216.8771550569812
 31
0.0
  0
LINE
  5
8F8
330
757
100
AcDbEntity
  8
0
100
AcDbLine
 10
264.7259165142212
 20
220.6271550569812
 30
0.0
 11
263.850916514221
 21
220.6271550569812
 31
0.0
  0
LINE
  5
8F9
330
757
100
AcDbEntity
  8
0
100
AcDbLine
 10
281.1634165142215
 20
216.8771550569823
 30
0.0
 11
281.1634165142216
 21
220.8771550569872
 31
0.0
  0
LINE
  5
8FA
330
757
100
AcDbEntity
  8
0
100
AcDbLine
 10
271.1634165142215
 20
220.8771550569872
 30
0.0
 11
271.1634165142215
 21
216.8771550569824
 31
0.0
  0
LINE
  5
8FB
330
757
100
AcDbEntity
  8
0
100
AcDbLine
 10
281.1634165142215
 20
216.8771550569808
 30
0.0
 11
271.1634165142215
 21
216.8771550569808
 31
0.0
  0
HATCH
  5
8FC
330
757
100
AcDbEntity
  8
0
  6
Continuous
100
AcDbHatch
 10
0.0
 20
0.0
 30
0.0
210
0.0
220
0.0
230
1.0
  2
ANSI31
 70
     0
 71
     0
 91
        1
 92
        1
 93
        4
 72
     1
 10
377.8509165142236
 20
333.5021550569867
 11
377.8509165142241
 21
435.0021550569868
 72
     1
 10
377.8509165142241
 20
435.0021550569868
 11
263.1009165142216
 21
435.0021550569871
 72
     1
 10
263.1009165142216
 20
435.0021550569871
 11
263.1009165142216
 21
333.502155056987
 72
     1
 10
263.1009165142216
 20
333.502155056987
 11
377.8509165142236
 21
333.5021550569867
 97
        0
 75
     1
 76
     1
 52
134.9999999999999
 41
12.0
 77
     0
 78
     1
 53
180.0
 43
1.250000000003125
 44
0.0
 45
-0.0000000000000002
 46
-1.5
 79
     0
 98
        1
 10
330.381015951633
 20
283.8688326899275
1001
GRADIENTCOLOR1ACI
1070
     5
1001
GRADIENTCOLOR2ACI
1070
     2
  0
LINE
  5
8FD
330
757
100
AcDbEntity
  8
0
100
AcDbLine
 10
261.4759165142209
 20
220.8771550569869
 30
0.0
 11
379.4759165142207
 21
220.8771550569869
 31
0.0
  0
LINE
  5
8FE
330
757
100
AcDbEntity
  8
0
100
AcDbLine
 10
263.1009165142213
 20
333.5021550569869
 30
0.0
 11
377.850916514224
 21
333.5021550569868
 31
0.0
  0
LINE
  5
8FF
330
757
100
AcDbEntity
  8
0
100
AcDbLine
 10
263.1009165142213
 20
324.0021550569869
 30
0.0
 11
377.850916514224
 21
324.0021550569869
 31
0.0
  0
HATCH
  5
900
330
757
100
AcDbEntity
  8
0
  6
Continuous
100
AcDbHatch
 10
0.0
 20
0.0
 30
0.0
210
0.0
220
0.0
230
1.0
  2
ANSI31
 70
     0
 71
     0
 91
        1
 92
        1
 93
        4
 72
     1
 10
377.8509165142236
 20
222.5021550569814
 11
377.8509165142238
 21
324.0021550569868
 72
     1
 10
377.8509165142238
 20
324.0021550569868
 11
263.1009165142214
 21
324.002155056987
 72
     1
 10
263.1009165142214
 20
324.002155056987
 11
263.1009165142215
 21
222.5021550569816
 72
     1
 10
263.1009165142215
 20
222.5021550569816
 11
377.8509165142236
 21
222.5021550569814
 97
        0
 75
     1
 76
     1
 52
134.9999999999999
 41
12.0
 77
     0
 78
     1
 53
180.0
 43
1.250000000003069
 44
-74.00000000000545
 45
-0.0000000000000002
 46
-1.5
 79
     0
 98
        1
 10
330.3810159516329
 20
209.8688326899221
1001
GRADIENTCOLOR1ACI
1070
     5
1001
GRADIENTCOLOR2ACI
1070
     2
  0
CIRCLE
  5
91F
330
757
100
AcDbEntity
  8
0
100
AcDbCircle
 10
564.6407049983827
 20
152.2501420492609
 30
0.0
 40
5.0
  0
LINE
  5
D32
330
757
100
AcDbEntity
  8
0
100
AcDbLine
 10
633.5889158258273
 20
6.000004503757736
 30
0.0
 11
657.5889158258287
 21
6.000004503757736
 31
0.0
  0
LINE
  5
D34
330
757
100
AcDbEntity
  8
0
100
AcDbLine
 10
471.5889158258272
 20
6.000004503758418
 30
0.0
 11
495.5889158258272
 21
6.000004503757736
 31
0.0
  0
LINE
  5
D36
330
757
100
AcDbEntity
  8
0
100
AcDbLine
 10
657.5889158258272
 20
4.000004503757651
 30
0.0
 11
657.5889158258277
 21
98.37500450375822
 31
0.0
  0
LINE
  5
D37
330
757
100
AcDbEntity
  8
0
100
AcDbLine
 10
658.5749012956759
 20
98.37500450375822
 30
0.0
 11
658.5749012956756
 21
4.000004503757643
 31
0.0
  0
LINE
  5
D38
330
757
100
AcDbEntity
  8
0
100
AcDbLine
 10
657.5889158258272
 20
4.000004503757651
 30
0.0
 11
658.5749012956756
 21
4.000004503757646
 31
0.0
  0
LINE
  5
D39
330
757
100
AcDbEntity
  8
0
100
AcDbLine
 10
658.5749012956759
 20
98.37500450375822
 30
0.0
 11
657.5889158258277
 21
98.37500450375822
 31
0.0
  0
LINE
  5
D3A
330
757
100
AcDbEntity
  8
0
100
AcDbLine
 10
632.5895948830954
 20
4.000004503757693
 30
0.0
 11
632.5895948830955
 21
98.37500450375824
 31
0.0
  0
LINE
  5
D3B
330
757
100
AcDbEntity
  8
0
100
AcDbLine
 10
633.5889158258274
 20
98.37500450375824
 30
0.0
 11
633.5889158258273
 21
4.000004503757685
 31
0.0
  0
LINE
  5
D3C
330
757
100
AcDbEntity
  8
0
100
AcDbLine
 10
632.5895948830954
 20
4.000004503757693
 30
0.0
 11
633.5889158258273
 21
4.000004503757693
 31
0.0
  0
LINE
  5
D3D
330
757
100
AcDbEntity
  8
0
100
AcDbLine
 10
633.5889158258274
 20
98.37500450375824
 30
0.0
 11
632.5895948830955
 21
98.37500450375824
 31
0.0
  0
LINE
  5
D3E
330
757
100
AcDbEntity
  8
0
100
AcDbLine
 10
495.5889158258272
 20
4.000004503757913
 30
0.0
 11
495.5889158258274
 21
98.37500450375848
 31
0.0
  0
LINE
  5
D3F
330
757
100
AcDbEntity
  8
0
100
AcDbLine
 10
496.5965045169443
 20
98.37500450375848
 30
0.0
 11
496.5965045169441
 21
4.000004503757913
 31
0.0
  0
LINE
  5
D40
330
757
100
AcDbEntity
  8
0
100
AcDbLine
 10
495.5889158258272
 20
4.000004503757913
 30
0.0
 11
496.5965045169441
 21
4.000004503757909
 31
0.0
  0
LINE
  5
D41
330
757
100
AcDbEntity
  8
0
100
AcDbLine
 10
496.5965045169443
 20
98.37500450375848
 30
0.0
 11
495.5889158258274
 21
98.37500450375848
 31
0.0
  0
LINE
  5
D42
330
757
100
AcDbEntity
  8
0
100
AcDbLine
 10
470.5874649865754
 20
4.000004503757955
 30
0.0
 11
470.5874649865757
 21
98.3750045037585
 31
0.0
  0
LINE
  5
D43
330
757
100
AcDbEntity
  8
0
100
AcDbLine
 10
471.5889158258272
 20
98.3750045037585
 30
0.0
 11
471.5889158258272
 21
4.000004503757955
 31
0.0
  0
LINE
  5
D44
330
757
100
AcDbEntity
  8
0
100
AcDbLine
 10
470.5874649865754
 20
4.000004503757955
 30
0.0
 11
471.5889158258272
 21
4.000004503757953
 31
0.0
  0
LINE
  5
D45
330
757
100
AcDbEntity
  8
0
100
AcDbLine
 10
471.5889158258272
 20
98.3750045037585
 30
0.0
 11
470.5874649865757
 21
98.3750045037585
 31
0.0
  0
LINE
  5
D46
330
757
100
AcDbEntity
  8
0
100
AcDbLine
 10
579.5889158258272
 20
6.000004503757736
 30
0.0
 11
603.5889158258272
 21
6.000004503757736
 31
0.0
  0
LINE
  5
D48
330
757
100
AcDbEntity
  8
0
100
AcDbLine
 10
578.5979154804985
 20
4.000004503757781
 30
0.0
 11
578.5979154804987
 21
98.37500450375834
 31
0.0
  0
LINE
  5
D49
330
757
100
AcDbEntity
  8
0
100
AcDbLine
 10
579.5889158258274
 20
98.37500450375834
 30
0.0
 11
579.5889158258272
 21
4.000004503757781
 31
0.0
  0
LINE
  5
D4A
330
757
100
AcDbEntity
  8
0
100
AcDbLine
 10
578.5979154804985
 20
4.000004503757781
 30
0.0
 11
579.5889158258272
 21
4.000004503757781
 31
0.0
  0
LINE
  5
D4B
330
757
100
AcDbEntity
  8
0
100
AcDbLine
 10
579.5889158258274
 20
98.37500450375834
 30
0.0
 11
578.5979154804987
 21
98.37500450375834
 31
0.0
  0
LINE
  5
D4C
330
757
100
AcDbEntity
  8
0
100
AcDbLine
 10
603.5889158258272
 20
4.000004503757743
 30
0.0
 11
603.5889158258274
 21
98.37500450375827
 31
0.0
  0
LINE
  5
D4D
330
757
100
AcDbEntity
  8
0
100
AcDbLine
 10
604.5809311425967
 20
98.37500450375827
 30
0.0
 11
604.5809311425963
 21
4.000004503757743
 31
0.0
  0
LINE
  5
D4E
330
757
100
AcDbEntity
  8
0
100
AcDbLine
 10
604.5809311425963
 20
4.000004503757743
 30
0.0
 11
603.5889158258272
 21
4.000004503757743
 31
0.0
  0
LINE
  5
D4F
330
757
100
AcDbEntity
  8
0
100
AcDbLine
 10
604.5809311425967
 20
98.37500450375827
 30
0.0
 11
603.5889158258274
 21
98.37500450375827
 31
0.0
  0
LINE
  5
D50
330
757
100
AcDbEntity
  8
0
100
AcDbLine
 10
525.5889158258271
 20
6.000004503757736
 30
0.0
 11
549.5889158258271
 21
6.000004503757736
 31
0.0
  0
LINE
  5
D52
330
757
100
AcDbEntity
  8
0
100
AcDbLine
 10
549.5889158258271
 20
4.000004503757828
 30
0.0
 11
549.5889158258271
 21
98.37500450375841
 31
0.0
  0
LINE
  5
D53
330
757
100
AcDbEntity
  8
0
100
AcDbLine
 10
550.5889158258271
 20
98.37500450375841
 30
0.0
 11
550.5889158258271
 21
4.000004503757828
 31
0.0
  0
LINE
  5
D54
330
757
100
AcDbEntity
  8
0
100
AcDbLine
 10
549.5889158258271
 20
4.000004503757828
 30
0.0
 11
550.5889158258271
 21
4.000004503757828
 31
0.0
  0
LINE
  5
D55
330
757
100
AcDbEntity
  8
0
100
AcDbLine
 10
550.5889158258271
 20
98.37500450375841
 30
0.0
 11
549.5889158258271
 21
98.37500450375841
 31
0.0
  0
LINE
  5
D56
330
757
100
AcDbEntity
  8
0
100
AcDbLine
 10
524.5889158258271
 20
4.000004503757866
 30
0.0
 11
524.5889158258274
 21
98.37500450375841
 31
0.0
  0
LINE
  5
D57
330
757
100
AcDbEntity
  8
0
100
AcDbLine
 10
525.5889158258273
 20
98.37500450375841
 30
0.0
 11
525.5889158258271
 21
4.000004503757866
 31
0.0
  0
LINE
  5
D58
330
757
100
AcDbEntity
  8
0
100
AcDbLine
 10
524.5889158258271
 20
4.000004503757866
 30
0.0
 11
525.5889158258271
 21
4.000004503757866
 31
0.0
  0
LINE
  5
D59
330
757
100
AcDbEntity
  8
0
100
AcDbLine
 10
525.5889158258273
 20
98.37500450375841
 30
0.0
 11
524.5889158258274
 21
98.37500450375841
 31
0.0
  0
LINE
  5
D5A
330
757
100
AcDbEntity
  8
0
100
AcDbLine
 10
460.1514158258265
 20
98.37500450375841
 30
0.0
 11
460.1514158258265
 21
4.000004503757828
 31
0.0
  0
LINE
  5
D5B
330
757
100
AcDbEntity
  8
0
100
AcDbLine
 10
460.1514158258265
 20
4.000004503757828
 30
0.0
 11
470.5874649865752
 21
4.000004503757828
 31
0.0
  0
LINE
  5
D5C
330
757
100
AcDbEntity
  8
0
100
AcDbLine
 10
470.5874649865752
 20
4.000004503757828
 30
0.0
 11
470.5874649865752
 21
98.37500450375841
 31
0.0
  0
LINE
  5
D5D
330
757
100
AcDbEntity
  8
0
100
AcDbLine
 10
470.5874649865752
 20
98.37500450375841
 30
0.0
 11
460.1514158258265
 21
98.37500450375841
 31
0.0
  0
LINE
  5
D5E
330
757
100
AcDbEntity
  8
0
100
AcDbLine
 10
578.5979154804985
 20
98.37500450375841
 30
0.0
 11
550.588915825827
 21
98.37500450375841
 31
0.0
  0
LINE
  5
D5F
330
757
100
AcDbEntity
  8
0
100
AcDbLine
 10
550.588915825827
 20
98.37500450375841
 30
0.0
 11
550.588915825827
 21
4.000004503757828
 31
0.0
  0
LINE
  5
D60
330
757
100
AcDbEntity
  8
0
100
AcDbLine
 10
550.588915825827
 20
4.000004503757828
 30
0.0
 11
578.5979154804985
 21
4.000004503757828
 31
0.0
  0
LINE
  5
D61
330
757
100
AcDbEntity
  8
0
100
AcDbLine
 10
578.5979154804985
 20
4.000004503757828
 30
0.0
 11
578.5979154804985
 21
98.37500450375841
 31
0.0
  0
LINE
  5
D62
330
757
100
AcDbEntity
  8
0
100
AcDbLine
 10
669.026415825827
 20
98.37500450375841
 30
0.0
 11
658.5749012956755
 21
98.37500450375841
 31
0.0
  0
LINE
  5
D63
330
757
100
AcDbEntity
  8
0
100
AcDbLine
 10
658.5749012956755
 20
98.37500450375841
 30
0.0
 11
658.5749012956755
 21
4.000004503757828
 31
0.0
  0
LINE
  5
D64
330
757
100
AcDbEntity
  8
0
100
AcDbLine
 10
658.5749012956755
 20
4.000004503757828
 30
0.0
 11
669.026415825827
 21
4.000004503757828
 31
0.0
  0
LINE
  5
D65
330
757
100
AcDbEntity
  8
0
100
AcDbLine
 10
669.026415825827
 20
4.000004503757828
 30
0.0
 11
669.026415825827
 21
98.37500450375841
 31
0.0
  0
LINE
  5
D66
330
757
100
AcDbEntity
  8
0
100
AcDbLine
 10
524.588915825827
 20
98.37500450375841
 30
0.0
 11
496.5965045169439
 21
98.37500450375841
 31
0.0
  0
LINE
  5
D67
330
757
100
AcDbEntity
  8
0
100
AcDbLine
 10
496.5965045169439
 20
98.37500450375841
 30
0.0
 11
496.5965045169439
 21
4.000004503757828
 31
0.0
  0
LINE
  5
D68
330
757
100
AcDbEntity
  8
0
100
AcDbLine
 10
496.5965045169439
 20
4.000004503757828
 30
0.0
 11
524.588915825827
 21
4.000004503757828
 31
0.0
  0
LINE
  5
D69
330
757
100
AcDbEntity
  8
0
100
AcDbLine
 10
524.588915825827
 20
4.000004503757828
 30
0.0
 11
524.588915825827
 21
98.37500450375841
 31
0.0
  0
LINE
  5
D6A
330
757
100
AcDbEntity
  8
0
100
AcDbLine
 10
632.5895948830953
 20
98.37500450375841
 30
0.0
 11
604.5809311425961
 21
98.37500450375841
 31
0.0
  0
LINE
  5
D6B
330
757
100
AcDbEntity
  8
0
100
AcDbLine
 10
604.5809311425961
 20
98.37500450375841
 30
0.0
 11
604.5809311425961
 21
4.000004503757828
 31
0.0
  0
LINE
  5
D6C
330
757
100
AcDbEntity
  8
0
100
AcDbLine
 10
604.5809311425961
 20
4.000004503757828
 30
0.0
 11
632.5895948830953
 21
4.000004503757828
 31
0.0
  0
LINE
  5
D6D
330
757
100
AcDbEntity
  8
0
100
AcDbLine
 10
632.5895948830953
 20
4.000004503757828
 30
0.0
 11
632.5895948830953
 21
98.37500450375841
 31
0.0
  0
LINE
  5
D6E
330
757
100
AcDbEntity
  8
0
100
AcDbLine
 10
460.1514158258273
 20
4.00000450375623
 30
0.0
 11
460.1514158258265
 21
98.37500450375678
 31
0.0
  0
LINE
  5
D6F
330
757
100
AcDbEntity
  8
0
100
AcDbLine
 10
460.1514158258265
 20
98.37500450375678
 30
0.0
 11
669.0264158258265
 21
98.37500450375895
 31
0.0
  0
LINE
  5
D70
330
757
100
AcDbEntity
  8
0
100
AcDbLine
 10
669.0264158258265
 20
98.37500450375895
 30
0.0
 11
669.0264158258274
 21
4.000004503758378
 31
0.0
  0
LINE
  5
D71
330
757
100
AcDbEntity
  8
0
100
AcDbLine
 10
669.0264158258274
 20
4.00000450375839
 30
0.0
 11
460.1514158258273
 21
4.00000450375623
 31
0.0
  0
INSERT
  5
D72
330
757
100
AcDbEntity
  8
0
  6
Continuous
100
AcDbBlockReference
  2
*X5
 10
-52.07568163989435
 20
0.0
 30
0.0
1001
GRADIENTCOLOR1ACI
1070
     5
1001
GRADIENTCOLOR2ACI
1070
     2
1001
ACAD
1000
HATCH
1002
{
1070
    19
1000
NET
1040
12.0
1040
0.0
1002
}
  0
ARC
  5
E52
330
757
100
AcDbEntity
  8
0
100
AcDbCircle
 10
296.2259165142216
 20
44.12500450375759
 30
0.0
 40
0.7499999999999965
100
AcDbArc
 50
0.0
 51
180.0
  0
ARC
  5
E53
330
757
100
AcDbEntity
  8
0
100
AcDbCircle
 10
296.2259165142216
 20
44.12500450375759
 30
0.0
 40
0.7500000000000036
100
AcDbArc
 50
180.0
 51
359.9999999999984
  0
CIRCLE
  5
E54
330
757
100
AcDbEntity
  8
0
100
AcDbCircle
 10
278.2259165142217
 20
44.00000450375759
 30
0.0
 40
11.18749999999998
  0
LINE
  5
E55
330
757
100
AcDbEntity
  8
0
100
AcDbLine
 10
456.1514158258283
 20
43.3750045037589
 30
0.0
 11
458.5264158258276
 21
43.3750045037589
 31
0.0
  0
LINE
  5
E56
330
757
100
AcDbEntity
  8
0
100
AcDbLine
 10
458.5264158258276
 20
44.87500450375924
 30
0.0
 11
456.1514158258283
 21
44.87500450375924
 31
0.0
  0
LINE
  5
E57
330
757
100
AcDbEntity
  8
0
100
AcDbLine
 10
454.5264158258274
 20
30.44411871371448
 30
0.0
 11
458.5264158258276
 21
30.44411871371448
 31
0.0
  0
LINE
  5
E58
330
757
100
AcDbEntity
  8
0
100
AcDbLine
 10
458.5264158258276
 20
33.44411871371447
 30
0.0
 11
454.5264158258274
 21
33.44411871371447
 31
0.0
  0
LINE
  5
E5A
330
757
100
AcDbEntity
  8
0
100
AcDbLine
 10
456.1514158258274
 20
43.37500450375898
 30
0.0
 11
456.1514158258274
 21
44.87500450375924
 31
0.0
  0
LINE
  5
E60
330
757
100
AcDbEntity
  8
0
100
AcDbLine
 10
213.2918564215517
 20
43.37500450375907
 30
0.0
 11
215.6668564215522
 21
43.37500450375907
 31
0.0
  0
LINE
  5
E61
330
757
100
AcDbEntity
  8
0
100
AcDbLine
 10
215.6668564215522
 20
44.87500450375941
 30
0.0
 11
213.2918564215517
 21
44.87500450375939
 31
0.0
  0
LINE
  5
E62
330
757
100
AcDbEntity
  8
0
100
AcDbLine
 10
213.2918564215517
 20
30.44411871371448
 30
0.0
 11
217.291856421552
 21
30.44411871371448
 31
0.0
  0
LINE
  5
E63
330
757
100
AcDbEntity
  8
0
100
AcDbLine
 10
217.291856421552
 20
33.44411871371447
 30
0.0
 11
213.2918564215517
 21
33.44411871371447
 31
0.0
  0
CIRCLE
  5
E6B
330
757
100
AcDbEntity
  8
0
100
AcDbCircle
 10
266.2259165142211
 20
31.75000450375762
 30
0.0
 40
1.5
  0
LINE
  5
E6C
330
757
100
AcDbEntity
  8
0
100
AcDbLine
 10
454.5264158258274
 20
33.44411871371447
 30
0.0
 11
454.5264158258274
 21
30.44411871371448
 31
0.0
  0
LINE
  5
E6D
330
757
100
AcDbEntity
  8
0
100
AcDbLine
 10
215.6668564215522
 20
44.87500450375941
 30
0.0
 11
215.6668564215522
 21
43.37500450375907
 31
0.0
  0
LINE
  5
E6E
330
757
100
AcDbEntity
  8
0
100
AcDbLine
 10
217.291856421552
 20
33.44411871371447
 30
0.0
 11
217.291856421552
 21
30.44411871371448
 31
0.0
  0
LINE
  5
E8B
330
757
100
AcDbEntity
  8
0
100
AcDbLine
 10
379.6009165142212
 20
0.0000045037576228
 30
0.0
 11
261.4759165142217
 21
0.0000045037576228
 31
0.0
  0
ARC
  5
E8C
330
757
100
AcDbEntity
  8
0
100
AcDbCircle
 10
264.8509165142209
 20
6.625004503758013
 30
0.0
 40
0.999999999999996
100
AcDbArc
 50
359.9999999999996
 51
179.9999999999996
  0
ARC
  5
E8D
330
757
100
AcDbEntity
  8
0
100
AcDbCircle
 10
264.8509165142209
 20
6.625004503758013
 30
0.0
 40
1.000000000000001
100
AcDbArc
 50
180.0
 51
359.9999999999992
  0
LINE
  5
E8E
330
757
100
AcDbEntity
  8
0
100
AcDbLine
 10
458.2764158258274
 20
5.625004503757963
 30
0.0
 11
458.5264158258266
 21
5.625004503757963
 31
0.0
  0
LINE
  5
E8F
330
757
100
AcDbEntity
  8
0
100
AcDbLine
 10
458.276415825828
 20
5.625004503758013
 30
0.0
 11
458.276415825828
 21
5.659078467393449
 31
0.0
  0
LINE
  5
E90
330
757
100
AcDbEntity
  8
0
100
AcDbLine
 10
458.276415825828
 20
5.659078677468947
 30
0.0
 11
458.276415825828
 21
7.000004503757864
 31
0.0
  0
LINE
  5
E91
330
757
100
AcDbEntity
  8
0
100
AcDbLine
 10
454.5264158258278
 20
7.000004503757864
 30
0.0
 11
458.5264158258278
 21
7.000004503757864
 31
0.0
  0
LINE
  5
E92
330
757
100
AcDbEntity
  8
0
100
AcDbLine
 10
458.5264158258273
 20
17.00000450375761
 30
0.0
 11
454.526415825827
 21
17.00000450375761
 31
0.0
  0
LINE
  5
E93
330
757
100
AcDbEntity
  8
0
100
AcDbLine
 10
454.5264158258278
 20
7.000004503757615
 30
0.0
 11
454.5264158258275
 21
17.00000450375761
 31
0.0
  0
LINE
  5
E94
330
757
100
AcDbEntity
  8
0
100
AcDbLine
 10
213.291856421552
 20
5.625004503757963
 30
0.0
 11
213.5418564215511
 21
5.625004503757963
 31
0.0
  0
LINE
  5
E95
330
757
100
AcDbEntity
  8
0
100
AcDbLine
 10
213.541856421552
 20
7.000004503757615
 30
0.0
 11
213.541856421552
 21
5.625004503757963
 31
0.0
  0
LINE
  5
E96
330
757
100
AcDbEntity
  8
0
100
AcDbLine
 10
213.2918564215517
 20
7.000004503757615
 30
0.0
 11
217.2918564215517
 21
7.000004503757615
 31
0.0
  0
LINE
  5
E97
330
757
100
AcDbEntity
  8
0
100
AcDbLine
 10
217.2918564215517
 20
17.00000450375761
 30
0.0
 11
213.2918564215517
 21
17.00000450375761
 31
0.0
  0
CIRCLE
  5
E98
330
757
100
AcDbEntity
  8
0
100
AcDbCircle
 10
276.1634165142216
 20
12.00000450375761
 30
0.0
 40
5.0
  0
LINE
  5
E99
330
757
100
AcDbEntity
  8
0
100
AcDbLine
 10
217.2918564215517
 20
17.00000450375761
 30
0.0
 11
217.2918564215517
 21
7.000004503757615
 31
0.0
  0
ENDSEC
  0
SECTION
  2
OBJECTS
  0
DICTIONARY
  5
6F3
330
0
100
AcDbDictionary
281
     1
  3
ACAD_CIP_PREVIOUS_PRODUCT_INFO
350
78C
  3
ACAD_COLOR
350
749
  3
ACAD_DETAILVIEWSTYLE
350
751
  3
ACAD_GROUP
350
6F4
  3
ACAD_LAYOUT
350
748
  3
ACAD_MATERIAL
350
6F7
  3
ACAD_MLEADERSTYLE
350
74C
  3
ACAD_MLINESTYLE
350
745
  3
ACAD_PLOTSETTINGS
350
747
  3
ACAD_PLOTSTYLENAME
350
6F5
  3
ACAD_SCALELIST
350
729
  3
ACAD_SECTIONVIEWSTYLE
350
74E
  3
ACAD_TABLESTYLE
350
74A
  3
ACAD_VISUALSTYLE
350
710
  3
ACDB_RECOMPOSE_DATA
350
ED6
  3
AcDbVariableDictionary
350
791
  3
DWGPROPS
350
ED7
  0
DICTIONARY
  5
78F
330
73B
100
AcDbDictionary
280
     1
281
     1
  3
ADSK_XREC_LAYER_RECONCILED
360
790
  0
XRECORD
  5
78C
102
{ACAD_REACTORS
330
6F3
102
}
330
6F3
100
AcDbXrecord
280
     1
300
AMECH_PP
300
2013
300
85963PDSU_2013_0F
  0
DICTIONARY
  5
749
102
{ACAD_REACTORS
330
6F3
102
}
330
6F3
100
AcDbDictionary
281
     1
  0
DICTIONARY
  5
751
102
{ACAD_REACTORS
330
6F3
102
}
330
6F3
100
AcDbDictionary
281
     1
  3
Imperial24
350
752
  0
DICTIONARY
  5
6F4
102
{ACAD_REACTORS
330
6F3
102
}
330
6F3
100
AcDbDictionary
281
     1
  0
DICTIONARY
  5
748
102
{ACAD_REACTORS
330
6F3
102
}
330
6F3
100
AcDbDictionary
281
     1
  3
Layout1
350
756
  3
Model
350
75A
  0
DICTIONARY
  5
6F7
102
{ACAD_REACTORS
330
6F3
102
}
330
6F3
100
AcDbDictionary
281
     1
  3
ByBlock
350
700
  3
ByLayer
350
6F8
  3
Global
350
708
  0
DICTIONARY
  5
74C
102
{ACAD_REACTORS
330
6F3
102
}
330
6F3
100
AcDbDictionary
281
     1
  3
Standard
350
74D
  0
DICTIONARY
  5
745
102
{ACAD_REACTORS
330
6F3
102
}
330
6F3
100
AcDbDictionary
281
     1
  3
Standard
350
746
  0
DICTIONARY
  5
747
102
{ACAD_REACTORS
330
6F3
102
}
330
6F3
100
AcDbDictionary
281
     1
  0
ACDBDICTIONARYWDFLT
  5
6F5
102
{ACAD_REACTORS
330
6F3
102
}
330
6F3
100
AcDbDictionary
281
     1
  3
Normal
350
6F6
100
AcDbDictionaryWithDefault
340
6F6
  0
DICTIONARY
  5
729
102
{ACAD_REACTORS
330
6F3
102
}
330
6F3
100
AcDbDictionary
281
     1
  3
A0
350
72A
  3
A1
350
72B
  3
A2
350
72C
  3
A3
350
72D
  3
A4
350
72E
  3
A5
350
72F
  3
A6
350
730
  3
A7
350
731
  3
A8
350
732
  3
A9
350
733
  3
B0
350
734
  3
B1
350
735
  3
B2
350
736
  3
B3
350
737
  3
B4
350
738
  3
B5
350
739
  3
B6
350
73A
  0
DICTIONARY
  5
74E
102
{ACAD_REACTORS
330
6F3
102
}
330
6F3
100
AcDbDictionary
281
     1
  3
Imperial24
350
750
  0
DICTIONARY
  5
74A
102
{ACAD_REACTORS
330
6F3
102
}
330
6F3
100
AcDbDictionary
281
     1
  3
Standard
350
74B
  0
DICTIONARY
  5
710
102
{ACAD_REACTORS
330
6F3
102
}
330
6F3
100
AcDbDictionary
281
     1
  3
2dWireframe
350
716
  3
Basic
350
715
  3
Brighten
350
71C
  3
ColorChange
350
720
  3
Conceptual
350
719
  3
Dim
350
71B
  3
EdgeColorOff
350
728
  3
Facepattern
350
71F
  3
Flat
350
711
  3
FlatWithEdges
350
712
  3
Gouraud
350
713
  3
GouraudWithEdges
350
714
  3
Hidden
350
718
  3
JitterOff
350
726
  3
Linepattern
350
71E
  3
OverhangOff
350
727
  3
Realistic
350
71A
  3
Shaded
350
725
  3
Shaded with edges
350
724
  3
Shades of Gray
350
721
  3
Sketchy
350
722
  3
Thicken
350
71D
  3
Wireframe
350
717
  3
X-Ray
350
723
  0
XRECORD
  5
ED6
102
{ACAD_REACTORS
330
6F3
102
}
330
6F3
100
AcDbXrecord
280
     1
 90
        1
330
74B
  0
DICTIONARY
  5
791
102
{ACAD_REACTORS
330
6F3
102
}
330
6F3
100
AcDbDictionary
281
     1
  3
CANNOSCALE
350
796
  3
CMLEADERSTYLE
350
793
  3
CTABLESTYLE
350
792
  3
CVIEWDETAILSTYLE
350
794
  3
CVIEWSECTIONSTYLE
350
795
  3
DIMASSOC
350
799
  3
INDEXCTL
350
798
  3
LAYEREVAL
350
90A
  3
LAYERNOTIFY
350
90B
  3
LIGHTINGUNITS
350
909
  3
LOFTANG1
350
E9A
  3
LOFTANG2
350
E9B
  3
MSLTSCALE
350
908
  3
SORTENTS
350
797
  3
XCLIPFRAME
350
E9C
  0
XRECORD
  5
ED7
102
{ACAD_REACTORS
330
6F3
102
}
330
6F3
100
AcDbXrecord
280
     1
  1
DWGPROPS COOKIE
  2

  3

  4

  6

  7

  8
lsztobryn
  9

300
=
301
=
302
=
303
=
304
=
305
=
306
=
307
=
308
=
309
=
 40
0.0875125925925926
 41
2456828.723376308
 42
2457205.35918073
  1

 90
        0
  0
XRECORD
  5
790
102
{ACAD_REACTORS
330
78F
102
}
330
78F
100
AcDbXrecord
280
     1
290
     1
  0
ACDBDETAILVIEWSTYLE
  5
752
102
{ACAD_REACTORS
330
751
102
}
330
751
100
AcDbModelDocViewStyle
 70
     0
  3
Imperial24
290
     0
100
AcDbDetailViewStyle
 70
     0
 71
     0
 90
        3
 71
     1
340
73C
 40
0.24
340
0
 40
0.24
300

 40
0.36
280
     3
 71
     2
340
743
 90
       25
 71
     3
340
73C
 40
0.24
 90
        1
 40
0.75
 90
        1
300
%<\AcVar ViewType \f "%tc1">% %<\AcVar ViewDetailId>%\PSCALE %<\AcVar ViewScale \f "%sn">%
 71
     4
340
743
 90
       25
340
743
 90
       25
280
     0
  0
LAYOUT
  5
756
102
{ACAD_XDICTIONARY
360
F09
102
}
102
{ACAD_REACTORS
330
748
102
}
330
748
100
AcDbPlotSettings
  1

  2
\\BALTIMORE\MD_ENGR_Copier
  4

  6

 40
0.0
 41
0.0
 42
0.0
 43
0.0
 44
0.0
 45
0.0
 46
0.0
 47
0.0
 48
0.0
 49
0.0
140
0.0
141
0.0
142
1.0
143
1.0
 70
   688
 72
     0
 73
     0
 74
     5
  7
bac.ctb
 75
    16
147
1.0
148
0.0
149
0.0
100
AcDbLayout
  1
Layout1
 70
     1
 71
     1
 10
0.0
 20
0.0
 11
12.0
 21
9.0
 12
0.0
 22
0.0
 32
0.0
 14
1.000000000000000E+20
 24
1.000000000000000E+20
 34
1.000000000000000E+20
 15
-1.000000000000000E+20
 25
-1.000000000000000E+20
 35
-1.000000000000000E+20
146
0.0
 13
0.0
 23
0.0
 33
0.0
 16
1.0
 26
0.0
 36
0.0
 17
0.0
 27
1.0
 37
0.0
 76
     0
330
753
  0
LAYOUT
  5
75A
102
{ACAD_XDICTIONARY
360
F0B
102
}
102
{ACAD_REACTORS
330
748
102
}
330
748
100
AcDbPlotSettings
  1

  2
\\BALTIMORE\MD_ENGR_Copier
  4

  6

 40
0.0
 41
0.0
 42
0.0
 43
0.0
 44
0.0
 45
0.0
 46
0.0
 47
0.0
 48
0.0
 49
0.0
140
0.0
141
0.0
142
1.0
143
1.0
 70
  1712
 72
     0
 73
     0
 74
     0
  7
bac.ctb
 75
     0
147
1.0
148
0.0
149
0.0
100
AcDbLayout
  1
Model
 70
     1
 71
     0
 10
0.0
 20
0.0
 11
12.0
 21
9.0
 12
0.0
 22
0.0
 32
0.0
 14
0.0
 24
0.0
 34
0.0
 15
0.0
 25
0.0
 35
0.0
146
0.0
 13
0.0
 23
0.0
 33
0.0
 16
1.0
 26
0.0
 36
0.0
 17
0.0
 27
1.0
 37
0.0
 76
     0
330
757
331
75C
  0
MATERIAL
  5
700
102
{ACAD_XDICTIONARY
360
701
102
}
102
{ACAD_REACTORS
330
6F7
102
}
330
6F7
100
AcDbMaterial
  1
ByBlock
 72
     0
 43
0.0208333333333333
 43
0.0
 43
0.0
 43
0.0
 43
0.0
 43
0.0208333333333333
 43
0.0
 43
0.0
 43
0.0
 43
0.0
 43
1.0
 43
0.0
 43
0.0
 43
0.0
 43
0.0
 43
1.0
 77
     0
 47
0.0208333333333333
 47
0.0
 47
0.0
 47
0.0
 47
0.0
 47
0.0208333333333333
 47
0.0
 47
0.0
 47
0.0
 47
0.0
 47
1.0
 47
0.0
 47
0.0
 47
0.0
 47
0.0
 47
1.0
171
     0
 49
0.0208333333333333
 49
0.0
 49
0.0
 49
0.0
 49
0.0
 49
0.0208333333333333
 49
0.0
 49
0.0
 49
0.0
 49
0.0
 49
1.0
 49
0.0
 49
0.0
 49
0.0
 49
0.0
 49
1.0
175
     0
142
0.0208333333333333
142
0.0
142
0.0
142
0.0
142
0.0
142
0.0208333333333333
142
0.0
142
0.0
142
0.0
142
0.0
142
1.0
142
0.0
142
0.0
142
0.0
142
0.0
142
1.0
179
     0
144
0.0208333333333333
144
0.0
144
0.0
144
0.0
144
0.0
144
0.0208333333333333
144
0.0
144
0.0
144
0.0
144
0.0
144
1.0
144
0.0
144
0.0
144
0.0
144
0.0
144
1.0
147
0.0208333333333333
147
0.0
147
0.0
147
0.0
147
0.0
147
0.0208333333333333
147
0.0
147
0.0
147
0.0
147
0.0
147
1.0
147
0.0
147
0.0
147
0.0
147
0.0
147
1.0
  0
MATERIAL
  5
6F8
102
{ACAD_XDICTIONARY
360
6F9
102
}
102
{ACAD_REACTORS
330
6F7
102
}
330
6F7
100
AcDbMaterial
  1
ByLayer
 72
     0
 43
0.0208333333333333
 43
0.0
 43
0.0
 43
0.0
 43
0.0
 43
0.0208333333333333
 43
0.0
 43
0.0
 43
0.0
 43
0.0
 43
1.0
 43
0.0
 43
0.0
 43
0.0
 43
0.0
 43
1.0
 77
     0
 47
0.0208333333333333
 47
0.0
 47
0.0
 47
0.0
 47
0.0
 47
0.0208333333333333
 47
0.0
 47
0.0
 47
0.0
 47
0.0
 47
1.0
 47
0.0
 47
0.0
 47
0.0
 47
0.0
 47
1.0
171
     0
 49
0.0208333333333333
 49
0.0
 49
0.0
 49
0.0
 49
0.0
 49
0.0208333333333333
 49
0.0
 49
0.0
 49
0.0
 49
0.0
 49
1.0
 49
0.0
 49
0.0
 49
0.0
 49
0.0
 49
1.0
175
     0
142
0.0208333333333333
142
0.0
142
0.0
142
0.0
142
0.0
142
0.0208333333333333
142
0.0
142
0.0
142
0.0
142
0.0
142
1.0
142
0.0
142
0.0
142
0.0
142
0.0
142
1.0
179
     0
144
0.0208333333333333
144
0.0
144
0.0
144
0.0
144
0.0
144
0.0208333333333333
144
0.0
144
0.0
144
0.0
144
0.0
144
1.0
144
0.0
144
0.0
144
0.0
144
0.0
144
1.0
147
0.0208333333333333
147
0.0
147
0.0
147
0.0
147
0.0
147
0.0208333333333333
147
0.0
147
0.0
147
0.0
147
0.0
147
1.0
147
0.0
147
0.0
147
0.0
147
0.0
147
1.0
  0
MATERIAL
  5
708
102
{ACAD_XDICTIONARY
360
709
102
}
102
{ACAD_REACTORS
330
6F7
102
}
330
6F7
100
AcDbMaterial
  1
Global
 72
     0
 43
0.0208333333333333
 43
0.0
 43
0.0
 43
0.0
 43
0.0
 43
0.0208333333333333
 43
0.0
 43
0.0
 43
0.0
 43
0.0
 43
1.0
 43
0.0
 43
0.0
 43
0.0
 43
0.0
 43
1.0
 77
     0
 47
0.0208333333333333
 47
0.0
 47
0.0
 47
0.0
 47
0.0
 47
0.0208333333333333
 47
0.0
 47
0.0
 47
0.0
 47
0.0
 47
1.0
 47
0.0
 47
0.0
 47
0.0
 47
0.0
 47
1.0
171
     0
 49
0.0208333333333333
 49
0.0
 49
0.0
 49
0.0
 49
0.0
 49
0.0208333333333333
 49
0.0
 49
0.0
 49
0.0
 49
0.0
 49
1.0
 49
0.0
 49
0.0
 49
0.0
 49
0.0
 49
1.0
175
     0
142
0.0208333333333333
142
0.0
142
0.0
142
0.0
142
0.0
142
0.0208333333333333
142
0.0
142
0.0
142
0.0
142
0.0
142
1.0
142
0.0
142
0.0
142
0.0
142
0.0
142
1.0
179
     0
144
0.0208333333333333
144
0.0
144
0.0
144
0.0
144
0.0
144
0.0208333333333333
144
0.0
144
0.0
144
0.0
144
0.0
144
1.0
144
0.0
144
0.0
144
0.0
144
0.0
144
1.0
147
0.0208333333333333
147
0.0
147
0.0
147
0.0
147
0.0
147
0.0208333333333333
147
0.0
147
0.0
147
0.0
147
0.0
147
1.0
147
0.0
147
0.0
147
0.0
147
0.0
147
1.0
  0
MLEADERSTYLE
  5
74D
102
{ACAD_REACTORS
330
74C
102
}
330
74C
100
AcDbMLeaderStyle
170
     2
171
     1
172
     0
 90
        2
 40
0.0
 41
0.0
173
     1
 91
-1056964608
340
741
 92
       -2
290
     1
 42
0.09
291
     1
 43
0.36
  3
Standard
 44
0.18
300

342
73C
174
     1
178
     6
175
     1
176
     0
 93
-1056964608
 45
0.18
292
     0
297
     0
 46
0.18
 94
-1056964608
 47
1.0
 49
1.0
140
1.0
293
     1
141
0.0
294
     1
177
     0
142
1.0
295
     0
296
     0
143
0.125
1001
ACAD_MLEADERVER
1070
     2
  0
MLINESTYLE
  5
746
102
{ACAD_REACTORS
330
745
102
}
330
745
100
AcDbMlineStyle
  2
STANDARD
 70
     0
  3

 62
   256
 51
90.0
 52
90.0
 71
     2
 49
0.5
 62
   256
  6
BYLAYER
 49
-0.5
 62
   256
  6
BYLAYER
  0
ACDBPLACEHOLDER
  5
6F6
102
{ACAD_REACTORS
330
6F5
102
}
330
6F5
  0
SCALE
  5
72A
102
{ACAD_REACTORS
330
729
102
}
330
729
100
AcDbScale
 70
     0
300
1:1
140
1.0
141
1.0
290
     1
  0
SCALE
  5
72B
102
{ACAD_REACTORS
330
729
102
}
330
729
100
AcDbScale
 70
     0
300
1/128" = 1'-0"
140
0.0078125
141
12.0
290
     0
  0
SCALE
  5
72C
102
{ACAD_REACTORS
330
729
102
}
330
729
100
AcDbScale
 70
     0
300
1/64" = 1'-0"
140
0.015625
141
12.0
290
     0
  0
SCALE
  5
72D
102
{ACAD_REACTORS
330
729
102
}
330
729
100
AcDbScale
 70
     0
300
1/32" = 1'-0"
140
0.03125
141
12.0
290
     0
  0
SCALE
  5
72E
102
{ACAD_REACTORS
330
729
102
}
330
729
100
AcDbScale
 70
     0
300
1/16" = 1'-0"
140
0.0625
141
12.0
290
     0
  0
SCALE
  5
72F
102
{ACAD_REACTORS
330
729
102
}
330
729
100
AcDbScale
 70
     0
300
3/32" = 1'-0"
140
0.09375
141
12.0
290
     0
  0
SCALE
  5
730
102
{ACAD_REACTORS
330
729
102
}
330
729
100
AcDbScale
 70
     0
300
1/8" = 1'-0"
140
0.125
141
12.0
290
     0
  0
SCALE
  5
731
102
{ACAD_REACTORS
330
729
102
}
330
729
100
AcDbScale
 70
     0
300
3/16" = 1'-0"
140
0.1875
141
12.0
290
     0
  0
SCALE
  5
732
102
{ACAD_REACTORS
330
729
102
}
330
729
100
AcDbScale
 70
     0
300
1/4" = 1'-0"
140
0.25
141
12.0
290
     0
  0
SCALE
  5
733
102
{ACAD_REACTORS
330
729
102
}
330
729
100
AcDbScale
 70
     0
300
3/8" = 1'-0"
140
0.375
141
12.0
290
     0
  0
SCALE
  5
734
102
{ACAD_REACTORS
330
729
102
}
330
729
100
AcDbScale
 70
     0
300
1/2" = 1'-0"
140
0.5
141
12.0
290
     0
  0
SCALE
  5
735
102
{ACAD_REACTORS
330
729
102
}
330
729
100
AcDbScale
 70
     0
300
3/4" = 1'-0"
140
0.75
141
12.0
290
     0
  0
SCALE
  5
736
102
{ACAD_REACTORS
330
729
102
}
330
729
100
AcDbScale
 70
     0
300
1" = 1'-0"
140
1.0
141
12.0
290
     0
  0
SCALE
  5
737
102
{ACAD_REACTORS
330
729
102
}
330
729
100
AcDbScale
 70
     0
300
1-1/2" = 1'-0"
140
1.5
141
12.0
290
     0
  0
SCALE
  5
738
102
{ACAD_REACTORS
330
729
102
}
330
729
100
AcDbScale
 70
     0
300
3" = 1'-0"
140
3.0
141
12.0
290
     0
  0
SCALE
  5
739
102
{ACAD_REACTORS
330
729
102
}
330
729
100
AcDbScale
 70
     0
300
6" = 1'-0"
140
6.0
141
12.0
290
     0
  0
SCALE
  5
73A
102
{ACAD_REACTORS
330
729
102
}
330
729
100
AcDbScale
 70
     0
300
1'-0" = 1'-0"
140
12.0
141
12.0
290
     0
  0
ACDBSECTIONVIEWSTYLE
  5
750
102
{ACAD_REACTORS
330
74E
102
}
330
74E
100
AcDbModelDocViewStyle
 70
     0
  3
Imperial24
290
     0
100
AcDbSectionViewStyle
 70
     0
 71
     0
 90
       78
 71
     1
340
73C
 40
0.24
340
0
340
0
 40
0.24
300
I, O, Q, S, X, Z
 40
0.48
 90
        3
 40
0.18
 90
        1
 71
     2
340
74F
 90
       25
340
743
 90
       50
 40
0.24
 40
0.0
 40
0.24
 71
     3
340
73C
 40
0.24
 90
        1
 40
0.75
 90
        1
300
%<\AcVar ViewType \f "%tc1">% %<\AcVar ViewSectionStartId>%-%<\AcVar ViewSectionEndId>%\PSCALE %<\AcVar ViewScale \f "%sn">%
 71
     4
300
ANSI31
 40
1.0
 90
        0
290
     0
290
     0
 90
        6
 40
0.0
 40
1.570796326794896
 40
0.2617993877991494
 40
1.308996938995747
 40
-0.2617993877991494
 40
1.832595714594044
  0
TABLESTYLE
  5
74B
102
{ACAD_XDICTIONARY
360
874
102
}
102
{ACAD_REACTORS
330
74A
102
}
330
74A
100
AcDbTableStyle
  3
Standard
 70
     0
 71
     0
 40
0.06
 41
0.06
280
     0
281
     0
  7
STANDARD
140
0.18
170
     2
 62
     0
 63
     7
283
     0
274
    -2
284
     1
 64
     0
275
    -2
285
     1
 65
     0
276
    -2
286
     1
 66
     0
277
    -2
287
     1
 67
     0
278
    -2
288
     1
 68
     0
279
    -2
289
     1
 69
     0
  7
STANDARD
140
0.25
170
     5
 62
     0
 63
     7
283
     0
274
    -2
284
     1
 64
     0
275
    -2
285
     1
 65
     0
276
    -2
286
     1
 66
     0
277
    -2
287
     1
 67
     0
278
    -2
288
     1
 68
     0
279
    -2
289
     1
 69
     0
  7
STANDARD
140
0.18
170
     5
 62
     0
 63
     7
283
     0
274
    -2
284
     1
 64
     0
275
    -2
285
     1
 65
     0
276
    -2
286
     1
 66
     0
277
    -2
287
     1
 67
     0
278
    -2
288
     1
 68
     0
279
    -2
289
     1
 69
     0
  0
VISUALSTYLE
  5
716
102
{ACAD_XDICTIONARY
360
EE2
102
}
102
{ACAD_REACTORS
330
710
102
}
330
710
100
AcDbVisualStyle
  2

 70
     4
 71
     0
 72
     2
 73
     0
 90
        0
 40
-0.6
 41
-30.0
 62
     5
 63
     7
 74
     1
 91
        4
 64
     7
 65
   257
 75
     1
175
     1
 42
1.0
 92
        0
 66
   257
 43
1.0
 76
     1
 77
     6
 78
     2
 67
     7
 79
     5
170
     0
171
     0
290
     0
174
     0
 93
        1
 44
0.0
173
     0
291
     0
 45
0.0
1001
ACAD
1000
AcDbSavedByObjectVersion
1070
     0
  0
VISUALSTYLE
  5
715
102
{ACAD_XDICTIONARY
360
EE0
102
}
102
{ACAD_REACTORS
330
710
102
}
330
710
100
AcDbVisualStyle
  2

 70
     7
 71
     1
 72
     0
 73
     1
 90
        0
 40
-0.6
 41
-30.0
 62
     5
 63
     7
 74
     0
 91
        4
 64
     7
 65
   257
 75
     1
175
     1
 42
1.0
 92
        8
 66
     7
 43
1.0
 76
     1
 77
     6
 78
     2
 67
     7
 79
     5
170
     0
171
     0
290
     0
174
     0
 93
        1
 44
0.0
173
     0
291
     1
 45
0.0
1001
ACAD
1000
AcDbSavedByObjectVersion
1070
     0
  0
VISUALSTYLE
  5
71C
102
{ACAD_XDICTIONARY
360
EEE
102
}
102
{ACAD_REACTORS
330
710
102
}
330
710
100
AcDbVisualStyle
  2

 70
    12
 71
     2
 72
     2
 73
     0
 90
        0
 40
-0.6
 41
-30.0
 62
     5
 63
     7
 74
     1
 91
        4
 64
     7
 65
   257
 75
     1
175
     1
 42
1.0
 92
        8
 66
     7
 43
1.0
 76
     1
 77
     6
 78
     2
 67
     7
 79
     5
170
     0
171
     0
290
     0
174
     0
 93
        1
 44
50.0
173
     0
291
     1
 45
0.0
1001
ACAD
1000
AcDbSavedByObjectVersion
1070
     0
  0
VISUALSTYLE
  5
720
102
{ACAD_XDICTIONARY
360
EF6
102
}
102
{ACAD_REACTORS
330
710
102
}
330
710
100
AcDbVisualStyle
  2

 70
    16
 71
     2
 72
     2
 73
     3
 90
        0
 40
-0.6
 41
-30.0
 62
     5
 63
     8
 74
     1
 91
        4
 64
     7
 65
   257
 75
     1
175
     1
 42
1.0
 92
        8
 66
     8
 43
1.0
 76
     1
 77
     6
 78
     2
 67
     7
 79
     5
170
     0
171
     0
290
     0
174
     0
 93
        1
 44
0.0
173
     0
291
     1
 45
0.0
1001
ACAD
1000
AcDbSavedByObjectVersion
1070
     0
  0
VISUALSTYLE
  5
719
102
{ACAD_XDICTIONARY
360
EE8
102
}
102
{ACAD_REACTORS
330
710
102
}
330
710
100
AcDbVisualStyle
  2

 70
     9
 71
     3
 72
     2
 73
     0
 90
        0
 40
-0.6
 41
-30.0
 62
     5
 63
     7
 74
     2
 91
        2
 64
     7
 65
   257
 75
     1
175
     1
 42
179.0
 92
        8
 66
     7
 43
1.0
 76
     1
 77
     6
 78
     2
 67
     7
 79
     3
170
     0
171
     0
290
     0
174
     0
 93
        1
 44
0.0
173
     0
291
     0
 45
0.0
1001
ACAD
1000
AcDbSavedByObjectVersion
1070
     0
  0
VISUALSTYLE
  5
71B
102
{ACAD_XDICTIONARY
360
EEC
102
}
102
{ACAD_REACTORS
330
710
102
}
330
710
100
AcDbVisualStyle
  2

 70
    11
 71
     2
 72
     2
 73
     0
 90
        0
 40
-0.6
 41
-30.0
 62
     5
 63
     7
 74
     1
 91
        4
 64
     7
 65
   257
 75
     1
175
     1
 42
1.0
 92
        8
 66
     7
 43
1.0
 76
     1
 77
     6
 78
     2
 67
     7
 79
     5
170
     0
171
     0
290
     0
174
     0
 93
        1
 44
-50.0
173
     0
291
     1
 45
0.0
1001
ACAD
1000
AcDbSavedByObjectVersion
1070
     0
  0
VISUALSTYLE
  5
728
102
{ACAD_XDICTIONARY
360
F06
102
}
102
{ACAD_REACTORS
330
710
102
}
330
710
100
AcDbVisualStyle
  2

 70
    22
 71
     2
 72
     2
 73
     0
 90
        0
 40
-0.6
 41
-30.0
 62
     5
 63
     7
 74
     1
 91
        4
 64
     7
 65
   257
 75
     1
175
     1
 42
1.0
 92
        8
 66
     7
 43
1.0
 76
     1
 77
     6
 78
     2
 67
     7
 79
     5
170
     0
171
     0
290
     0
174
     0
 93
        1
 44
0.0
173
     0
291
     1
 45
0.0
1001
ACAD
1000
AcDbSavedByObjectVersion
1070
     0
  0
VISUALSTYLE
  5
71F
102
{ACAD_XDICTIONARY
360
EF4
102
}
102
{ACAD_REACTORS
330
710
102
}
330
710
100
AcDbVisualStyle
  2

 70
    15
 71
     2
 72
     2
 73
     0
 90
        0
 40
-0.6
 41
-30.0
 62
     5
 63
     7
 74
     1
 91
        4
 64
     7
 65
   257
 75
     1
175
     1
 42
1.0
 92
        8
 66
     7
 43
1.0
 76
     1
 77
     6
 78
     2
 67
     7
 79
     5
170
     0
171
     0
290
     0
174
     0
 93
        1
 44
0.0
173
     0
291
     1
 45
0.0
1001
ACAD
1000
AcDbSavedByObjectVersion
1070
     0
  0
VISUALSTYLE
  5
711
102
{ACAD_XDICTIONARY
360
ED8
102
}
102
{ACAD_REACTORS
330
710
102
}
330
710
100
AcDbVisualStyle
  2

 70
     0
 71
     2
 72
     1
 73
     1
 90
        2
 40
-0.6
 41
30.0
 62
     5
 63
     7
 74
     0
 91
        0
 64
     7
 65
   257
 75
     1
175
     1
 42
1.0
 92
        8
 66
     7
 43
1.0
 76
     1
 77
     6
 78
     2
 67
     7
 79
     5
170
     0
171
     0
290
     0
174
     0
 93
       13
 44
0.0
173
     0
291
     1
 45
0.0
1001
ACAD
1000
AcDbSavedByObjectVersion
1070
     0
  0
VISUALSTYLE
  5
712
102
{ACAD_XDICTIONARY
360
EDA
102
}
102
{ACAD_REACTORS
330
710
102
}
330
710
100
AcDbVisualStyle
  2

 70
     1
 71
     2
 72
     1
 73
     1
 90
        2
 40
-0.6
 41
30.0
 62
     5
 63
     7
 74
     1
 91
        0
 64
     7
 65
   257
 75
     1
175
     1
 42
1.0
 92
        0
 66
   257
 43
1.0
 76
     1
 77
     6
 78
     2
 67
     7
 79
     5
170
     0
171
     0
290
     0
174
     0
 93
       13
 44
0.0
173
     0
291
     1
 45
0.0
1001
ACAD
1000
AcDbSavedByObjectVersion
1070
     0
  0
VISUALSTYLE
  5
713
102
{ACAD_XDICTIONARY
360
EDC
102
}
102
{ACAD_REACTORS
330
710
102
}
330
710
100
AcDbVisualStyle
  2

 70
     2
 71
     2
 72
     2
 73
     1
 90
        2
 40
-0.6
 41
30.0
 62
     5
 63
     7
 74
     0
 91
        0
 64
     7
 65
   257
 75
     1
175
     1
 42
1.0
 92
        0
 66
     7
 43
1.0
 76
     1
 77
     6
 78
     2
 67
     7
 79
     5
170
     0
171
     0
290
     0
174
     0
 93
       13
 44
0.0
173
     0
291
     1
 45
0.0
1001
ACAD
1000
AcDbSavedByObjectVersion
1070
     0
  0
VISUALSTYLE
  5
714
102
{ACAD_XDICTIONARY
360
EDE
102
}
102
{ACAD_REACTORS
330
710
102
}
330
710
100
AcDbVisualStyle
  2

 70
     3
 71
     2
 72
     2
 73
     1
 90
        2
 40
-0.6
 41
30.0
 62
     5
 63
     7
 74
     1
 91
        0
 64
     7
 65
   257
 75
     1
175
     1
 42
1.0
 92
        0
 66
   257
 43
1.0
 76
     1
 77
     6
 78
     2
 67
     7
 79
     5
170
     0
171
     0
290
     0
174
     0
 93
       13
 44
0.0
173
     0
291
     1
 45
0.0
1001
ACAD
1000
AcDbSavedByObjectVersion
1070
     0
  0
VISUALSTYLE
  5
718
102
{ACAD_XDICTIONARY
360
EE6
102
}
102
{ACAD_REACTORS
330
710
102
}
330
710
100
AcDbVisualStyle
  2

 70
     6
 71
     1
 72
     2
 73
     2
 90
        0
 40
-0.6
 41
-30.0
 62
     5
 63
     7
 74
     2
 91
        2
 64
     7
 65
   257
 75
     2
175
     1
 42
40.0
 92
        0
 66
   257
 43
1.0
 76
     1
 77
     6
 78
     2
 67
     7
 79
     3
170
     0
171
     0
290
     0
174
     0
 93
        1
 44
0.0
173
     0
291
     0
 45
0.0
1001
ACAD
1000
AcDbSavedByObjectVersion
1070
     0
  0
VISUALSTYLE
  5
726
102
{ACAD_XDICTIONARY
360
F02
102
}
102
{ACAD_REACTORS
330
710
102
}
330
710
100
AcDbVisualStyle
  2

 70
    20
 71
     2
 72
     2
 73
     0
 90
        0
 40
-0.6
 41
-30.0
 62
     5
 63
     7
 74
     1
 91
        4
 64
     7
 65
   257
 75
     1
175
     1
 42
1.0
 92
       10
 66
     7
 43
1.0
 76
     1
 77
     6
 78
     2
 67
     7
 79
     5
170
     0
171
     0
290
     0
174
     0
 93
        1
 44
0.0
173
     0
291
     1
 45
0.0
1001
ACAD
1000
AcDbSavedByObjectVersion
1070
     0
  0
VISUALSTYLE
  5
71E
102
{ACAD_XDICTIONARY
360
EF2
102
}
102
{ACAD_REACTORS
330
710
102
}
330
710
100
AcDbVisualStyle
  2

 70
    14
 71
     2
 72
     2
 73
     0
 90
        0
 40
-0.6
 41
-30.0
 62
     5
 63
     7
 74
     1
 91
        4
 64
     7
 65
   257
 75
     7
175
     7
 42
1.0
 92
        8
 66
     7
 43
1.0
 76
     1
 77
     6
 78
     2
 67
     7
 79
     5
170
     0
171
     0
290
     0
174
     0
 93
        1
 44
0.0
173
     0
291
     1
 45
0.0
1001
ACAD
1000
AcDbSavedByObjectVersion
1070
     0
  0
VISUALSTYLE
  5
727
102
{ACAD_XDICTIONARY
360
F04
102
}
102
{ACAD_REACTORS
330
710
102
}
330
710
100
AcDbVisualStyle
  2

 70
    21
 71
     2
 72
     2
 73
     0
 90
        0
 40
-0.6
 41
-30.0
 62
     5
 63
     7
 74
     1
 91
        4
 64
     7
 65
   257
 75
     1
175
     1
 42
1.0
 92
        9
 66
     7
 43
1.0
 76
     1
 77
     6
 78
     2
 67
     7
 79
     5
170
     0
171
     0
290
     0
174
     0
 93
        1
 44
0.0
173
     0
291
     1
 45
0.0
1001
ACAD
1000
AcDbSavedByObjectVersion
1070
     0
  0
VISUALSTYLE
  5
71A
102
{ACAD_XDICTIONARY
360
EEA
102
}
102
{ACAD_REACTORS
330
710
102
}
330
710
100
AcDbVisualStyle
  2

 70
     8
 71
     2
 72
     3
 73
     0
 90
        2
 40
-0.6
 41
30.0
 62
     5
 63
     7
 74
     0
 91
        0
 64
     7
 65
   257
 75
     1
175
     1
 42
1.0
 92
        8
 66
   257
 43
1.0
 76
     1
 77
     6
 78
     2
 67
     7
 79
     3
170
     0
171
     0
290
     0
174
     0
 93
       13
 44
0.0
173
     0
291
     0
 45
0.0
1001
ACAD
1000
AcDbSavedByObjectVersion
1070
     0
  0
VISUALSTYLE
  5
725
102
{ACAD_XDICTIONARY
360
F00
102
}
102
{ACAD_REACTORS
330
710
102
}
330
710
100
AcDbVisualStyle
  2

 70
    27
 71
     2
 72
     2
 73
     1
 90
        2
 40
-0.6
 41
30.0
 62
     5
 63
     7
 74
     0
 91
        4
 64
     7
 65
   257
 75
     1
175
     1
 42
1.0
 92
        8
 66
   257
 43
1.0
 76
     1
 77
     6
 78
     2
 67
     8
 79
     3
170
     0
171
     0
290
     0
174
     0
 93
        5
 44
0.0
173
     0
291
     0
 45
0.0
1001
ACAD
1000
AcDbSavedByObjectVersion
1070
     0
  0
VISUALSTYLE
  5
724
102
{ACAD_XDICTIONARY
360
EFE
102
}
102
{ACAD_REACTORS
330
710
102
}
330
710
100
AcDbVisualStyle
  2

 70
    26
 71
     2
 72
     2
 73
     1
 90
        2
 40
-0.6
 41
30.0
 62
     5
 63
     7
 74
     1
 91
       10
 64
     7
 65
   257
 75
     2
175
     1
 42
1.0
 92
        8
 66
   257
 43
1.0
 76
     1
 77
     6
 78
     2
 67
     7
 79
     3
170
     0
171
     0
290
     0
174
     0
 93
        5
 44
0.0
173
     0
291
     0
 45
0.0
1001
ACAD
1000
AcDbSavedByObjectVersion
1070
     0
  0
VISUALSTYLE
  5
721
102
{ACAD_XDICTIONARY
360
EF8
102
}
102
{ACAD_REACTORS
330
710
102
}
330
710
100
AcDbVisualStyle
  2

 70
    23
 71
     2
 72
     2
 73
     3
 90
        0
 40
-0.6
 41
-30.0
 62
     5
 63
     7
 74
     2
 91
        2
 64
     7
 65
     7
 75
     1
175
     1
 42
40.0
 92
        8
 66
     7
 43
1.0
 76
     1
 77
     6
 78
     2
 67
     7
 79
     3
170
     0
171
     0
290
     0
174
     0
 93
        1
 44
0.0
173
     0
291
     0
 45
0.0
1001
ACAD
1000
AcDbSavedByObjectVersion
1070
     0
  0
VISUALSTYLE
  5
722
102
{ACAD_XDICTIONARY
360
EFA
102
}
102
{ACAD_REACTORS
330
710
102
}
330
710
100
AcDbVisualStyle
  2

 70
    24
 71
     1
 72
     2
 73
     2
 90
        0
 40
-0.6
 41
-30.0
 62
     5
 63
     7
 74
     2
 91
        2
 64
     7
 65
     7
 75
     1
175
     1
 42
40.0
 92
       11
 66
     7
 43
1.0
 76
     1
 77
     6
 78
     2
 67
     7
 79
     6
170
     0
171
     0
290
     0
174
     0
 93
        1
 44
0.0
173
     0
291
     0
 45
0.0
1001
ACAD
1000
AcDbSavedByObjectVersion
1070
     0
  0
VISUALSTYLE
  5
71D
102
{ACAD_XDICTIONARY
360
EF0
102
}
102
{ACAD_REACTORS
330
710
102
}
330
710
100
AcDbVisualStyle
  2

 70
    13
 71
     2
 72
     2
 73
     0
 90
        0
 40
-0.6
 41
-30.0
 62
     5
 63
     7
 74
     1
 91
        4
 64
     7
 65
   257
 75
     1
175
     1
 42
1.0
 92
       12
 66
     7
 43
1.0
 76
     1
 77
     6
 78
     2
 67
     7
 79
     5
170
     0
171
     0
290
     0
174
     0
 93
        1
 44
0.0
173
     0
291
     1
 45
0.0
1001
ACAD
1000
AcDbSavedByObjectVersion
1070
     0
  0
VISUALSTYLE
  5
717
102
{ACAD_XDICTIONARY
360
EE4
102
}
102
{ACAD_REACTORS
330
710
102
}
330
710
100
AcDbVisualStyle
  2

 70
     5
 71
     0
 72
     2
 73
     0
 90
        0
 40
-0.6
 41
-30.0
 62
     5
 63
     7
 74
     1
 91
        4
 64
     7
 65
   257
 75
     1
175
     1
 42
1.0
 92
        0
 66
   257
 43
1.0
 76
     1
 77
     6
 78
     2
 67
     7
 79
     3
170
     0
171
     0
290
     0
174
     0
 93
        1
 44
0.0
173
     0
291
     0
 45
0.0
1001
ACAD
1000
AcDbSavedByObjectVersion
1070
     0
  0
VISUALSTYLE
  5
723
102
{ACAD_XDICTIONARY
360
EFC
102
}
102
{ACAD_REACTORS
330
710
102
}
330
710
100
AcDbVisualStyle
  2

 70
    25
 71
     2
 72
     2
 73
     1
 90
        1
 40
0.5
 41
-30.0
 62
     5
 63
     7
 74
     1
 91
        0
 64
     7
 65
   257
 75
     1
175
     1
 42
1.0
 92
        8
 66
     7
 43
1.0
 76
     1
 77
     6
 78
     2
 67
     7
 79
     3
170
     0
171
     0
290
     0
174
     0
 93
       13
 44
0.0
173
     0
291
     0
 45
0.0
1001
ACAD
1000
AcDbSavedByObjectVersion
1070
     0
  0
DICTIONARYVAR
  5
796
102
{ACAD_REACTORS
330
791
102
}
330
791
100
DictionaryVariables
280
     0
  1
1:1
  0
DICTIONARYVAR
  5
793
102
{ACAD_REACTORS
330
791
102
}
330
791
100
DictionaryVariables
280
     0
  1
STANDARD
  0
DICTIONARYVAR
  5
792
102
{ACAD_REACTORS
330
791
102
}
330
791
100
DictionaryVariables
280
     0
  1
STANDARD
  0
DICTIONARYVAR
  5
794
102
{ACAD_REACTORS
330
791
102
}
330
791
100
DictionaryVariables
280
     0
  1
Imperial24
  0
DICTIONARYVAR
  5
795
102
{ACAD_REACTORS
330
791
102
}
330
791
100
DictionaryVariables
280
     0
  1
Imperial24
  0
DICTIONARYVAR
  5
799
102
{ACAD_REACTORS
330
791
102
}
330
791
100
DictionaryVariables
280
     0
  1
1
  0
DICTIONARYVAR
  5
798
102
{ACAD_REACTORS
330
791
102
}
330
791
100
DictionaryVariables
280
     0
  1
0
  0
DICTIONARYVAR
  5
90A
102
{ACAD_REACTORS
330
791
102
}
330
791
100
DictionaryVariables
280
     0
  1
1
  0
DICTIONARYVAR
  5
90B
102
{ACAD_REACTORS
330
791
102
}
330
791
100
DictionaryVariables
280
     0
  1
15
  0
DICTIONARYVAR
  5
909
102
{ACAD_REACTORS
330
791
102
}
330
791
100
DictionaryVariables
280
     0
  1
0
  0
DICTIONARYVAR
  5
E9A
102
{ACAD_REACTORS
330
791
102
}
330
791
100
DictionaryVariables
280
     0
  1
1.570796
  0
DICTIONARYVAR
  5
E9B
102
{ACAD_REACTORS
330
791
102
}
330
791
100
DictionaryVariables
280
     0
  1
1.570796
  0
DICTIONARYVAR
  5
908
102
{ACAD_REACTORS
330
791
102
}
330
791
100
DictionaryVariables
280
     0
  1
0
  0
DICTIONARYVAR
  5
797
102
{ACAD_REACTORS
330
791
102
}
330
791
100
DictionaryVariables
280
     0
  1
127
  0
DICTIONARYVAR
  5
E9C
102
{ACAD_REACTORS
330
791
102
}
330
791
100
DictionaryVariables
280
     0
  1
2
  0
DICTIONARY
  5
F09
330
756
100
AcDbDictionary
280
     1
281
     1
  3
ACAD_XREC_ROUNDTRIP
360
F0A
  0
DICTIONARY
  5
F0B
330
75A
100
AcDbDictionary
280
     1
281
     1
  3
ACAD_XREC_ROUNDTRIP
360
F0C
  0
DICTIONARY
  5
701
330
700
100
AcDbDictionary
280
     1
281
     1
  3
ACAD_XREC_ROUNDTRIP
360
879
  3
BUMPTILE
360
703
  3
DIFFUSETILE
360
702
  3
OPACITYTILE
360
706
  3
REFLECTIONTILE
360
705
  3
REFRACTIONTILE
360
707
  3
SPECULARTILE
360
704
  0
DICTIONARY
  5
6F9
330
6F8
100
AcDbDictionary
280
     1
281
     1
  3
ACAD_XREC_ROUNDTRIP
360
878
  3
BUMPTILE
360
6FB
  3
DIFFUSETILE
360
6FA
  3
OPACITYTILE
360
6FE
  3
REFLECTIONTILE
360
6FD
  3
REFRACTIONTILE
360
6FF
  3
SPECULARTILE
360
6FC
  0
DICTIONARY
  5
709
330
708
100
AcDbDictionary
280
     1
281
     1
  3
ACAD_XREC_ROUNDTRIP
360
87A
  3
BUMPTILE
360
70B
  3
DIFFUSETILE
360
70A
  3
OPACITYTILE
360
70E
  3
REFLECTIONTILE
360
70D
  3
REFRACTIONTILE
360
70F
  3
SPECULARTILE
360
70C
  0
DICTIONARY
  5
874
330
74B
100
AcDbDictionary
280
     1
281
     1
  3
ACAD_ROUNDTRIP_2008_TABLESTYLE_CELLSTYLEMAP
360
ED5
  3
ACAD_XREC_ROUNDTRIP
360
F08
  0
DICTIONARY
  5
EE2
330
716
100
AcDbDictionary
280
     1
281
     1
  3
ACAD_XREC_ROUNDTRIP
360
EE3
  0
DICTIONARY
  5
EE0
330
715
100
AcDbDictionary
280
     1
281
     1
  3
ACAD_XREC_ROUNDTRIP
360
EE1
  0
DICTIONARY
  5
EEE
330
71C
100
AcDbDictionary
280
     1
281
     1
  3
ACAD_XREC_ROUNDTRIP
360
EEF
  0
DICTIONARY
  5
EF6
330
720
100
AcDbDictionary
280
     1
281
     1
  3
ACAD_XREC_ROUNDTRIP
360
EF7
  0
DICTIONARY
  5
EE8
330
719
100
AcDbDictionary
280
     1
281
     1
  3
ACAD_XREC_ROUNDTRIP
360
EE9
  0
DICTIONARY
  5
EEC
330
71B
100
AcDbDictionary
280
     1
281
     1
  3
ACAD_XREC_ROUNDTRIP
360
EED
  0
DICTIONARY
  5
F06
330
728
100
AcDbDictionary
280
     1
281
     1
  3
ACAD_XREC_ROUNDTRIP
360
F07
  0
DICTIONARY
  5
EF4
330
71F
100
AcDbDictionary
280
     1
281
     1
  3
ACAD_XREC_ROUNDTRIP
360
EF5
  0
DICTIONARY
  5
ED8
330
711
100
AcDbDictionary
280
     1
281
     1
  3
ACAD_XREC_ROUNDTRIP
360
ED9
  0
DICTIONARY
  5
EDA
330
712
100
AcDbDictionary
280
     1
281
     1
  3
ACAD_XREC_ROUNDTRIP
360
EDB
  0
DICTIONARY
  5
EDC
330
713
100
AcDbDictionary
280
     1
281
     1
  3
ACAD_XREC_ROUNDTRIP
360
EDD
  0
DICTIONARY
  5
EDE
330
714
100
AcDbDictionary
280
     1
281
     1
  3
ACAD_XREC_ROUNDTRIP
360
EDF
  0
DICTIONARY
  5
EE6
330
718
100
AcDbDictionary
280
     1
281
     1
  3
ACAD_XREC_ROUNDTRIP
360
EE7
  0
DICTIONARY
  5
F02
330
726
100
AcDbDictionary
280
     1
281
     1
  3
ACAD_XREC_ROUNDTRIP
360
F03
  0
DICTIONARY
  5
EF2
330
71E
100
AcDbDictionary
280
     1
281
     1
  3
ACAD_XREC_ROUNDTRIP
360
EF3
  0
DICTIONARY
  5
F04
330
727
100
AcDbDictionary
280
     1
281
     1
  3
ACAD_XREC_ROUNDTRIP
360
F05
  0
DICTIONARY
  5
EEA
330
71A
100
AcDbDictionary
280
     1
281
     1
  3
ACAD_XREC_ROUNDTRIP
360
EEB
  0
DICTIONARY
  5
F00
330
725
100
AcDbDictionary
280
     1
281
     1
  3
ACAD_XREC_ROUNDTRIP
360
F01
  0
DICTIONARY
  5
EFE
330
724
100
AcDbDictionary
280
     1
281
     1
  3
ACAD_XREC_ROUNDTRIP
360
EFF
  0
DICTIONARY
  5
EF8
330
721
100
AcDbDictionary
280
     1
281
     1
  3
ACAD_XREC_ROUNDTRIP
360
EF9
  0
DICTIONARY
  5
EFA
330
722
100
AcDbDictionary
280
     1
281
     1
  3
ACAD_XREC_ROUNDTRIP
360
EFB
  0
DICTIONARY
  5
EF0
330
71D
100
AcDbDictionary
280
     1
281
     1
  3
ACAD_XREC_ROUNDTRIP
360
EF1
  0
DICTIONARY
  5
EE4
330
717
100
AcDbDictionary
280
     1
281
     1
  3
ACAD_XREC_ROUNDTRIP
360
EE5
  0
DICTIONARY
  5
EFC
330
723
100
AcDbDictionary
280
     1
281
     1
  3
ACAD_XREC_ROUNDTRIP
360
EFD
  0
XRECORD
  5
F0A
102
{ACAD_REACTORS
330
F09
102
}
330
F09
100
AcDbXrecord
280
     1
102
SHADEPLOT
 70
     0
102
SHADEPLOTRESLEVEL
 70
     2
102
SHADEPLOTCUSTOMDPI
 70
   300
  0
XRECORD
  5
F0C
102
{ACAD_REACTORS
330
F0B
102
}
330
F0B
100
AcDbXrecord
280
     1
102
SHADEPLOT
 70
     0
102
SHADEPLOTRESLEVEL
 70
     2
102
SHADEPLOTCUSTOMDPI
 70
   300
  0
XRECORD
  5
879
102
{ACAD_REACTORS
330
701
102
}
330
701
100
AcDbXrecord
280
     1
102
MATERIAL
148
0.0
149
0.0
149
0.0
 93
        0
 94
      127
282
     0
 72
     0
 77
     0
171
     0
175
     0
179
     0
273
     0
  0
XRECORD
  5
703
102
{ACAD_REACTORS
330
701
102
}
330
701
100
AcDbXrecord
280
     1
270
     1
271
     1
  0
XRECORD
  5
702
102
{ACAD_REACTORS
330
701
102
}
330
701
100
AcDbXrecord
280
     1
270
     1
271
     1
  0
XRECORD
  5
706
102
{ACAD_REACTORS
330
701
102
}
330
701
100
AcDbXrecord
280
     1
270
     1
271
     1
  0
XRECORD
  5
705
102
{ACAD_REACTORS
330
701
102
}
330
701
100
AcDbXrecord
280
     1
270
     1
271
     1
  0
XRECORD
  5
707
102
{ACAD_REACTORS
330
701
102
}
330
701
100
AcDbXrecord
280
     1
270
     1
271
     1
  0
XRECORD
  5
704
102
{ACAD_REACTORS
330
701
102
}
330
701
100
AcDbXrecord
280
     1
270
     1
271
     1
  0
XRECORD
  5
878
102
{ACAD_REACTORS
330
6F9
102
}
330
6F9
100
AcDbXrecord
280
     1
102
MATERIAL
148
0.0
149
0.0
149
0.0
 93
        0
 94
      127
282
     0
 72
     0
 77
     0
171
     0
175
     0
179
     0
273
     0
  0
XRECORD
  5
6FB
102
{ACAD_REACTORS
330
6F9
102
}
330
6F9
100
AcDbXrecord
280
     1
270
     1
271
     1
  0
XRECORD
  5
6FA
102
{ACAD_REACTORS
330
6F9
102
}
330
6F9
100
AcDbXrecord
280
     1
270
     1
271
     1
  0
XRECORD
  5
6FE
102
{ACAD_REACTORS
330
6F9
102
}
330
6F9
100
AcDbXrecord
280
     1
270
     1
271
     1
  0
XRECORD
  5
6FD
102
{ACAD_REACTORS
330
6F9
102
}
330
6F9
100
AcDbXrecord
280
     1
270
     1
271
     1
  0
XRECORD
  5
6FF
102
{ACAD_REACTORS
330
6F9
102
}
330
6F9
100
AcDbXrecord
280
     1
270
     1
271
     1
  0
XRECORD
  5
6FC
102
{ACAD_REACTORS
330
6F9
102
}
330
6F9
100
AcDbXrecord
280
     1
270
     1
271
     1
  0
XRECORD
  5
87A
102
{ACAD_REACTORS
330
709
102
}
330
709
100
AcDbXrecord
280
     1
102
MATERIAL
148
0.0
149
0.0
149
0.0
 93
        0
 94
      127
282
     0
 72
     0
 77
     0
171
     0
175
     0
179
     0
273
     0
  0
XRECORD
  5
70B
102
{ACAD_REACTORS
330
709
102
}
330
709
100
AcDbXrecord
280
     1
270
     1
271
     1
  0
XRECORD
  5
70A
102
{ACAD_REACTORS
330
709
102
}
330
709
100
AcDbXrecord
280
     1
270
     1
271
     1
  0
XRECORD
  5
70E
102
{ACAD_REACTORS
330
709
102
}
330
709
100
AcDbXrecord
280
     1
270
     1
271
     1
  0
XRECORD
  5
70D
102
{ACAD_REACTORS
330
709
102
}
330
709
100
AcDbXrecord
280
     1
270
     1
271
     1
  0
XRECORD
  5
70F
102
{ACAD_REACTORS
330
709
102
}
330
709
100
AcDbXrecord
280
     1
270
     1
271
     1
  0
XRECORD
  5
70C
102
{ACAD_REACTORS
330
709
102
}
330
709
100
AcDbXrecord
280
     1
270
     1
271
     1
  0
CELLSTYLEMAP
  5
ED5
102
{ACAD_REACTORS
330
874
102
}
330
874
100
AcDbCellStyleMap
 90
        3
300
CELLSTYLE
  1
TABLEFORMAT_BEGIN
 90
        5
170
     1
 91
        0
 92
    32768
 62
   257
 93
        1
300
CONTENTFORMAT
  1
CONTENTFORMAT_BEGIN
 90
        0
 91
        0
 92
      512
 93
        0
300

 40
0.0
140
1.0
 94
        5
 62
     0
340
73C
144
0.25
309
CONTENTFORMAT_END
171
     1
301
MARGIN
  1
CELLMARGIN_BEGIN
 40
0.06
 40
0.06
 40
0.06
 40
0.06
 40
0.18
 40
0.18
309
CELLMARGIN_END
 94
        6
 95
        1
302
GRIDFORMAT
  1
GRIDFORMAT_BEGIN
 90
        0
 91
        1
 62
     0
 92
       -2
340
0
 93
        0
 40
0.045
309
GRIDFORMAT_END
 95
        2
302
GRIDFORMAT
  1
GRIDFORMAT_BEGIN
 90
        0
 91
        1
 62
     0
 92
       -2
340
0
 93
        0
 40
0.045
309
GRIDFORMAT_END
 95
        4
302
GRIDFORMAT
  1
GRIDFORMAT_BEGIN
 90
        0
 91
        1
 62
     0
 92
       -2
340
0
 93
        0
 40
0.045
309
GRIDFORMAT_END
 95
        8
302
GRIDFORMAT
  1
GRIDFORMAT_BEGIN
 90
        0
 91
        1
 62
     0
 92
       -2
340
0
 93
        0
 40
0.045
309
GRIDFORMAT_END
 95
       16
302
GRIDFORMAT
  1
GRIDFORMAT_BEGIN
 90
        0
 91
        1
 62
     0
 92
       -2
340
0
 93
        0
 40
0.045
309
GRIDFORMAT_END
 95
       32
302
GRIDFORMAT
  1
GRIDFORMAT_BEGIN
 90
        0
 91
        1
 62
     0
 92
       -2
340
0
 93
        0
 40
0.045
309
GRIDFORMAT_END
309
TABLEFORMAT_END
  1
CELLSTYLE_BEGIN
 90
        1
 91
        1
300
_TITLE
309
CELLSTYLE_END
300
CELLSTYLE
  1
TABLEFORMAT_BEGIN
 90
        5
170
     1
 91
        0
 92
        0
 62
   257
 93
        1
300
CONTENTFORMAT
  1
CONTENTFORMAT_BEGIN
 90
        0
 91
        0
 92
      512
 93
        0
300

 40
0.0
140
1.0
 94
        5
 62
     0
340
73C
144
0.18
309
CONTENTFORMAT_END
171
     1
301
MARGIN
  1
CELLMARGIN_BEGIN
 40
0.06
 40
0.06
 40
0.06
 40
0.06
 40
0.18
 40
0.18
309
CELLMARGIN_END
 94
        6
 95
        1
302
GRIDFORMAT
  1
GRIDFORMAT_BEGIN
 90
        0
 91
        1
 62
     0
 92
       -2
340
0
 93
        0
 40
0.045
309
GRIDFORMAT_END
 95
        2
302
GRIDFORMAT
  1
GRIDFORMAT_BEGIN
 90
        0
 91
        1
 62
     0
 92
       -2
340
0
 93
        0
 40
0.045
309
GRIDFORMAT_END
 95
        4
302
GRIDFORMAT
  1
GRIDFORMAT_BEGIN
 90
        0
 91
        1
 62
     0
 92
       -2
340
0
 93
        0
 40
0.045
309
GRIDFORMAT_END
 95
        8
302
GRIDFORMAT
  1
GRIDFORMAT_BEGIN
 90
        0
 91
        1
 62
     0
 92
       -2
340
0
 93
        0
 40
0.045
309
GRIDFORMAT_END
 95
       16
302
GRIDFORMAT
  1
GRIDFORMAT_BEGIN
 90
        0
 91
        1
 62
     0
 92
       -2
340
0
 93
        0
 40
0.045
309
GRIDFORMAT_END
 95
       32
302
GRIDFORMAT
  1
GRIDFORMAT_BEGIN
 90
        0
 91
        1
 62
     0
 92
       -2
340
0
 93
        0
 40
0.045
309
GRIDFORMAT_END
309
TABLEFORMAT_END
  1
CELLSTYLE_BEGIN
 90
        2
 91
        1
300
_HEADER
309
CELLSTYLE_END
300
CELLSTYLE
  1
TABLEFORMAT_BEGIN
 90
        5
170
     1
 91
        0
 92
        0
 62
   257
 93
        1
300
CONTENTFORMAT
  1
CONTENTFORMAT_BEGIN
 90
        0
 91
        0
 92
      512
 93
        0
300

 40
0.0
140
1.0
 94
        2
 62
     0
340
73C
144
0.18
309
CONTENTFORMAT_END
171
     1
301
MARGIN
  1
CELLMARGIN_BEGIN
 40
0.06
 40
0.06
 40
0.06
 40
0.06
 40
0.18
 40
0.18
309
CELLMARGIN_END
 94
        6
 95
        1
302
GRIDFORMAT
  1
GRIDFORMAT_BEGIN
 90
        0
 91
        1
 62
     0
 92
       -2
340
0
 93
        0
 40
0.045
309
GRIDFORMAT_END
 95
        2
302
GRIDFORMAT
  1
GRIDFORMAT_BEGIN
 90
        0
 91
        1
 62
     0
 92
       -2
340
0
 93
        0
 40
0.045
309
GRIDFORMAT_END
 95
        4
302
GRIDFORMAT
  1
GRIDFORMAT_BEGIN
 90
        0
 91
        1
 62
     0
 92
       -2
340
0
 93
        0
 40
0.045
309
GRIDFORMAT_END
 95
        8
302
GRIDFORMAT
  1
GRIDFORMAT_BEGIN
 90
        0
 91
        1
 62
     0
 92
       -2
340
0
 93
        0
 40
0.045
309
GRIDFORMAT_END
 95
       16
302
GRIDFORMAT
  1
GRIDFORMAT_BEGIN
 90
        0
 91
        1
 62
     0
 92
       -2
340
0
 93
        0
 40
0.045
309
GRIDFORMAT_END
 95
       32
302
GRIDFORMAT
  1
GRIDFORMAT_BEGIN
 90
        0
 91
        1
 62
     0
 92
       -2
340
0
 93
        0
 40
0.045
309
GRIDFORMAT_END
309
TABLEFORMAT_END
  1
CELLSTYLE_BEGIN
 90
        3
 91
        2
300
_DATA
309
CELLSTYLE_END
  0
XRECORD
  5
F08
102
{ACAD_REACTORS
330
874
102
}
330
874
100
AcDbXrecord
280
     1
102
ACAD_ROUNDTRIP_PRE2007_TABLESTYLE
 90
      512
 91
        0
  1

 92
      512
 93
        0
  2

 94
      512
 95
        0
  3

  0
XRECORD
  5
EE3
102
{ACAD_REACTORS
330
EE2
102
}
330
EE2
100
AcDbXrecord
280
     1
102
RTVSPost2010Prop28
280
     1
102
RTVSPost2010PropOp28
 70
     1
102
RTVSPost2010Prop29
280
     1
102
RTVSPost2010PropOp29
 70
     1
102
RTVSPost2010Prop30
280
     0
102
RTVSPost2010PropOp30
 70
     1
102
RTVSPost2010Prop31
280
     0
102
RTVSPost2010PropOp31
 70
     1
102
RTVSPost2010Prop32
280
     0
102
RTVSPost2010PropOp32
 70
     1
102
RTVSPost2010Prop33
280
     0
102
RTVSPost2010PropOp33
 70
     1
102
RTVSPost2010Prop34
280
     0
102
RTVSPost2010PropOp34
 70
     1
102
RTVSPost2010Prop35
280
     0
102
RTVSPost2010PropOp35
 70
     1
102
RTVSPost2010Prop36
280
     0
102
RTVSPost2010PropOp36
 70
     1
102
RTVSPost2010Prop37
 90
       50
102
RTVSPost2010PropOp37
 70
     1
102
RTVSPost2010Prop38
140
0.0
102
RTVSPost2010PropOp38
 70
     1
102
RTVSPost2010Prop39
140
1.0
102
RTVSPost2010PropOp39
 70
     1
102
RTVSPost2010Prop40
 90
        0
102
RTVSPost2010PropOp40
 70
     1
102
RTVSPost2010Prop41ColorIndex
 90
       18
102
RTVSPost2010Prop41ColorRGB
 90
-16777216
102
RTVSPost2010PropOp41
 70
     1
102
RTVSPost2010Prop42
 90
       50
102
RTVSPost2010PropOp42
 70
     1
102
RTVSPost2010Prop43
 90
        3
102
RTVSPost2010PropOp43
 70
     1
102
RTVSPost2010Prop44ColorIndex
 90
        5
102
RTVSPost2010Prop44ColorRGB
 90
      255
102
RTVSPost2010PropOp44
 70
     1
102
RTVSPost2010Prop45
280
     0
102
RTVSPost2010PropOp45
 70
     1
102
RTVSPost2010Prop46
 90
       50
102
RTVSPost2010PropOp46
 70
     1
102
RTVSPost2010Prop47
 90
       50
102
RTVSPost2010PropOp47
 70
     1
102
RTVSPost2010Prop48
 90
       50
102
RTVSPost2010PropOp48
 70
     1
102
RTVSPost2010Prop49
280
     0
102
RTVSPost2010PropOp49
 70
     1
102
RTVSPost2010Prop50
 90
       50
102
RTVSPost2010PropOp50
 70
     1
102
RTVSPost2010Prop51ColorIndex
 90
      256
102
RTVSPost2010Prop51ColorRGB
 90
-16777216
102
RTVSPost2010PropOp51
 70
     0
102
RTVSPost2010Prop52
140
1.0
102
RTVSPost2010PropOp52
 70
     0
102
RTVSPost2010Prop53
 90
        2
102
RTVSPost2010PropOp53
 70
     1
102
RTVSPost2010Prop54
  1
strokes_ogs.tif
102
RTVSPost2010PropOp54
 70
     1
102
RTVSPost2010Prop55
280
     0
102
RTVSPost2010PropOp55
 70
     1
102
RTVSPost2010Prop56
140
1.0
102
RTVSPost2010PropOp56
 70
     1
102
RTVSPost2010Prop57
140
1.0
102
RTVSPost2010PropOp57
 70
     1
102
RTVSPropertyOp0
 70
     1
102
RTVSPropertyOp1
 70
     1
102
RTVSPropertyOp2
 70
     1
102
RTVSPropertyOp3
 70
     1
102
RTVSPropertyOp4
 70
     1
102
RTVSPropertyOp5
 70
     1
102
RTVSPropertyOp6
 70
     1
102
RTVSPropertyOp7
 70
     1
102
RTVSPropertyOp8
 70
     1
102
RTVSPropertyOp9
 70
     1
102
RTVSPropertyOp10
 70
     1
102
RTVSPropertyOp11
 70
     1
102
RTVSPropertyOp12
 70
     1
102
RTVSPropertyOp13
 70
     1
102
RTVSPropertyOp14
 70
     1
102
RTVSPropertyOp15
 70
     1
102
RTVSPropertyOp16
 70
     1
102
RTVSPropertyOp17
 70
     1
102
RTVSPropertyOp18
 70
     1
102
RTVSPropertyOp19
 70
     1
102
RTVSPropertyOp20
 70
     1
102
RTVSPropertyOp21
 70
     1
102
RTVSPropertyOp22
 70
     1
102
RTVSPropertyOp23
 70
     1
102
RTVSPropertyOp24
 70
     1
102
RTVSPropertyOp25
 70
     1
102
RTVSPropertyOp26
 70
     1
102
RTVSPropertyOp27
 70
     1
102
RTVSPropertyOp28
 70
     1
102
RTVSPropertyOp29
 70
     1
102
RTVSPropertyOp30
 70
     1
102
RTVSPropertyOp31
 70
     1
102
RTVSPropertyOp32
 70
     1
102
RTVSPropertyOp33
 70
     1
102
RTVSPropertyOp34
 70
     1
102
RTVSPropertyOp35
 70
     1
102
RTVSPropertyOp36
 70
     1
102
RTVSPropertyOp37
 70
     1
102
RTVSPropertyOp38
 70
     1
102
RTVSPropertyOp39
 70
     1
102
RTVSPropertyOp40
 70
     1
102
RTVSPropertyOp41
 70
     1
102
RTVSPropertyOp42
 70
     1
102
RTVSPropertyOp43
 70
     1
102
RTVSPropertyOp44
 70
     1
102
RTVSPropertyOp45
 70
     1
102
RTVSPropertyOp46
 70
     1
102
RTVSPropertyOp47
 70
     1
102
RTVSPropertyOp48
 70
     1
102
RTVSPropertyOp49
 70
     1
102
RTVSPropertyOp50
 70
     1
102
RTVSPropertyOp51
 70
     0
102
RTVSPropertyOp52
 70
     0
102
RTVSPropertyOp53
 70
     1
102
RTVSPropertyOp54
 70
     1
102
RTVSPropertyOp55
 70
     1
102
RTVSPropertyOp56
 70
     1
102
RTVSPropertyOp57
 70
     1
102
RTVSPropertyOp58
 70
     1
102
RTVSPropertyOp59
 70
     1
102
RTVSPropertyOp60
 70
     1
102
RTVSPropertyOp61
 70
     1
102
RTVSPropertyOp62
 70
     1
  0
XRECORD
  5
EE1
102
{ACAD_REACTORS
330
EE0
102
}
330
EE0
100
AcDbXrecord
280
     1
102
RTVSPost2010Prop28
280
     0
102
RTVSPost2010PropOp28
 70
     1
102
RTVSPost2010Prop29
280
     1
102
RTVSPost2010PropOp29
 70
     1
102
RTVSPost2010Prop30
280
     1
102
RTVSPost2010PropOp30
 70
     1
102
RTVSPost2010Prop31
280
     0
102
RTVSPost2010PropOp31
 70
     1
102
RTVSPost2010Prop32
280
     0
102
RTVSPost2010PropOp32
 70
     1
102
RTVSPost2010Prop33
280
     0
102
RTVSPost2010PropOp33
 70
     1
102
RTVSPost2010Prop34
280
     0
102
RTVSPost2010PropOp34
 70
     1
102
RTVSPost2010Prop35
280
     0
102
RTVSPost2010PropOp35
 70
     1
102
RTVSPost2010Prop36
280
     0
102
RTVSPost2010PropOp36
 70
     1
102
RTVSPost2010Prop37
 90
       50
102
RTVSPost2010PropOp37
 70
     1
102
RTVSPost2010Prop38
140
0.0
102
RTVSPost2010PropOp38
 70
     1
102
RTVSPost2010Prop39
140
1.0
102
RTVSPost2010PropOp39
 70
     1
102
RTVSPost2010Prop40
 90
        0
102
RTVSPost2010PropOp40
 70
     1
102
RTVSPost2010Prop41ColorIndex
 90
       18
102
RTVSPost2010Prop41ColorRGB
 90
-16777216
102
RTVSPost2010PropOp41
 70
     1
102
RTVSPost2010Prop42
 90
       50
102
RTVSPost2010PropOp42
 70
     1
102
RTVSPost2010Prop43
 90
        3
102
RTVSPost2010PropOp43
 70
     1
102
RTVSPost2010Prop44ColorIndex
 90
        5
102
RTVSPost2010Prop44ColorRGB
 90
      255
102
RTVSPost2010PropOp44
 70
     1
102
RTVSPost2010Prop45
280
     0
102
RTVSPost2010PropOp45
 70
     1
102
RTVSPost2010Prop46
 90
       50
102
RTVSPost2010PropOp46
 70
     1
102
RTVSPost2010Prop47
 90
       50
102
RTVSPost2010PropOp47
 70
     1
102
RTVSPost2010Prop48
 90
       50
102
RTVSPost2010PropOp48
 70
     1
102
RTVSPost2010Prop49
280
     0
102
RTVSPost2010PropOp49
 70
     1
102
RTVSPost2010Prop50
 90
       50
102
RTVSPost2010PropOp50
 70
     1
102
RTVSPost2010Prop51ColorIndex
 90
      256
102
RTVSPost2010Prop51ColorRGB
 90
-16777216
102
RTVSPost2010PropOp51
 70
     0
102
RTVSPost2010Prop52
140
1.0
102
RTVSPost2010PropOp52
 70
     0
102
RTVSPost2010Prop53
 90
        2
102
RTVSPost2010PropOp53
 70
     1
102
RTVSPost2010Prop54
  1
strokes_ogs.tif
102
RTVSPost2010PropOp54
 70
     1
102
RTVSPost2010Prop55
280
     0
102
RTVSPost2010PropOp55
 70
     1
102
RTVSPost2010Prop56
140
1.0
102
RTVSPost2010PropOp56
 70
     1
102
RTVSPost2010Prop57
140
1.0
102
RTVSPost2010PropOp57
 70
     1
102
RTVSPropertyOp0
 70
     1
102
RTVSPropertyOp1
 70
     1
102
RTVSPropertyOp2
 70
     1
102
RTVSPropertyOp3
 70
     1
102
RTVSPropertyOp4
 70
     1
102
RTVSPropertyOp5
 70
     1
102
RTVSPropertyOp6
 70
     1
102
RTVSPropertyOp7
 70
     1
102
RTVSPropertyOp8
 70
     1
102
RTVSPropertyOp9
 70
     1
102
RTVSPropertyOp10
 70
     1
102
RTVSPropertyOp11
 70
     1
102
RTVSPropertyOp12
 70
     1
102
RTVSPropertyOp13
 70
     1
102
RTVSPropertyOp14
 70
     1
102
RTVSPropertyOp15
 70
     1
102
RTVSPropertyOp16
 70
     1
102
RTVSPropertyOp17
 70
     1
102
RTVSPropertyOp18
 70
     1
102
RTVSPropertyOp19
 70
     1
102
RTVSPropertyOp20
 70
     1
102
RTVSPropertyOp21
 70
     1
102
RTVSPropertyOp22
 70
     1
102
RTVSPropertyOp23
 70
     1
102
RTVSPropertyOp24
 70
     1
102
RTVSPropertyOp25
 70
     1
102
RTVSPropertyOp26
 70
     1
102
RTVSPropertyOp27
 70
     1
102
RTVSPropertyOp28
 70
     1
102
RTVSPropertyOp29
 70
     1
102
RTVSPropertyOp30
 70
     1
102
RTVSPropertyOp31
 70
     1
102
RTVSPropertyOp32
 70
     1
102
RTVSPropertyOp33
 70
     1
102
RTVSPropertyOp34
 70
     1
102
RTVSPropertyOp35
 70
     1
102
RTVSPropertyOp36
 70
     1
102
RTVSPropertyOp37
 70
     1
102
RTVSPropertyOp38
 70
     1
102
RTVSPropertyOp39
 70
     1
102
RTVSPropertyOp40
 70
     1
102
RTVSPropertyOp41
 70
     1
102
RTVSPropertyOp42
 70
     1
102
RTVSPropertyOp43
 70
     1
102
RTVSPropertyOp44
 70
     1
102
RTVSPropertyOp45
 70
     1
102
RTVSPropertyOp46
 70
     1
102
RTVSPropertyOp47
 70
     1
102
RTVSPropertyOp48
 70
     1
102
RTVSPropertyOp49
 70
     1
102
RTVSPropertyOp50
 70
     1
102
RTVSPropertyOp51
 70
     0
102
RTVSPropertyOp52
 70
     0
102
RTVSPropertyOp53
 70
     1
102
RTVSPropertyOp54
 70
     1
102
RTVSPropertyOp55
 70
     1
102
RTVSPropertyOp56
 70
     1
102
RTVSPropertyOp57
 70
     1
102
RTVSPropertyOp58
 70
     1
102
RTVSPropertyOp59
 70
     1
102
RTVSPropertyOp60
 70
     1
102
RTVSPropertyOp61
 70
     1
102
RTVSPropertyOp62
 70
     1
  0
XRECORD
  5
EEF
102
{ACAD_REACTORS
330
EEE
102
}
330
EEE
100
AcDbXrecord
280
     1
102
RTVSPost2010Prop28
280
     0
102
RTVSPost2010PropOp28
 70
     1
102
RTVSPost2010Prop29
280
     1
102
RTVSPost2010PropOp29
 70
     1
102
RTVSPost2010Prop30
280
     1
102
RTVSPost2010PropOp30
 70
     1
102
RTVSPost2010Prop31
280
     0
102
RTVSPost2010PropOp31
 70
     1
102
RTVSPost2010Prop32
280
     0
102
RTVSPost2010PropOp32
 70
     1
102
RTVSPost2010Prop33
280
     0
102
RTVSPost2010PropOp33
 70
     1
102
RTVSPost2010Prop34
280
     0
102
RTVSPost2010PropOp34
 70
     1
102
RTVSPost2010Prop35
280
     0
102
RTVSPost2010PropOp35
 70
     1
102
RTVSPost2010Prop36
280
     0
102
RTVSPost2010PropOp36
 70
     1
102
RTVSPost2010Prop37
 90
       50
102
RTVSPost2010PropOp37
 70
     1
102
RTVSPost2010Prop38
140
0.0
102
RTVSPost2010PropOp38
 70
     1
102
RTVSPost2010Prop39
140
1.0
102
RTVSPost2010PropOp39
 70
     1
102
RTVSPost2010Prop40
 90
        0
102
RTVSPost2010PropOp40
 70
     1
102
RTVSPost2010Prop41ColorIndex
 90
       18
102
RTVSPost2010Prop41ColorRGB
 90
-16777216
102
RTVSPost2010PropOp41
 70
     1
102
RTVSPost2010Prop42
 90
       50
102
RTVSPost2010PropOp42
 70
     1
102
RTVSPost2010Prop43
 90
        3
102
RTVSPost2010PropOp43
 70
     1
102
RTVSPost2010Prop44ColorIndex
 90
        5
102
RTVSPost2010Prop44ColorRGB
 90
      255
102
RTVSPost2010PropOp44
 70
     1
102
RTVSPost2010Prop45
280
     0
102
RTVSPost2010PropOp45
 70
     1
102
RTVSPost2010Prop46
 90
       50
102
RTVSPost2010PropOp46
 70
     1
102
RTVSPost2010Prop47
 90
       50
102
RTVSPost2010PropOp47
 70
     1
102
RTVSPost2010Prop48
 90
       50
102
RTVSPost2010PropOp48
 70
     1
102
RTVSPost2010Prop49
280
     0
102
RTVSPost2010PropOp49
 70
     1
102
RTVSPost2010Prop50
 90
       50
102
RTVSPost2010PropOp50
 70
     1
102
RTVSPost2010Prop51ColorIndex
 90
      256
102
RTVSPost2010Prop51ColorRGB
 90
-16777216
102
RTVSPost2010PropOp51
 70
     0
102
RTVSPost2010Prop52
140
1.0
102
RTVSPost2010PropOp52
 70
     0
102
RTVSPost2010Prop53
 90
        2
102
RTVSPost2010PropOp53
 70
     1
102
RTVSPost2010Prop54
  1
strokes_ogs.tif
102
RTVSPost2010PropOp54
 70
     1
102
RTVSPost2010Prop55
280
     0
102
RTVSPost2010PropOp55
 70
     1
102
RTVSPost2010Prop56
140
1.0
102
RTVSPost2010PropOp56
 70
     1
102
RTVSPost2010Prop57
140
1.0
102
RTVSPost2010PropOp57
 70
     1
102
RTVSPropertyOp0
 70
     1
102
RTVSPropertyOp1
 70
     1
102
RTVSPropertyOp2
 70
     1
102
RTVSPropertyOp3
 70
     1
102
RTVSPropertyOp4
 70
     1
102
RTVSPropertyOp5
 70
     1
102
RTVSPropertyOp6
 70
     1
102
RTVSPropertyOp7
 70
     1
102
RTVSPropertyOp8
 70
     1
102
RTVSPropertyOp9
 70
     1
102
RTVSPropertyOp10
 70
     1
102
RTVSPropertyOp11
 70
     1
102
RTVSPropertyOp12
 70
     1
102
RTVSPropertyOp13
 70
     1
102
RTVSPropertyOp14
 70
     1
102
RTVSPropertyOp15
 70
     1
102
RTVSPropertyOp16
 70
     1
102
RTVSPropertyOp17
 70
     1
102
RTVSPropertyOp18
 70
     1
102
RTVSPropertyOp19
 70
     1
102
RTVSPropertyOp20
 70
     1
102
RTVSPropertyOp21
 70
     1
102
RTVSPropertyOp22
 70
     1
102
RTVSPropertyOp23
 70
     1
102
RTVSPropertyOp24
 70
     1
102
RTVSPropertyOp25
 70
     1
102
RTVSPropertyOp26
 70
     1
102
RTVSPropertyOp27
 70
     1
102
RTVSPropertyOp28
 70
     1
102
RTVSPropertyOp29
 70
     1
102
RTVSPropertyOp30
 70
     1
102
RTVSPropertyOp31
 70
     1
102
RTVSPropertyOp32
 70
     1
102
RTVSPropertyOp33
 70
     1
102
RTVSPropertyOp34
 70
     1
102
RTVSPropertyOp35
 70
     1
102
RTVSPropertyOp36
 70
     1
102
RTVSPropertyOp37
 70
     1
102
RTVSPropertyOp38
 70
     1
102
RTVSPropertyOp39
 70
     1
102
RTVSPropertyOp40
 70
     1
102
RTVSPropertyOp41
 70
     1
102
RTVSPropertyOp42
 70
     1
102
RTVSPropertyOp43
 70
     1
102
RTVSPropertyOp44
 70
     1
102
RTVSPropertyOp45
 70
     1
102
RTVSPropertyOp46
 70
     1
102
RTVSPropertyOp47
 70
     1
102
RTVSPropertyOp48
 70
     1
102
RTVSPropertyOp49
 70
     1
102
RTVSPropertyOp50
 70
     1
102
RTVSPropertyOp51
 70
     0
102
RTVSPropertyOp52
 70
     0
102
RTVSPropertyOp53
 70
     1
102
RTVSPropertyOp54
 70
     1
102
RTVSPropertyOp55
 70
     1
102
RTVSPropertyOp56
 70
     1
102
RTVSPropertyOp57
 70
     1
102
RTVSPropertyOp58
 70
     1
102
RTVSPropertyOp59
 70
     1
102
RTVSPropertyOp60
 70
     1
102
RTVSPropertyOp61
 70
     1
102
RTVSPropertyOp62
 70
     1
  0
XRECORD
  5
EF7
102
{ACAD_REACTORS
330
EF6
102
}
330
EF6
100
AcDbXrecord
280
     1
102
RTVSPost2010Prop28
280
     0
102
RTVSPost2010PropOp28
 70
     1
102
RTVSPost2010Prop29
280
     1
102
RTVSPost2010PropOp29
 70
     1
102
RTVSPost2010Prop30
280
     1
102
RTVSPost2010PropOp30
 70
     1
102
RTVSPost2010Prop31
280
     0
102
RTVSPost2010PropOp31
 70
     1
102
RTVSPost2010Prop32
280
     0
102
RTVSPost2010PropOp32
 70
     1
102
RTVSPost2010Prop33
280
     0
102
RTVSPost2010PropOp33
 70
     1
102
RTVSPost2010Prop34
280
     0
102
RTVSPost2010PropOp34
 70
     1
102
RTVSPost2010Prop35
280
     0
102
RTVSPost2010PropOp35
 70
     1
102
RTVSPost2010Prop36
280
     0
102
RTVSPost2010PropOp36
 70
     1
102
RTVSPost2010Prop37
 90
       50
102
RTVSPost2010PropOp37
 70
     1
102
RTVSPost2010Prop38
140
0.0
102
RTVSPost2010PropOp38
 70
     1
102
RTVSPost2010Prop39
140
1.0
102
RTVSPost2010PropOp39
 70
     1
102
RTVSPost2010Prop40
 90
        0
102
RTVSPost2010PropOp40
 70
     1
102
RTVSPost2010Prop41ColorIndex
 90
       18
102
RTVSPost2010Prop41ColorRGB
 90
-16777216
102
RTVSPost2010PropOp41
 70
     1
102
RTVSPost2010Prop42
 90
       50
102
RTVSPost2010PropOp42
 70
     1
102
RTVSPost2010Prop43
 90
        3
102
RTVSPost2010PropOp43
 70
     1
102
RTVSPost2010Prop44ColorIndex
 90
        5
102
RTVSPost2010Prop44ColorRGB
 90
      255
102
RTVSPost2010PropOp44
 70
     1
102
RTVSPost2010Prop45
280
     0
102
RTVSPost2010PropOp45
 70
     1
102
RTVSPost2010Prop46
 90
       50
102
RTVSPost2010PropOp46
 70
     1
102
RTVSPost2010Prop47
 90
       50
102
RTVSPost2010PropOp47
 70
     1
102
RTVSPost2010Prop48
 90
       50
102
RTVSPost2010PropOp48
 70
     1
102
RTVSPost2010Prop49
280
     0
102
RTVSPost2010PropOp49
 70
     1
102
RTVSPost2010Prop50
 90
       50
102
RTVSPost2010PropOp50
 70
     1
102
RTVSPost2010Prop51ColorIndex
 90
      256
102
RTVSPost2010Prop51ColorRGB
 90
-16777216
102
RTVSPost2010PropOp51
 70
     0
102
RTVSPost2010Prop52
140
1.0
102
RTVSPost2010PropOp52
 70
     0
102
RTVSPost2010Prop53
 90
        2
102
RTVSPost2010PropOp53
 70
     1
102
RTVSPost2010Prop54
  1
strokes_ogs.tif
102
RTVSPost2010PropOp54
 70
     1
102
RTVSPost2010Prop55
280
     0
102
RTVSPost2010PropOp55
 70
     1
102
RTVSPost2010Prop56
140
1.0
102
RTVSPost2010PropOp56
 70
     1
102
RTVSPost2010Prop57
140
1.0
102
RTVSPost2010PropOp57
 70
     1
102
RTVSPropertyOp0
 70
     1
102
RTVSPropertyOp1
 70
     1
102
RTVSPropertyOp2
 70
     1
102
RTVSPropertyOp3
 70
     1
102
RTVSPropertyOp4
 70
     1
102
RTVSPropertyOp5
 70
     1
102
RTVSPropertyOp6
 70
     1
102
RTVSPropertyOp7
 70
     1
102
RTVSPropertyOp8
 70
     1
102
RTVSPropertyOp9
 70
     1
102
RTVSPropertyOp10
 70
     1
102
RTVSPropertyOp11
 70
     1
102
RTVSPropertyOp12
 70
     1
102
RTVSPropertyOp13
 70
     1
102
RTVSPropertyOp14
 70
     1
102
RTVSPropertyOp15
 70
     1
102
RTVSPropertyOp16
 70
     1
102
RTVSPropertyOp17
 70
     1
102
RTVSPropertyOp18
 70
     1
102
RTVSPropertyOp19
 70
     1
102
RTVSPropertyOp20
 70
     1
102
RTVSPropertyOp21
 70
     1
102
RTVSPropertyOp22
 70
     1
102
RTVSPropertyOp23
 70
     1
102
RTVSPropertyOp24
 70
     1
102
RTVSPropertyOp25
 70
     1
102
RTVSPropertyOp26
 70
     1
102
RTVSPropertyOp27
 70
     1
102
RTVSPropertyOp28
 70
     1
102
RTVSPropertyOp29
 70
     1
102
RTVSPropertyOp30
 70
     1
102
RTVSPropertyOp31
 70
     1
102
RTVSPropertyOp32
 70
     1
102
RTVSPropertyOp33
 70
     1
102
RTVSPropertyOp34
 70
     1
102
RTVSPropertyOp35
 70
     1
102
RTVSPropertyOp36
 70
     1
102
RTVSPropertyOp37
 70
     1
102
RTVSPropertyOp38
 70
     1
102
RTVSPropertyOp39
 70
     1
102
RTVSPropertyOp40
 70
     1
102
RTVSPropertyOp41
 70
     1
102
RTVSPropertyOp42
 70
     1
102
RTVSPropertyOp43
 70
     1
102
RTVSPropertyOp44
 70
     1
102
RTVSPropertyOp45
 70
     1
102
RTVSPropertyOp46
 70
     1
102
RTVSPropertyOp47
 70
     1
102
RTVSPropertyOp48
 70
     1
102
RTVSPropertyOp49
 70
     1
102
RTVSPropertyOp50
 70
     1
102
RTVSPropertyOp51
 70
     0
102
RTVSPropertyOp52
 70
     0
102
RTVSPropertyOp53
 70
     1
102
RTVSPropertyOp54
 70
     1
102
RTVSPropertyOp55
 70
     1
102
RTVSPropertyOp56
 70
     1
102
RTVSPropertyOp57
 70
     1
102
RTVSPropertyOp58
 70
     1
102
RTVSPropertyOp59
 70
     1
102
RTVSPropertyOp60
 70
     1
102
RTVSPropertyOp61
 70
     1
102
RTVSPropertyOp62
 70
     1
  0
XRECORD
  5
EE9
102
{ACAD_REACTORS
330
EE8
102
}
330
EE8
100
AcDbXrecord
280
     1
102
RTVSPost2010Prop28
280
     0
102
RTVSPost2010PropOp28
 70
     1
102
RTVSPost2010Prop29
280
     1
102
RTVSPost2010PropOp29
 70
     1
102
RTVSPost2010Prop30
280
     1
102
RTVSPost2010PropOp30
 70
     1
102
RTVSPost2010Prop31
280
     0
102
RTVSPost2010PropOp31
 70
     1
102
RTVSPost2010Prop32
280
     0
102
RTVSPost2010PropOp32
 70
     1
102
RTVSPost2010Prop33
280
     0
102
RTVSPost2010PropOp33
 70
     1
102
RTVSPost2010Prop34
280
     0
102
RTVSPost2010PropOp34
 70
     1
102
RTVSPost2010Prop35
280
     0
102
RTVSPost2010PropOp35
 70
     1
102
RTVSPost2010Prop36
280
     0
102
RTVSPost2010PropOp36
 70
     1
102
RTVSPost2010Prop37
 90
       50
102
RTVSPost2010PropOp37
 70
     1
102
RTVSPost2010Prop38
140
0.0
102
RTVSPost2010PropOp38
 70
     1
102
RTVSPost2010Prop39
140
1.0
102
RTVSPost2010PropOp39
 70
     1
102
RTVSPost2010Prop40
 90
        0
102
RTVSPost2010PropOp40
 70
     1
102
RTVSPost2010Prop41ColorIndex
 90
       18
102
RTVSPost2010Prop41ColorRGB
 90
-16777216
102
RTVSPost2010PropOp41
 70
     1
102
RTVSPost2010Prop42
 90
       50
102
RTVSPost2010PropOp42
 70
     1
102
RTVSPost2010Prop43
 90
        3
102
RTVSPost2010PropOp43
 70
     1
102
RTVSPost2010Prop44ColorIndex
 90
        5
102
RTVSPost2010Prop44ColorRGB
 90
      255
102
RTVSPost2010PropOp44
 70
     1
102
RTVSPost2010Prop45
280
     0
102
RTVSPost2010PropOp45
 70
     1
102
RTVSPost2010Prop46
 90
       50
102
RTVSPost2010PropOp46
 70
     1
102
RTVSPost2010Prop47
 90
       50
102
RTVSPost2010PropOp47
 70
     1
102
RTVSPost2010Prop48
 90
       50
102
RTVSPost2010PropOp48
 70
     1
102
RTVSPost2010Prop49
280
     0
102
RTVSPost2010PropOp49
 70
     1
102
RTVSPost2010Prop50
 90
       50
102
RTVSPost2010PropOp50
 70
     1
102
RTVSPost2010Prop51ColorIndex
 90
      256
102
RTVSPost2010Prop51ColorRGB
 90
-16777216
102
RTVSPost2010PropOp51
 70
     0
102
RTVSPost2010Prop52
140
1.0
102
RTVSPost2010PropOp52
 70
     0
102
RTVSPost2010Prop53
 90
        2
102
RTVSPost2010PropOp53
 70
     1
102
RTVSPost2010Prop54
  1
strokes_ogs.tif
102
RTVSPost2010PropOp54
 70
     1
102
RTVSPost2010Prop55
280
     0
102
RTVSPost2010PropOp55
 70
     1
102
RTVSPost2010Prop56
140
1.0
102
RTVSPost2010PropOp56
 70
     1
102
RTVSPost2010Prop57
140
1.0
102
RTVSPost2010PropOp57
 70
     1
102
RTVSPropertyOp0
 70
     1
102
RTVSPropertyOp1
 70
     1
102
RTVSPropertyOp2
 70
     1
102
RTVSPropertyOp3
 70
     1
102
RTVSPropertyOp4
 70
     1
102
RTVSPropertyOp5
 70
     1
102
RTVSPropertyOp6
 70
     1
102
RTVSPropertyOp7
 70
     1
102
RTVSPropertyOp8
 70
     1
102
RTVSPropertyOp9
 70
     1
102
RTVSPropertyOp10
 70
     1
102
RTVSPropertyOp11
 70
     1
102
RTVSPropertyOp12
 70
     1
102
RTVSPropertyOp13
 70
     1
102
RTVSPropertyOp14
 70
     1
102
RTVSPropertyOp15
 70
     1
102
RTVSPropertyOp16
 70
     1
102
RTVSPropertyOp17
 70
     1
102
RTVSPropertyOp18
 70
     1
102
RTVSPropertyOp19
 70
     1
102
RTVSPropertyOp20
 70
     1
102
RTVSPropertyOp21
 70
     1
102
RTVSPropertyOp22
 70
     1
102
RTVSPropertyOp23
 70
     1
102
RTVSPropertyOp24
 70
     1
102
RTVSPropertyOp25
 70
     1
102
RTVSPropertyOp26
 70
     1
102
RTVSPropertyOp27
 70
     1
102
RTVSPropertyOp28
 70
     1
102
RTVSPropertyOp29
 70
     1
102
RTVSPropertyOp30
 70
     1
102
RTVSPropertyOp31
 70
     1
102
RTVSPropertyOp32
 70
     1
102
RTVSPropertyOp33
 70
     1
102
RTVSPropertyOp34
 70
     1
102
RTVSPropertyOp35
 70
     1
102
RTVSPropertyOp36
 70
     1
102
RTVSPropertyOp37
 70
     1
102
RTVSPropertyOp38
 70
     1
102
RTVSPropertyOp39
 70
     1
102
RTVSPropertyOp40
 70
     1
102
RTVSPropertyOp41
 70
     1
102
RTVSPropertyOp42
 70
     1
102
RTVSPropertyOp43
 70
     1
102
RTVSPropertyOp44
 70
     1
102
RTVSPropertyOp45
 70
     1
102
RTVSPropertyOp46
 70
     1
102
RTVSPropertyOp47
 70
     1
102
RTVSPropertyOp48
 70
     1
102
RTVSPropertyOp49
 70
     1
102
RTVSPropertyOp50
 70
     1
102
RTVSPropertyOp51
 70
     0
102
RTVSPropertyOp52
 70
     0
102
RTVSPropertyOp53
 70
     1
102
RTVSPropertyOp54
 70
     1
102
RTVSPropertyOp55
 70
     1
102
RTVSPropertyOp56
 70
     1
102
RTVSPropertyOp57
 70
     1
102
RTVSPropertyOp58
 70
     1
102
RTVSPropertyOp59
 70
     1
102
RTVSPropertyOp60
 70
     1
102
RTVSPropertyOp61
 70
     1
102
RTVSPropertyOp62
 70
     1
  0
XRECORD
  5
EED
102
{ACAD_REACTORS
330
EEC
102
}
330
EEC
100
AcDbXrecord
280
     1
102
RTVSPost2010Prop28
280
     0
102
RTVSPost2010PropOp28
 70
     1
102
RTVSPost2010Prop29
280
     1
102
RTVSPost2010PropOp29
 70
     1
102
RTVSPost2010Prop30
280
     1
102
RTVSPost2010PropOp30
 70
     1
102
RTVSPost2010Prop31
280
     0
102
RTVSPost2010PropOp31
 70
     1
102
RTVSPost2010Prop32
280
     0
102
RTVSPost2010PropOp32
 70
     1
102
RTVSPost2010Prop33
280
     0
102
RTVSPost2010PropOp33
 70
     1
102
RTVSPost2010Prop34
280
     0
102
RTVSPost2010PropOp34
 70
     1
102
RTVSPost2010Prop35
280
     0
102
RTVSPost2010PropOp35
 70
     1
102
RTVSPost2010Prop36
280
     0
102
RTVSPost2010PropOp36
 70
     1
102
RTVSPost2010Prop37
 90
       50
102
RTVSPost2010PropOp37
 70
     1
102
RTVSPost2010Prop38
140
0.0
102
RTVSPost2010PropOp38
 70
     1
102
RTVSPost2010Prop39
140
1.0
102
RTVSPost2010PropOp39
 70
     1
102
RTVSPost2010Prop40
 90
        0
102
RTVSPost2010PropOp40
 70
     1
102
RTVSPost2010Prop41ColorIndex
 90
       18
102
RTVSPost2010Prop41ColorRGB
 90
-16777216
102
RTVSPost2010PropOp41
 70
     1
102
RTVSPost2010Prop42
 90
       50
102
RTVSPost2010PropOp42
 70
     1
102
RTVSPost2010Prop43
 90
        3
102
RTVSPost2010PropOp43
 70
     1
102
RTVSPost2010Prop44ColorIndex
 90
        5
102
RTVSPost2010Prop44ColorRGB
 90
      255
102
RTVSPost2010PropOp44
 70
     1
102
RTVSPost2010Prop45
280
     0
102
RTVSPost2010PropOp45
 70
     1
102
RTVSPost2010Prop46
 90
       50
102
RTVSPost2010PropOp46
 70
     1
102
RTVSPost2010Prop47
 90
       50
102
RTVSPost2010PropOp47
 70
     1
102
RTVSPost2010Prop48
 90
       50
102
RTVSPost2010PropOp48
 70
     1
102
RTVSPost2010Prop49
280
     0
102
RTVSPost2010PropOp49
 70
     1
102
RTVSPost2010Prop50
 90
       50
102
RTVSPost2010PropOp50
 70
     1
102
RTVSPost2010Prop51ColorIndex
 90
      256
102
RTVSPost2010Prop51ColorRGB
 90
-16777216
102
RTVSPost2010PropOp51
 70
     0
102
RTVSPost2010Prop52
140
1.0
102
RTVSPost2010PropOp52
 70
     0
102
RTVSPost2010Prop53
 90
        2
102
RTVSPost2010PropOp53
 70
     1
102
RTVSPost2010Prop54
  1
strokes_ogs.tif
102
RTVSPost2010PropOp54
 70
     1
102
RTVSPost2010Prop55
280
     0
102
RTVSPost2010PropOp55
 70
     1
102
RTVSPost2010Prop56
140
1.0
102
RTVSPost2010PropOp56
 70
     1
102
RTVSPost2010Prop57
140
1.0
102
RTVSPost2010PropOp57
 70
     1
102
RTVSPropertyOp0
 70
     1
102
RTVSPropertyOp1
 70
     1
102
RTVSPropertyOp2
 70
     1
102
RTVSPropertyOp3
 70
     1
102
RTVSPropertyOp4
 70
     1
102
RTVSPropertyOp5
 70
     1
102
RTVSPropertyOp6
 70
     1
102
RTVSPropertyOp7
 70
     1
102
RTVSPropertyOp8
 70
     1
102
RTVSPropertyOp9
 70
     1
102
RTVSPropertyOp10
 70
     1
102
RTVSPropertyOp11
 70
     1
102
RTVSPropertyOp12
 70
     1
102
RTVSPropertyOp13
 70
     1
102
RTVSPropertyOp14
 70
     1
102
RTVSPropertyOp15
 70
     1
102
RTVSPropertyOp16
 70
     1
102
RTVSPropertyOp17
 70
     1
102
RTVSPropertyOp18
 70
     1
102
RTVSPropertyOp19
 70
     1
102
RTVSPropertyOp20
 70
     1
102
RTVSPropertyOp21
 70
     1
102
RTVSPropertyOp22
 70
     1
102
RTVSPropertyOp23
 70
     1
102
RTVSPropertyOp24
 70
     1
102
RTVSPropertyOp25
 70
     1
102
RTVSPropertyOp26
 70
     1
102
RTVSPropertyOp27
 70
     1
102
RTVSPropertyOp28
 70
     1
102
RTVSPropertyOp29
 70
     1
102
RTVSPropertyOp30
 70
     1
102
RTVSPropertyOp31
 70
     1
102
RTVSPropertyOp32
 70
     1
102
RTVSPropertyOp33
 70
     1
102
RTVSPropertyOp34
 70
     1
102
RTVSPropertyOp35
 70
     1
102
RTVSPropertyOp36
 70
     1
102
RTVSPropertyOp37
 70
     1
102
RTVSPropertyOp38
 70
     1
102
RTVSPropertyOp39
 70
     1
102
RTVSPropertyOp40
 70
     1
102
RTVSPropertyOp41
 70
     1
102
RTVSPropertyOp42
 70
     1
102
RTVSPropertyOp43
 70
     1
102
RTVSPropertyOp44
 70
     1
102
RTVSPropertyOp45
 70
     1
102
RTVSPropertyOp46
 70
     1
102
RTVSPropertyOp47
 70
     1
102
RTVSPropertyOp48
 70
     1
102
RTVSPropertyOp49
 70
     1
102
RTVSPropertyOp50
 70
     1
102
RTVSPropertyOp51
 70
     0
102
RTVSPropertyOp52
 70
     0
102
RTVSPropertyOp53
 70
     1
102
RTVSPropertyOp54
 70
     1
102
RTVSPropertyOp55
 70
     1
102
RTVSPropertyOp56
 70
     1
102
RTVSPropertyOp57
 70
     1
102
RTVSPropertyOp58
 70
     1
102
RTVSPropertyOp59
 70
     1
102
RTVSPropertyOp60
 70
     1
102
RTVSPropertyOp61
 70
     1
102
RTVSPropertyOp62
 70
     1
  0
XRECORD
  5
F07
102
{ACAD_REACTORS
330
F06
102
}
330
F06
100
AcDbXrecord
280
     1
102
RTVSPost2010Prop28
280
     0
102
RTVSPost2010PropOp28
 70
     1
102
RTVSPost2010Prop29
280
     1
102
RTVSPost2010PropOp29
 70
     1
102
RTVSPost2010Prop30
280
     1
102
RTVSPost2010PropOp30
 70
     1
102
RTVSPost2010Prop31
280
     0
102
RTVSPost2010PropOp31
 70
     1
102
RTVSPost2010Prop32
280
     0
102
RTVSPost2010PropOp32
 70
     1
102
RTVSPost2010Prop33
280
     0
102
RTVSPost2010PropOp33
 70
     1
102
RTVSPost2010Prop34
280
     0
102
RTVSPost2010PropOp34
 70
     1
102
RTVSPost2010Prop35
280
     0
102
RTVSPost2010PropOp35
 70
     1
102
RTVSPost2010Prop36
280
     0
102
RTVSPost2010PropOp36
 70
     1
102
RTVSPost2010Prop37
 90
       50
102
RTVSPost2010PropOp37
 70
     0
102
RTVSPost2010Prop38
140
0.0
102
RTVSPost2010PropOp38
 70
     0
102
RTVSPost2010Prop39
140
1.0
102
RTVSPost2010PropOp39
 70
     0
102
RTVSPost2010Prop40
 90
        0
102
RTVSPost2010PropOp40
 70
     0
102
RTVSPost2010Prop41ColorIndex
 90
       18
102
RTVSPost2010Prop41ColorRGB
 90
-16777216
102
RTVSPost2010PropOp41
 70
     0
102
RTVSPost2010Prop42
 90
       50
102
RTVSPost2010PropOp42
 70
     0
102
RTVSPost2010Prop43
 90
        3
102
RTVSPost2010PropOp43
 70
     0
102
RTVSPost2010Prop44ColorIndex
 90
        5
102
RTVSPost2010Prop44ColorRGB
 90
      255
102
RTVSPost2010PropOp44
 70
     0
102
RTVSPost2010Prop45
280
     0
102
RTVSPost2010PropOp45
 70
     1
102
RTVSPost2010Prop46
 90
       50
102
RTVSPost2010PropOp46
 70
     0
102
RTVSPost2010Prop47
 90
       50
102
RTVSPost2010PropOp47
 70
     0
102
RTVSPost2010Prop48
 90
       50
102
RTVSPost2010PropOp48
 70
     0
102
RTVSPost2010Prop49
280
     0
102
RTVSPost2010PropOp49
 70
     1
102
RTVSPost2010Prop50
 90
       50
102
RTVSPost2010PropOp50
 70
     0
102
RTVSPost2010Prop51ColorIndex
 90
      256
102
RTVSPost2010Prop51ColorRGB
 90
-16777216
102
RTVSPost2010PropOp51
 70
     0
102
RTVSPost2010Prop52
140
1.0
102
RTVSPost2010PropOp52
 70
     0
102
RTVSPost2010Prop53
 90
        2
102
RTVSPost2010PropOp53
 70
     0
102
RTVSPost2010Prop54
  1
strokes_ogs.tif
102
RTVSPost2010PropOp54
 70
     0
102
RTVSPost2010Prop55
280
     0
102
RTVSPost2010PropOp55
 70
     1
102
RTVSPost2010Prop56
140
1.0
102
RTVSPost2010PropOp56
 70
     0
102
RTVSPost2010Prop57
140
1.0
102
RTVSPost2010PropOp57
 70
     0
102
RTVSPropertyOp0
 70
     0
102
RTVSPropertyOp1
 70
     0
102
RTVSPropertyOp2
 70
     0
102
RTVSPropertyOp3
 70
     0
102
RTVSPropertyOp4
 70
     0
102
RTVSPropertyOp5
 70
     0
102
RTVSPropertyOp6
 70
     0
102
RTVSPropertyOp7
 70
     0
102
RTVSPropertyOp8
 70
     0
102
RTVSPropertyOp9
 70
     0
102
RTVSPropertyOp10
 70
     0
102
RTVSPropertyOp11
 70
     0
102
RTVSPropertyOp12
 70
     0
102
RTVSPropertyOp13
 70
     0
102
RTVSPropertyOp14
 70
     2
102
RTVSPropertyOp15
 70
     0
102
RTVSPropertyOp16
 70
     0
102
RTVSPropertyOp17
 70
     0
102
RTVSPropertyOp18
 70
     0
102
RTVSPropertyOp19
 70
     0
102
RTVSPropertyOp20
 70
     0
102
RTVSPropertyOp21
 70
     0
102
RTVSPropertyOp22
 70
     0
102
RTVSPropertyOp23
 70
     0
102
RTVSPropertyOp24
 70
     0
102
RTVSPropertyOp25
 70
     0
102
RTVSPropertyOp26
 70
     0
102
RTVSPropertyOp27
 70
     0
102
RTVSPropertyOp28
 70
     1
102
RTVSPropertyOp29
 70
     1
102
RTVSPropertyOp30
 70
     1
102
RTVSPropertyOp31
 70
     1
102
RTVSPropertyOp32
 70
     1
102
RTVSPropertyOp33
 70
     1
102
RTVSPropertyOp34
 70
     1
102
RTVSPropertyOp35
 70
     1
102
RTVSPropertyOp36
 70
     1
102
RTVSPropertyOp37
 70
     0
102
RTVSPropertyOp38
 70
     0
102
RTVSPropertyOp39
 70
     0
102
RTVSPropertyOp40
 70
     0
102
RTVSPropertyOp41
 70
     0
102
RTVSPropertyOp42
 70
     0
102
RTVSPropertyOp43
 70
     0
102
RTVSPropertyOp44
 70
     0
102
RTVSPropertyOp45
 70
     1
102
RTVSPropertyOp46
 70
     0
102
RTVSPropertyOp47
 70
     0
102
RTVSPropertyOp48
 70
     0
102
RTVSPropertyOp49
 70
     1
102
RTVSPropertyOp50
 70
     0
102
RTVSPropertyOp51
 70
     0
102
RTVSPropertyOp52
 70
     0
102
RTVSPropertyOp53
 70
     0
102
RTVSPropertyOp54
 70
     0
102
RTVSPropertyOp55
 70
     1
102
RTVSPropertyOp56
 70
     0
102
RTVSPropertyOp57
 70
     0
102
RTVSPropertyOp58
 70
     1
102
RTVSPropertyOp59
 70
     1
102
RTVSPropertyOp60
 70
     1
102
RTVSPropertyOp61
 70
     1
102
RTVSPropertyOp62
 70
     1
  0
XRECORD
  5
EF5
102
{ACAD_REACTORS
330
EF4
102
}
330
EF4
100
AcDbXrecord
280
     1
102
RTVSPost2010Prop28
280
     0
102
RTVSPost2010PropOp28
 70
     1
102
RTVSPost2010Prop29
280
     1
102
RTVSPost2010PropOp29
 70
     1
102
RTVSPost2010Prop30
280
     1
102
RTVSPost2010PropOp30
 70
     1
102
RTVSPost2010Prop31
280
     0
102
RTVSPost2010PropOp31
 70
     1
102
RTVSPost2010Prop32
280
     0
102
RTVSPost2010PropOp32
 70
     1
102
RTVSPost2010Prop33
280
     0
102
RTVSPost2010PropOp33
 70
     1
102
RTVSPost2010Prop34
280
     0
102
RTVSPost2010PropOp34
 70
     1
102
RTVSPost2010Prop35
280
     0
102
RTVSPost2010PropOp35
 70
     1
102
RTVSPost2010Prop36
280
     0
102
RTVSPost2010PropOp36
 70
     1
102
RTVSPost2010Prop37
 90
       50
102
RTVSPost2010PropOp37
 70
     1
102
RTVSPost2010Prop38
140
0.0
102
RTVSPost2010PropOp38
 70
     1
102
RTVSPost2010Prop39
140
1.0
102
RTVSPost2010PropOp39
 70
     1
102
RTVSPost2010Prop40
 90
        0
102
RTVSPost2010PropOp40
 70
     1
102
RTVSPost2010Prop41ColorIndex
 90
       18
102
RTVSPost2010Prop41ColorRGB
 90
-16777216
102
RTVSPost2010PropOp41
 70
     1
102
RTVSPost2010Prop42
 90
       50
102
RTVSPost2010PropOp42
 70
     1
102
RTVSPost2010Prop43
 90
        3
102
RTVSPost2010PropOp43
 70
     1
102
RTVSPost2010Prop44ColorIndex
 90
        5
102
RTVSPost2010Prop44ColorRGB
 90
      255
102
RTVSPost2010PropOp44
 70
     1
102
RTVSPost2010Prop45
280
     0
102
RTVSPost2010PropOp45
 70
     1
102
RTVSPost2010Prop46
 90
       50
102
RTVSPost2010PropOp46
 70
     1
102
RTVSPost2010Prop47
 90
       50
102
RTVSPost2010PropOp47
 70
     1
102
RTVSPost2010Prop48
 90
       50
102
RTVSPost2010PropOp48
 70
     1
102
RTVSPost2010Prop49
280
     0
102
RTVSPost2010PropOp49
 70
     1
102
RTVSPost2010Prop50
 90
       50
102
RTVSPost2010PropOp50
 70
     1
102
RTVSPost2010Prop51ColorIndex
 90
      256
102
RTVSPost2010Prop51ColorRGB
 90
-16777216
102
RTVSPost2010PropOp51
 70
     0
102
RTVSPost2010Prop52
140
1.0
102
RTVSPost2010PropOp52
 70
     0
102
RTVSPost2010Prop53
 90
        2
102
RTVSPost2010PropOp53
 70
     1
102
RTVSPost2010Prop54
  1
strokes_ogs.tif
102
RTVSPost2010PropOp54
 70
     1
102
RTVSPost2010Prop55
280
     0
102
RTVSPost2010PropOp55
 70
     1
102
RTVSPost2010Prop56
140
1.0
102
RTVSPost2010PropOp56
 70
     1
102
RTVSPost2010Prop57
140
1.0
102
RTVSPost2010PropOp57
 70
     1
102
RTVSPropertyOp0
 70
     1
102
RTVSPropertyOp1
 70
     1
102
RTVSPropertyOp2
 70
     1
102
RTVSPropertyOp3
 70
     1
102
RTVSPropertyOp4
 70
     1
102
RTVSPropertyOp5
 70
     1
102
RTVSPropertyOp6
 70
     1
102
RTVSPropertyOp7
 70
     1
102
RTVSPropertyOp8
 70
     1
102
RTVSPropertyOp9
 70
     1
102
RTVSPropertyOp10
 70
     1
102
RTVSPropertyOp11
 70
     1
102
RTVSPropertyOp12
 70
     1
102
RTVSPropertyOp13
 70
     1
102
RTVSPropertyOp14
 70
     1
102
RTVSPropertyOp15
 70
     1
102
RTVSPropertyOp16
 70
     1
102
RTVSPropertyOp17
 70
     1
102
RTVSPropertyOp18
 70
     1
102
RTVSPropertyOp19
 70
     1
102
RTVSPropertyOp20
 70
     1
102
RTVSPropertyOp21
 70
     1
102
RTVSPropertyOp22
 70
     1
102
RTVSPropertyOp23
 70
     1
102
RTVSPropertyOp24
 70
     1
102
RTVSPropertyOp25
 70
     1
102
RTVSPropertyOp26
 70
     1
102
RTVSPropertyOp27
 70
     1
102
RTVSPropertyOp28
 70
     1
102
RTVSPropertyOp29
 70
     1
102
RTVSPropertyOp30
 70
     1
102
RTVSPropertyOp31
 70
     1
102
RTVSPropertyOp32
 70
     1
102
RTVSPropertyOp33
 70
     1
102
RTVSPropertyOp34
 70
     1
102
RTVSPropertyOp35
 70
     1
102
RTVSPropertyOp36
 70
     1
102
RTVSPropertyOp37
 70
     1
102
RTVSPropertyOp38
 70
     1
102
RTVSPropertyOp39
 70
     1
102
RTVSPropertyOp40
 70
     1
102
RTVSPropertyOp41
 70
     1
102
RTVSPropertyOp42
 70
     1
102
RTVSPropertyOp43
 70
     1
102
RTVSPropertyOp44
 70
     1
102
RTVSPropertyOp45
 70
     1
102
RTVSPropertyOp46
 70
     1
102
RTVSPropertyOp47
 70
     1
102
RTVSPropertyOp48
 70
     1
102
RTVSPropertyOp49
 70
     1
102
RTVSPropertyOp50
 70
     1
102
RTVSPropertyOp51
 70
     0
102
RTVSPropertyOp52
 70
     0
102
RTVSPropertyOp53
 70
     1
102
RTVSPropertyOp54
 70
     1
102
RTVSPropertyOp55
 70
     1
102
RTVSPropertyOp56
 70
     1
102
RTVSPropertyOp57
 70
     1
102
RTVSPropertyOp58
 70
     1
102
RTVSPropertyOp59
 70
     1
102
RTVSPropertyOp60
 70
     1
102
RTVSPropertyOp61
 70
     1
102
RTVSPropertyOp62
 70
     1
  0
XRECORD
  5
ED9
102
{ACAD_REACTORS
330
ED8
102
}
330
ED8
100
AcDbXrecord
280
     1
102
RTVSPost2010Prop28
280
     0
102
RTVSPost2010PropOp28
 70
     1
102
RTVSPost2010Prop29
280
     1
102
RTVSPost2010PropOp29
 70
     1
102
RTVSPost2010Prop30
280
     1
102
RTVSPost2010PropOp30
 70
     1
102
RTVSPost2010Prop31
280
     0
102
RTVSPost2010PropOp31
 70
     1
102
RTVSPost2010Prop32
280
     0
102
RTVSPost2010PropOp32
 70
     1
102
RTVSPost2010Prop33
280
     0
102
RTVSPost2010PropOp33
 70
     1
102
RTVSPost2010Prop34
280
     0
102
RTVSPost2010PropOp34
 70
     1
102
RTVSPost2010Prop35
280
     0
102
RTVSPost2010PropOp35
 70
     1
102
RTVSPost2010Prop36
280
     0
102
RTVSPost2010PropOp36
 70
     1
102
RTVSPost2010Prop37
 90
       50
102
RTVSPost2010PropOp37
 70
     1
102
RTVSPost2010Prop38
140
0.0
102
RTVSPost2010PropOp38
 70
     1
102
RTVSPost2010Prop39
140
1.0
102
RTVSPost2010PropOp39
 70
     1
102
RTVSPost2010Prop40
 90
        0
102
RTVSPost2010PropOp40
 70
     1
102
RTVSPost2010Prop41ColorIndex
 90
       18
102
RTVSPost2010Prop41ColorRGB
 90
-16777216
102
RTVSPost2010PropOp41
 70
     1
102
RTVSPost2010Prop42
 90
       50
102
RTVSPost2010PropOp42
 70
     1
102
RTVSPost2010Prop43
 90
        3
102
RTVSPost2010PropOp43
 70
     1
102
RTVSPost2010Prop44ColorIndex
 90
        5
102
RTVSPost2010Prop44ColorRGB
 90
      255
102
RTVSPost2010PropOp44
 70
     1
102
RTVSPost2010Prop45
280
     0
102
RTVSPost2010PropOp45
 70
     1
102
RTVSPost2010Prop46
 90
       50
102
RTVSPost2010PropOp46
 70
     1
102
RTVSPost2010Prop47
 90
       50
102
RTVSPost2010PropOp47
 70
     1
102
RTVSPost2010Prop48
 90
       50
102
RTVSPost2010PropOp48
 70
     1
102
RTVSPost2010Prop49
280
     0
102
RTVSPost2010PropOp49
 70
     1
102
RTVSPost2010Prop50
 90
       50
102
RTVSPost2010PropOp50
 70
     1
102
RTVSPost2010Prop51ColorIndex
 90
      256
102
RTVSPost2010Prop51ColorRGB
 90
-16777216
102
RTVSPost2010PropOp51
 70
     0
102
RTVSPost2010Prop52
140
1.0
102
RTVSPost2010PropOp52
 70
     0
102
RTVSPost2010Prop53
 90
        2
102
RTVSPost2010PropOp53
 70
     1
102
RTVSPost2010Prop54
  1
strokes_ogs.tif
102
RTVSPost2010PropOp54
 70
     1
102
RTVSPost2010Prop55
280
     0
102
RTVSPost2010PropOp55
 70
     1
102
RTVSPost2010Prop56
140
1.0
102
RTVSPost2010PropOp56
 70
     1
102
RTVSPost2010Prop57
140
1.0
102
RTVSPost2010PropOp57
 70
     1
102
RTVSPropertyOp0
 70
     1
102
RTVSPropertyOp1
 70
     1
102
RTVSPropertyOp2
 70
     1
102
RTVSPropertyOp3
 70
     1
102
RTVSPropertyOp4
 70
     1
102
RTVSPropertyOp5
 70
     1
102
RTVSPropertyOp6
 70
     1
102
RTVSPropertyOp7
 70
     1
102
RTVSPropertyOp8
 70
     1
102
RTVSPropertyOp9
 70
     1
102
RTVSPropertyOp10
 70
     1
102
RTVSPropertyOp11
 70
     1
102
RTVSPropertyOp12
 70
     1
102
RTVSPropertyOp13
 70
     1
102
RTVSPropertyOp14
 70
     1
102
RTVSPropertyOp15
 70
     1
102
RTVSPropertyOp16
 70
     1
102
RTVSPropertyOp17
 70
     1
102
RTVSPropertyOp18
 70
     1
102
RTVSPropertyOp19
 70
     1
102
RTVSPropertyOp20
 70
     1
102
RTVSPropertyOp21
 70
     1
102
RTVSPropertyOp22
 70
     1
102
RTVSPropertyOp23
 70
     1
102
RTVSPropertyOp24
 70
     1
102
RTVSPropertyOp25
 70
     1
102
RTVSPropertyOp26
 70
     1
102
RTVSPropertyOp27
 70
     1
102
RTVSPropertyOp28
 70
     1
102
RTVSPropertyOp29
 70
     1
102
RTVSPropertyOp30
 70
     1
102
RTVSPropertyOp31
 70
     1
102
RTVSPropertyOp32
 70
     1
102
RTVSPropertyOp33
 70
     1
102
RTVSPropertyOp34
 70
     1
102
RTVSPropertyOp35
 70
     1
102
RTVSPropertyOp36
 70
     1
102
RTVSPropertyOp37
 70
     1
102
RTVSPropertyOp38
 70
     1
102
RTVSPropertyOp39
 70
     1
102
RTVSPropertyOp40
 70
     1
102
RTVSPropertyOp41
 70
     1
102
RTVSPropertyOp42
 70
     1
102
RTVSPropertyOp43
 70
     1
102
RTVSPropertyOp44
 70
     1
102
RTVSPropertyOp45
 70
     1
102
RTVSPropertyOp46
 70
     1
102
RTVSPropertyOp47
 70
     1
102
RTVSPropertyOp48
 70
     1
102
RTVSPropertyOp49
 70
     1
102
RTVSPropertyOp50
 70
     1
102
RTVSPropertyOp51
 70
     0
102
RTVSPropertyOp52
 70
     0
102
RTVSPropertyOp53
 70
     1
102
RTVSPropertyOp54
 70
     1
102
RTVSPropertyOp55
 70
     1
102
RTVSPropertyOp56
 70
     1
102
RTVSPropertyOp57
 70
     1
102
RTVSPropertyOp58
 70
     1
102
RTVSPropertyOp59
 70
     1
102
RTVSPropertyOp60
 70
     1
102
RTVSPropertyOp61
 70
     1
102
RTVSPropertyOp62
 70
     1
  0
XRECORD
  5
EDB
102
{ACAD_REACTORS
330
EDA
102
}
330
EDA
100
AcDbXrecord
280
     1
102
RTVSPost2010Prop28
280
     0
102
RTVSPost2010PropOp28
 70
     1
102
RTVSPost2010Prop29
280
     1
102
RTVSPost2010PropOp29
 70
     1
102
RTVSPost2010Prop30
280
     1
102
RTVSPost2010PropOp30
 70
     1
102
RTVSPost2010Prop31
280
     0
102
RTVSPost2010PropOp31
 70
     1
102
RTVSPost2010Prop32
280
     0
102
RTVSPost2010PropOp32
 70
     1
102
RTVSPost2010Prop33
280
     0
102
RTVSPost2010PropOp33
 70
     1
102
RTVSPost2010Prop34
280
     0
102
RTVSPost2010PropOp34
 70
     1
102
RTVSPost2010Prop35
280
     0
102
RTVSPost2010PropOp35
 70
     1
102
RTVSPost2010Prop36
280
     0
102
RTVSPost2010PropOp36
 70
     1
102
RTVSPost2010Prop37
 90
       50
102
RTVSPost2010PropOp37
 70
     1
102
RTVSPost2010Prop38
140
0.0
102
RTVSPost2010PropOp38
 70
     1
102
RTVSPost2010Prop39
140
1.0
102
RTVSPost2010PropOp39
 70
     1
102
RTVSPost2010Prop40
 90
        0
102
RTVSPost2010PropOp40
 70
     1
102
RTVSPost2010Prop41ColorIndex
 90
       18
102
RTVSPost2010Prop41ColorRGB
 90
-16777216
102
RTVSPost2010PropOp41
 70
     1
102
RTVSPost2010Prop42
 90
       50
102
RTVSPost2010PropOp42
 70
     1
102
RTVSPost2010Prop43
 90
        3
102
RTVSPost2010PropOp43
 70
     1
102
RTVSPost2010Prop44ColorIndex
 90
        5
102
RTVSPost2010Prop44ColorRGB
 90
      255
102
RTVSPost2010PropOp44
 70
     1
102
RTVSPost2010Prop45
280
     0
102
RTVSPost2010PropOp45
 70
     1
102
RTVSPost2010Prop46
 90
       50
102
RTVSPost2010PropOp46
 70
     1
102
RTVSPost2010Prop47
 90
       50
102
RTVSPost2010PropOp47
 70
     1
102
RTVSPost2010Prop48
 90
       50
102
RTVSPost2010PropOp48
 70
     1
102
RTVSPost2010Prop49
280
     0
102
RTVSPost2010PropOp49
 70
     1
102
RTVSPost2010Prop50
 90
       50
102
RTVSPost2010PropOp50
 70
     1
102
RTVSPost2010Prop51ColorIndex
 90
      256
102
RTVSPost2010Prop51ColorRGB
 90
-16777216
102
RTVSPost2010PropOp51
 70
     0
102
RTVSPost2010Prop52
140
1.0
102
RTVSPost2010PropOp52
 70
     0
102
RTVSPost2010Prop53
 90
        2
102
RTVSPost2010PropOp53
 70
     1
102
RTVSPost2010Prop54
  1
strokes_ogs.tif
102
RTVSPost2010PropOp54
 70
     1
102
RTVSPost2010Prop55
280
     0
102
RTVSPost2010PropOp55
 70
     1
102
RTVSPost2010Prop56
140
1.0
102
RTVSPost2010PropOp56
 70
     1
102
RTVSPost2010Prop57
140
1.0
102
RTVSPost2010PropOp57
 70
     1
102
RTVSPropertyOp0
 70
     1
102
RTVSPropertyOp1
 70
     1
102
RTVSPropertyOp2
 70
     1
102
RTVSPropertyOp3
 70
     1
102
RTVSPropertyOp4
 70
     1
102
RTVSPropertyOp5
 70
     1
102
RTVSPropertyOp6
 70
     1
102
RTVSPropertyOp7
 70
     1
102
RTVSPropertyOp8
 70
     1
102
RTVSPropertyOp9
 70
     1
102
RTVSPropertyOp10
 70
     1
102
RTVSPropertyOp11
 70
     1
102
RTVSPropertyOp12
 70
     1
102
RTVSPropertyOp13
 70
     1
102
RTVSPropertyOp14
 70
     1
102
RTVSPropertyOp15
 70
     1
102
RTVSPropertyOp16
 70
     1
102
RTVSPropertyOp17
 70
     1
102
RTVSPropertyOp18
 70
     1
102
RTVSPropertyOp19
 70
     1
102
RTVSPropertyOp20
 70
     1
102
RTVSPropertyOp21
 70
     1
102
RTVSPropertyOp22
 70
     1
102
RTVSPropertyOp23
 70
     1
102
RTVSPropertyOp24
 70
     1
102
RTVSPropertyOp25
 70
     1
102
RTVSPropertyOp26
 70
     1
102
RTVSPropertyOp27
 70
     1
102
RTVSPropertyOp28
 70
     1
102
RTVSPropertyOp29
 70
     1
102
RTVSPropertyOp30
 70
     1
102
RTVSPropertyOp31
 70
     1
102
RTVSPropertyOp32
 70
     1
102
RTVSPropertyOp33
 70
     1
102
RTVSPropertyOp34
 70
     1
102
RTVSPropertyOp35
 70
     1
102
RTVSPropertyOp36
 70
     1
102
RTVSPropertyOp37
 70
     1
102
RTVSPropertyOp38
 70
     1
102
RTVSPropertyOp39
 70
     1
102
RTVSPropertyOp40
 70
     1
102
RTVSPropertyOp41
 70
     1
102
RTVSPropertyOp42
 70
     1
102
RTVSPropertyOp43
 70
     1
102
RTVSPropertyOp44
 70
     1
102
RTVSPropertyOp45
 70
     1
102
RTVSPropertyOp46
 70
     1
102
RTVSPropertyOp47
 70
     1
102
RTVSPropertyOp48
 70
     1
102
RTVSPropertyOp49
 70
     1
102
RTVSPropertyOp50
 70
     1
102
RTVSPropertyOp51
 70
     0
102
RTVSPropertyOp52
 70
     0
102
RTVSPropertyOp53
 70
     1
102
RTVSPropertyOp54
 70
     1
102
RTVSPropertyOp55
 70
     1
102
RTVSPropertyOp56
 70
     1
102
RTVSPropertyOp57
 70
     1
102
RTVSPropertyOp58
 70
     1
102
RTVSPropertyOp59
 70
     1
102
RTVSPropertyOp60
 70
     1
102
RTVSPropertyOp61
 70
     1
102
RTVSPropertyOp62
 70
     1
  0
XRECORD
  5
EDD
102
{ACAD_REACTORS
330
EDC
102
}
330
EDC
100
AcDbXrecord
280
     1
102
RTVSPost2010Prop28
280
     0
102
RTVSPost2010PropOp28
 70
     1
102
RTVSPost2010Prop29
280
     1
102
RTVSPost2010PropOp29
 70
     1
102
RTVSPost2010Prop30
280
     1
102
RTVSPost2010PropOp30
 70
     1
102
RTVSPost2010Prop31
280
     0
102
RTVSPost2010PropOp31
 70
     1
102
RTVSPost2010Prop32
280
     0
102
RTVSPost2010PropOp32
 70
     1
102
RTVSPost2010Prop33
280
     0
102
RTVSPost2010PropOp33
 70
     1
102
RTVSPost2010Prop34
280
     0
102
RTVSPost2010PropOp34
 70
     1
102
RTVSPost2010Prop35
280
     0
102
RTVSPost2010PropOp35
 70
     1
102
RTVSPost2010Prop36
280
     0
102
RTVSPost2010PropOp36
 70
     1
102
RTVSPost2010Prop37
 90
       50
102
RTVSPost2010PropOp37
 70
     1
102
RTVSPost2010Prop38
140
0.0
102
RTVSPost2010PropOp38
 70
     1
102
RTVSPost2010Prop39
140
1.0
102
RTVSPost2010PropOp39
 70
     1
102
RTVSPost2010Prop40
 90
        0
102
RTVSPost2010PropOp40
 70
     1
102
RTVSPost2010Prop41ColorIndex
 90
       18
102
RTVSPost2010Prop41ColorRGB
 90
-16777216
102
RTVSPost2010PropOp41
 70
     1
102
RTVSPost2010Prop42
 90
       50
102
RTVSPost2010PropOp42
 70
     1
102
RTVSPost2010Prop43
 90
        3
102
RTVSPost2010PropOp43
 70
     1
102
RTVSPost2010Prop44ColorIndex
 90
        5
102
RTVSPost2010Prop44ColorRGB
 90
      255
102
RTVSPost2010PropOp44
 70
     1
102
RTVSPost2010Prop45
280
     0
102
RTVSPost2010PropOp45
 70
     1
102
RTVSPost2010Prop46
 90
       50
102
RTVSPost2010PropOp46
 70
     1
102
RTVSPost2010Prop47
 90
       50
102
RTVSPost2010PropOp47
 70
     1
102
RTVSPost2010Prop48
 90
       50
102
RTVSPost2010PropOp48
 70
     1
102
RTVSPost2010Prop49
280
     0
102
RTVSPost2010PropOp49
 70
     1
102
RTVSPost2010Prop50
 90
       50
102
RTVSPost2010PropOp50
 70
     1
102
RTVSPost2010Prop51ColorIndex
 90
      256
102
RTVSPost2010Prop51ColorRGB
 90
-16777216
102
RTVSPost2010PropOp51
 70
     0
102
RTVSPost2010Prop52
140
1.0
102
RTVSPost2010PropOp52
 70
     0
102
RTVSPost2010Prop53
 90
        2
102
RTVSPost2010PropOp53
 70
     1
102
RTVSPost2010Prop54
  1
strokes_ogs.tif
102
RTVSPost2010PropOp54
 70
     1
102
RTVSPost2010Prop55
280
     0
102
RTVSPost2010PropOp55
 70
     1
102
RTVSPost2010Prop56
140
1.0
102
RTVSPost2010PropOp56
 70
     1
102
RTVSPost2010Prop57
140
1.0
102
RTVSPost2010PropOp57
 70
     1
102
RTVSPropertyOp0
 70
     1
102
RTVSPropertyOp1
 70
     1
102
RTVSPropertyOp2
 70
     1
102
RTVSPropertyOp3
 70
     1
102
RTVSPropertyOp4
 70
     1
102
RTVSPropertyOp5
 70
     1
102
RTVSPropertyOp6
 70
     1
102
RTVSPropertyOp7
 70
     1
102
RTVSPropertyOp8
 70
     1
102
RTVSPropertyOp9
 70
     1
102
RTVSPropertyOp10
 70
     1
102
RTVSPropertyOp11
 70
     1
102
RTVSPropertyOp12
 70
     1
102
RTVSPropertyOp13
 70
     1
102
RTVSPropertyOp14
 70
     1
102
RTVSPropertyOp15
 70
     1
102
RTVSPropertyOp16
 70
     1
102
RTVSPropertyOp17
 70
     1
102
RTVSPropertyOp18
 70
     1
102
RTVSPropertyOp19
 70
     1
102
RTVSPropertyOp20
 70
     1
102
RTVSPropertyOp21
 70
     1
102
RTVSPropertyOp22
 70
     1
102
RTVSPropertyOp23
 70
     1
102
RTVSPropertyOp24
 70
     1
102
RTVSPropertyOp25
 70
     1
102
RTVSPropertyOp26
 70
     1
102
RTVSPropertyOp27
 70
     1
102
RTVSPropertyOp28
 70
     1
102
RTVSPropertyOp29
 70
     1
102
RTVSPropertyOp30
 70
     1
102
RTVSPropertyOp31
 70
     1
102
RTVSPropertyOp32
 70
     1
102
RTVSPropertyOp33
 70
     1
102
RTVSPropertyOp34
 70
     1
102
RTVSPropertyOp35
 70
     1
102
RTVSPropertyOp36
 70
     1
102
RTVSPropertyOp37
 70
     1
102
RTVSPropertyOp38
 70
     1
102
RTVSPropertyOp39
 70
     1
102
RTVSPropertyOp40
 70
     1
102
RTVSPropertyOp41
 70
     1
102
RTVSPropertyOp42
 70
     1
102
RTVSPropertyOp43
 70
     1
102
RTVSPropertyOp44
 70
     1
102
RTVSPropertyOp45
 70
     1
102
RTVSPropertyOp46
 70
     1
102
RTVSPropertyOp47
 70
     1
102
RTVSPropertyOp48
 70
     1
102
RTVSPropertyOp49
 70
     1
102
RTVSPropertyOp50
 70
     1
102
RTVSPropertyOp51
 70
     0
102
RTVSPropertyOp52
 70
     0
102
RTVSPropertyOp53
 70
     1
102
RTVSPropertyOp54
 70
     1
102
RTVSPropertyOp55
 70
     1
102
RTVSPropertyOp56
 70
     1
102
RTVSPropertyOp57
 70
     1
102
RTVSPropertyOp58
 70
     1
102
RTVSPropertyOp59
 70
     1
102
RTVSPropertyOp60
 70
     1
102
RTVSPropertyOp61
 70
     1
102
RTVSPropertyOp62
 70
     1
  0
XRECORD
  5
EDF
102
{ACAD_REACTORS
330
EDE
102
}
330
EDE
100
AcDbXrecord
280
     1
102
RTVSPost2010Prop28
280
     0
102
RTVSPost2010PropOp28
 70
     1
102
RTVSPost2010Prop29
280
     1
102
RTVSPost2010PropOp29
 70
     1
102
RTVSPost2010Prop30
280
     1
102
RTVSPost2010PropOp30
 70
     1
102
RTVSPost2010Prop31
280
     0
102
RTVSPost2010PropOp31
 70
     1
102
RTVSPost2010Prop32
280
     0
102
RTVSPost2010PropOp32
 70
     1
102
RTVSPost2010Prop33
280
     0
102
RTVSPost2010PropOp33
 70
     1
102
RTVSPost2010Prop34
280
     0
102
RTVSPost2010PropOp34
 70
     1
102
RTVSPost2010Prop35
280
     0
102
RTVSPost2010PropOp35
 70
     1
102
RTVSPost2010Prop36
280
     0
102
RTVSPost2010PropOp36
 70
     1
102
RTVSPost2010Prop37
 90
       50
102
RTVSPost2010PropOp37
 70
     1
102
RTVSPost2010Prop38
140
0.0
102
RTVSPost2010PropOp38
 70
     1
102
RTVSPost2010Prop39
140
1.0
102
RTVSPost2010PropOp39
 70
     1
102
RTVSPost2010Prop40
 90
        0
102
RTVSPost2010PropOp40
 70
     1
102
RTVSPost2010Prop41ColorIndex
 90
       18
102
RTVSPost2010Prop41ColorRGB
 90
-16777216
102
RTVSPost2010PropOp41
 70
     1
102
RTVSPost2010Prop42
 90
       50
102
RTVSPost2010PropOp42
 70
     1
102
RTVSPost2010Prop43
 90
        3
102
RTVSPost2010PropOp43
 70
     1
102
RTVSPost2010Prop44ColorIndex
 90
        5
102
RTVSPost2010Prop44ColorRGB
 90
      255
102
RTVSPost2010PropOp44
 70
     1
102
RTVSPost2010Prop45
280
     0
102
RTVSPost2010PropOp45
 70
     1
102
RTVSPost2010Prop46
 90
       50
102
RTVSPost2010PropOp46
 70
     1
102
RTVSPost2010Prop47
 90
       50
102
RTVSPost2010PropOp47
 70
     1
102
RTVSPost2010Prop48
 90
       50
102
RTVSPost2010PropOp48
 70
     1
102
RTVSPost2010Prop49
280
     0
102
RTVSPost2010PropOp49
 70
     1
102
RTVSPost2010Prop50
 90
       50
102
RTVSPost2010PropOp50
 70
     1
102
RTVSPost2010Prop51ColorIndex
 90
      256
102
RTVSPost2010Prop51ColorRGB
 90
-16777216
102
RTVSPost2010PropOp51
 70
     0
102
RTVSPost2010Prop52
140
1.0
102
RTVSPost2010PropOp52
 70
     0
102
RTVSPost2010Prop53
 90
        2
102
RTVSPost2010PropOp53
 70
     1
102
RTVSPost2010Prop54
  1
strokes_ogs.tif
102
RTVSPost2010PropOp54
 70
     1
102
RTVSPost2010Prop55
280
     0
102
RTVSPost2010PropOp55
 70
     1
102
RTVSPost2010Prop56
140
1.0
102
RTVSPost2010PropOp56
 70
     1
102
RTVSPost2010Prop57
140
1.0
102
RTVSPost2010PropOp57
 70
     1
102
RTVSPropertyOp0
 70
     1
102
RTVSPropertyOp1
 70
     1
102
RTVSPropertyOp2
 70
     1
102
RTVSPropertyOp3
 70
     1
102
RTVSPropertyOp4
 70
     1
102
RTVSPropertyOp5
 70
     1
102
RTVSPropertyOp6
 70
     1
102
RTVSPropertyOp7
 70
     1
102
RTVSPropertyOp8
 70
     1
102
RTVSPropertyOp9
 70
     1
102
RTVSPropertyOp10
 70
     1
102
RTVSPropertyOp11
 70
     1
102
RTVSPropertyOp12
 70
     1
102
RTVSPropertyOp13
 70
     1
102
RTVSPropertyOp14
 70
     1
102
RTVSPropertyOp15
 70
     1
102
RTVSPropertyOp16
 70
     1
102
RTVSPropertyOp17
 70
     1
102
RTVSPropertyOp18
 70
     1
102
RTVSPropertyOp19
 70
     1
102
RTVSPropertyOp20
 70
     1
102
RTVSPropertyOp21
 70
     1
102
RTVSPropertyOp22
 70
     1
102
RTVSPropertyOp23
 70
     1
102
RTVSPropertyOp24
 70
     1
102
RTVSPropertyOp25
 70
     1
102
RTVSPropertyOp26
 70
     1
102
RTVSPropertyOp27
 70
     1
102
RTVSPropertyOp28
 70
     1
102
RTVSPropertyOp29
 70
     1
102
RTVSPropertyOp30
 70
     1
102
RTVSPropertyOp31
 70
     1
102
RTVSPropertyOp32
 70
     1
102
RTVSPropertyOp33
 70
     1
102
RTVSPropertyOp34
 70
     1
102
RTVSPropertyOp35
 70
     1
102
RTVSPropertyOp36
 70
     1
102
RTVSPropertyOp37
 70
     1
102
RTVSPropertyOp38
 70
     1
102
RTVSPropertyOp39
 70
     1
102
RTVSPropertyOp40
 70
     1
102
RTVSPropertyOp41
 70
     1
102
RTVSPropertyOp42
 70
     1
102
RTVSPropertyOp43
 70
     1
102
RTVSPropertyOp44
 70
     1
102
RTVSPropertyOp45
 70
     1
102
RTVSPropertyOp46
 70
     1
102
RTVSPropertyOp47
 70
     1
102
RTVSPropertyOp48
 70
     1
102
RTVSPropertyOp49
 70
     1
102
RTVSPropertyOp50
 70
     1
102
RTVSPropertyOp51
 70
     0
102
RTVSPropertyOp52
 70
     0
102
RTVSPropertyOp53
 70
     1
102
RTVSPropertyOp54
 70
     1
102
RTVSPropertyOp55
 70
     1
102
RTVSPropertyOp56
 70
     1
102
RTVSPropertyOp57
 70
     1
102
RTVSPropertyOp58
 70
     1
102
RTVSPropertyOp59
 70
     1
102
RTVSPropertyOp60
 70
     1
102
RTVSPropertyOp61
 70
     1
102
RTVSPropertyOp62
 70
     1
  0
XRECORD
  5
EE7
102
{ACAD_REACTORS
330
EE6
102
}
330
EE6
100
AcDbXrecord
280
     1
102
RTVSPost2010Prop28
280
     0
102
RTVSPost2010PropOp28
 70
     1
102
RTVSPost2010Prop29
280
     1
102
RTVSPost2010PropOp29
 70
     1
102
RTVSPost2010Prop30
280
     1
102
RTVSPost2010PropOp30
 70
     1
102
RTVSPost2010Prop31
280
     0
102
RTVSPost2010PropOp31
 70
     1
102
RTVSPost2010Prop32
280
     0
102
RTVSPost2010PropOp32
 70
     1
102
RTVSPost2010Prop33
280
     0
102
RTVSPost2010PropOp33
 70
     1
102
RTVSPost2010Prop34
280
     0
102
RTVSPost2010PropOp34
 70
     1
102
RTVSPost2010Prop35
280
     0
102
RTVSPost2010PropOp35
 70
     1
102
RTVSPost2010Prop36
280
     0
102
RTVSPost2010PropOp36
 70
     1
102
RTVSPost2010Prop37
 90
       50
102
RTVSPost2010PropOp37
 70
     1
102
RTVSPost2010Prop38
140
0.0
102
RTVSPost2010PropOp38
 70
     1
102
RTVSPost2010Prop39
140
1.0
102
RTVSPost2010PropOp39
 70
     1
102
RTVSPost2010Prop40
 90
        0
102
RTVSPost2010PropOp40
 70
     1
102
RTVSPost2010Prop41ColorIndex
 90
       18
102
RTVSPost2010Prop41ColorRGB
 90
-16777216
102
RTVSPost2010PropOp41
 70
     1
102
RTVSPost2010Prop42
 90
       50
102
RTVSPost2010PropOp42
 70
     1
102
RTVSPost2010Prop43
 90
        3
102
RTVSPost2010PropOp43
 70
     1
102
RTVSPost2010Prop44ColorIndex
 90
        5
102
RTVSPost2010Prop44ColorRGB
 90
      255
102
RTVSPost2010PropOp44
 70
     1
102
RTVSPost2010Prop45
280
     0
102
RTVSPost2010PropOp45
 70
     1
102
RTVSPost2010Prop46
 90
       50
102
RTVSPost2010PropOp46
 70
     1
102
RTVSPost2010Prop47
 90
       50
102
RTVSPost2010PropOp47
 70
     1
102
RTVSPost2010Prop48
 90
       50
102
RTVSPost2010PropOp48
 70
     1
102
RTVSPost2010Prop49
280
     0
102
RTVSPost2010PropOp49
 70
     1
102
RTVSPost2010Prop50
 90
       50
102
RTVSPost2010PropOp50
 70
     1
102
RTVSPost2010Prop51ColorIndex
 90
      256
102
RTVSPost2010Prop51ColorRGB
 90
-16777216
102
RTVSPost2010PropOp51
 70
     0
102
RTVSPost2010Prop52
140
1.0
102
RTVSPost2010PropOp52
 70
     0
102
RTVSPost2010Prop53
 90
        2
102
RTVSPost2010PropOp53
 70
     1
102
RTVSPost2010Prop54
  1
strokes_ogs.tif
102
RTVSPost2010PropOp54
 70
     1
102
RTVSPost2010Prop55
280
     0
102
RTVSPost2010PropOp55
 70
     1
102
RTVSPost2010Prop56
140
1.0
102
RTVSPost2010PropOp56
 70
     1
102
RTVSPost2010Prop57
140
1.0
102
RTVSPost2010PropOp57
 70
     1
102
RTVSPropertyOp0
 70
     1
102
RTVSPropertyOp1
 70
     1
102
RTVSPropertyOp2
 70
     1
102
RTVSPropertyOp3
 70
     1
102
RTVSPropertyOp4
 70
     1
102
RTVSPropertyOp5
 70
     1
102
RTVSPropertyOp6
 70
     1
102
RTVSPropertyOp7
 70
     1
102
RTVSPropertyOp8
 70
     1
102
RTVSPropertyOp9
 70
     1
102
RTVSPropertyOp10
 70
     1
102
RTVSPropertyOp11
 70
     1
102
RTVSPropertyOp12
 70
     1
102
RTVSPropertyOp13
 70
     1
102
RTVSPropertyOp14
 70
     1
102
RTVSPropertyOp15
 70
     1
102
RTVSPropertyOp16
 70
     1
102
RTVSPropertyOp17
 70
     1
102
RTVSPropertyOp18
 70
     1
102
RTVSPropertyOp19
 70
     1
102
RTVSPropertyOp20
 70
     1
102
RTVSPropertyOp21
 70
     1
102
RTVSPropertyOp22
 70
     1
102
RTVSPropertyOp23
 70
     1
102
RTVSPropertyOp24
 70
     1
102
RTVSPropertyOp25
 70
     1
102
RTVSPropertyOp26
 70
     1
102
RTVSPropertyOp27
 70
     1
102
RTVSPropertyOp28
 70
     1
102
RTVSPropertyOp29
 70
     1
102
RTVSPropertyOp30
 70
     1
102
RTVSPropertyOp31
 70
     1
102
RTVSPropertyOp32
 70
     1
102
RTVSPropertyOp33
 70
     1
102
RTVSPropertyOp34
 70
     1
102
RTVSPropertyOp35
 70
     1
102
RTVSPropertyOp36
 70
     1
102
RTVSPropertyOp37
 70
     1
102
RTVSPropertyOp38
 70
     1
102
RTVSPropertyOp39
 70
     1
102
RTVSPropertyOp40
 70
     1
102
RTVSPropertyOp41
 70
     1
102
RTVSPropertyOp42
 70
     1
102
RTVSPropertyOp43
 70
     1
102
RTVSPropertyOp44
 70
     1
102
RTVSPropertyOp45
 70
     1
102
RTVSPropertyOp46
 70
     1
102
RTVSPropertyOp47
 70
     1
102
RTVSPropertyOp48
 70
     1
102
RTVSPropertyOp49
 70
     1
102
RTVSPropertyOp50
 70
     1
102
RTVSPropertyOp51
 70
     0
102
RTVSPropertyOp52
 70
     0
102
RTVSPropertyOp53
 70
     1
102
RTVSPropertyOp54
 70
     1
102
RTVSPropertyOp55
 70
     1
102
RTVSPropertyOp56
 70
     1
102
RTVSPropertyOp57
 70
     1
102
RTVSPropertyOp58
 70
     1
102
RTVSPropertyOp59
 70
     1
102
RTVSPropertyOp60
 70
     1
102
RTVSPropertyOp61
 70
     1
102
RTVSPropertyOp62
 70
     1
  0
XRECORD
  5
F03
102
{ACAD_REACTORS
330
F02
102
}
330
F02
100
AcDbXrecord
280
     1
102
RTVSPost2010Prop28
280
     0
102
RTVSPost2010PropOp28
 70
     1
102
RTVSPost2010Prop29
280
     1
102
RTVSPost2010PropOp29
 70
     1
102
RTVSPost2010Prop30
280
     1
102
RTVSPost2010PropOp30
 70
     1
102
RTVSPost2010Prop31
280
     0
102
RTVSPost2010PropOp31
 70
     1
102
RTVSPost2010Prop32
280
     0
102
RTVSPost2010PropOp32
 70
     1
102
RTVSPost2010Prop33
280
     0
102
RTVSPost2010PropOp33
 70
     1
102
RTVSPost2010Prop34
280
     0
102
RTVSPost2010PropOp34
 70
     1
102
RTVSPost2010Prop35
280
     0
102
RTVSPost2010PropOp35
 70
     1
102
RTVSPost2010Prop36
280
     0
102
RTVSPost2010PropOp36
 70
     1
102
RTVSPost2010Prop37
 90
       50
102
RTVSPost2010PropOp37
 70
     0
102
RTVSPost2010Prop38
140
0.0
102
RTVSPost2010PropOp38
 70
     0
102
RTVSPost2010Prop39
140
1.0
102
RTVSPost2010PropOp39
 70
     0
102
RTVSPost2010Prop40
 90
        0
102
RTVSPost2010PropOp40
 70
     0
102
RTVSPost2010Prop41ColorIndex
 90
       18
102
RTVSPost2010Prop41ColorRGB
 90
-16777216
102
RTVSPost2010PropOp41
 70
     0
102
RTVSPost2010Prop42
 90
       50
102
RTVSPost2010PropOp42
 70
     0
102
RTVSPost2010Prop43
 90
        3
102
RTVSPost2010PropOp43
 70
     0
102
RTVSPost2010Prop44ColorIndex
 90
        5
102
RTVSPost2010Prop44ColorRGB
 90
      255
102
RTVSPost2010PropOp44
 70
     0
102
RTVSPost2010Prop45
280
     0
102
RTVSPost2010PropOp45
 70
     1
102
RTVSPost2010Prop46
 90
       50
102
RTVSPost2010PropOp46
 70
     0
102
RTVSPost2010Prop47
 90
       50
102
RTVSPost2010PropOp47
 70
     0
102
RTVSPost2010Prop48
 90
       50
102
RTVSPost2010PropOp48
 70
     0
102
RTVSPost2010Prop49
280
     0
102
RTVSPost2010PropOp49
 70
     1
102
RTVSPost2010Prop50
 90
       50
102
RTVSPost2010PropOp50
 70
     0
102
RTVSPost2010Prop51ColorIndex
 90
      256
102
RTVSPost2010Prop51ColorRGB
 90
-16777216
102
RTVSPost2010PropOp51
 70
     0
102
RTVSPost2010Prop52
140
1.0
102
RTVSPost2010PropOp52
 70
     0
102
RTVSPost2010Prop53
 90
        2
102
RTVSPost2010PropOp53
 70
     0
102
RTVSPost2010Prop54
  1
strokes_ogs.tif
102
RTVSPost2010PropOp54
 70
     0
102
RTVSPost2010Prop55
280
     0
102
RTVSPost2010PropOp55
 70
     1
102
RTVSPost2010Prop56
140
1.0
102
RTVSPost2010PropOp56
 70
     0
102
RTVSPost2010Prop57
140
1.0
102
RTVSPost2010PropOp57
 70
     0
102
RTVSPropertyOp0
 70
     0
102
RTVSPropertyOp1
 70
     0
102
RTVSPropertyOp2
 70
     0
102
RTVSPropertyOp3
 70
     0
102
RTVSPropertyOp4
 70
     0
102
RTVSPropertyOp5
 70
     0
102
RTVSPropertyOp6
 70
     0
102
RTVSPropertyOp7
 70
     0
102
RTVSPropertyOp8
 70
     0
102
RTVSPropertyOp9
 70
     0
102
RTVSPropertyOp10
 70
     0
102
RTVSPropertyOp11
 70
     0
102
RTVSPropertyOp12
 70
     0
102
RTVSPropertyOp13
 70
     0
102
RTVSPropertyOp14
 70
     2
102
RTVSPropertyOp15
 70
     0
102
RTVSPropertyOp16
 70
     0
102
RTVSPropertyOp17
 70
     0
102
RTVSPropertyOp18
 70
     0
102
RTVSPropertyOp19
 70
     0
102
RTVSPropertyOp20
 70
     0
102
RTVSPropertyOp21
 70
     0
102
RTVSPropertyOp22
 70
     0
102
RTVSPropertyOp23
 70
     0
102
RTVSPropertyOp24
 70
     0
102
RTVSPropertyOp25
 70
     0
102
RTVSPropertyOp26
 70
     0
102
RTVSPropertyOp27
 70
     0
102
RTVSPropertyOp28
 70
     1
102
RTVSPropertyOp29
 70
     1
102
RTVSPropertyOp30
 70
     1
102
RTVSPropertyOp31
 70
     1
102
RTVSPropertyOp32
 70
     1
102
RTVSPropertyOp33
 70
     1
102
RTVSPropertyOp34
 70
     1
102
RTVSPropertyOp35
 70
     1
102
RTVSPropertyOp36
 70
     1
102
RTVSPropertyOp37
 70
     0
102
RTVSPropertyOp38
 70
     0
102
RTVSPropertyOp39
 70
     0
102
RTVSPropertyOp40
 70
     0
102
RTVSPropertyOp41
 70
     0
102
RTVSPropertyOp42
 70
     0
102
RTVSPropertyOp43
 70
     0
102
RTVSPropertyOp44
 70
     0
102
RTVSPropertyOp45
 70
     1
102
RTVSPropertyOp46
 70
     0
102
RTVSPropertyOp47
 70
     0
102
RTVSPropertyOp48
 70
     0
102
RTVSPropertyOp49
 70
     1
102
RTVSPropertyOp50
 70
     0
102
RTVSPropertyOp51
 70
     0
102
RTVSPropertyOp52
 70
     0
102
RTVSPropertyOp53
 70
     0
102
RTVSPropertyOp54
 70
     0
102
RTVSPropertyOp55
 70
     1
102
RTVSPropertyOp56
 70
     0
102
RTVSPropertyOp57
 70
     0
102
RTVSPropertyOp58
 70
     1
102
RTVSPropertyOp59
 70
     1
102
RTVSPropertyOp60
 70
     1
102
RTVSPropertyOp61
 70
     1
102
RTVSPropertyOp62
 70
     1
  0
XRECORD
  5
EF3
102
{ACAD_REACTORS
330
EF2
102
}
330
EF2
100
AcDbXrecord
280
     1
102
RTVSPost2010Prop28
280
     0
102
RTVSPost2010PropOp28
 70
     1
102
RTVSPost2010Prop29
280
     1
102
RTVSPost2010PropOp29
 70
     1
102
RTVSPost2010Prop30
280
     1
102
RTVSPost2010PropOp30
 70
     1
102
RTVSPost2010Prop31
280
     0
102
RTVSPost2010PropOp31
 70
     1
102
RTVSPost2010Prop32
280
     0
102
RTVSPost2010PropOp32
 70
     1
102
RTVSPost2010Prop33
280
     0
102
RTVSPost2010PropOp33
 70
     1
102
RTVSPost2010Prop34
280
     0
102
RTVSPost2010PropOp34
 70
     1
102
RTVSPost2010Prop35
280
     0
102
RTVSPost2010PropOp35
 70
     1
102
RTVSPost2010Prop36
280
     0
102
RTVSPost2010PropOp36
 70
     1
102
RTVSPost2010Prop37
 90
       50
102
RTVSPost2010PropOp37
 70
     1
102
RTVSPost2010Prop38
140
0.0
102
RTVSPost2010PropOp38
 70
     1
102
RTVSPost2010Prop39
140
1.0
102
RTVSPost2010PropOp39
 70
     1
102
RTVSPost2010Prop40
 90
        0
102
RTVSPost2010PropOp40
 70
     1
102
RTVSPost2010Prop41ColorIndex
 90
       18
102
RTVSPost2010Prop41ColorRGB
 90
-16777216
102
RTVSPost2010PropOp41
 70
     1
102
RTVSPost2010Prop42
 90
       50
102
RTVSPost2010PropOp42
 70
     1
102
RTVSPost2010Prop43
 90
        3
102
RTVSPost2010PropOp43
 70
     1
102
RTVSPost2010Prop44ColorIndex
 90
        5
102
RTVSPost2010Prop44ColorRGB
 90
      255
102
RTVSPost2010PropOp44
 70
     1
102
RTVSPost2010Prop45
280
     0
102
RTVSPost2010PropOp45
 70
     1
102
RTVSPost2010Prop46
 90
       50
102
RTVSPost2010PropOp46
 70
     1
102
RTVSPost2010Prop47
 90
       50
102
RTVSPost2010PropOp47
 70
     1
102
RTVSPost2010Prop48
 90
       50
102
RTVSPost2010PropOp48
 70
     1
102
RTVSPost2010Prop49
280
     0
102
RTVSPost2010PropOp49
 70
     1
102
RTVSPost2010Prop50
 90
       50
102
RTVSPost2010PropOp50
 70
     1
102
RTVSPost2010Prop51ColorIndex
 90
      256
102
RTVSPost2010Prop51ColorRGB
 90
-16777216
102
RTVSPost2010PropOp51
 70
     0
102
RTVSPost2010Prop52
140
1.0
102
RTVSPost2010PropOp52
 70
     0
102
RTVSPost2010Prop53
 90
        2
102
RTVSPost2010PropOp53
 70
     1
102
RTVSPost2010Prop54
  1
strokes_ogs.tif
102
RTVSPost2010PropOp54
 70
     1
102
RTVSPost2010Prop55
280
     0
102
RTVSPost2010PropOp55
 70
     1
102
RTVSPost2010Prop56
140
1.0
102
RTVSPost2010PropOp56
 70
     1
102
RTVSPost2010Prop57
140
1.0
102
RTVSPost2010PropOp57
 70
     1
102
RTVSPropertyOp0
 70
     1
102
RTVSPropertyOp1
 70
     1
102
RTVSPropertyOp2
 70
     1
102
RTVSPropertyOp3
 70
     1
102
RTVSPropertyOp4
 70
     1
102
RTVSPropertyOp5
 70
     1
102
RTVSPropertyOp6
 70
     1
102
RTVSPropertyOp7
 70
     1
102
RTVSPropertyOp8
 70
     1
102
RTVSPropertyOp9
 70
     1
102
RTVSPropertyOp10
 70
     1
102
RTVSPropertyOp11
 70
     1
102
RTVSPropertyOp12
 70
     1
102
RTVSPropertyOp13
 70
     1
102
RTVSPropertyOp14
 70
     1
102
RTVSPropertyOp15
 70
     1
102
RTVSPropertyOp16
 70
     1
102
RTVSPropertyOp17
 70
     1
102
RTVSPropertyOp18
 70
     1
102
RTVSPropertyOp19
 70
     1
102
RTVSPropertyOp20
 70
     1
102
RTVSPropertyOp21
 70
     1
102
RTVSPropertyOp22
 70
     1
102
RTVSPropertyOp23
 70
     1
102
RTVSPropertyOp24
 70
     1
102
RTVSPropertyOp25
 70
     1
102
RTVSPropertyOp26
 70
     1
102
RTVSPropertyOp27
 70
     1
102
RTVSPropertyOp28
 70
     1
102
RTVSPropertyOp29
 70
     1
102
RTVSPropertyOp30
 70
     1
102
RTVSPropertyOp31
 70
     1
102
RTVSPropertyOp32
 70
     1
102
RTVSPropertyOp33
 70
     1
102
RTVSPropertyOp34
 70
     1
102
RTVSPropertyOp35
 70
     1
102
RTVSPropertyOp36
 70
     1
102
RTVSPropertyOp37
 70
     1
102
RTVSPropertyOp38
 70
     1
102
RTVSPropertyOp39
 70
     1
102
RTVSPropertyOp40
 70
     1
102
RTVSPropertyOp41
 70
     1
102
RTVSPropertyOp42
 70
     1
102
RTVSPropertyOp43
 70
     1
102
RTVSPropertyOp44
 70
     1
102
RTVSPropertyOp45
 70
     1
102
RTVSPropertyOp46
 70
     1
102
RTVSPropertyOp47
 70
     1
102
RTVSPropertyOp48
 70
     1
102
RTVSPropertyOp49
 70
     1
102
RTVSPropertyOp50
 70
     1
102
RTVSPropertyOp51
 70
     0
102
RTVSPropertyOp52
 70
     0
102
RTVSPropertyOp53
 70
     1
102
RTVSPropertyOp54
 70
     1
102
RTVSPropertyOp55
 70
     1
102
RTVSPropertyOp56
 70
     1
102
RTVSPropertyOp57
 70
     1
102
RTVSPropertyOp58
 70
     1
102
RTVSPropertyOp59
 70
     1
102
RTVSPropertyOp60
 70
     1
102
RTVSPropertyOp61
 70
     1
102
RTVSPropertyOp62
 70
     1
  0
XRECORD
  5
F05
102
{ACAD_REACTORS
330
F04
102
}
330
F04
100
AcDbXrecord
280
     1
102
RTVSPost2010Prop28
280
     0
102
RTVSPost2010PropOp28
 70
     1
102
RTVSPost2010Prop29
280
     1
102
RTVSPost2010PropOp29
 70
     1
102
RTVSPost2010Prop30
280
     1
102
RTVSPost2010PropOp30
 70
     1
102
RTVSPost2010Prop31
280
     0
102
RTVSPost2010PropOp31
 70
     1
102
RTVSPost2010Prop32
280
     0
102
RTVSPost2010PropOp32
 70
     1
102
RTVSPost2010Prop33
280
     0
102
RTVSPost2010PropOp33
 70
     1
102
RTVSPost2010Prop34
280
     0
102
RTVSPost2010PropOp34
 70
     1
102
RTVSPost2010Prop35
280
     0
102
RTVSPost2010PropOp35
 70
     1
102
RTVSPost2010Prop36
280
     0
102
RTVSPost2010PropOp36
 70
     1
102
RTVSPost2010Prop37
 90
       50
102
RTVSPost2010PropOp37
 70
     0
102
RTVSPost2010Prop38
140
0.0
102
RTVSPost2010PropOp38
 70
     0
102
RTVSPost2010Prop39
140
1.0
102
RTVSPost2010PropOp39
 70
     0
102
RTVSPost2010Prop40
 90
        0
102
RTVSPost2010PropOp40
 70
     0
102
RTVSPost2010Prop41ColorIndex
 90
       18
102
RTVSPost2010Prop41ColorRGB
 90
-16777216
102
RTVSPost2010PropOp41
 70
     0
102
RTVSPost2010Prop42
 90
       50
102
RTVSPost2010PropOp42
 70
     0
102
RTVSPost2010Prop43
 90
        3
102
RTVSPost2010PropOp43
 70
     0
102
RTVSPost2010Prop44ColorIndex
 90
        5
102
RTVSPost2010Prop44ColorRGB
 90
      255
102
RTVSPost2010PropOp44
 70
     0
102
RTVSPost2010Prop45
280
     0
102
RTVSPost2010PropOp45
 70
     1
102
RTVSPost2010Prop46
 90
       50
102
RTVSPost2010PropOp46
 70
     0
102
RTVSPost2010Prop47
 90
       50
102
RTVSPost2010PropOp47
 70
     0
102
RTVSPost2010Prop48
 90
       50
102
RTVSPost2010PropOp48
 70
     0
102
RTVSPost2010Prop49
280
     0
102
RTVSPost2010PropOp49
 70
     1
102
RTVSPost2010Prop50
 90
       50
102
RTVSPost2010PropOp50
 70
     0
102
RTVSPost2010Prop51ColorIndex
 90
      256
102
RTVSPost2010Prop51ColorRGB
 90
-16777216
102
RTVSPost2010PropOp51
 70
     0
102
RTVSPost2010Prop52
140
1.0
102
RTVSPost2010PropOp52
 70
     0
102
RTVSPost2010Prop53
 90
        2
102
RTVSPost2010PropOp53
 70
     0
102
RTVSPost2010Prop54
  1
strokes_ogs.tif
102
RTVSPost2010PropOp54
 70
     0
102
RTVSPost2010Prop55
280
     0
102
RTVSPost2010PropOp55
 70
     1
102
RTVSPost2010Prop56
140
1.0
102
RTVSPost2010PropOp56
 70
     0
102
RTVSPost2010Prop57
140
1.0
102
RTVSPost2010PropOp57
 70
     0
102
RTVSPropertyOp0
 70
     0
102
RTVSPropertyOp1
 70
     0
102
RTVSPropertyOp2
 70
     0
102
RTVSPropertyOp3
 70
     0
102
RTVSPropertyOp4
 70
     0
102
RTVSPropertyOp5
 70
     0
102
RTVSPropertyOp6
 70
     0
102
RTVSPropertyOp7
 70
     0
102
RTVSPropertyOp8
 70
     0
102
RTVSPropertyOp9
 70
     0
102
RTVSPropertyOp10
 70
     0
102
RTVSPropertyOp11
 70
     0
102
RTVSPropertyOp12
 70
     0
102
RTVSPropertyOp13
 70
     0
102
RTVSPropertyOp14
 70
     2
102
RTVSPropertyOp15
 70
     0
102
RTVSPropertyOp16
 70
     0
102
RTVSPropertyOp17
 70
     0
102
RTVSPropertyOp18
 70
     0
102
RTVSPropertyOp19
 70
     0
102
RTVSPropertyOp20
 70
     0
102
RTVSPropertyOp21
 70
     0
102
RTVSPropertyOp22
 70
     0
102
RTVSPropertyOp23
 70
     0
102
RTVSPropertyOp24
 70
     0
102
RTVSPropertyOp25
 70
     0
102
RTVSPropertyOp26
 70
     0
102
RTVSPropertyOp27
 70
     0
102
RTVSPropertyOp28
 70
     1
102
RTVSPropertyOp29
 70
     1
102
RTVSPropertyOp30
 70
     1
102
RTVSPropertyOp31
 70
     1
102
RTVSPropertyOp32
 70
     1
102
RTVSPropertyOp33
 70
     1
102
RTVSPropertyOp34
 70
     1
102
RTVSPropertyOp35
 70
     1
102
RTVSPropertyOp36
 70
     1
102
RTVSPropertyOp37
 70
     0
102
RTVSPropertyOp38
 70
     0
102
RTVSPropertyOp39
 70
     0
102
RTVSPropertyOp40
 70
     0
102
RTVSPropertyOp41
 70
     0
102
RTVSPropertyOp42
 70
     0
102
RTVSPropertyOp43
 70
     0
102
RTVSPropertyOp44
 70
     0
102
RTVSPropertyOp45
 70
     1
102
RTVSPropertyOp46
 70
     0
102
RTVSPropertyOp47
 70
     0
102
RTVSPropertyOp48
 70
     0
102
RTVSPropertyOp49
 70
     1
102
RTVSPropertyOp50
 70
     0
102
RTVSPropertyOp51
 70
     0
102
RTVSPropertyOp52
 70
     0
102
RTVSPropertyOp53
 70
     0
102
RTVSPropertyOp54
 70
     0
102
RTVSPropertyOp55
 70
     1
102
RTVSPropertyOp56
 70
     0
102
RTVSPropertyOp57
 70
     0
102
RTVSPropertyOp58
 70
     1
102
RTVSPropertyOp59
 70
     1
102
RTVSPropertyOp60
 70
     1
102
RTVSPropertyOp61
 70
     1
102
RTVSPropertyOp62
 70
     1
  0
XRECORD
  5
EEB
102
{ACAD_REACTORS
330
EEA
102
}
330
EEA
100
AcDbXrecord
280
     1
102
RTVSPost2010Prop28
280
     0
102
RTVSPost2010PropOp28
 70
     1
102
RTVSPost2010Prop29
280
     1
102
RTVSPost2010PropOp29
 70
     1
102
RTVSPost2010Prop30
280
     1
102
RTVSPost2010PropOp30
 70
     1
102
RTVSPost2010Prop31
280
     0
102
RTVSPost2010PropOp31
 70
     1
102
RTVSPost2010Prop32
280
     0
102
RTVSPost2010PropOp32
 70
     1
102
RTVSPost2010Prop33
280
     0
102
RTVSPost2010PropOp33
 70
     1
102
RTVSPost2010Prop34
280
     0
102
RTVSPost2010PropOp34
 70
     1
102
RTVSPost2010Prop35
280
     0
102
RTVSPost2010PropOp35
 70
     1
102
RTVSPost2010Prop36
280
     0
102
RTVSPost2010PropOp36
 70
     1
102
RTVSPost2010Prop37
 90
       50
102
RTVSPost2010PropOp37
 70
     1
102
RTVSPost2010Prop38
140
0.0
102
RTVSPost2010PropOp38
 70
     1
102
RTVSPost2010Prop39
140
1.0
102
RTVSPost2010PropOp39
 70
     1
102
RTVSPost2010Prop40
 90
        0
102
RTVSPost2010PropOp40
 70
     1
102
RTVSPost2010Prop41ColorIndex
 90
       18
102
RTVSPost2010Prop41ColorRGB
 90
-16777216
102
RTVSPost2010PropOp41
 70
     1
102
RTVSPost2010Prop42
 90
       50
102
RTVSPost2010PropOp42
 70
     1
102
RTVSPost2010Prop43
 90
        3
102
RTVSPost2010PropOp43
 70
     1
102
RTVSPost2010Prop44ColorIndex
 90
        5
102
RTVSPost2010Prop44ColorRGB
 90
      255
102
RTVSPost2010PropOp44
 70
     1
102
RTVSPost2010Prop45
280
     0
102
RTVSPost2010PropOp45
 70
     1
102
RTVSPost2010Prop46
 90
       50
102
RTVSPost2010PropOp46
 70
     1
102
RTVSPost2010Prop47
 90
       50
102
RTVSPost2010PropOp47
 70
     1
102
RTVSPost2010Prop48
 90
       50
102
RTVSPost2010PropOp48
 70
     1
102
RTVSPost2010Prop49
280
     0
102
RTVSPost2010PropOp49
 70
     1
102
RTVSPost2010Prop50
 90
       50
102
RTVSPost2010PropOp50
 70
     1
102
RTVSPost2010Prop51ColorIndex
 90
      256
102
RTVSPost2010Prop51ColorRGB
 90
-16777216
102
RTVSPost2010PropOp51
 70
     0
102
RTVSPost2010Prop52
140
1.0
102
RTVSPost2010PropOp52
 70
     0
102
RTVSPost2010Prop53
 90
        2
102
RTVSPost2010PropOp53
 70
     1
102
RTVSPost2010Prop54
  1
strokes_ogs.tif
102
RTVSPost2010PropOp54
 70
     1
102
RTVSPost2010Prop55
280
     0
102
RTVSPost2010PropOp55
 70
     1
102
RTVSPost2010Prop56
140
1.0
102
RTVSPost2010PropOp56
 70
     1
102
RTVSPost2010Prop57
140
1.0
102
RTVSPost2010PropOp57
 70
     1
102
RTVSPropertyOp0
 70
     1
102
RTVSPropertyOp1
 70
     1
102
RTVSPropertyOp2
 70
     1
102
RTVSPropertyOp3
 70
     1
102
RTVSPropertyOp4
 70
     1
102
RTVSPropertyOp5
 70
     1
102
RTVSPropertyOp6
 70
     1
102
RTVSPropertyOp7
 70
     1
102
RTVSPropertyOp8
 70
     1
102
RTVSPropertyOp9
 70
     1
102
RTVSPropertyOp10
 70
     1
102
RTVSPropertyOp11
 70
     1
102
RTVSPropertyOp12
 70
     1
102
RTVSPropertyOp13
 70
     1
102
RTVSPropertyOp14
 70
     1
102
RTVSPropertyOp15
 70
     1
102
RTVSPropertyOp16
 70
     1
102
RTVSPropertyOp17
 70
     1
102
RTVSPropertyOp18
 70
     1
102
RTVSPropertyOp19
 70
     1
102
RTVSPropertyOp20
 70
     1
102
RTVSPropertyOp21
 70
     1
102
RTVSPropertyOp22
 70
     1
102
RTVSPropertyOp23
 70
     1
102
RTVSPropertyOp24
 70
     1
102
RTVSPropertyOp25
 70
     1
102
RTVSPropertyOp26
 70
     1
102
RTVSPropertyOp27
 70
     1
102
RTVSPropertyOp28
 70
     1
102
RTVSPropertyOp29
 70
     1
102
RTVSPropertyOp30
 70
     1
102
RTVSPropertyOp31
 70
     1
102
RTVSPropertyOp32
 70
     1
102
RTVSPropertyOp33
 70
     1
102
RTVSPropertyOp34
 70
     1
102
RTVSPropertyOp35
 70
     1
102
RTVSPropertyOp36
 70
     1
102
RTVSPropertyOp37
 70
     1
102
RTVSPropertyOp38
 70
     1
102
RTVSPropertyOp39
 70
     1
102
RTVSPropertyOp40
 70
     1
102
RTVSPropertyOp41
 70
     1
102
RTVSPropertyOp42
 70
     1
102
RTVSPropertyOp43
 70
     1
102
RTVSPropertyOp44
 70
     1
102
RTVSPropertyOp45
 70
     1
102
RTVSPropertyOp46
 70
     1
102
RTVSPropertyOp47
 70
     1
102
RTVSPropertyOp48
 70
     1
102
RTVSPropertyOp49
 70
     1
102
RTVSPropertyOp50
 70
     1
102
RTVSPropertyOp51
 70
     0
102
RTVSPropertyOp52
 70
     0
102
RTVSPropertyOp53
 70
     1
102
RTVSPropertyOp54
 70
     1
102
RTVSPropertyOp55
 70
     1
102
RTVSPropertyOp56
 70
     1
102
RTVSPropertyOp57
 70
     1
102
RTVSPropertyOp58
 70
     1
102
RTVSPropertyOp59
 70
     1
102
RTVSPropertyOp60
 70
     1
102
RTVSPropertyOp61
 70
     1
102
RTVSPropertyOp62
 70
     1
  0
XRECORD
  5
F01
102
{ACAD_REACTORS
330
F00
102
}
330
F00
100
AcDbXrecord
280
     1
102
RTVSPost2010Prop28
280
     0
102
RTVSPost2010PropOp28
 70
     1
102
RTVSPost2010Prop29
280
     1
102
RTVSPost2010PropOp29
 70
     1
102
RTVSPost2010Prop30
280
     1
102
RTVSPost2010PropOp30
 70
     1
102
RTVSPost2010Prop31
280
     0
102
RTVSPost2010PropOp31
 70
     1
102
RTVSPost2010Prop32
280
     0
102
RTVSPost2010PropOp32
 70
     1
102
RTVSPost2010Prop33
280
     0
102
RTVSPost2010PropOp33
 70
     1
102
RTVSPost2010Prop34
280
     0
102
RTVSPost2010PropOp34
 70
     1
102
RTVSPost2010Prop35
280
     0
102
RTVSPost2010PropOp35
 70
     1
102
RTVSPost2010Prop36
280
     0
102
RTVSPost2010PropOp36
 70
     1
102
RTVSPost2010Prop37
 90
       50
102
RTVSPost2010PropOp37
 70
     1
102
RTVSPost2010Prop38
140
0.0
102
RTVSPost2010PropOp38
 70
     1
102
RTVSPost2010Prop39
140
1.0
102
RTVSPost2010PropOp39
 70
     1
102
RTVSPost2010Prop40
 90
        0
102
RTVSPost2010PropOp40
 70
     1
102
RTVSPost2010Prop41ColorIndex
 90
       18
102
RTVSPost2010Prop41ColorRGB
 90
-16777216
102
RTVSPost2010PropOp41
 70
     1
102
RTVSPost2010Prop42
 90
       50
102
RTVSPost2010PropOp42
 70
     1
102
RTVSPost2010Prop43
 90
        3
102
RTVSPost2010PropOp43
 70
     1
102
RTVSPost2010Prop44ColorIndex
 90
        5
102
RTVSPost2010Prop44ColorRGB
 90
      255
102
RTVSPost2010PropOp44
 70
     1
102
RTVSPost2010Prop45
280
     0
102
RTVSPost2010PropOp45
 70
     1
102
RTVSPost2010Prop46
 90
       50
102
RTVSPost2010PropOp46
 70
     1
102
RTVSPost2010Prop47
 90
       50
102
RTVSPost2010PropOp47
 70
     1
102
RTVSPost2010Prop48
 90
       50
102
RTVSPost2010PropOp48
 70
     1
102
RTVSPost2010Prop49
280
     0
102
RTVSPost2010PropOp49
 70
     1
102
RTVSPost2010Prop50
 90
       50
102
RTVSPost2010PropOp50
 70
     1
102
RTVSPost2010Prop51ColorIndex
 90
      256
102
RTVSPost2010Prop51ColorRGB
 90
-16777216
102
RTVSPost2010PropOp51
 70
     0
102
RTVSPost2010Prop52
140
1.0
102
RTVSPost2010PropOp52
 70
     0
102
RTVSPost2010Prop53
 90
        2
102
RTVSPost2010PropOp53
 70
     1
102
RTVSPost2010Prop54
  1
strokes_ogs.tif
102
RTVSPost2010PropOp54
 70
     1
102
RTVSPost2010Prop55
280
     0
102
RTVSPost2010PropOp55
 70
     1
102
RTVSPost2010Prop56
140
1.0
102
RTVSPost2010PropOp56
 70
     1
102
RTVSPost2010Prop57
140
1.0
102
RTVSPost2010PropOp57
 70
     1
102
RTVSPropertyOp0
 70
     1
102
RTVSPropertyOp1
 70
     1
102
RTVSPropertyOp2
 70
     1
102
RTVSPropertyOp3
 70
     1
102
RTVSPropertyOp4
 70
     1
102
RTVSPropertyOp5
 70
     1
102
RTVSPropertyOp6
 70
     1
102
RTVSPropertyOp7
 70
     1
102
RTVSPropertyOp8
 70
     1
102
RTVSPropertyOp9
 70
     1
102
RTVSPropertyOp10
 70
     1
102
RTVSPropertyOp11
 70
     1
102
RTVSPropertyOp12
 70
     1
102
RTVSPropertyOp13
 70
     1
102
RTVSPropertyOp14
 70
     1
102
RTVSPropertyOp15
 70
     1
102
RTVSPropertyOp16
 70
     1
102
RTVSPropertyOp17
 70
     1
102
RTVSPropertyOp18
 70
     1
102
RTVSPropertyOp19
 70
     1
102
RTVSPropertyOp20
 70
     1
102
RTVSPropertyOp21
 70
     1
102
RTVSPropertyOp22
 70
     1
102
RTVSPropertyOp23
 70
     1
102
RTVSPropertyOp24
 70
     1
102
RTVSPropertyOp25
 70
     1
102
RTVSPropertyOp26
 70
     1
102
RTVSPropertyOp27
 70
     1
102
RTVSPropertyOp28
 70
     1
102
RTVSPropertyOp29
 70
     1
102
RTVSPropertyOp30
 70
     1
102
RTVSPropertyOp31
 70
     1
102
RTVSPropertyOp32
 70
     1
102
RTVSPropertyOp33
 70
     1
102
RTVSPropertyOp34
 70
     1
102
RTVSPropertyOp35
 70
     1
102
RTVSPropertyOp36
 70
     1
102
RTVSPropertyOp37
 70
     1
102
RTVSPropertyOp38
 70
     1
102
RTVSPropertyOp39
 70
     1
102
RTVSPropertyOp40
 70
     1
102
RTVSPropertyOp41
 70
     1
102
RTVSPropertyOp42
 70
     1
102
RTVSPropertyOp43
 70
     1
102
RTVSPropertyOp44
 70
     1
102
RTVSPropertyOp45
 70
     1
102
RTVSPropertyOp46
 70
     1
102
RTVSPropertyOp47
 70
     1
102
RTVSPropertyOp48
 70
     1
102
RTVSPropertyOp49
 70
     1
102
RTVSPropertyOp50
 70
     1
102
RTVSPropertyOp51
 70
     0
102
RTVSPropertyOp52
 70
     0
102
RTVSPropertyOp53
 70
     1
102
RTVSPropertyOp54
 70
     1
102
RTVSPropertyOp55
 70
     1
102
RTVSPropertyOp56
 70
     1
102
RTVSPropertyOp57
 70
     1
102
RTVSPropertyOp58
 70
     1
102
RTVSPropertyOp59
 70
     1
102
RTVSPropertyOp60
 70
     1
102
RTVSPropertyOp61
 70
     1
102
RTVSPropertyOp62
 70
     1
  0
XRECORD
  5
EFF
102
{ACAD_REACTORS
330
EFE
102
}
330
EFE
100
AcDbXrecord
280
     1
102
RTVSPost2010Prop28
280
     0
102
RTVSPost2010PropOp28
 70
     1
102
RTVSPost2010Prop29
280
     1
102
RTVSPost2010PropOp29
 70
     1
102
RTVSPost2010Prop30
280
     1
102
RTVSPost2010PropOp30
 70
     1
102
RTVSPost2010Prop31
280
     0
102
RTVSPost2010PropOp31
 70
     1
102
RTVSPost2010Prop32
280
     0
102
RTVSPost2010PropOp32
 70
     1
102
RTVSPost2010Prop33
280
     0
102
RTVSPost2010PropOp33
 70
     1
102
RTVSPost2010Prop34
280
     0
102
RTVSPost2010PropOp34
 70
     1
102
RTVSPost2010Prop35
280
     0
102
RTVSPost2010PropOp35
 70
     1
102
RTVSPost2010Prop36
280
     0
102
RTVSPost2010PropOp36
 70
     1
102
RTVSPost2010Prop37
 90
       50
102
RTVSPost2010PropOp37
 70
     1
102
RTVSPost2010Prop38
140
0.0
102
RTVSPost2010PropOp38
 70
     1
102
RTVSPost2010Prop39
140
1.0
102
RTVSPost2010PropOp39
 70
     1
102
RTVSPost2010Prop40
 90
        0
102
RTVSPost2010PropOp40
 70
     1
102
RTVSPost2010Prop41ColorIndex
 90
       18
102
RTVSPost2010Prop41ColorRGB
 90
-16777216
102
RTVSPost2010PropOp41
 70
     1
102
RTVSPost2010Prop42
 90
       50
102
RTVSPost2010PropOp42
 70
     1
102
RTVSPost2010Prop43
 90
        3
102
RTVSPost2010PropOp43
 70
     1
102
RTVSPost2010Prop44ColorIndex
 90
        5
102
RTVSPost2010Prop44ColorRGB
 90
      255
102
RTVSPost2010PropOp44
 70
     1
102
RTVSPost2010Prop45
280
     0
102
RTVSPost2010PropOp45
 70
     1
102
RTVSPost2010Prop46
 90
       50
102
RTVSPost2010PropOp46
 70
     1
102
RTVSPost2010Prop47
 90
       50
102
RTVSPost2010PropOp47
 70
     1
102
RTVSPost2010Prop48
 90
       50
102
RTVSPost2010PropOp48
 70
     1
102
RTVSPost2010Prop49
280
     0
102
RTVSPost2010PropOp49
 70
     1
102
RTVSPost2010Prop50
 90
       50
102
RTVSPost2010PropOp50
 70
     1
102
RTVSPost2010Prop51ColorIndex
 90
      256
102
RTVSPost2010Prop51ColorRGB
 90
-16777216
102
RTVSPost2010PropOp51
 70
     0
102
RTVSPost2010Prop52
140
1.0
102
RTVSPost2010PropOp52
 70
     0
102
RTVSPost2010Prop53
 90
        2
102
RTVSPost2010PropOp53
 70
     1
102
RTVSPost2010Prop54
  1
strokes_ogs.tif
102
RTVSPost2010PropOp54
 70
     1
102
RTVSPost2010Prop55
280
     0
102
RTVSPost2010PropOp55
 70
     1
102
RTVSPost2010Prop56
140
1.0
102
RTVSPost2010PropOp56
 70
     1
102
RTVSPost2010Prop57
140
1.0
102
RTVSPost2010PropOp57
 70
     1
102
RTVSPropertyOp0
 70
     1
102
RTVSPropertyOp1
 70
     1
102
RTVSPropertyOp2
 70
     1
102
RTVSPropertyOp3
 70
     1
102
RTVSPropertyOp4
 70
     1
102
RTVSPropertyOp5
 70
     1
102
RTVSPropertyOp6
 70
     1
102
RTVSPropertyOp7
 70
     1
102
RTVSPropertyOp8
 70
     1
102
RTVSPropertyOp9
 70
     1
102
RTVSPropertyOp10
 70
     1
102
RTVSPropertyOp11
 70
     1
102
RTVSPropertyOp12
 70
     1
102
RTVSPropertyOp13
 70
     1
102
RTVSPropertyOp14
 70
     1
102
RTVSPropertyOp15
 70
     1
102
RTVSPropertyOp16
 70
     1
102
RTVSPropertyOp17
 70
     1
102
RTVSPropertyOp18
 70
     1
102
RTVSPropertyOp19
 70
     1
102
RTVSPropertyOp20
 70
     1
102
RTVSPropertyOp21
 70
     1
102
RTVSPropertyOp22
 70
     1
102
RTVSPropertyOp23
 70
     1
102
RTVSPropertyOp24
 70
     1
102
RTVSPropertyOp25
 70
     1
102
RTVSPropertyOp26
 70
     1
102
RTVSPropertyOp27
 70
     1
102
RTVSPropertyOp28
 70
     1
102
RTVSPropertyOp29
 70
     1
102
RTVSPropertyOp30
 70
     1
102
RTVSPropertyOp31
 70
     1
102
RTVSPropertyOp32
 70
     1
102
RTVSPropertyOp33
 70
     1
102
RTVSPropertyOp34
 70
     1
102
RTVSPropertyOp35
 70
     1
102
RTVSPropertyOp36
 70
     1
102
RTVSPropertyOp37
 70
     1
102
RTVSPropertyOp38
 70
     1
102
RTVSPropertyOp39
 70
     1
102
RTVSPropertyOp40
 70
     1
102
RTVSPropertyOp41
 70
     1
102
RTVSPropertyOp42
 70
     1
102
RTVSPropertyOp43
 70
     1
102
RTVSPropertyOp44
 70
     1
102
RTVSPropertyOp45
 70
     1
102
RTVSPropertyOp46
 70
     1
102
RTVSPropertyOp47
 70
     1
102
RTVSPropertyOp48
 70
     1
102
RTVSPropertyOp49
 70
     1
102
RTVSPropertyOp50
 70
     1
102
RTVSPropertyOp51
 70
     0
102
RTVSPropertyOp52
 70
     0
102
RTVSPropertyOp53
 70
     1
102
RTVSPropertyOp54
 70
     1
102
RTVSPropertyOp55
 70
     1
102
RTVSPropertyOp56
 70
     1
102
RTVSPropertyOp57
 70
     1
102
RTVSPropertyOp58
 70
     1
102
RTVSPropertyOp59
 70
     1
102
RTVSPropertyOp60
 70
     1
102
RTVSPropertyOp61
 70
     1
102
RTVSPropertyOp62
 70
     1
  0
XRECORD
  5
EF9
102
{ACAD_REACTORS
330
EF8
102
}
330
EF8
100
AcDbXrecord
280
     1
102
RTVSPost2010Prop28
280
     0
102
RTVSPost2010PropOp28
 70
     1
102
RTVSPost2010Prop29
280
     1
102
RTVSPost2010PropOp29
 70
     1
102
RTVSPost2010Prop30
280
     1
102
RTVSPost2010PropOp30
 70
     1
102
RTVSPost2010Prop31
280
     0
102
RTVSPost2010PropOp31
 70
     1
102
RTVSPost2010Prop32
280
     0
102
RTVSPost2010PropOp32
 70
     1
102
RTVSPost2010Prop33
280
     0
102
RTVSPost2010PropOp33
 70
     1
102
RTVSPost2010Prop34
280
     0
102
RTVSPost2010PropOp34
 70
     1
102
RTVSPost2010Prop35
280
     0
102
RTVSPost2010PropOp35
 70
     1
102
RTVSPost2010Prop36
280
     0
102
RTVSPost2010PropOp36
 70
     1
102
RTVSPost2010Prop37
 90
       50
102
RTVSPost2010PropOp37
 70
     1
102
RTVSPost2010Prop38
140
0.0
102
RTVSPost2010PropOp38
 70
     1
102
RTVSPost2010Prop39
140
1.0
102
RTVSPost2010PropOp39
 70
     1
102
RTVSPost2010Prop40
 90
        0
102
RTVSPost2010PropOp40
 70
     1
102
RTVSPost2010Prop41ColorIndex
 90
       18
102
RTVSPost2010Prop41ColorRGB
 90
-16777216
102
RTVSPost2010PropOp41
 70
     1
102
RTVSPost2010Prop42
 90
       50
102
RTVSPost2010PropOp42
 70
     1
102
RTVSPost2010Prop43
 90
        3
102
RTVSPost2010PropOp43
 70
     1
102
RTVSPost2010Prop44ColorIndex
 90
        5
102
RTVSPost2010Prop44ColorRGB
 90
      255
102
RTVSPost2010PropOp44
 70
     1
102
RTVSPost2010Prop45
280
     0
102
RTVSPost2010PropOp45
 70
     1
102
RTVSPost2010Prop46
 90
       50
102
RTVSPost2010PropOp46
 70
     1
102
RTVSPost2010Prop47
 90
       50
102
RTVSPost2010PropOp47
 70
     1
102
RTVSPost2010Prop48
 90
       50
102
RTVSPost2010PropOp48
 70
     1
102
RTVSPost2010Prop49
280
     0
102
RTVSPost2010PropOp49
 70
     1
102
RTVSPost2010Prop50
 90
       50
102
RTVSPost2010PropOp50
 70
     1
102
RTVSPost2010Prop51ColorIndex
 90
      256
102
RTVSPost2010Prop51ColorRGB
 90
-16777216
102
RTVSPost2010PropOp51
 70
     0
102
RTVSPost2010Prop52
140
1.0
102
RTVSPost2010PropOp52
 70
     0
102
RTVSPost2010Prop53
 90
        2
102
RTVSPost2010PropOp53
 70
     1
102
RTVSPost2010Prop54
  1
strokes_ogs.tif
102
RTVSPost2010PropOp54
 70
     1
102
RTVSPost2010Prop55
280
     0
102
RTVSPost2010PropOp55
 70
     1
102
RTVSPost2010Prop56
140
1.0
102
RTVSPost2010PropOp56
 70
     1
102
RTVSPost2010Prop57
140
1.0
102
RTVSPost2010PropOp57
 70
     1
102
RTVSPropertyOp0
 70
     1
102
RTVSPropertyOp1
 70
     1
102
RTVSPropertyOp2
 70
     1
102
RTVSPropertyOp3
 70
     1
102
RTVSPropertyOp4
 70
     1
102
RTVSPropertyOp5
 70
     1
102
RTVSPropertyOp6
 70
     1
102
RTVSPropertyOp7
 70
     1
102
RTVSPropertyOp8
 70
     1
102
RTVSPropertyOp9
 70
     1
102
RTVSPropertyOp10
 70
     1
102
RTVSPropertyOp11
 70
     1
102
RTVSPropertyOp12
 70
     1
102
RTVSPropertyOp13
 70
     1
102
RTVSPropertyOp14
 70
     1
102
RTVSPropertyOp15
 70
     1
102
RTVSPropertyOp16
 70
     1
102
RTVSPropertyOp17
 70
     1
102
RTVSPropertyOp18
 70
     1
102
RTVSPropertyOp19
 70
     1
102
RTVSPropertyOp20
 70
     1
102
RTVSPropertyOp21
 70
     1
102
RTVSPropertyOp22
 70
     1
102
RTVSPropertyOp23
 70
     1
102
RTVSPropertyOp24
 70
     1
102
RTVSPropertyOp25
 70
     1
102
RTVSPropertyOp26
 70
     1
102
RTVSPropertyOp27
 70
     1
102
RTVSPropertyOp28
 70
     1
102
RTVSPropertyOp29
 70
     1
102
RTVSPropertyOp30
 70
     1
102
RTVSPropertyOp31
 70
     1
102
RTVSPropertyOp32
 70
     1
102
RTVSPropertyOp33
 70
     1
102
RTVSPropertyOp34
 70
     1
102
RTVSPropertyOp35
 70
     1
102
RTVSPropertyOp36
 70
     1
102
RTVSPropertyOp37
 70
     1
102
RTVSPropertyOp38
 70
     1
102
RTVSPropertyOp39
 70
     1
102
RTVSPropertyOp40
 70
     1
102
RTVSPropertyOp41
 70
     1
102
RTVSPropertyOp42
 70
     1
102
RTVSPropertyOp43
 70
     1
102
RTVSPropertyOp44
 70
     1
102
RTVSPropertyOp45
 70
     1
102
RTVSPropertyOp46
 70
     1
102
RTVSPropertyOp47
 70
     1
102
RTVSPropertyOp48
 70
     1
102
RTVSPropertyOp49
 70
     1
102
RTVSPropertyOp50
 70
     1
102
RTVSPropertyOp51
 70
     0
102
RTVSPropertyOp52
 70
     0
102
RTVSPropertyOp53
 70
     1
102
RTVSPropertyOp54
 70
     1
102
RTVSPropertyOp55
 70
     1
102
RTVSPropertyOp56
 70
     1
102
RTVSPropertyOp57
 70
     1
102
RTVSPropertyOp58
 70
     1
102
RTVSPropertyOp59
 70
     1
102
RTVSPropertyOp60
 70
     1
102
RTVSPropertyOp61
 70
     1
102
RTVSPropertyOp62
 70
     1
  0
XRECORD
  5
EFB
102
{ACAD_REACTORS
330
EFA
102
}
330
EFA
100
AcDbXrecord
280
     1
102
RTVSPost2010Prop28
280
     0
102
RTVSPost2010PropOp28
 70
     1
102
RTVSPost2010Prop29
280
     1
102
RTVSPost2010PropOp29
 70
     1
102
RTVSPost2010Prop30
280
     1
102
RTVSPost2010PropOp30
 70
     1
102
RTVSPost2010Prop31
280
     0
102
RTVSPost2010PropOp31
 70
     1
102
RTVSPost2010Prop32
280
     0
102
RTVSPost2010PropOp32
 70
     1
102
RTVSPost2010Prop33
280
     0
102
RTVSPost2010PropOp33
 70
     1
102
RTVSPost2010Prop34
280
     0
102
RTVSPost2010PropOp34
 70
     1
102
RTVSPost2010Prop35
280
     0
102
RTVSPost2010PropOp35
 70
     1
102
RTVSPost2010Prop36
280
     0
102
RTVSPost2010PropOp36
 70
     1
102
RTVSPost2010Prop37
 90
       50
102
RTVSPost2010PropOp37
 70
     1
102
RTVSPost2010Prop38
140
0.0
102
RTVSPost2010PropOp38
 70
     1
102
RTVSPost2010Prop39
140
1.0
102
RTVSPost2010PropOp39
 70
     1
102
RTVSPost2010Prop40
 90
        0
102
RTVSPost2010PropOp40
 70
     1
102
RTVSPost2010Prop41ColorIndex
 90
       18
102
RTVSPost2010Prop41ColorRGB
 90
-16777216
102
RTVSPost2010PropOp41
 70
     1
102
RTVSPost2010Prop42
 90
       50
102
RTVSPost2010PropOp42
 70
     1
102
RTVSPost2010Prop43
 90
        3
102
RTVSPost2010PropOp43
 70
     1
102
RTVSPost2010Prop44ColorIndex
 90
        5
102
RTVSPost2010Prop44ColorRGB
 90
      255
102
RTVSPost2010PropOp44
 70
     1
102
RTVSPost2010Prop45
280
     0
102
RTVSPost2010PropOp45
 70
     1
102
RTVSPost2010Prop46
 90
       50
102
RTVSPost2010PropOp46
 70
     1
102
RTVSPost2010Prop47
 90
       50
102
RTVSPost2010PropOp47
 70
     1
102
RTVSPost2010Prop48
 90
       50
102
RTVSPost2010PropOp48
 70
     1
102
RTVSPost2010Prop49
280
     0
102
RTVSPost2010PropOp49
 70
     1
102
RTVSPost2010Prop50
 90
       50
102
RTVSPost2010PropOp50
 70
     1
102
RTVSPost2010Prop51ColorIndex
 90
      256
102
RTVSPost2010Prop51ColorRGB
 90
-16777216
102
RTVSPost2010PropOp51
 70
     0
102
RTVSPost2010Prop52
140
1.0
102
RTVSPost2010PropOp52
 70
     0
102
RTVSPost2010Prop53
 90
        2
102
RTVSPost2010PropOp53
 70
     1
102
RTVSPost2010Prop54
  1
strokes_ogs.tif
102
RTVSPost2010PropOp54
 70
     1
102
RTVSPost2010Prop55
280
     0
102
RTVSPost2010PropOp55
 70
     1
102
RTVSPost2010Prop56
140
1.0
102
RTVSPost2010PropOp56
 70
     1
102
RTVSPost2010Prop57
140
1.0
102
RTVSPost2010PropOp57
 70
     1
102
RTVSPropertyOp0
 70
     1
102
RTVSPropertyOp1
 70
     1
102
RTVSPropertyOp2
 70
     1
102
RTVSPropertyOp3
 70
     1
102
RTVSPropertyOp4
 70
     1
102
RTVSPropertyOp5
 70
     1
102
RTVSPropertyOp6
 70
     1
102
RTVSPropertyOp7
 70
     1
102
RTVSPropertyOp8
 70
     1
102
RTVSPropertyOp9
 70
     1
102
RTVSPropertyOp10
 70
     1
102
RTVSPropertyOp11
 70
     1
102
RTVSPropertyOp12
 70
     1
102
RTVSPropertyOp13
 70
     1
102
RTVSPropertyOp14
 70
     1
102
RTVSPropertyOp15
 70
     1
102
RTVSPropertyOp16
 70
     1
102
RTVSPropertyOp17
 70
     1
102
RTVSPropertyOp18
 70
     1
102
RTVSPropertyOp19
 70
     1
102
RTVSPropertyOp20
 70
     1
102
RTVSPropertyOp21
 70
     1
102
RTVSPropertyOp22
 70
     1
102
RTVSPropertyOp23
 70
     1
102
RTVSPropertyOp24
 70
     1
102
RTVSPropertyOp25
 70
     1
102
RTVSPropertyOp26
 70
     1
102
RTVSPropertyOp27
 70
     1
102
RTVSPropertyOp28
 70
     1
102
RTVSPropertyOp29
 70
     1
102
RTVSPropertyOp30
 70
     1
102
RTVSPropertyOp31
 70
     1
102
RTVSPropertyOp32
 70
     1
102
RTVSPropertyOp33
 70
     1
102
RTVSPropertyOp34
 70
     1
102
RTVSPropertyOp35
 70
     1
102
RTVSPropertyOp36
 70
     1
102
RTVSPropertyOp37
 70
     1
102
RTVSPropertyOp38
 70
     1
102
RTVSPropertyOp39
 70
     1
102
RTVSPropertyOp40
 70
     1
102
RTVSPropertyOp41
 70
     1
102
RTVSPropertyOp42
 70
     1
102
RTVSPropertyOp43
 70
     1
102
RTVSPropertyOp44
 70
     1
102
RTVSPropertyOp45
 70
     1
102
RTVSPropertyOp46
 70
     1
102
RTVSPropertyOp47
 70
     1
102
RTVSPropertyOp48
 70
     1
102
RTVSPropertyOp49
 70
     1
102
RTVSPropertyOp50
 70
     1
102
RTVSPropertyOp51
 70
     0
102
RTVSPropertyOp52
 70
     0
102
RTVSPropertyOp53
 70
     1
102
RTVSPropertyOp54
 70
     1
102
RTVSPropertyOp55
 70
     1
102
RTVSPropertyOp56
 70
     1
102
RTVSPropertyOp57
 70
     1
102
RTVSPropertyOp58
 70
     1
102
RTVSPropertyOp59
 70
     1
102
RTVSPropertyOp60
 70
     1
102
RTVSPropertyOp61
 70
     1
102
RTVSPropertyOp62
 70
     1
  0
XRECORD
  5
EF1
102
{ACAD_REACTORS
330
EF0
102
}
330
EF0
100
AcDbXrecord
280
     1
102
RTVSPost2010Prop28
280
     0
102
RTVSPost2010PropOp28
 70
     1
102
RTVSPost2010Prop29
280
     1
102
RTVSPost2010PropOp29
 70
     1
102
RTVSPost2010Prop30
280
     1
102
RTVSPost2010PropOp30
 70
     1
102
RTVSPost2010Prop31
280
     0
102
RTVSPost2010PropOp31
 70
     1
102
RTVSPost2010Prop32
280
     0
102
RTVSPost2010PropOp32
 70
     1
102
RTVSPost2010Prop33
280
     0
102
RTVSPost2010PropOp33
 70
     1
102
RTVSPost2010Prop34
280
     0
102
RTVSPost2010PropOp34
 70
     1
102
RTVSPost2010Prop35
280
     0
102
RTVSPost2010PropOp35
 70
     1
102
RTVSPost2010Prop36
280
     0
102
RTVSPost2010PropOp36
 70
     1
102
RTVSPost2010Prop37
 90
       50
102
RTVSPost2010PropOp37
 70
     1
102
RTVSPost2010Prop38
140
0.0
102
RTVSPost2010PropOp38
 70
     1
102
RTVSPost2010Prop39
140
1.0
102
RTVSPost2010PropOp39
 70
     1
102
RTVSPost2010Prop40
 90
        0
102
RTVSPost2010PropOp40
 70
     1
102
RTVSPost2010Prop41ColorIndex
 90
       18
102
RTVSPost2010Prop41ColorRGB
 90
-16777216
102
RTVSPost2010PropOp41
 70
     1
102
RTVSPost2010Prop42
 90
       50
102
RTVSPost2010PropOp42
 70
     1
102
RTVSPost2010Prop43
 90
        3
102
RTVSPost2010PropOp43
 70
     1
102
RTVSPost2010Prop44ColorIndex
 90
        5
102
RTVSPost2010Prop44ColorRGB
 90
      255
102
RTVSPost2010PropOp44
 70
     1
102
RTVSPost2010Prop45
280
     0
102
RTVSPost2010PropOp45
 70
     1
102
RTVSPost2010Prop46
 90
       50
102
RTVSPost2010PropOp46
 70
     1
102
RTVSPost2010Prop47
 90
       50
102
RTVSPost2010PropOp47
 70
     1
102
RTVSPost2010Prop48
 90
       50
102
RTVSPost2010PropOp48
 70
     1
102
RTVSPost2010Prop49
280
     0
102
RTVSPost2010PropOp49
 70
     1
102
RTVSPost2010Prop50
 90
       50
102
RTVSPost2010PropOp50
 70
     1
102
RTVSPost2010Prop51ColorIndex
 90
      256
102
RTVSPost2010Prop51ColorRGB
 90
-16777216
102
RTVSPost2010PropOp51
 70
     0
102
RTVSPost2010Prop52
140
1.0
102
RTVSPost2010PropOp52
 70
     0
102
RTVSPost2010Prop53
 90
        2
102
RTVSPost2010PropOp53
 70
     1
102
RTVSPost2010Prop54
  1
strokes_ogs.tif
102
RTVSPost2010PropOp54
 70
     1
102
RTVSPost2010Prop55
280
     0
102
RTVSPost2010PropOp55
 70
     1
102
RTVSPost2010Prop56
140
1.0
102
RTVSPost2010PropOp56
 70
     1
102
RTVSPost2010Prop57
140
1.0
102
RTVSPost2010PropOp57
 70
     1
102
RTVSPropertyOp0
 70
     1
102
RTVSPropertyOp1
 70
     1
102
RTVSPropertyOp2
 70
     1
102
RTVSPropertyOp3
 70
     1
102
RTVSPropertyOp4
 70
     1
102
RTVSPropertyOp5
 70
     1
102
RTVSPropertyOp6
 70
     1
102
RTVSPropertyOp7
 70
     1
102
RTVSPropertyOp8
 70
     1
102
RTVSPropertyOp9
 70
     1
102
RTVSPropertyOp10
 70
     1
102
RTVSPropertyOp11
 70
     1
102
RTVSPropertyOp12
 70
     1
102
RTVSPropertyOp13
 70
     1
102
RTVSPropertyOp14
 70
     1
102
RTVSPropertyOp15
 70
     1
102
RTVSPropertyOp16
 70
     1
102
RTVSPropertyOp17
 70
     1
102
RTVSPropertyOp18
 70
     1
102
RTVSPropertyOp19
 70
     1
102
RTVSPropertyOp20
 70
     1
102
RTVSPropertyOp21
 70
     1
102
RTVSPropertyOp22
 70
     1
102
RTVSPropertyOp23
 70
     1
102
RTVSPropertyOp24
 70
     1
102
RTVSPropertyOp25
 70
     1
102
RTVSPropertyOp26
 70
     1
102
RTVSPropertyOp27
 70
     1
102
RTVSPropertyOp28
 70
     1
102
RTVSPropertyOp29
 70
     1
102
RTVSPropertyOp30
 70
     1
102
RTVSPropertyOp31
 70
     1
102
RTVSPropertyOp32
 70
     1
102
RTVSPropertyOp33
 70
     1
102
RTVSPropertyOp34
 70
     1
102
RTVSPropertyOp35
 70
     1
102
RTVSPropertyOp36
 70
     1
102
RTVSPropertyOp37
 70
     1
102
RTVSPropertyOp38
 70
     1
102
RTVSPropertyOp39
 70
     1
102
RTVSPropertyOp40
 70
     1
102
RTVSPropertyOp41
 70
     1
102
RTVSPropertyOp42
 70
     1
102
RTVSPropertyOp43
 70
     1
102
RTVSPropertyOp44
 70
     1
102
RTVSPropertyOp45
 70
     1
102
RTVSPropertyOp46
 70
     1
102
RTVSPropertyOp47
 70
     1
102
RTVSPropertyOp48
 70
     1
102
RTVSPropertyOp49
 70
     1
102
RTVSPropertyOp50
 70
     1
102
RTVSPropertyOp51
 70
     0
102
RTVSPropertyOp52
 70
     0
102
RTVSPropertyOp53
 70
     1
102
RTVSPropertyOp54
 70
     1
102
RTVSPropertyOp55
 70
     1
102
RTVSPropertyOp56
 70
     1
102
RTVSPropertyOp57
 70
     1
102
RTVSPropertyOp58
 70
     1
102
RTVSPropertyOp59
 70
     1
102
RTVSPropertyOp60
 70
     1
102
RTVSPropertyOp61
 70
     1
102
RTVSPropertyOp62
 70
     1
  0
XRECORD
  5
EE5
102
{ACAD_REACTORS
330
EE4
102
}
330
EE4
100
AcDbXrecord
280
     1
102
RTVSPost2010Prop28
280
     0
102
RTVSPost2010PropOp28
 70
     1
102
RTVSPost2010Prop29
280
     1
102
RTVSPost2010PropOp29
 70
     1
102
RTVSPost2010Prop30
280
     1
102
RTVSPost2010PropOp30
 70
     1
102
RTVSPost2010Prop31
280
     0
102
RTVSPost2010PropOp31
 70
     1
102
RTVSPost2010Prop32
280
     0
102
RTVSPost2010PropOp32
 70
     1
102
RTVSPost2010Prop33
280
     0
102
RTVSPost2010PropOp33
 70
     1
102
RTVSPost2010Prop34
280
     0
102
RTVSPost2010PropOp34
 70
     1
102
RTVSPost2010Prop35
280
     0
102
RTVSPost2010PropOp35
 70
     1
102
RTVSPost2010Prop36
280
     0
102
RTVSPost2010PropOp36
 70
     1
102
RTVSPost2010Prop37
 90
       50
102
RTVSPost2010PropOp37
 70
     1
102
RTVSPost2010Prop38
140
0.0
102
RTVSPost2010PropOp38
 70
     1
102
RTVSPost2010Prop39
140
1.0
102
RTVSPost2010PropOp39
 70
     1
102
RTVSPost2010Prop40
 90
        0
102
RTVSPost2010PropOp40
 70
     1
102
RTVSPost2010Prop41ColorIndex
 90
       18
102
RTVSPost2010Prop41ColorRGB
 90
-16777216
102
RTVSPost2010PropOp41
 70
     1
102
RTVSPost2010Prop42
 90
       50
102
RTVSPost2010PropOp42
 70
     1
102
RTVSPost2010Prop43
 90
        3
102
RTVSPost2010PropOp43
 70
     1
102
RTVSPost2010Prop44ColorIndex
 90
        5
102
RTVSPost2010Prop44ColorRGB
 90
      255
102
RTVSPost2010PropOp44
 70
     1
102
RTVSPost2010Prop45
280
     0
102
RTVSPost2010PropOp45
 70
     1
102
RTVSPost2010Prop46
 90
       50
102
RTVSPost2010PropOp46
 70
     1
102
RTVSPost2010Prop47
 90
       50
102
RTVSPost2010PropOp47
 70
     1
102
RTVSPost2010Prop48
 90
       50
102
RTVSPost2010PropOp48
 70
     1
102
RTVSPost2010Prop49
280
     0
102
RTVSPost2010PropOp49
 70
     1
102
RTVSPost2010Prop50
 90
       50
102
RTVSPost2010PropOp50
 70
     1
102
RTVSPost2010Prop51ColorIndex
 90
      256
102
RTVSPost2010Prop51ColorRGB
 90
-16777216
102
RTVSPost2010PropOp51
 70
     0
102
RTVSPost2010Prop52
140
1.0
102
RTVSPost2010PropOp52
 70
     0
102
RTVSPost2010Prop53
 90
        2
102
RTVSPost2010PropOp53
 70
     1
102
RTVSPost2010Prop54
  1
strokes_ogs.tif
102
RTVSPost2010PropOp54
 70
     1
102
RTVSPost2010Prop55
280
     0
102
RTVSPost2010PropOp55
 70
     1
102
RTVSPost2010Prop56
140
1.0
102
RTVSPost2010PropOp56
 70
     1
102
RTVSPost2010Prop57
140
1.0
102
RTVSPost2010PropOp57
 70
     1
102
RTVSPropertyOp0
 70
     1
102
RTVSPropertyOp1
 70
     1
102
RTVSPropertyOp2
 70
     1
102
RTVSPropertyOp3
 70
     1
102
RTVSPropertyOp4
 70
     1
102
RTVSPropertyOp5
 70
     1
102
RTVSPropertyOp6
 70
     1
102
RTVSPropertyOp7
 70
     1
102
RTVSPropertyOp8
 70
     1
102
RTVSPropertyOp9
 70
     1
102
RTVSPropertyOp10
 70
     1
102
RTVSPropertyOp11
 70
     1
102
RTVSPropertyOp12
 70
     1
102
RTVSPropertyOp13
 70
     1
102
RTVSPropertyOp14
 70
     1
102
RTVSPropertyOp15
 70
     1
102
RTVSPropertyOp16
 70
     1
102
RTVSPropertyOp17
 70
     1
102
RTVSPropertyOp18
 70
     1
102
RTVSPropertyOp19
 70
     1
102
RTVSPropertyOp20
 70
     1
102
RTVSPropertyOp21
 70
     1
102
RTVSPropertyOp22
 70
     1
102
RTVSPropertyOp23
 70
     1
102
RTVSPropertyOp24
 70
     1
102
RTVSPropertyOp25
 70
     1
102
RTVSPropertyOp26
 70
     1
102
RTVSPropertyOp27
 70
     1
102
RTVSPropertyOp28
 70
     1
102
RTVSPropertyOp29
 70
     1
102
RTVSPropertyOp30
 70
     1
102
RTVSPropertyOp31
 70
     1
102
RTVSPropertyOp32
 70
     1
102
RTVSPropertyOp33
 70
     1
102
RTVSPropertyOp34
 70
     1
102
RTVSPropertyOp35
 70
     1
102
RTVSPropertyOp36
 70
     1
102
RTVSPropertyOp37
 70
     1
102
RTVSPropertyOp38
 70
     1
102
RTVSPropertyOp39
 70
     1
102
RTVSPropertyOp40
 70
     1
102
RTVSPropertyOp41
 70
     1
102
RTVSPropertyOp42
 70
     1
102
RTVSPropertyOp43
 70
     1
102
RTVSPropertyOp44
 70
     1
102
RTVSPropertyOp45
 70
     1
102
RTVSPropertyOp46
 70
     1
102
RTVSPropertyOp47
 70
     1
102
RTVSPropertyOp48
 70
     1
102
RTVSPropertyOp49
 70
     1
102
RTVSPropertyOp50
 70
     1
102
RTVSPropertyOp51
 70
     0
102
RTVSPropertyOp52
 70
     0
102
RTVSPropertyOp53
 70
     1
102
RTVSPropertyOp54
 70
     1
102
RTVSPropertyOp55
 70
     1
102
RTVSPropertyOp56
 70
     1
102
RTVSPropertyOp57
 70
     1
102
RTVSPropertyOp58
 70
     1
102
RTVSPropertyOp59
 70
     1
102
RTVSPropertyOp60
 70
     1
102
RTVSPropertyOp61
 70
     1
102
RTVSPropertyOp62
 70
     1
  0
XRECORD
  5
EFD
102
{ACAD_REACTORS
330
EFC
102
}
330
EFC
100
AcDbXrecord
280
     1
102
RTVSPost2010Prop28
280
     0
102
RTVSPost2010PropOp28
 70
     1
102
RTVSPost2010Prop29
280
     1
102
RTVSPost2010PropOp29
 70
     1
102
RTVSPost2010Prop30
280
     1
102
RTVSPost2010PropOp30
 70
     1
102
RTVSPost2010Prop31
280
     0
102
RTVSPost2010PropOp31
 70
     1
102
RTVSPost2010Prop32
280
     0
102
RTVSPost2010PropOp32
 70
     1
102
RTVSPost2010Prop33
280
     0
102
RTVSPost2010PropOp33
 70
     1
102
RTVSPost2010Prop34
280
     0
102
RTVSPost2010PropOp34
 70
     1
102
RTVSPost2010Prop35
280
     0
102
RTVSPost2010PropOp35
 70
     1
102
RTVSPost2010Prop36
280
     0
102
RTVSPost2010PropOp36
 70
     1
102
RTVSPost2010Prop37
 90
       50
102
RTVSPost2010PropOp37
 70
     1
102
RTVSPost2010Prop38
140
0.0
102
RTVSPost2010PropOp38
 70
     1
102
RTVSPost2010Prop39
140
1.0
102
RTVSPost2010PropOp39
 70
     1
102
RTVSPost2010Prop40
 90
        0
102
RTVSPost2010PropOp40
 70
     1
102
RTVSPost2010Prop41ColorIndex
 90
       18
102
RTVSPost2010Prop41ColorRGB
 90
-16777216
102
RTVSPost2010PropOp41
 70
     1
102
RTVSPost2010Prop42
 90
       50
102
RTVSPost2010PropOp42
 70
     1
102
RTVSPost2010Prop43
 90
        3
102
RTVSPost2010PropOp43
 70
     1
102
RTVSPost2010Prop44ColorIndex
 90
        5
102
RTVSPost2010Prop44ColorRGB
 90
      255
102
RTVSPost2010PropOp44
 70
     1
102
RTVSPost2010Prop45
280
     0
102
RTVSPost2010PropOp45
 70
     1
102
RTVSPost2010Prop46
 90
       50
102
RTVSPost2010PropOp46
 70
     1
102
RTVSPost2010Prop47
 90
       50
102
RTVSPost2010PropOp47
 70
     1
102
RTVSPost2010Prop48
 90
       50
102
RTVSPost2010PropOp48
 70
     1
102
RTVSPost2010Prop49
280
     0
102
RTVSPost2010PropOp49
 70
     1
102
RTVSPost2010Prop50
 90
       50
102
RTVSPost2010PropOp50
 70
     1
102
RTVSPost2010Prop51ColorIndex
 90
      256
102
RTVSPost2010Prop51ColorRGB
 90
-16777216
102
RTVSPost2010PropOp51
 70
     0
102
RTVSPost2010Prop52
140
1.0
102
RTVSPost2010PropOp52
 70
     0
102
RTVSPost2010Prop53
 90
        2
102
RTVSPost2010PropOp53
 70
     1
102
RTVSPost2010Prop54
  1
strokes_ogs.tif
102
RTVSPost2010PropOp54
 70
     1
102
RTVSPost2010Prop55
280
     0
102
RTVSPost2010PropOp55
 70
     1
102
RTVSPost2010Prop56
140
1.0
102
RTVSPost2010PropOp56
 70
     1
102
RTVSPost2010Prop57
140
1.0
102
RTVSPost2010PropOp57
 70
     1
102
RTVSPropertyOp0
 70
     1
102
RTVSPropertyOp1
 70
     1
102
RTVSPropertyOp2
 70
     1
102
RTVSPropertyOp3
 70
     1
102
RTVSPropertyOp4
 70
     1
102
RTVSPropertyOp5
 70
     1
102
RTVSPropertyOp6
 70
     1
102
RTVSPropertyOp7
 70
     1
102
RTVSPropertyOp8
 70
     1
102
RTVSPropertyOp9
 70
     1
102
RTVSPropertyOp10
 70
     1
102
RTVSPropertyOp11
 70
     1
102
RTVSPropertyOp12
 70
     1
102
RTVSPropertyOp13
 70
     1
102
RTVSPropertyOp14
 70
     1
102
RTVSPropertyOp15
 70
     1
102
RTVSPropertyOp16
 70
     1
102
RTVSPropertyOp17
 70
     1
102
RTVSPropertyOp18
 70
     1
102
RTVSPropertyOp19
 70
     1
102
RTVSPropertyOp20
 70
     1
102
RTVSPropertyOp21
 70
     1
102
RTVSPropertyOp22
 70
     1
102
RTVSPropertyOp23
 70
     1
102
RTVSPropertyOp24
 70
     1
102
RTVSPropertyOp25
 70
     1
102
RTVSPropertyOp26
 70
     1
102
RTVSPropertyOp27
 70
     1
102
RTVSPropertyOp28
 70
     1
102
RTVSPropertyOp29
 70
     1
102
RTVSPropertyOp30
 70
     1
102
RTVSPropertyOp31
 70
     1
102
RTVSPropertyOp32
 70
     1
102
RTVSPropertyOp33
 70
     1
102
RTVSPropertyOp34
 70
     1
102
RTVSPropertyOp35
 70
     1
102
RTVSPropertyOp36
 70
     1
102
RTVSPropertyOp37
 70
     1
102
RTVSPropertyOp38
 70
     1
102
RTVSPropertyOp39
 70
     1
102
RTVSPropertyOp40
 70
     1
102
RTVSPropertyOp41
 70
     1
102
RTVSPropertyOp42
 70
     1
102
RTVSPropertyOp43
 70
     1
102
RTVSPropertyOp44
 70
     1
102
RTVSPropertyOp45
 70
     1
102
RTVSPropertyOp46
 70
     1
102
RTVSPropertyOp47
 70
     1
102
RTVSPropertyOp48
 70
     1
102
RTVSPropertyOp49
 70
     1
102
RTVSPropertyOp50
 70
     1
102
RTVSPropertyOp51
 70
     0
102
RTVSPropertyOp52
 70
     0
102
RTVSPropertyOp53
 70
     1
102
RTVSPropertyOp54
 70
     1
102
RTVSPropertyOp55
 70
     1
102
RTVSPropertyOp56
 70
     1
102
RTVSPropertyOp57
 70
     1
102
RTVSPropertyOp58
 70
     1
102
RTVSPropertyOp59
 70
     1
102
RTVSPropertyOp60
 70
     1
102
RTVSPropertyOp61
 70
     1
102
RTVSPropertyOp62
 70
     1
  0
ENDSEC
  0
EOF
