  0
SECTION
  2
HEADER
  9
$ACADVER
  1
AC1009
  9
$INSBASE
 10
0.0
 20
0.0
 30
0.0
  9
$EXTMIN
 10
73.508144088254312
 20
-0.0111266887402053
 30
-0.0015258207003583
  9
$EXTMAX
 10
598.29298912232355
 20
387.39409804813459
 30
0.0000000349246037
  9
$LIMMIN
 10
0.0
 20
0.0
  9
$LIMMAX
 10
12.0
 20
9.0
  9
$ORTHOMODE
 70
     1
  9
$REGENMODE
 70
     1
  9
$FILLMODE
 70
     1
  9
$QTEXTMODE
 70
     0
  9
$MIRRTEXT
 70
     0
  9
$DRAGMODE
 70
     2
  9
$LTSCALE
 40
1.0
  9
$OSMODE
 70
    37
  9
$ATTMODE
 70
     1
  9
$TEXTSIZE
 40
0.2
  9
$TRACEWID
 40
0.05
  9
$TEXTSTYLE
  7
ROMANS
  9
$CLAYER
  8
0
  9
$CELTYPE
  6
BYLAYER
  9
$CECOLOR
 62
   256
  9
$DIMSCALE
 40
1.0
  9
$DIMASZ
 40
0.09375
  9
$DIMEXO
 40
0.0625
  9
$DIMDLI
 40
0.375
  9
$DIMRND
 40
0.0
  9
$DIMDLE
 40
0.0
  9
$DIMEXE
 40
0.03125
  9
$DIMTP
 40
0.0
  9
$DIMTM
 40
0.0
  9
$DIMTXT
 40
0.09375
  9
$DIMCEN
 40
0.09375
  9
$DIMTSZ
 40
0.0
  9
$DIMTOL
 70
     0
  9
$DIMLIM
 70
     0
  9
$DIMTIH
 70
     0
  9
$DIMTOH
 70
     0
  9
$DIMSE1
 70
     0
  9
$DIMSE2
 70
     0
  9
$DIMTAD
 70
     0
  9
$DIMZIN
 70
     0
  9
$DIMBLK
  1

  9
$DIMASO
 70
     1
  9
$DIMSHO
 70
     1
  9
$DIMPOST
  1

  9
$DIMAPOST
  1

  9
$DIMALT
 70
     0
  9
$DIMALTD
 70
     2
  9
$DIMALTF
 40
25.399999999999999
  9
$DIMLFAC
 40
1.0
  9
$DIMTOFL
 70
     0
  9
$DIMTVP
 40
0.0
  9
$DIMTIX
 70
     0
  9
$DIMSOXD
 70
     0
  9
$DIMSAH
 70
     0
  9
$DIMBLK1
  1

  9
$DIMBLK2
  1

  9
$DIMSTYLE
  2
BAC
  9
$DIMCLRD
 70
     0
  9
$DIMCLRE
 70
     6
  9
$DIMCLRT
 70
     0
  9
$DIMTFAC
 40
1.0
  9
$DIMGAP
 40
0.0625
  9
$LUNITS
 70
     5
  9
$LUPREC
 70
     6
  9
$SKETCHINC
 40
0.1
  9
$FILLETRAD
 40
0.5
  9
$AUNITS
 70
     0
  9
$AUPREC
 70
     0
  9
$MENU
  1
.
  9
$ELEVATION
 40
0.0
  9
$PELEVATION
 40
0.0
  9
$THICKNESS
 40
0.0
  9
$LIMCHECK
 70
     0
  9
$BLIPMODE
 70
     0
  9
$CHAMFERA
 40
0.5
  9
$CHAMFERB
 40
0.5
  9
$SKPOLY
 70
     0
  9
$TDCREATE
 40
2456828.7233763081
  9
$TDUPDATE
 40
2456828.726104768
  9
$TDINDWG
 40
0.002730162
  9
$TDUSRTIMER
 40
0.0027299074
  9
$USRTIMER
 70
     1
  9
$ANGBASE
 50
0.0
  9
$ANGDIR
 70
     0
  9
$PDMODE
 70
     0
  9
$PDSIZE
 40
0.0
  9
$PLINEWID
 40
0.0
  9
$COORDS
 70
     1
  9
$SPLFRAME
 70
     0
  9
$SPLINETYPE
 70
     6
  9
$SPLINESEGS
 70
     8
  9
$ATTDIA
 70
     0
  9
$ATTREQ
 70
     1
  9
$HANDLING
 70
     1
  9
$HANDSEED
  5
A8F
  9
$SURFTAB1
 70
     6
  9
$SURFTAB2
 70
     6
  9
$SURFTYPE
 70
     6
  9
$SURFU
 70
     6
  9
$SURFV
 70
     6
  9
$UCSNAME
  2

  9
$UCSORG
 10
0.0
 20
0.0
 30
0.0
  9
$UCSXDIR
 10
1.0
 20
0.0
 30
0.0
  9
$UCSYDIR
 10
0.0
 20
1.0
 30
0.0
  9
$PUCSNAME
  2

  9
$PUCSORG
 10
0.0
 20
0.0
 30
0.0
  9
$PUCSXDIR
 10
1.0
 20
0.0
 30
0.0
  9
$PUCSYDIR
 10
0.0
 20
1.0
 30
0.0
  9
$USERI1
 70
     0
  9
$USERI2
 70
     0
  9
$USERI3
 70
     0
  9
$USERI4
 70
     0
  9
$USERI5
 70
     0
  9
$USERR1
 40
0.0
  9
$USERR2
 40
0.0
  9
$USERR3
 40
0.0
  9
$USERR4
 40
0.0
  9
$USERR5
 40
0.0
  9
$WORLDVIEW
 70
     1
  9
$SHADEDGE
 70
     3
  9
$SHADEDIF
 70
    70
  9
$TILEMODE
 70
     1
  9
$MAXACTVP
 70
    48
  9
$PLIMCHECK
 70
     0
  9
$PEXTMIN
 10
1.0000000000000000E+020
 20
1.0000000000000000E+020
 30
1.0000000000000000E+020
  9
$PEXTMAX
 10
-1.0000000000000000E+020
 20
-1.0000000000000000E+020
 30
-1.0000000000000000E+020
  9
$PLIMMIN
 10
0.0
 20
0.0
  9
$PLIMMAX
 10
12.0
 20
9.0
  9
$UNITMODE
 70
     0
  9
$VISRETAIN
 70
     1
  9
$PLINEGEN
 70
     0
  9
$PSLTSCALE
 70
     1
  0
ENDSEC
  0
SECTION
  2
TABLES
  0
TABLE
  2
VPORT
 70
     1
  0
VPORT
  2
*ACTIVE
 70
     0
 10
0.0
 20
0.0
 11
1.0
 21
1.0
 12
335.90056660528887
 22
193.69148567969711
 13
0.0
 23
0.0
 14
0.5
 24
0.5
 15
0.5
 25
0.5
 16
0.0
 26
0.0
 36
1.0
 17
0.0
 27
0.0
 37
0.0
 40
389.98219962425969
 41
1.7702552719200879
 42
50.0
 43
0.0
 44
0.0
 50
0.0
 51
0.0
 71
     0
 72
   100
 73
     1
 74
     1
 75
     0
 76
     0
 77
     0
 78
     0
  0
ENDTAB
  0
TABLE
  2
LTYPE
 70
    20
  0
LTYPE
  2
CONTINUOUS
 70
     0
  3
Solid line
 72
    65
 73
     0
 40
0.0
  0
LTYPE
  2
CENTER
 70
     0
  3
Center ____ _ ____ _ ____ _ ____ _ ____ _ ____
 72
    65
 73
     4
 40
2.0
 49
1.25
 49
-0.25
 49
0.25
 49
-0.25
  0
LTYPE
  2
CENTER2
 70
     0
  3
Center (.5x) ___ _ ___ _ ___ _ ___ _ ___ _ ___
 72
    65
 73
     4
 40
1.125
 49
0.75
 49
-0.125
 49
0.125
 49
-0.125
  0
LTYPE
  2
HIDDEN
 70
     0
  3
Hidden __ __ __ __ __ __ __ __ __ __ __ __ __ _
 72
    65
 73
     2
 40
0.375
 49
0.25
 49
-0.125
  0
LTYPE
  2
HIDDEN2
 70
     0
  3
Hidden (.5x) _ _ _ _ _ _ _ _ _ _ _ _ _ _ _ _ _
 72
    65
 73
     2
 40
0.1875
 49
0.125
 49
-0.0625
  0
LTYPE
  2
PHANTOM2
 70
     0
  3
Phantom (.5x) ___ _ _ ___ _ _ ___ _ _ ___ _ _
 72
    65
 73
     6
 40
1.25
 49
0.625
 49
-0.125
 49
0.125
 49
-0.125
 49
0.125
 49
-0.125
  0
LTYPE
  2
AMCONSTR
 70
     0
  3
_______________________
 72
    65
 73
     2
 40
9999.0
 49
9999.0
 49
0.0
  0
LTYPE
  2
AMZIGZAG2
 70
     0
  3
/\/-/\/-/\/-/\/-/\/-/\/
 72
    65
 73
     2
 40
0.4401
 49
0.0001
 49
-0.4400000000000001
  0
LTYPE
  2
ACANSTGB
 70
     0
  3
__ . . __ . .
 72
    65
 73
     6
 40
0.35433070866
 49
0.15748031496
 49
-0.03937007874
 49
0.03937007874
 49
-0.03937007874
 49
0.03937007874
 49
-0.03937007874
  0
LTYPE
  2
ACANSTGL
 70
     0
  3
_ _ _ _ _
 72
    65
 73
     2
 40
0.11811023622
 49
0.07874015748
 49
-0.03937007874
  0
ENDTAB
  0
TABLE
  2
LAYER
 70
     8
  0
LAYER
  2
0
 70
     0
 62
     7
  6
CONTINUOUS
  0
ENDTAB
  0
TABLE
  2
STYLE
 70
    11
  0
STYLE
  2
STANDARD
 70
     0
 40
0.0
 41
1.0
 50
0.0
 71
     0
 42
0.2
  3
txt
  4

  0
STYLE
  2
ROMANS
 70
     0
 40
0.0
 41
0.75
 50
0.0
 71
     0
 42
0.2
  3
romans.shx
  4

  0
STYLE
  2

 70
     1
 40
0.0
 41
1.0
 50
0.0
 71
     0
 42
0.2
  3
genltshp.shx
  4

  0
STYLE
  2
ACANSGDT
 70
     0
 40
0.0
 41
1.0
 50
0.0
 71
     0
 42
0.2
  3
amgdt.shx
  4

  0
ENDTAB
  0
TABLE
  2
VIEW
 70
     0
  0
ENDTAB
  0
TABLE
  2
UCS
 70
     0
  0
ENDTAB
  0
TABLE
  2
APPID
 70
    15
  0
APPID
  2
ACAD
 70
     0
  0
APPID
  2
ACAD_MLEADERVER
 70
     0
  0
APPID
  2
ACAD_DSTYLE_DIMJAG
 70
     0
  0
APPID
  2
ACAD_DSTYLE_DIMTALN
 70
     0
  0
APPID
  2
ACAD_PSEXT
 70
     0
  0
APPID
  2
ACADANNOPO
 70
     0
  0
APPID
  2
MCAD_NO_VIS
 70
     0
  0
APPID
  2
ACAD_TEMP_GRAPHIC
 70
     0
  0
APPID
  2
ACATTRIBSERVICES
 70
     0
  0
APPID
  2
DESIGNERASSEMBLIES
 70
     0
  0
APPID
  2
ACAD_DSTYLE_DIMBREAK
 70
     0
  0
APPID
  2
ACAD_NAV_VCDISPLAY
 70
     0
  0
APPID
  2
GRADIENTCOLOR1ACI
 70
     0
  0
APPID
  2
GRADIENTCOLOR2ACI
 70
     0
  0
APPID
  2
ACAD_EXEMPT_FROM_CAD_STANDARDS
 70
     0
  0
ENDTAB
  0
TABLE
  2
DIMSTYLE
 70
    14
  0
DIMSTYLE
  2
BAC
 70
     0
  3

  4

  5

  6

  7

 40
1.0
 41
0.09375
 42
0.0625
 43
0.375
 44
0.03125
 45
0.0
 46
0.0
 47
0.0
 48
0.0
140
0.09375
141
0.09375
142
0.0
143
25.399999999999999
144
1.0
145
0.0
146
1.0
147
0.0625
 71
     0
 72
     0
 73
     0
 74
     0
 75
     0
 76
     0
 77
     0
 78
     0
170
     0
171
     2
172
     0
173
     0
174
     0
175
     0
176
     0
177
     6
178
     0
  0
DIMSTYLE
  2
AM_ANSI
 70
     0
  3

  4
mm
  5

  6

  7

 40
1.0
 41
0.12
 42
0.05
 43
0.5
 44
0.1
 45
0.0
 46
0.0
 47
0.1
 48
0.1
140
0.12
141
0.0
142
0.0
143
25.399999999999999
144
1.0
145
0.0
146
0.71
147
0.06
 71
     0
 72
     0
 73
     1
 74
     1
 75
     0
 76
     0
 77
     0
 78
     7
170
     0
171
     2
172
     0
173
     0
174
     0
175
     0
176
   256
177
   256
178
     2
  0
DIMSTYLE
  2
AM_ANSI$3
 70
     0
  3

  4
mm
  5

  6

  7

 40
1.0
 41
0.12
 42
0.05
 43
0.5
 44
0.1
 45
0.0
 46
0.0
 47
0.1
 48
0.1
140
0.12
141
0.0
142
0.0
143
25.399999999999999
144
1.0
145
0.0
146
0.71
147
0.06
 71
     0
 72
     0
 73
     1
 74
     1
 75
     0
 76
     0
 77
     0
 78
     7
170
     0
171
     2
172
     0
173
     0
174
     0
175
     0
176
   256
177
   256
178
     2
  0
DIMSTYLE
  2
AM_ANSI$4
 70
     0
  3

  4
mm
  5

  6

  7

 40
1.0
 41
0.12
 42
0.05
 43
0.5
 44
0.1
 45
0.0
 46
0.0
 47
0.1
 48
0.1
140
0.12
141
0.0
142
0.0
143
25.399999999999999
144
1.0
145
0.0
146
0.71
147
0.06
 71
     0
 72
     0
 73
     1
 74
     1
 75
     0
 76
     0
 77
     0
 78
     7
170
     0
171
     2
172
     0
173
     0
174
     0
175
     0
176
   256
177
   256
178
     2
  0
DIMSTYLE
  2
AM_ANSI$7
 70
     0
  3

  4
mm
  5

  6

  7

 40
1.0
 41
0.12
 42
0.05
 43
0.5
 44
0.1
 45
0.0
 46
0.0
 47
0.1
 48
0.1
140
0.12
141
0.0
142
0.0
143
25.399999999999999
144
1.0
145
0.0
146
0.71
147
0.06
 71
     0
 72
     0
 73
     1
 74
     1
 75
     0
 76
     0
 77
     0
 78
     7
170
     0
171
     2
172
     0
173
     0
174
     0
175
     0
176
   256
177
   256
178
     2
  0
DIMSTYLE
  2
AM_ANSI$SF
 70
     0
  3

  4
mm
  5

  6

  7

 40
1.0
 41
0.12
 42
0.05
 43
0.5
 44
0.1
 45
0.0
 46
0.0
 47
0.1
 48
0.1
140
0.12
141
0.0
142
0.0
143
25.399999999999999
144
1.0
145
0.0
146
0.71
147
0.06
 71
     0
 72
     0
 73
     1
 74
     1
 75
     1
 76
     1
 77
     0
 78
     7
170
     0
171
     2
172
     0
173
     0
174
     0
175
     0
176
   256
177
   256
178
     2
  0
DIMSTYLE
  2
AM_ANSI$SH
 70
     0
  3

  4
mm
  5

  6
GENAXEH
  7

 40
1.0
 41
0.12
 42
0.05
 43
0.5
 44
0.1
 45
0.0
 46
0.0
 47
0.1
 48
0.1
140
0.12
141
0.0
142
0.0
143
25.399999999999999
144
1.0
145
0.0
146
0.71
147
0.06
 71
     0
 72
     0
 73
     1
 74
     1
 75
     1
 76
     1
 77
     0
 78
     7
170
     0
171
     2
172
     0
173
     1
174
     0
175
     0
176
   256
177
   256
178
     2
  0
DIMSTYLE
  2
STANDARD
 70
     0
  3

  4

  5

  6

  7

 40
1.0
 41
0.18
 42
0.0625
 43
0.38
 44
0.18
 45
0.0
 46
0.0
 47
0.0
 48
0.0
140
0.18
141
0.09
142
0.0
143
25.399999999999999
144
1.0
145
0.0
146
1.0
147
0.09
 71
     0
 72
     0
 73
     1
 74
     1
 75
     0
 76
     0
 77
     0
 78
     0
170
     0
171
     2
172
     0
173
     0
174
     0
175
     0
176
     0
177
     0
178
     0
  0
ENDTAB
  0
ENDSEC
  0
SECTION
  2
BLOCKS
  0
BLOCK
  8
0
  2
$MODEL_SPACE
 70
     0
 10
0.0
 20
0.0
 30
0.0
  3
$MODEL_SPACE
  1

  0
ENDBLK
  5
1A
  8
0
  0
BLOCK
 67
     1
  8
0
  2
$PAPER_SPACE
 70
     0
 10
0.0
 20
0.0
 30
0.0
  3
$PAPER_SPACE
  1

  0
ENDBLK
  5
17
 67
     1
  8
0
  0
BLOCK
  8
0
  2
*U0
 70
     1
 10
0.0
 20
0.0
 30
0.0
  3
*U0
  1

  0
ENDBLK
  5
17A
  8
0
  0
BLOCK
  8
0
  2
GENAXEH
 70
     0
 10
0.0
 20
0.0
 30
0.0
  3
GENAXEH
  1

  0
LINE
  5
1AD
  8
0
 10
-1.0
 20
0.0
 30
0.0
 11
1.0
 21
0.0
 31
0.0
  0
ENDBLK
  5
1AF
  8
0
  0
BLOCK
  8
0
  2
*X4
 70
     1
 10
0.0
 20
0.0
 30
0.0
  3
*X4
  1

  0
LINE
  5
90B
  8
0
 62
     0
 10
595.25181664418665
 20
4.0000045037579941
 30
0.0
 11
595.25181664418665
 21
98.375004503758561
 31
0.0
  0
LINE
  5
90C
  8
0
 62
     0
 10
593.75181664418665
 20
4.0000045037579808
 30
0.0
 11
593.75181664418665
 21
98.375004503758561
 31
0.0
  0
LINE
  5
90D
  8
0
 62
     0
 10
592.25181664418665
 20
4.0000045037579692
 30
0.0
 11
592.25181664418665
 21
98.375004503758547
 31
0.0
  0
LINE
  5
90E
  8
0
 62
     0
 10
590.75181664418665
 20
4.000004503757955
 30
0.0
 11
590.75181664418665
 21
98.375004503758518
 31
0.0
  0
LINE
  5
90F
  8
0
 62
     0
 10
589.25181664418665
 20
4.0000045037579426
 30
0.0
 11
589.25181664418665
 21
98.375004503758475
 31
0.0
  0
LINE
  5
910
  8
0
 62
     0
 10
587.75181664418665
 20
4.0000045037579302
 30
0.0
 11
587.75181664418665
 21
98.375004503758475
 31
0.0
  0
LINE
  5
911
  8
0
 62
     0
 10
586.25181664418665
 20
4.0000045037579168
 30
0.0
 11
586.25181664418665
 21
98.375004503758475
 31
0.0
  0
LINE
  5
912
  8
0
 62
     0
 10
584.75181664418665
 20
4.0000045037579044
 30
0.0
 11
584.75181664418665
 21
98.375004503758447
 31
0.0
  0
LINE
  5
913
  8
0
 62
     0
 10
556.25181664418665
 20
4.0000045037576104
 30
0.0
 11
556.25181664418665
 21
98.375004503758149
 31
0.0
  0
LINE
  5
914
  8
0
 62
     0
 10
554.75181664418665
 20
4.0000045037575944
 30
0.0
 11
554.75181664418665
 21
98.375004503758134
 31
0.0
  0
LINE
  5
915
  8
0
 62
     0
 10
553.25181664418665
 20
4.0000045037575784
 30
0.0
 11
553.25181664418665
 21
98.375004503758134
 31
0.0
  0
LINE
  5
916
  8
0
 62
     0
 10
551.75181664418665
 20
4.0000045037575616
 30
0.0
 11
551.75181664418665
 21
98.375004503758106
 31
0.0
  0
LINE
  5
917
  8
0
 62
     0
 10
550.25181664418665
 20
4.0000045037575456
 30
0.0
 11
550.25181664418665
 21
98.375004503758092
 31
0.0
  0
LINE
  5
918
  8
0
 62
     0
 10
548.75181664418665
 20
4.0000045037575296
 30
0.0
 11
548.75181664418665
 21
98.375004503758078
 31
0.0
  0
LINE
  5
919
  8
0
 62
     0
 10
547.25181664418665
 20
4.0000045037575136
 30
0.0
 11
547.25181664418665
 21
98.375004503758063
 31
0.0
  0
LINE
  5
91A
  8
0
 62
     0
 10
545.75181664418665
 20
4.0000045037574976
 30
0.0
 11
545.75181664418665
 21
98.375004503758035
 31
0.0
  0
LINE
  5
91B
  8
0
 62
     0
 10
544.25181664418665
 20
4.0000045037574816
 30
0.0
 11
544.25181664418665
 21
98.375004503758021
 31
0.0
  0
LINE
  5
91C
  8
0
 62
     0
 10
542.75181664418665
 20
4.0000045037574656
 30
0.0
 11
542.75181664418665
 21
98.375004503758007
 31
0.0
  0
LINE
  5
91D
  8
0
 62
     0
 10
514.25181664418665
 20
4.0000045037571841
 30
0.0
 11
514.25181664418665
 21
98.375004503757694
 31
0.0
  0
LINE
  5
91E
  8
0
 62
     0
 10
512.75181664418665
 20
4.0000045037571681
 30
0.0
 11
512.75181664418665
 21
98.375004503757694
 31
0.0
  0
LINE
  5
91F
  8
0
 62
     0
 10
511.25181664418659
 20
4.0000045037571521
 30
0.0
 11
511.25181664418659
 21
98.375004503757694
 31
0.0
  0
LINE
  5
920
  8
0
 62
     0
 10
509.75181664418659
 20
4.0000045037571361
 30
0.0
 11
509.75181664418659
 21
98.375004503757665
 31
0.0
  0
LINE
  5
921
  8
0
 62
     0
 10
508.25181664418659
 20
4.0000045037571201
 30
0.0
 11
508.25181664418659
 21
98.375004503757651
 31
0.0
  0
LINE
  5
922
  8
0
 62
     0
 10
506.75181664418659
 20
4.0000045037571041
 30
0.0
 11
506.75181664418659
 21
98.375004503757637
 31
0.0
  0
LINE
  5
923
  8
0
 62
     0
 10
505.25181664418659
 20
4.0000045037570882
 30
0.0
 11
505.25181664418659
 21
98.375004503757609
 31
0.0
  0
LINE
  5
924
  8
0
 62
     0
 10
503.75181664418659
 20
4.0000045037570722
 30
0.0
 11
503.75181664418659
 21
98.375004503757594
 31
0.0
  0
LINE
  5
925
  8
0
 62
     0
 10
502.25181664418659
 20
4.0000045037570562
 30
0.0
 11
502.25181664418659
 21
98.37500450375758
 31
0.0
  0
LINE
  5
926
  8
0
 62
     0
 10
500.75181664418659
 20
4.0000045037570402
 30
0.0
 11
500.75181664418659
 21
98.375004503757566
 31
0.0
  0
LINE
  5
927
  8
0
 62
     0
 10
472.25181664418659
 20
4.0000045037567311
 30
0.0
 11
472.25181664418659
 21
98.375004503757282
 31
0.0
  0
LINE
  5
928
  8
0
 62
     0
 10
470.75181664418659
 20
4.000004503756716
 30
0.0
 11
470.75181664418659
 21
98.375004503757253
 31
0.0
  0
LINE
  5
929
  8
0
 62
     0
 10
469.25181664418659
 20
4.0000045037567009
 30
0.0
 11
469.25181664418659
 21
98.375004503757239
 31
0.0
  0
LINE
  5
92A
  8
0
 62
     0
 10
467.75181664418659
 20
4.0000045037566867
 30
0.0
 11
467.75181664418659
 21
98.375004503757225
 31
0.0
  0
LINE
  5
92B
  8
0
 62
     0
 10
466.25181664418659
 20
4.0000045037566716
 30
0.0
 11
466.25181664418659
 21
98.375004503757211
 31
0.0
  0
LINE
  5
92C
  8
0
 62
     0
 10
464.75181664418659
 20
4.0000045037566583
 30
0.0
 11
464.75181664418659
 21
98.375004503757197
 31
0.0
  0
LINE
  5
92D
  8
0
 62
     0
 10
463.25181664418659
 20
4.0000045037566441
 30
0.0
 11
463.25181664418659
 21
98.375004503757168
 31
0.0
  0
LINE
  5
92E
  8
0
 62
     0
 10
461.75181664418659
 20
4.0000045037566281
 30
0.0
 11
461.75181664418659
 21
98.375004503757154
 31
0.0
  0
LINE
  5
92F
  8
0
 62
     0
 10
460.25181664418659
 20
4.0000045037566139
 30
0.0
 11
460.25181664418659
 21
98.375004503757125
 31
0.0
  0
LINE
  5
930
  8
0
 62
     0
 10
541.39390142657339
 20
4.5
 30
0.0
 11
557.41041548049839
 21
4.5
 31
0.0
  0
LINE
  5
931
  8
0
 62
     0
 10
499.40141582582692
 20
4.5
 30
0.0
 11
515.39863779700022
 21
4.5
 31
0.0
  0
LINE
  5
932
  8
0
 62
     0
 10
583.39343114259589
 20
4.5
 30
0.0
 11
596.65141582582714
 21
4.5
 31
0.0
  0
LINE
  5
933
  8
0
 62
     0
 10
460.15141582582709
 20
4.5
 30
0.0
 11
473.40141582582589
 21
4.5
 31
0.0
  0
LINE
  5
934
  8
0
 62
     0
 10
541.39390142657339
 20
6.0
 30
0.0
 11
557.41041548049839
 21
6.0
 31
0.0
  0
LINE
  5
935
  8
0
 62
     0
 10
499.40141582582692
 20
6.0
 30
0.0
 11
515.39863779700022
 21
6.0
 31
0.0
  0
LINE
  5
936
  8
0
 62
     0
 10
583.39343114259589
 20
6.0
 30
0.0
 11
596.65141582582714
 21
6.0
 31
0.0
  0
LINE
  5
937
  8
0
 62
     0
 10
460.15141582582709
 20
6.0
 30
0.0
 11
473.40141582582589
 21
6.0
 31
0.0
  0
LINE
  5
938
  8
0
 62
     0
 10
541.39390142657339
 20
7.5
 30
0.0
 11
557.41041548049839
 21
7.5
 31
0.0
  0
LINE
  5
939
  8
0
 62
     0
 10
499.40141582582692
 20
7.5
 30
0.0
 11
515.39863779700022
 21
7.5
 31
0.0
  0
LINE
  5
93A
  8
0
 62
     0
 10
583.39343114259589
 20
7.5
 30
0.0
 11
596.65141582582714
 21
7.5
 31
0.0
  0
LINE
  5
93B
  8
0
 62
     0
 10
460.15141582582709
 20
7.5
 30
0.0
 11
473.40141582582589
 21
7.5
 31
0.0
  0
LINE
  5
93C
  8
0
 62
     0
 10
541.39390142657339
 20
9.0
 30
0.0
 11
557.41041548049839
 21
9.0
 31
0.0
  0
LINE
  5
93D
  8
0
 62
     0
 10
499.40141582582692
 20
9.0
 30
0.0
 11
515.39863779700022
 21
9.0
 31
0.0
  0
LINE
  5
93E
  8
0
 62
     0
 10
583.39343114259589
 20
9.0
 30
0.0
 11
596.65141582582714
 21
9.0
 31
0.0
  0
LINE
  5
93F
  8
0
 62
     0
 10
460.15141582582709
 20
9.0
 30
0.0
 11
473.40141582582589
 21
9.0
 31
0.0
  0
LINE
  5
940
  8
0
 62
     0
 10
541.39390142657339
 20
10.5
 30
0.0
 11
557.41041548049839
 21
10.5
 31
0.0
  0
LINE
  5
941
  8
0
 62
     0
 10
499.40141582582692
 20
10.5
 30
0.0
 11
515.39863779700022
 21
10.5
 31
0.0
  0
LINE
  5
942
  8
0
 62
     0
 10
583.39343114259589
 20
10.5
 30
0.0
 11
596.65141582582703
 21
10.5
 31
0.0
  0
LINE
  5
943
  8
0
 62
     0
 10
460.15141582582709
 20
10.5
 30
0.0
 11
473.40141582582589
 21
10.5
 31
0.0
  0
LINE
  5
944
  8
0
 62
     0
 10
541.39390142657339
 20
12.0
 30
0.0
 11
557.41041548049839
 21
12.0
 31
0.0
  0
LINE
  5
945
  8
0
 62
     0
 10
499.40141582582692
 20
12.0
 30
0.0
 11
515.39863779700022
 21
12.0
 31
0.0
  0
LINE
  5
946
  8
0
 62
     0
 10
583.39343114259589
 20
12.0
 30
0.0
 11
596.65141582582703
 21
12.0
 31
0.0
  0
LINE
  5
947
  8
0
 62
     0
 10
460.15141582582709
 20
12.0
 30
0.0
 11
473.40141582582589
 21
12.0
 31
0.0
  0
LINE
  5
948
  8
0
 62
     0
 10
541.39390142657339
 20
13.5
 30
0.0
 11
557.41041548049839
 21
13.5
 31
0.0
  0
LINE
  5
949
  8
0
 62
     0
 10
499.40141582582692
 20
13.5
 30
0.0
 11
515.39863779700022
 21
13.5
 31
0.0
  0
LINE
  5
94A
  8
0
 62
     0
 10
583.39343114259589
 20
13.5
 30
0.0
 11
596.65141582582703
 21
13.5
 31
0.0
  0
LINE
  5
94B
  8
0
 62
     0
 10
460.15141582582697
 20
13.5
 30
0.0
 11
473.40141582582589
 21
13.5
 31
0.0
  0
LINE
  5
94C
  8
0
 62
     0
 10
541.39390142657339
 20
15.0
 30
0.0
 11
557.41041548049839
 21
15.0
 31
0.0
  0
LINE
  5
94D
  8
0
 62
     0
 10
499.40141582582692
 20
15.0
 30
0.0
 11
515.39863779700022
 21
15.0
 31
0.0
  0
LINE
  5
94E
  8
0
 62
     0
 10
583.39343114259589
 20
15.0
 30
0.0
 11
596.65141582582703
 21
15.0
 31
0.0
  0
LINE
  5
94F
  8
0
 62
     0
 10
460.15141582582697
 20
15.0
 30
0.0
 11
473.40141582582589
 21
15.0
 31
0.0
  0
LINE
  5
950
  8
0
 62
     0
 10
541.39390142657339
 20
16.5
 30
0.0
 11
557.41041548049839
 21
16.5
 31
0.0
  0
LINE
  5
951
  8
0
 62
     0
 10
499.40141582582692
 20
16.5
 30
0.0
 11
515.39863779700022
 21
16.5
 31
0.0
  0
LINE
  5
952
  8
0
 62
     0
 10
583.39343114259589
 20
16.5
 30
0.0
 11
596.65141582582703
 21
16.5
 31
0.0
  0
LINE
  5
953
  8
0
 62
     0
 10
460.15141582582697
 20
16.5
 30
0.0
 11
473.40141582582589
 21
16.5
 31
0.0
  0
LINE
  5
954
  8
0
 62
     0
 10
541.39390142657339
 20
18.0
 30
0.0
 11
557.41041548049839
 21
18.0
 31
0.0
  0
LINE
  5
955
  8
0
 62
     0
 10
499.40141582582692
 20
18.0
 30
0.0
 11
515.39863779700022
 21
18.0
 31
0.0
  0
LINE
  5
956
  8
0
 62
     0
 10
583.39343114259589
 20
18.0
 30
0.0
 11
596.65141582582703
 21
18.0
 31
0.0
  0
LINE
  5
957
  8
0
 62
     0
 10
460.15141582582697
 20
18.0
 30
0.0
 11
473.40141582582589
 21
18.0
 31
0.0
  0
LINE
  5
958
  8
0
 62
     0
 10
541.39390142657339
 20
19.5
 30
0.0
 11
557.41041548049839
 21
19.5
 31
0.0
  0
LINE
  5
959
  8
0
 62
     0
 10
499.40141582582692
 20
19.5
 30
0.0
 11
515.39863779700022
 21
19.5
 31
0.0
  0
LINE
  5
95A
  8
0
 62
     0
 10
583.39343114259589
 20
19.5
 30
0.0
 11
596.65141582582703
 21
19.5
 31
0.0
  0
LINE
  5
95B
  8
0
 62
     0
 10
460.15141582582692
 20
19.5
 30
0.0
 11
473.40141582582589
 21
19.5
 31
0.0
  0
LINE
  5
95C
  8
0
 62
     0
 10
541.39390142657339
 20
21.0
 30
0.0
 11
557.41041548049839
 21
21.0
 31
0.0
  0
LINE
  5
95D
  8
0
 62
     0
 10
499.40141582582692
 20
21.0
 30
0.0
 11
515.39863779700022
 21
21.0
 31
0.0
  0
LINE
  5
95E
  8
0
 62
     0
 10
583.39343114259589
 20
21.0
 30
0.0
 11
596.65141582582703
 21
21.0
 31
0.0
  0
LINE
  5
95F
  8
0
 62
     0
 10
460.15141582582692
 20
21.0
 30
0.0
 11
473.40141582582589
 21
21.0
 31
0.0
  0
LINE
  5
960
  8
0
 62
     0
 10
541.39390142657339
 20
22.5
 30
0.0
 11
557.41041548049839
 21
22.5
 31
0.0
  0
LINE
  5
961
  8
0
 62
     0
 10
499.40141582582692
 20
22.5
 30
0.0
 11
515.39863779700022
 21
22.5
 31
0.0
  0
LINE
  5
962
  8
0
 62
     0
 10
583.39343114259589
 20
22.5
 30
0.0
 11
596.65141582582692
 21
22.5
 31
0.0
  0
LINE
  5
963
  8
0
 62
     0
 10
460.15141582582692
 20
22.5
 30
0.0
 11
473.40141582582589
 21
22.5
 31
0.0
  0
LINE
  5
964
  8
0
 62
     0
 10
541.39390142657339
 20
24.0
 30
0.0
 11
557.41041548049839
 21
24.0
 31
0.0
  0
LINE
  5
965
  8
0
 62
     0
 10
499.40141582582692
 20
24.0
 30
0.0
 11
515.39863779700022
 21
24.0
 31
0.0
  0
LINE
  5
966
  8
0
 62
     0
 10
583.39343114259589
 20
24.0
 30
0.0
 11
596.65141582582692
 21
24.0
 31
0.0
  0
LINE
  5
967
  8
0
 62
     0
 10
460.15141582582692
 20
24.0
 30
0.0
 11
473.40141582582589
 21
24.0
 31
0.0
  0
LINE
  5
968
  8
0
 62
     0
 10
541.39390142657339
 20
25.5
 30
0.0
 11
557.41041548049839
 21
25.5
 31
0.0
  0
LINE
  5
969
  8
0
 62
     0
 10
499.40141582582692
 20
25.5
 30
0.0
 11
515.39863779700022
 21
25.5
 31
0.0
  0
LINE
  5
96A
  8
0
 62
     0
 10
583.39343114259589
 20
25.5
 30
0.0
 11
596.65141582582692
 21
25.5
 31
0.0
  0
LINE
  5
96B
  8
0
 62
     0
 10
460.15141582582692
 20
25.5
 30
0.0
 11
473.40141582582589
 21
25.5
 31
0.0
  0
LINE
  5
96C
  8
0
 62
     0
 10
541.39390142657339
 20
27.0
 30
0.0
 11
557.41041548049839
 21
27.0
 31
0.0
  0
LINE
  5
96D
  8
0
 62
     0
 10
499.40141582582692
 20
27.0
 30
0.0
 11
515.39863779700022
 21
27.0
 31
0.0
  0
LINE
  5
96E
  8
0
 62
     0
 10
583.39343114259589
 20
27.0
 30
0.0
 11
596.65141582582692
 21
27.0
 31
0.0
  0
LINE
  5
96F
  8
0
 62
     0
 10
460.15141582582692
 20
27.0
 30
0.0
 11
473.40141582582589
 21
27.0
 31
0.0
  0
LINE
  5
970
  8
0
 62
     0
 10
541.39390142657339
 20
28.5
 30
0.0
 11
557.41041548049839
 21
28.5
 31
0.0
  0
LINE
  5
971
  8
0
 62
     0
 10
499.40141582582692
 20
28.5
 30
0.0
 11
515.39863779700022
 21
28.5
 31
0.0
  0
LINE
  5
972
  8
0
 62
     0
 10
583.39343114259589
 20
28.5
 30
0.0
 11
596.65141582582692
 21
28.5
 31
0.0
  0
LINE
  5
973
  8
0
 62
     0
 10
460.15141582582692
 20
28.5
 30
0.0
 11
473.40141582582589
 21
28.5
 31
0.0
  0
LINE
  5
974
  8
0
 62
     0
 10
541.39390142657339
 20
30.0
 30
0.0
 11
557.41041548049839
 21
30.0
 31
0.0
  0
LINE
  5
975
  8
0
 62
     0
 10
499.40141582582692
 20
30.0
 30
0.0
 11
515.39863779700022
 21
30.0
 31
0.0
  0
LINE
  5
976
  8
0
 62
     0
 10
583.39343114259589
 20
30.0
 30
0.0
 11
596.65141582582692
 21
30.0
 31
0.0
  0
LINE
  5
977
  8
0
 62
     0
 10
460.15141582582692
 20
30.0
 30
0.0
 11
473.40141582582589
 21
30.0
 31
0.0
  0
LINE
  5
978
  8
0
 62
     0
 10
541.39390142657339
 20
31.5
 30
0.0
 11
557.41041548049839
 21
31.5
 31
0.0
  0
LINE
  5
979
  8
0
 62
     0
 10
499.40141582582692
 20
31.5
 30
0.0
 11
515.39863779700022
 21
31.5
 31
0.0
  0
LINE
  5
97A
  8
0
 62
     0
 10
583.39343114259589
 20
31.5
 30
0.0
 11
596.65141582582692
 21
31.5
 31
0.0
  0
LINE
  5
97B
  8
0
 62
     0
 10
460.1514158258268
 20
31.5
 30
0.0
 11
473.40141582582589
 21
31.5
 31
0.0
  0
LINE
  5
97C
  8
0
 62
     0
 10
541.39390142657339
 20
33.0
 30
0.0
 11
557.41041548049839
 21
33.0
 31
0.0
  0
LINE
  5
97D
  8
0
 62
     0
 10
499.40141582582692
 20
33.0
 30
0.0
 11
515.39863779700022
 21
33.0
 31
0.0
  0
LINE
  5
97E
  8
0
 62
     0
 10
583.39343114259589
 20
33.0
 30
0.0
 11
596.65141582582692
 21
33.0
 31
0.0
  0
LINE
  5
97F
  8
0
 62
     0
 10
460.1514158258268
 20
33.0
 30
0.0
 11
473.40141582582589
 21
33.0
 31
0.0
  0
LINE
  5
980
  8
0
 62
     0
 10
541.39390142657339
 20
34.5
 30
0.0
 11
557.41041548049839
 21
34.5
 31
0.0
  0
LINE
  5
981
  8
0
 62
     0
 10
499.40141582582692
 20
34.5
 30
0.0
 11
515.39863779700022
 21
34.5
 31
0.0
  0
LINE
  5
982
  8
0
 62
     0
 10
583.39343114259589
 20
34.5
 30
0.0
 11
596.65141582582669
 21
34.5
 31
0.0
  0
LINE
  5
983
  8
0
 62
     0
 10
460.1514158258268
 20
34.5
 30
0.0
 11
473.40141582582589
 21
34.5
 31
0.0
  0
LINE
  5
984
  8
0
 62
     0
 10
541.39390142657339
 20
36.0
 30
0.0
 11
557.41041548049839
 21
36.0
 31
0.0
  0
LINE
  5
985
  8
0
 62
     0
 10
499.40141582582692
 20
36.0
 30
0.0
 11
515.39863779700022
 21
36.0
 31
0.0
  0
LINE
  5
986
  8
0
 62
     0
 10
583.39343114259589
 20
36.0
 30
0.0
 11
596.65141582582669
 21
36.0
 31
0.0
  0
LINE
  5
987
  8
0
 62
     0
 10
460.1514158258268
 20
36.0
 30
0.0
 11
473.40141582582589
 21
36.0
 31
0.0
  0
LINE
  5
988
  8
0
 62
     0
 10
541.39390142657339
 20
37.5
 30
0.0
 11
557.41041548049839
 21
37.5
 31
0.0
  0
LINE
  5
989
  8
0
 62
     0
 10
499.40141582582692
 20
37.5
 30
0.0
 11
515.39863779700022
 21
37.5
 31
0.0
  0
LINE
  5
98A
  8
0
 62
     0
 10
583.39343114259589
 20
37.5
 30
0.0
 11
596.65141582582669
 21
37.5
 31
0.0
  0
LINE
  5
98B
  8
0
 62
     0
 10
460.15141582582669
 20
37.5
 30
0.0
 11
473.40141582582589
 21
37.5
 31
0.0
  0
LINE
  5
98C
  8
0
 62
     0
 10
541.39390142657339
 20
39.0
 30
0.0
 11
557.41041548049839
 21
39.0
 31
0.0
  0
LINE
  5
98D
  8
0
 62
     0
 10
499.40141582582692
 20
39.0
 30
0.0
 11
515.39863779700022
 21
39.0
 31
0.0
  0
LINE
  5
98E
  8
0
 62
     0
 10
583.39343114259589
 20
39.0
 30
0.0
 11
596.65141582582669
 21
39.0
 31
0.0
  0
LINE
  5
98F
  8
0
 62
     0
 10
460.15141582582669
 20
39.0
 30
0.0
 11
473.40141582582589
 21
39.0
 31
0.0
  0
LINE
  5
990
  8
0
 62
     0
 10
541.39390142657339
 20
40.499999999999993
 30
0.0
 11
557.41041548049839
 21
40.499999999999993
 31
0.0
  0
LINE
  5
991
  8
0
 62
     0
 10
499.40141582582692
 20
40.499999999999993
 30
0.0
 11
515.39863779700022
 21
40.499999999999993
 31
0.0
  0
LINE
  5
992
  8
0
 62
     0
 10
583.39343114259589
 20
40.499999999999993
 30
0.0
 11
596.65141582582669
 21
40.499999999999993
 31
0.0
  0
LINE
  5
993
  8
0
 62
     0
 10
460.15141582582669
 20
40.499999999999993
 30
0.0
 11
473.40141582582589
 21
40.499999999999993
 31
0.0
  0
LINE
  5
994
  8
0
 62
     0
 10
541.39390142657339
 20
42.0
 30
0.0
 11
557.41041548049839
 21
42.0
 31
0.0
  0
LINE
  5
995
  8
0
 62
     0
 10
499.40141582582692
 20
42.0
 30
0.0
 11
515.39863779700022
 21
42.0
 31
0.0
  0
LINE
  5
996
  8
0
 62
     0
 10
583.39343114259589
 20
42.0
 30
0.0
 11
596.65141582582669
 21
42.0
 31
0.0
  0
LINE
  5
997
  8
0
 62
     0
 10
460.15141582582669
 20
42.0
 30
0.0
 11
473.40141582582589
 21
42.0
 31
0.0
  0
LINE
  5
998
  8
0
 62
     0
 10
541.39390142657339
 20
43.5
 30
0.0
 11
557.41041548049839
 21
43.5
 31
0.0
  0
LINE
  5
999
  8
0
 62
     0
 10
499.40141582582692
 20
43.5
 30
0.0
 11
515.39863779700022
 21
43.5
 31
0.0
  0
LINE
  5
99A
  8
0
 62
     0
 10
583.39343114259589
 20
43.5
 30
0.0
 11
596.65141582582669
 21
43.5
 31
0.0
  0
LINE
  5
99B
  8
0
 62
     0
 10
460.15141582582669
 20
43.5
 30
0.0
 11
473.40141582582589
 21
43.5
 31
0.0
  0
LINE
  5
99C
  8
0
 62
     0
 10
541.39390142657339
 20
45.0
 30
0.0
 11
557.41041548049839
 21
45.0
 31
0.0
  0
LINE
  5
99D
  8
0
 62
     0
 10
499.40141582582692
 20
45.0
 30
0.0
 11
515.39863779700022
 21
45.0
 31
0.0
  0
LINE
  5
99E
  8
0
 62
     0
 10
583.39343114259589
 20
45.0
 30
0.0
 11
596.65141582582669
 21
45.0
 31
0.0
  0
LINE
  5
99F
  8
0
 62
     0
 10
460.15141582582669
 20
45.0
 30
0.0
 11
473.40141582582589
 21
45.0
 31
0.0
  0
LINE
  5
9A0
  8
0
 62
     0
 10
541.39390142657339
 20
46.5
 30
0.0
 11
557.41041548049839
 21
46.5
 31
0.0
  0
LINE
  5
9A1
  8
0
 62
     0
 10
499.40141582582692
 20
46.5
 30
0.0
 11
515.39863779700022
 21
46.5
 31
0.0
  0
LINE
  5
9A2
  8
0
 62
     0
 10
583.39343114259589
 20
46.5
 30
0.0
 11
596.65141582582669
 21
46.5
 31
0.0
  0
LINE
  5
9A3
  8
0
 62
     0
 10
460.15141582582669
 20
46.5
 30
0.0
 11
473.40141582582589
 21
46.5
 31
0.0
  0
LINE
  5
9A4
  8
0
 62
     0
 10
541.39390142657339
 20
48.0
 30
0.0
 11
557.41041548049839
 21
48.0
 31
0.0
  0
LINE
  5
9A5
  8
0
 62
     0
 10
499.40141582582692
 20
48.0
 30
0.0
 11
515.39863779700022
 21
48.0
 31
0.0
  0
LINE
  5
9A6
  8
0
 62
     0
 10
583.39343114259589
 20
48.0
 30
0.0
 11
596.65141582582669
 21
48.0
 31
0.0
  0
LINE
  5
9A7
  8
0
 62
     0
 10
460.15141582582669
 20
48.0
 30
0.0
 11
473.40141582582589
 21
48.0
 31
0.0
  0
LINE
  5
9A8
  8
0
 62
     0
 10
541.39390142657339
 20
49.5
 30
0.0
 11
557.41041548049839
 21
49.5
 31
0.0
  0
LINE
  5
9A9
  8
0
 62
     0
 10
499.40141582582692
 20
49.5
 30
0.0
 11
515.39863779700022
 21
49.5
 31
0.0
  0
LINE
  5
9AA
  8
0
 62
     0
 10
583.39343114259589
 20
49.5
 30
0.0
 11
596.65141582582669
 21
49.5
 31
0.0
  0
LINE
  5
9AB
  8
0
 62
     0
 10
460.15141582582658
 20
49.5
 30
0.0
 11
473.40141582582589
 21
49.5
 31
0.0
  0
LINE
  5
9AC
  8
0
 62
     0
 10
541.39390142657339
 20
51.0
 30
0.0
 11
557.41041548049839
 21
51.0
 31
0.0
  0
LINE
  5
9AD
  8
0
 62
     0
 10
499.40141582582692
 20
51.0
 30
0.0
 11
515.39863779700022
 21
51.0
 31
0.0
  0
LINE
  5
9AE
  8
0
 62
     0
 10
583.39343114259589
 20
51.0
 30
0.0
 11
596.65141582582669
 21
51.0
 31
0.0
  0
LINE
  5
9AF
  8
0
 62
     0
 10
460.15141582582658
 20
51.0
 30
0.0
 11
473.40141582582589
 21
51.0
 31
0.0
  0
LINE
  5
9B0
  8
0
 62
     0
 10
541.39390142657339
 20
52.5
 30
0.0
 11
557.41041548049839
 21
52.5
 31
0.0
  0
LINE
  5
9B1
  8
0
 62
     0
 10
499.40141582582692
 20
52.5
 30
0.0
 11
515.39863779700022
 21
52.5
 31
0.0
  0
LINE
  5
9B2
  8
0
 62
     0
 10
583.39343114259589
 20
52.5
 30
0.0
 11
596.65141582582669
 21
52.5
 31
0.0
  0
LINE
  5
9B3
  8
0
 62
     0
 10
460.15141582582658
 20
52.5
 30
0.0
 11
473.40141582582589
 21
52.5
 31
0.0
  0
LINE
  5
9B4
  8
0
 62
     0
 10
541.39390142657339
 20
54.0
 30
0.0
 11
557.41041548049839
 21
54.0
 31
0.0
  0
LINE
  5
9B5
  8
0
 62
     0
 10
499.40141582582692
 20
54.0
 30
0.0
 11
515.39863779700022
 21
54.0
 31
0.0
  0
LINE
  5
9B6
  8
0
 62
     0
 10
583.39343114259589
 20
54.0
 30
0.0
 11
596.65141582582669
 21
54.0
 31
0.0
  0
LINE
  5
9B7
  8
0
 62
     0
 10
460.15141582582658
 20
54.0
 30
0.0
 11
473.40141582582589
 21
54.0
 31
0.0
  0
LINE
  5
9B8
  8
0
 62
     0
 10
541.39390142657339
 20
55.5
 30
0.0
 11
557.41041548049839
 21
55.5
 31
0.0
  0
LINE
  5
9B9
  8
0
 62
     0
 10
499.40141582582692
 20
55.5
 30
0.0
 11
515.39863779700022
 21
55.5
 31
0.0
  0
LINE
  5
9BA
  8
0
 62
     0
 10
583.39343114259589
 20
55.5
 30
0.0
 11
596.65141582582669
 21
55.5
 31
0.0
  0
LINE
  5
9BB
  8
0
 62
     0
 10
460.15141582582658
 20
55.5
 30
0.0
 11
473.40141582582589
 21
55.5
 31
0.0
  0
LINE
  5
9BC
  8
0
 62
     0
 10
541.39390142657339
 20
57.0
 30
0.0
 11
557.41041548049839
 21
57.0
 31
0.0
  0
LINE
  5
9BD
  8
0
 62
     0
 10
499.40141582582692
 20
57.0
 30
0.0
 11
515.39863779700022
 21
57.0
 31
0.0
  0
LINE
  5
9BE
  8
0
 62
     0
 10
583.39343114259589
 20
57.0
 30
0.0
 11
596.65141582582669
 21
57.0
 31
0.0
  0
LINE
  5
9BF
  8
0
 62
     0
 10
460.15141582582658
 20
57.0
 30
0.0
 11
473.40141582582589
 21
57.0
 31
0.0
  0
LINE
  5
9C0
  8
0
 62
     0
 10
541.39390142657339
 20
58.5
 30
0.0
 11
557.41041548049839
 21
58.5
 31
0.0
  0
LINE
  5
9C1
  8
0
 62
     0
 10
499.40141582582692
 20
58.5
 30
0.0
 11
515.39863779700022
 21
58.5
 31
0.0
  0
LINE
  5
9C2
  8
0
 62
     0
 10
583.39343114259589
 20
58.5
 30
0.0
 11
596.65141582582658
 21
58.5
 31
0.0
  0
LINE
  5
9C3
  8
0
 62
     0
 10
460.15141582582658
 20
58.5
 30
0.0
 11
473.40141582582589
 21
58.5
 31
0.0
  0
LINE
  5
9C4
  8
0
 62
     0
 10
541.39390142657339
 20
60.0
 30
0.0
 11
557.41041548049839
 21
60.0
 31
0.0
  0
LINE
  5
9C5
  8
0
 62
     0
 10
499.40141582582692
 20
60.0
 30
0.0
 11
515.39863779700022
 21
60.0
 31
0.0
  0
LINE
  5
9C6
  8
0
 62
     0
 10
583.39343114259589
 20
60.0
 30
0.0
 11
596.65141582582658
 21
60.0
 31
0.0
  0
LINE
  5
9C7
  8
0
 62
     0
 10
460.15141582582658
 20
60.0
 30
0.0
 11
473.40141582582589
 21
60.0
 31
0.0
  0
LINE
  5
9C8
  8
0
 62
     0
 10
541.39390142657339
 20
61.5
 30
0.0
 11
557.41041548049839
 21
61.5
 31
0.0
  0
LINE
  5
9C9
  8
0
 62
     0
 10
499.40141582582692
 20
61.5
 30
0.0
 11
515.39863779700022
 21
61.5
 31
0.0
  0
LINE
  5
9CA
  8
0
 62
     0
 10
583.39343114259589
 20
61.5
 30
0.0
 11
596.65141582582658
 21
61.5
 31
0.0
  0
LINE
  5
9CB
  8
0
 62
     0
 10
460.15141582582652
 20
61.5
 30
0.0
 11
473.40141582582589
 21
61.5
 31
0.0
  0
LINE
  5
9CC
  8
0
 62
     0
 10
541.39390142657339
 20
63.0
 30
0.0
 11
557.41041548049839
 21
63.0
 31
0.0
  0
LINE
  5
9CD
  8
0
 62
     0
 10
499.40141582582692
 20
63.0
 30
0.0
 11
515.39863779700022
 21
63.0
 31
0.0
  0
LINE
  5
9CE
  8
0
 62
     0
 10
583.39343114259589
 20
63.0
 30
0.0
 11
596.65141582582658
 21
63.0
 31
0.0
  0
LINE
  5
9CF
  8
0
 62
     0
 10
460.15141582582652
 20
63.0
 30
0.0
 11
473.40141582582589
 21
63.0
 31
0.0
  0
LINE
  5
9D0
  8
0
 62
     0
 10
541.39390142657339
 20
64.5
 30
0.0
 11
557.41041548049839
 21
64.5
 31
0.0
  0
LINE
  5
9D1
  8
0
 62
     0
 10
499.40141582582692
 20
64.5
 30
0.0
 11
515.39863779700022
 21
64.5
 31
0.0
  0
LINE
  5
9D2
  8
0
 62
     0
 10
583.39343114259589
 20
64.5
 30
0.0
 11
596.65141582582658
 21
64.5
 31
0.0
  0
LINE
  5
9D3
  8
0
 62
     0
 10
460.15141582582652
 20
64.5
 30
0.0
 11
473.40141582582589
 21
64.5
 31
0.0
  0
LINE
  5
9D4
  8
0
 62
     0
 10
541.39390142657339
 20
66.0
 30
0.0
 11
557.41041548049839
 21
66.0
 31
0.0
  0
LINE
  5
9D5
  8
0
 62
     0
 10
499.40141582582692
 20
66.0
 30
0.0
 11
515.39863779700022
 21
66.0
 31
0.0
  0
LINE
  5
9D6
  8
0
 62
     0
 10
583.39343114259589
 20
66.0
 30
0.0
 11
596.65141582582658
 21
66.0
 31
0.0
  0
LINE
  5
9D7
  8
0
 62
     0
 10
460.15141582582652
 20
66.0
 30
0.0
 11
473.40141582582589
 21
66.0
 31
0.0
  0
LINE
  5
9D8
  8
0
 62
     0
 10
541.39390142657339
 20
67.5
 30
0.0
 11
557.41041548049839
 21
67.5
 31
0.0
  0
LINE
  5
9D9
  8
0
 62
     0
 10
499.40141582582692
 20
67.5
 30
0.0
 11
515.39863779700022
 21
67.5
 31
0.0
  0
LINE
  5
9DA
  8
0
 62
     0
 10
583.39343114259589
 20
67.5
 30
0.0
 11
596.65141582582658
 21
67.5
 31
0.0
  0
LINE
  5
9DB
  8
0
 62
     0
 10
460.15141582582652
 20
67.5
 30
0.0
 11
473.40141582582589
 21
67.5
 31
0.0
  0
LINE
  5
9DC
  8
0
 62
     0
 10
541.39390142657339
 20
69.0
 30
0.0
 11
557.41041548049839
 21
69.0
 31
0.0
  0
LINE
  5
9DD
  8
0
 62
     0
 10
499.40141582582692
 20
69.0
 30
0.0
 11
515.39863779700022
 21
69.0
 31
0.0
  0
LINE
  5
9DE
  8
0
 62
     0
 10
583.39343114259589
 20
69.0
 30
0.0
 11
596.65141582582635
 21
69.0
 31
0.0
  0
LINE
  5
9DF
  8
0
 62
     0
 10
460.15141582582652
 20
69.0
 30
0.0
 11
473.40141582582589
 21
69.0
 31
0.0
  0
LINE
  5
9E0
  8
0
 62
     0
 10
541.39390142657339
 20
70.5
 30
0.0
 11
557.41041548049839
 21
70.5
 31
0.0
  0
LINE
  5
9E1
  8
0
 62
     0
 10
499.40141582582692
 20
70.5
 30
0.0
 11
515.39863779700022
 21
70.5
 31
0.0
  0
LINE
  5
9E2
  8
0
 62
     0
 10
583.39343114259589
 20
70.5
 30
0.0
 11
596.65141582582635
 21
70.5
 31
0.0
  0
LINE
  5
9E3
  8
0
 62
     0
 10
460.15141582582652
 20
70.5
 30
0.0
 11
473.40141582582589
 21
70.5
 31
0.0
  0
LINE
  5
9E4
  8
0
 62
     0
 10
541.39390142657339
 20
72.0
 30
0.0
 11
557.41041548049839
 21
72.0
 31
0.0
  0
LINE
  5
9E5
  8
0
 62
     0
 10
499.40141582582692
 20
72.0
 30
0.0
 11
515.39863779700022
 21
72.0
 31
0.0
  0
LINE
  5
9E6
  8
0
 62
     0
 10
583.39343114259589
 20
72.0
 30
0.0
 11
596.65141582582635
 21
72.0
 31
0.0
  0
LINE
  5
9E7
  8
0
 62
     0
 10
460.15141582582652
 20
72.0
 30
0.0
 11
473.40141582582589
 21
72.0
 31
0.0
  0
LINE
  5
9E8
  8
0
 62
     0
 10
541.39390142657339
 20
73.5
 30
0.0
 11
557.41041548049839
 21
73.5
 31
0.0
  0
LINE
  5
9E9
  8
0
 62
     0
 10
499.40141582582692
 20
73.5
 30
0.0
 11
515.39863779700022
 21
73.5
 31
0.0
  0
LINE
  5
9EA
  8
0
 62
     0
 10
583.39343114259589
 20
73.5
 30
0.0
 11
596.65141582582635
 21
73.5
 31
0.0
  0
LINE
  5
9EB
  8
0
 62
     0
 10
460.15141582582652
 20
73.5
 30
0.0
 11
473.40141582582589
 21
73.5
 31
0.0
  0
LINE
  5
9EC
  8
0
 62
     0
 10
541.39390142657339
 20
75.0
 30
0.0
 11
557.41041548049839
 21
75.0
 31
0.0
  0
LINE
  5
9ED
  8
0
 62
     0
 10
499.40141582582692
 20
75.0
 30
0.0
 11
515.39863779700022
 21
75.0
 31
0.0
  0
LINE
  5
9EE
  8
0
 62
     0
 10
583.39343114259589
 20
75.0
 30
0.0
 11
596.65141582582635
 21
75.0
 31
0.0
  0
LINE
  5
9EF
  8
0
 62
     0
 10
460.15141582582652
 20
75.0
 30
0.0
 11
473.40141582582589
 21
75.0
 31
0.0
  0
LINE
  5
9F0
  8
0
 62
     0
 10
541.39390142657339
 20
76.5
 30
0.0
 11
557.41041548049839
 21
76.5
 31
0.0
  0
LINE
  5
9F1
  8
0
 62
     0
 10
499.40141582582692
 20
76.5
 30
0.0
 11
515.39863779700022
 21
76.5
 31
0.0
  0
LINE
  5
9F2
  8
0
 62
     0
 10
583.39343114259589
 20
76.5
 30
0.0
 11
596.65141582582635
 21
76.5
 31
0.0
  0
LINE
  5
9F3
  8
0
 62
     0
 10
460.15141582582652
 20
76.5
 30
0.0
 11
473.40141582582589
 21
76.5
 31
0.0
  0
LINE
  5
9F4
  8
0
 62
     0
 10
541.39390142657339
 20
78.0
 30
0.0
 11
557.41041548049839
 21
78.0
 31
0.0
  0
LINE
  5
9F5
  8
0
 62
     0
 10
499.40141582582692
 20
78.0
 30
0.0
 11
515.39863779700022
 21
78.0
 31
0.0
  0
LINE
  5
9F6
  8
0
 62
     0
 10
583.39343114259589
 20
78.0
 30
0.0
 11
596.65141582582635
 21
78.0
 31
0.0
  0
LINE
  5
9F7
  8
0
 62
     0
 10
460.1514158258264
 20
78.0
 30
0.0
 11
473.40141582582589
 21
78.0
 31
0.0
  0
LINE
  5
9F8
  8
0
 62
     0
 10
541.39390142657339
 20
79.5
 30
0.0
 11
557.41041548049839
 21
79.5
 31
0.0
  0
LINE
  5
9F9
  8
0
 62
     0
 10
499.40141582582692
 20
79.5
 30
0.0
 11
515.39863779700022
 21
79.5
 31
0.0
  0
LINE
  5
9FA
  8
0
 62
     0
 10
583.39343114259589
 20
79.5
 30
0.0
 11
596.65141582582635
 21
79.5
 31
0.0
  0
LINE
  5
9FB
  8
0
 62
     0
 10
460.1514158258264
 20
79.5
 30
0.0
 11
473.40141582582589
 21
79.5
 31
0.0
  0
LINE
  5
9FC
  8
0
 62
     0
 10
541.39390142657339
 20
81.0
 30
0.0
 11
557.41041548049839
 21
81.0
 31
0.0
  0
LINE
  5
9FD
  8
0
 62
     0
 10
499.40141582582692
 20
81.0
 30
0.0
 11
515.39863779700022
 21
81.0
 31
0.0
  0
LINE
  5
9FE
  8
0
 62
     0
 10
583.39343114259589
 20
81.0
 30
0.0
 11
596.65141582582635
 21
81.0
 31
0.0
  0
LINE
  5
9FF
  8
0
 62
     0
 10
460.1514158258264
 20
81.0
 30
0.0
 11
473.40141582582589
 21
81.0
 31
0.0
  0
LINE
  5
A00
  8
0
 62
     0
 10
541.39390142657339
 20
82.5
 30
0.0
 11
557.41041548049839
 21
82.5
 31
0.0
  0
LINE
  5
A01
  8
0
 62
     0
 10
499.40141582582692
 20
82.5
 30
0.0
 11
515.39863779700022
 21
82.5
 31
0.0
  0
LINE
  5
A02
  8
0
 62
     0
 10
583.39343114259589
 20
82.5
 30
0.0
 11
596.65141582582635
 21
82.5
 31
0.0
  0
LINE
  5
A03
  8
0
 62
     0
 10
460.1514158258264
 20
82.5
 30
0.0
 11
473.40141582582589
 21
82.5
 31
0.0
  0
LINE
  5
A04
  8
0
 62
     0
 10
541.39390142657339
 20
84.0
 30
0.0
 11
557.41041548049839
 21
84.0
 31
0.0
  0
LINE
  5
A05
  8
0
 62
     0
 10
499.40141582582692
 20
84.0
 30
0.0
 11
515.39863779700022
 21
84.0
 31
0.0
  0
LINE
  5
A06
  8
0
 62
     0
 10
583.39343114259589
 20
84.0
 30
0.0
 11
596.65141582582635
 21
84.0
 31
0.0
  0
LINE
  5
A07
  8
0
 62
     0
 10
460.15141582582629
 20
84.0
 30
0.0
 11
473.40141582582589
 21
84.0
 31
0.0
  0
LINE
  5
A08
  8
0
 62
     0
 10
541.39390142657339
 20
85.5
 30
0.0
 11
557.41041548049839
 21
85.5
 31
0.0
  0
LINE
  5
A09
  8
0
 62
     0
 10
499.40141582582692
 20
85.5
 30
0.0
 11
515.39863779700022
 21
85.5
 31
0.0
  0
LINE
  5
A0A
  8
0
 62
     0
 10
583.39343114259589
 20
85.5
 30
0.0
 11
596.65141582582635
 21
85.5
 31
0.0
  0
LINE
  5
A0B
  8
0
 62
     0
 10
460.15141582582629
 20
85.5
 30
0.0
 11
473.40141582582589
 21
85.5
 31
0.0
  0
LINE
  5
A0C
  8
0
 62
     0
 10
541.39390142657339
 20
87.0
 30
0.0
 11
557.41041548049839
 21
87.0
 31
0.0
  0
LINE
  5
A0D
  8
0
 62
     0
 10
499.40141582582692
 20
87.0
 30
0.0
 11
515.39863779700022
 21
87.0
 31
0.0
  0
LINE
  5
A0E
  8
0
 62
     0
 10
583.39343114259589
 20
87.0
 30
0.0
 11
596.65141582582635
 21
87.0
 31
0.0
  0
LINE
  5
A0F
  8
0
 62
     0
 10
460.15141582582629
 20
87.0
 30
0.0
 11
473.40141582582589
 21
87.0
 31
0.0
  0
LINE
  5
A10
  8
0
 62
     0
 10
541.39390142657339
 20
88.499999999999986
 30
0.0
 11
557.41041548049839
 21
88.499999999999986
 31
0.0
  0
LINE
  5
A11
  8
0
 62
     0
 10
499.40141582582692
 20
88.499999999999986
 30
0.0
 11
515.39863779700022
 21
88.499999999999986
 31
0.0
  0
LINE
  5
A12
  8
0
 62
     0
 10
583.39343114259589
 20
88.499999999999986
 30
0.0
 11
596.65141582582635
 21
88.499999999999986
 31
0.0
  0
LINE
  5
A13
  8
0
 62
     0
 10
460.15141582582629
 20
88.499999999999986
 30
0.0
 11
473.40141582582589
 21
88.499999999999986
 31
0.0
  0
LINE
  5
A14
  8
0
 62
     0
 10
541.39390142657339
 20
90.0
 30
0.0
 11
557.41041548049839
 21
90.0
 31
0.0
  0
LINE
  5
A15
  8
0
 62
     0
 10
499.40141582582692
 20
90.0
 30
0.0
 11
515.39863779700022
 21
90.0
 31
0.0
  0
LINE
  5
A16
  8
0
 62
     0
 10
583.39343114259589
 20
90.0
 30
0.0
 11
596.65141582582635
 21
90.0
 31
0.0
  0
LINE
  5
A17
  8
0
 62
     0
 10
460.15141582582629
 20
90.0
 30
0.0
 11
473.40141582582589
 21
90.0
 31
0.0
  0
LINE
  5
A18
  8
0
 62
     0
 10
541.39390142657339
 20
91.5
 30
0.0
 11
557.41041548049839
 21
91.5
 31
0.0
  0
LINE
  5
A19
  8
0
 62
     0
 10
499.40141582582692
 20
91.5
 30
0.0
 11
515.39863779700022
 21
91.5
 31
0.0
  0
LINE
  5
A1A
  8
0
 62
     0
 10
583.39343114259589
 20
91.5
 30
0.0
 11
596.65141582582635
 21
91.5
 31
0.0
  0
LINE
  5
A1B
  8
0
 62
     0
 10
460.15141582582629
 20
91.5
 30
0.0
 11
473.40141582582589
 21
91.5
 31
0.0
  0
LINE
  5
A1C
  8
0
 62
     0
 10
541.39390142657339
 20
93.0
 30
0.0
 11
557.41041548049839
 21
93.0
 31
0.0
  0
LINE
  5
A1D
  8
0
 62
     0
 10
499.40141582582692
 20
93.0
 30
0.0
 11
515.39863779700022
 21
93.0
 31
0.0
  0
LINE
  5
A1E
  8
0
 62
     0
 10
583.39343114259589
 20
93.0
 30
0.0
 11
596.65141582582623
 21
93.0
 31
0.0
  0
LINE
  5
A1F
  8
0
 62
     0
 10
460.15141582582629
 20
93.0
 30
0.0
 11
473.40141582582589
 21
93.0
 31
0.0
  0
LINE
  5
A20
  8
0
 62
     0
 10
541.39390142657339
 20
94.500000000000014
 30
0.0
 11
557.41041548049839
 21
94.500000000000014
 31
0.0
  0
LINE
  5
A21
  8
0
 62
     0
 10
499.40141582582692
 20
94.500000000000014
 30
0.0
 11
515.39863779700022
 21
94.500000000000014
 31
0.0
  0
LINE
  5
A22
  8
0
 62
     0
 10
583.39343114259589
 20
94.500000000000014
 30
0.0
 11
596.65141582582623
 21
94.500000000000014
 31
0.0
  0
LINE
  5
A23
  8
0
 62
     0
 10
460.15141582582629
 20
94.500000000000014
 30
0.0
 11
473.40141582582589
 21
94.500000000000014
 31
0.0
  0
LINE
  5
A24
  8
0
 62
     0
 10
541.39390142657339
 20
96.0
 30
0.0
 11
557.41041548049839
 21
96.0
 31
0.0
  0
LINE
  5
A25
  8
0
 62
     0
 10
499.40141582582692
 20
96.0
 30
0.0
 11
515.39863779700022
 21
96.0
 31
0.0
  0
LINE
  5
A26
  8
0
 62
     0
 10
583.39343114259589
 20
96.0
 30
0.0
 11
596.65141582582623
 21
96.0
 31
0.0
  0
LINE
  5
A27
  8
0
 62
     0
 10
460.15141582582618
 20
96.0
 30
0.0
 11
473.40141582582589
 21
96.0
 31
0.0
  0
LINE
  5
A28
  8
0
 62
     0
 10
541.39390142657339
 20
97.5
 30
0.0
 11
557.41041548049839
 21
97.5
 31
0.0
  0
LINE
  5
A29
  8
0
 62
     0
 10
499.40141582582692
 20
97.5
 30
0.0
 11
515.39863779700022
 21
97.5
 31
0.0
  0
LINE
  5
A2A
  8
0
 62
     0
 10
583.39343114259589
 20
97.5
 30
0.0
 11
596.65141582582623
 21
97.5
 31
0.0
  0
LINE
  5
A2B
  8
0
 62
     0
 10
460.15141582582618
 20
97.5
 30
0.0
 11
473.40141582582589
 21
97.5
 31
0.0
  0
ENDBLK
  5
A2D
  8
0
  0
BLOCK
  8
0
  2
*X5
 70
     1
 10
0.0
 20
0.0
 30
0.0
  3
*X5
  1

  0
LINE
  5
A2F
  8
0
 62
     0
 10
400.6009165142213
 20
385.74999999999989
 30
0.0
 11
263.10091651422158
 21
385.74999999999989
 31
0.0
  0
LINE
  5
A30
  8
0
 62
     0
 10
400.6009165142213
 20
384.24999999999989
 30
0.0
 11
263.10091651422158
 21
384.24999999999989
 31
0.0
  0
LINE
  5
A31
  8
0
 62
     0
 10
400.6009165142213
 20
382.75
 30
0.0
 11
263.10091651422158
 21
382.75
 31
0.0
  0
LINE
  5
A32
  8
0
 62
     0
 10
400.6009165142213
 20
381.25
 30
0.0
 11
263.10091651422158
 21
381.25
 31
0.0
  0
LINE
  5
A33
  8
0
 62
     0
 10
400.6009165142213
 20
379.74999999999989
 30
0.0
 11
263.10091651422158
 21
379.74999999999989
 31
0.0
  0
LINE
  5
A34
  8
0
 62
     0
 10
400.6009165142213
 20
378.24999999999989
 30
0.0
 11
263.10091651422158
 21
378.24999999999989
 31
0.0
  0
LINE
  5
A35
  8
0
 62
     0
 10
400.6009165142213
 20
376.75
 30
0.0
 11
263.10091651422158
 21
376.75
 31
0.0
  0
LINE
  5
A36
  8
0
 62
     0
 10
400.6009165142213
 20
375.24999999999989
 30
0.0
 11
263.10091651422158
 21
375.24999999999989
 31
0.0
  0
LINE
  5
A37
  8
0
 62
     0
 10
400.6009165142213
 20
373.74999999999989
 30
0.0
 11
263.10091651422158
 21
373.74999999999989
 31
0.0
  0
LINE
  5
A38
  8
0
 62
     0
 10
400.6009165142213
 20
372.25
 30
0.0
 11
263.10091651422158
 21
372.25
 31
0.0
  0
LINE
  5
A39
  8
0
 62
     0
 10
400.6009165142213
 20
370.75
 30
0.0
 11
263.10091651422158
 21
370.75
 31
0.0
  0
LINE
  5
A3A
  8
0
 62
     0
 10
400.6009165142213
 20
369.24999999999989
 30
0.0
 11
263.10091651422158
 21
369.24999999999989
 31
0.0
  0
LINE
  5
A3B
  8
0
 62
     0
 10
400.6009165142213
 20
367.74999999999989
 30
0.0
 11
263.10091651422152
 21
367.74999999999989
 31
0.0
  0
LINE
  5
A3C
  8
0
 62
     0
 10
400.6009165142213
 20
366.25
 30
0.0
 11
263.10091651422152
 21
366.25
 31
0.0
  0
LINE
  5
A3D
  8
0
 62
     0
 10
400.6009165142213
 20
364.74999999999989
 30
0.0
 11
263.10091651422152
 21
364.74999999999989
 31
0.0
  0
LINE
  5
A3E
  8
0
 62
     0
 10
400.6009165142213
 20
363.24999999999989
 30
0.0
 11
263.10091651422152
 21
363.24999999999989
 31
0.0
  0
LINE
  5
A3F
  8
0
 62
     0
 10
400.6009165142213
 20
361.75
 30
0.0
 11
263.10091651422152
 21
361.75
 31
0.0
  0
LINE
  5
A40
  8
0
 62
     0
 10
400.6009165142213
 20
360.25
 30
0.0
 11
263.10091651422152
 21
360.25
 31
0.0
  0
LINE
  5
A41
  8
0
 62
     0
 10
400.6009165142213
 20
358.74999999999989
 30
0.0
 11
263.10091651422152
 21
358.74999999999989
 31
0.0
  0
LINE
  5
A42
  8
0
 62
     0
 10
400.6009165142213
 20
357.24999999999989
 30
0.0
 11
263.10091651422152
 21
357.24999999999989
 31
0.0
  0
LINE
  5
A43
  8
0
 62
     0
 10
400.6009165142213
 20
355.75
 30
0.0
 11
263.10091651422152
 21
355.75
 31
0.0
  0
LINE
  5
A44
  8
0
 62
     0
 10
400.6009165142213
 20
354.24999999999989
 30
0.0
 11
263.10091651422152
 21
354.24999999999989
 31
0.0
  0
LINE
  5
A45
  8
0
 62
     0
 10
400.6009165142213
 20
352.74999999999989
 30
0.0
 11
263.10091651422152
 21
352.74999999999989
 31
0.0
  0
LINE
  5
A46
  8
0
 62
     0
 10
400.6009165142213
 20
351.24999999999989
 30
0.0
 11
263.10091651422152
 21
351.24999999999989
 31
0.0
  0
LINE
  5
A47
  8
0
 62
     0
 10
400.6009165142213
 20
349.75
 30
0.0
 11
263.10091651422152
 21
349.75
 31
0.0
  0
LINE
  5
A48
  8
0
 62
     0
 10
400.6009165142213
 20
348.24999999999989
 30
0.0
 11
263.10091651422152
 21
348.24999999999989
 31
0.0
  0
LINE
  5
A49
  8
0
 62
     0
 10
400.6009165142213
 20
346.74999999999989
 30
0.0
 11
263.10091651422152
 21
346.74999999999989
 31
0.0
  0
LINE
  5
A4A
  8
0
 62
     0
 10
400.6009165142213
 20
345.25
 30
0.0
 11
263.10091651422152
 21
345.25
 31
0.0
  0
LINE
  5
A4B
  8
0
 62
     0
 10
400.6009165142213
 20
343.75
 30
0.0
 11
263.10091651422152
 21
343.75
 31
0.0
  0
LINE
  5
A4C
  8
0
 62
     0
 10
400.6009165142213
 20
342.24999999999989
 30
0.0
 11
263.10091651422152
 21
342.24999999999989
 31
0.0
  0
LINE
  5
A4D
  8
0
 62
     0
 10
400.6009165142213
 20
340.74999999999989
 30
0.0
 11
263.10091651422152
 21
340.74999999999989
 31
0.0
  0
LINE
  5
A4E
  8
0
 62
     0
 10
400.6009165142213
 20
339.25
 30
0.0
 11
263.10091651422152
 21
339.25
 31
0.0
  0
LINE
  5
A4F
  8
0
 62
     0
 10
400.6009165142213
 20
337.74999999999989
 30
0.0
 11
263.10091651422152
 21
337.74999999999989
 31
0.0
  0
LINE
  5
A50
  8
0
 62
     0
 10
400.6009165142213
 20
336.24999999999989
 30
0.0
 11
263.10091651422152
 21
336.24999999999989
 31
0.0
  0
LINE
  5
A51
  8
0
 62
     0
 10
400.6009165142213
 20
334.75
 30
0.0
 11
263.10091651422152
 21
334.75
 31
0.0
  0
LINE
  5
A52
  8
0
 62
     0
 10
400.60091651422118
 20
333.25
 30
0.0
 11
263.10091651422152
 21
333.25
 31
0.0
  0
LINE
  5
A53
  8
0
 62
     0
 10
400.60091651422118
 20
331.74999999999989
 30
0.0
 11
263.10091651422152
 21
331.74999999999989
 31
0.0
  0
LINE
  5
A54
  8
0
 62
     0
 10
400.60091651422118
 20
330.24999999999989
 30
0.0
 11
263.10091651422152
 21
330.24999999999989
 31
0.0
  0
LINE
  5
A55
  8
0
 62
     0
 10
400.60091651422118
 20
328.75
 30
0.0
 11
263.10091651422152
 21
328.75
 31
0.0
  0
LINE
  5
A56
  8
0
 62
     0
 10
400.60091651422118
 20
327.24999999999989
 30
0.0
 11
263.10091651422152
 21
327.24999999999989
 31
0.0
  0
LINE
  5
A57
  8
0
 62
     0
 10
400.60091651422118
 20
325.74999999999989
 30
0.0
 11
263.10091651422152
 21
325.74999999999989
 31
0.0
  0
LINE
  5
A58
  8
0
 62
     0
 10
400.60091651422118
 20
324.25
 30
0.0
 11
263.10091651422152
 21
324.25
 31
0.0
  0
LINE
  5
A59
  8
0
 62
     0
 10
400.60091651422118
 20
322.75
 30
0.0
 11
263.10091651422152
 21
322.75
 31
0.0
  0
LINE
  5
A5A
  8
0
 62
     0
 10
400.60091651422118
 20
321.24999999999989
 30
0.0
 11
263.10091651422152
 21
321.24999999999989
 31
0.0
  0
LINE
  5
A5B
  8
0
 62
     0
 10
400.60091651422118
 20
319.74999999999989
 30
0.0
 11
263.10091651422152
 21
319.74999999999989
 31
0.0
  0
LINE
  5
A5C
  8
0
 62
     0
 10
400.60091651422118
 20
318.25
 30
0.0
 11
263.10091651422152
 21
318.25
 31
0.0
  0
LINE
  5
A5D
  8
0
 62
     0
 10
400.60091651422118
 20
316.74999999999989
 30
0.0
 11
263.10091651422152
 21
316.74999999999989
 31
0.0
  0
LINE
  5
A5E
  8
0
 62
     0
 10
400.60091651422118
 20
315.24999999999989
 30
0.0
 11
263.10091651422152
 21
315.24999999999989
 31
0.0
  0
LINE
  5
A5F
  8
0
 62
     0
 10
400.60091651422118
 20
313.74999999999989
 30
0.0
 11
263.10091651422152
 21
313.74999999999989
 31
0.0
  0
LINE
  5
A60
  8
0
 62
     0
 10
400.60091651422118
 20
312.25
 30
0.0
 11
263.10091651422152
 21
312.25
 31
0.0
  0
LINE
  5
A61
  8
0
 62
     0
 10
400.60091651422118
 20
310.74999999999989
 30
0.0
 11
263.10091651422152
 21
310.74999999999989
 31
0.0
  0
LINE
  5
A62
  8
0
 62
     0
 10
400.60091651422118
 20
309.24999999999989
 30
0.0
 11
263.10091651422152
 21
309.24999999999989
 31
0.0
  0
LINE
  5
A63
  8
0
 62
     0
 10
400.60091651422118
 20
307.75
 30
0.0
 11
263.10091651422152
 21
307.75
 31
0.0
  0
LINE
  5
A64
  8
0
 62
     0
 10
400.60091651422118
 20
306.25
 30
0.0
 11
263.10091651422152
 21
306.25
 31
0.0
  0
LINE
  5
A65
  8
0
 62
     0
 10
400.60091651422118
 20
304.74999999999989
 30
0.0
 11
263.10091651422152
 21
304.74999999999989
 31
0.0
  0
LINE
  5
A66
  8
0
 62
     0
 10
400.60091651422118
 20
303.24999999999989
 30
0.0
 11
263.10091651422152
 21
303.24999999999989
 31
0.0
  0
LINE
  5
A67
  8
0
 62
     0
 10
400.60091651422118
 20
301.75
 30
0.0
 11
263.10091651422152
 21
301.75
 31
0.0
  0
LINE
  5
A68
  8
0
 62
     0
 10
400.60091651422113
 20
300.24999999999989
 30
0.0
 11
263.10091651422141
 21
300.24999999999989
 31
0.0
  0
LINE
  5
A69
  8
0
 62
     0
 10
400.60091651422113
 20
298.74999999999989
 30
0.0
 11
263.10091651422141
 21
298.74999999999989
 31
0.0
  0
LINE
  5
A6A
  8
0
 62
     0
 10
400.60091651422113
 20
297.25
 30
0.0
 11
263.10091651422141
 21
297.25
 31
0.0
  0
LINE
  5
A6B
  8
0
 62
     0
 10
400.60091651422113
 20
295.74999999999989
 30
0.0
 11
263.10091651422141
 21
295.74999999999989
 31
0.0
  0
LINE
  5
A6C
  8
0
 62
     0
 10
400.60091651422113
 20
294.24999999999989
 30
0.0
 11
263.10091651422141
 21
294.24999999999989
 31
0.0
  0
LINE
  5
A6D
  8
0
 62
     0
 10
400.60091651422113
 20
292.74999999999989
 30
0.0
 11
263.10091651422141
 21
292.74999999999989
 31
0.0
  0
LINE
  5
A6E
  8
0
 62
     0
 10
400.60091651422113
 20
291.25
 30
0.0
 11
263.10091651422141
 21
291.25
 31
0.0
  0
LINE
  5
A6F
  8
0
 62
     0
 10
400.60091651422113
 20
289.74999999999989
 30
0.0
 11
263.10091651422141
 21
289.74999999999989
 31
0.0
  0
LINE
  5
A70
  8
0
 62
     0
 10
400.60091651422113
 20
288.24999999999989
 30
0.0
 11
263.10091651422141
 21
288.24999999999989
 31
0.0
  0
LINE
  5
A71
  8
0
 62
     0
 10
400.60091651422113
 20
286.74999999999989
 30
0.0
 11
263.10091651422141
 21
286.74999999999989
 31
0.0
  0
LINE
  5
A72
  8
0
 62
     0
 10
400.60091651422113
 20
285.25
 30
0.0
 11
263.10091651422141
 21
285.25
 31
0.0
  0
LINE
  5
A73
  8
0
 62
     0
 10
400.60091651422113
 20
283.75
 30
0.0
 11
263.10091651422141
 21
283.75
 31
0.0
  0
LINE
  5
A74
  8
0
 62
     0
 10
400.60091651422113
 20
282.24999999999989
 30
0.0
 11
263.10091651422141
 21
282.24999999999989
 31
0.0
  0
LINE
  5
A75
  8
0
 62
     0
 10
400.60091651422113
 20
280.75
 30
0.0
 11
263.10091651422141
 21
280.75
 31
0.0
  0
LINE
  5
A76
  8
0
 62
     0
 10
400.60091651422113
 20
279.24999999999989
 30
0.0
 11
263.10091651422141
 21
279.24999999999989
 31
0.0
  0
LINE
  5
A77
  8
0
 62
     0
 10
400.60091651422113
 20
277.74999999999989
 30
0.0
 11
263.10091651422141
 21
277.74999999999989
 31
0.0
  0
LINE
  5
A78
  8
0
 62
     0
 10
400.60091651422113
 20
276.24999999999989
 30
0.0
 11
263.10091651422141
 21
276.24999999999989
 31
0.0
  0
LINE
  5
A79
  8
0
 62
     0
 10
400.60091651422113
 20
274.75
 30
0.0
 11
263.10091651422141
 21
274.75
 31
0.0
  0
LINE
  5
A7A
  8
0
 62
     0
 10
400.60091651422113
 20
273.24999999999989
 30
0.0
 11
263.10091651422141
 21
273.24999999999989
 31
0.0
  0
LINE
  5
A7B
  8
0
 62
     0
 10
400.60091651422113
 20
271.74999999999989
 30
0.0
 11
263.10091651422141
 21
271.74999999999989
 31
0.0
  0
LINE
  5
A7C
  8
0
 62
     0
 10
400.60091651422113
 20
270.25
 30
0.0
 11
263.10091651422141
 21
270.25
 31
0.0
  0
LINE
  5
A7D
  8
0
 62
     0
 10
400.60091651422113
 20
268.75
 30
0.0
 11
263.10091651422141
 21
268.75
 31
0.0
  0
LINE
  5
A7E
  8
0
 62
     0
 10
400.60091651422113
 20
267.24999999999989
 30
0.0
 11
263.10091651422141
 21
267.24999999999989
 31
0.0
  0
LINE
  5
A7F
  8
0
 62
     0
 10
400.60091651422113
 20
265.74999999999989
 30
0.0
 11
263.1009165142213
 21
265.74999999999989
 31
0.0
  0
LINE
  5
A80
  8
0
 62
     0
 10
400.60091651422113
 20
264.25
 30
0.0
 11
263.1009165142213
 21
264.25
 31
0.0
  0
LINE
  5
A81
  8
0
 62
     0
 10
400.60091651422113
 20
262.74999999999989
 30
0.0
 11
263.1009165142213
 21
262.74999999999989
 31
0.0
  0
LINE
  5
A82
  8
0
 62
     0
 10
400.60091651422113
 20
261.24999999999989
 30
0.0
 11
263.1009165142213
 21
261.24999999999989
 31
0.0
  0
LINE
  5
A83
  8
0
 62
     0
 10
400.60091651422113
 20
259.75
 30
0.0
 11
263.1009165142213
 21
259.75
 31
0.0
  0
LINE
  5
A84
  8
0
 62
     0
 10
400.60091651422113
 20
258.25
 30
0.0
 11
263.1009165142213
 21
258.25
 31
0.0
  0
LINE
  5
A85
  8
0
 62
     0
 10
400.60091651422113
 20
256.74999999999989
 30
0.0
 11
263.1009165142213
 21
256.74999999999989
 31
0.0
  0
LINE
  5
A86
  8
0
 62
     0
 10
400.60091651422113
 20
255.24999999999989
 30
0.0
 11
263.1009165142213
 21
255.25
 31
0.0
  0
LINE
  5
A87
  8
0
 62
     0
 10
400.60091651422113
 20
253.75
 30
0.0
 11
263.1009165142213
 21
253.75
 31
0.0
  0
LINE
  5
A88
  8
0
 62
     0
 10
400.60091651422113
 20
252.24999999999989
 30
0.0
 11
263.1009165142213
 21
252.25
 31
0.0
  0
LINE
  5
A89
  8
0
 62
     0
 10
400.60091651422113
 20
250.74999999999989
 30
0.0
 11
263.1009165142213
 21
250.75
 31
0.0
  0
ENDBLK
  5
A8B
  8
0
  0
ENDSEC
  0
SECTION
  2
ENTITIES
  0
LINE
  5
368
  8
0
 10
261.47591651422113
 20
177.37500450375751
 30
0.0
 11
402.22591651421811
 21
177.37500450375751
 31
0.0
  0
LINE
  5
369
  8
0
 10
402.22591651421811
 20
100.00000450375769
 30
0.0
 11
261.47591651422113
 21
100.00000450375769
 31
0.0
  0
LINE
  5
36A
  8
0
 10
261.47591651422113
 20
100.00000450375769
 30
0.0
 11
261.47591651422113
 21
177.37500450375751
 31
0.0
  0
LINE
  5
36B
  8
0
 10
402.22591651421811
 20
100.00000450375769
 30
0.0
 11
402.22591651421811
 21
177.37500450375751
 31
0.0
  0
LINE
  5
36C
  8
0
 10
261.47591651422158
 20
100.00000450375769
 30
0.0
 11
403.47591651422152
 21
100.00000450375769
 31
0.0
  0
LINE
  5
36D
  8
0
 10
403.47591651422152
 20
0.0000045037577365
 30
0.0
 11
261.47591651422158
 21
0.0000045037577365
 31
0.0
  0
LINE
  5
36E
  8
0
 10
261.47591651422158
 20
100.00000450375769
 30
0.0
 11
261.47591651422158
 21
0.0000045037577365
 31
0.0
  0
LINE
  5
36F
  8
0
 10
403.47591651422152
 20
0.0000045037577365
 30
0.0
 11
403.47591651422152
 21
100.00000450375769
 31
0.0
  0
LINE
  5
370
  8
0
 10
402.47591651422181
 20
173.62500450375791
 30
0.0
 11
402.22591651422272
 21
173.62500450375791
 31
0.0
  0
LINE
  5
371
  8
0
 10
402.22591651422272
 20
165.62500450375759
 30
0.0
 11
402.47591651422181
 21
165.62500450375759
 31
0.0
  0
LINE
  5
372
  8
0
 10
402.47591651422181
 20
173.62500450375771
 30
0.0
 11
402.47591651422181
 21
173.48871054564151
 31
0.0
  0
LINE
  5
373
  8
0
 10
402.47591651422181
 20
173.488707808914
 30
0.0
 11
402.47591651422181
 21
172.45343162850389
 31
0.0
  0
LINE
  5
374
  8
0
 10
402.47591651422181
 20
172.4534309459126
 30
0.0
 11
402.47591651422181
 21
170.66028068416779
 31
0.0
  0
LINE
  5
375
  8
0
 10
402.47591651422181
 20
170.6602790478116
 30
0.0
 11
402.47591651422181
 21
169.62500450375771
 31
0.0
  0
LINE
  5
376
  8
0
 10
402.47591651422181
 20
169.6250006451335
 30
0.0
 11
402.47591651422181
 21
168.5897336868492
 31
0.0
  0
LINE
  5
377
  8
0
 10
402.47591651422181
 20
168.58972832334771
 30
0.0
 11
402.47591651422181
 21
167.6250080898088
 31
0.0
  0
LINE
  5
378
  8
0
 10
402.47591651422181
 20
167.62500450375771
 30
0.0
 11
402.47591651422181
 21
166.79658147133071
 31
0.0
  0
LINE
  5
379
  8
0
 10
402.47591651422181
 20
166.7965773790115
 30
0.0
 11
402.47591651422181
 21
165.76130285251921
 31
0.0
  0
LINE
  5
37A
  8
0
 10
402.47591651422181
 20
165.76130119860139
 30
0.0
 11
402.47591651422181
 21
165.62500450375771
 31
0.0
  0
ARC
  5
37B
  8
0
 10
326.72591651422113
 20
40.50000450375812
 30
0.0
 40
0.7499999999999965
 50
359.99999999999937
 51
179.99999999999969
  0
ARC
  5
37C
  8
0
 10
326.72591651422113
 20
40.50000450375812
 30
0.0
 40
0.7500000000000036
 50
180.00000000000031
 51
359.99999999999881
  0
ARC
  5
37D
  8
0
 10
266.22591651422113
 20
29.000004503758142
 30
0.0
 40
1.5000000000000011
 50
359.99999999999937
 51
179.9999999999994
  0
ARC
  5
37E
  8
0
 10
266.22591651422113
 20
29.000004503758142
 30
0.0
 40
1.5
 50
180.0
 51
359.99999999999949
  0
ARC
  5
37F
  8
0
 10
264.8509165142209
 20
6.62500450375813
 30
0.0
 40
0.999999999999996
 50
359.9999999999996
 51
179.9999999999996
  0
ARC
  5
380
  8
0
 10
264.8509165142209
 20
6.62500450375813
 30
0.0
 40
1.0000000000000011
 50
180.00000000000011
 51
359.99999999999937
  0
ARC
  5
381
  8
0
 10
288.60091651422141
 20
14.50000450375815
 30
0.0
 40
4.0
 50
359.99999999999937
 51
179.9999999999996
  0
ARC
  5
382
  8
0
 10
288.60091651422141
 20
14.50000450375815
 30
0.0
 40
4.0
 50
180.0000000000002
 51
359.99999999999937
  0
CIRCLE
  5
383
  8
0
 10
284.2259165142213
 20
44.250004503757722
 30
0.0
 40
11.18749999999998
  0
LINE
  5
384
  8
0
 10
458.526415825833
 20
177.37500450375751
 30
0.0
 11
598.27641582582714
 21
177.37500450375751
 31
0.0
  0
LINE
  5
385
  8
0
 10
458.526415825833
 20
100.00000450375769
 30
0.0
 11
458.526415825833
 21
177.37500450375751
 31
0.0
  0
LINE
  5
386
  8
0
 10
598.27641582582714
 20
100.00000450375769
 30
0.0
 11
598.27641582582714
 21
177.37500450375751
 31
0.0
  0
LINE
  5
387
  8
0
 10
516.40141582582851
 20
6.0000045037577348
 30
0.0
 11
540.40141582582714
 21
6.0000045037584178
 31
0.0
  0
LINE
  5
388
  8
0
 10
516.40141582582646
 20
86.080200527385671
 30
0.0
 11
540.40141582582623
 21
86.080200527385912
 31
0.0
  0
LINE
  5
389
  8
0
 10
540.40141582582714
 20
4.0000045037577836
 30
0.0
 11
540.40141582582737
 21
98.375004503758362
 31
0.0
  0
LINE
  5
38A
  8
0
 10
541.39390142657362
 20
98.375004503758362
 30
0.0
 11
541.39390142657362
 21
4.0000045037577836
 31
0.0
  0
LINE
  5
38B
  8
0
 10
540.40141582582714
 20
4.0000045037577836
 30
0.0
 11
541.39390142657362
 21
4.0000045037577827
 31
0.0
  0
LINE
  5
38C
  8
0
 10
541.39390142657362
 20
98.375004503758362
 30
0.0
 11
540.40141582582737
 21
98.375004503758362
 31
0.0
  0
LINE
  5
38D
  8
0
 10
515.39863779700045
 20
4.0000045037578227
 30
0.0
 11
515.39863779700067
 21
98.375004503758404
 31
0.0
  0
LINE
  5
38E
  8
0
 10
516.40141582582726
 20
98.375004503758404
 30
0.0
 11
516.40141582582714
 21
4.000004503757828
 31
0.0
  0
LINE
  5
38F
  8
0
 10
515.39863779700045
 20
4.0000045037578227
 30
0.0
 11
516.40141582582714
 21
4.0000045037578218
 31
0.0
  0
LINE
  5
390
  8
0
 10
516.40141582582726
 20
98.375004503758404
 30
0.0
 11
515.39863779700067
 21
98.375004503758404
 31
0.0
  0
LINE
  5
391
  8
0
 10
558.40141582582714
 20
6.0000045037577348
 30
0.0
 11
582.40141582582714
 21
6.0000045037577348
 31
0.0
  0
LINE
  5
392
  8
0
 10
558.40141582582726
 20
86.080200527385514
 30
0.0
 11
582.40141582582737
 21
86.080200527385514
 31
0.0
  0
LINE
  5
393
  8
0
 10
557.4104154804985
 20
4.0000045037577632
 30
0.0
 11
557.4104154804985
 21
98.375004503758333
 31
0.0
  0
LINE
  5
394
  8
0
 10
558.40141582582726
 20
98.375004503758333
 30
0.0
 11
558.40141582582714
 21
4.0000045037577632
 31
0.0
  0
LINE
  5
395
  8
0
 10
557.4104154804985
 20
4.0000045037577632
 30
0.0
 11
558.40141582582714
 21
4.0000045037577632
 31
0.0
  0
LINE
  5
396
  8
0
 10
558.40141582582726
 20
98.375004503758333
 30
0.0
 11
557.4104154804985
 21
98.375004503758333
 31
0.0
  0
LINE
  5
397
  8
0
 10
582.40141582582714
 20
4.0000045037577223
 30
0.0
 11
582.40141582582737
 21
98.375004503758291
 31
0.0
  0
LINE
  5
398
  8
0
 10
583.39343114259646
 20
98.375004503758291
 30
0.0
 11
583.39343114259623
 21
4.0000045037577214
 31
0.0
  0
LINE
  5
399
  8
0
 10
583.39343114259623
 20
4.0000045037577214
 30
0.0
 11
582.40141582582714
 21
4.0000045037577223
 31
0.0
  0
LINE
  5
39A
  8
0
 10
583.39343114259646
 20
98.375004503758291
 30
0.0
 11
582.40141582582737
 21
98.375004503758291
 31
0.0
  0
LINE
  5
39B
  8
0
 10
474.40141582582709
 20
6.0000045037573919
 30
0.0
 11
498.40141582582709
 21
6.0000045037577348
 31
0.0
  0
LINE
  5
39C
  8
0
 10
474.40141582582618
 20
86.080200527385244
 30
0.0
 11
498.40141582582618
 21
86.080200527385514
 31
0.0
  0
LINE
  5
39D
  8
0
 10
498.40141582582709
 20
4.0000045037578484
 30
0.0
 11
498.40141582582743
 21
98.375004503758404
 31
0.0
  0
LINE
  5
39E
  8
0
 10
499.40141582582731
 20
98.375004503758404
 30
0.0
 11
499.40141582582709
 21
4.0000045037578484
 31
0.0
  0
LINE
  5
39F
  8
0
 10
498.40141582582709
 20
4.0000045037578484
 30
0.0
 11
499.40141582582709
 21
4.0000045037578484
 31
0.0
  0
LINE
  5
3A0
  8
0
 10
499.40141582582731
 20
98.375004503758404
 30
0.0
 11
498.40141582582743
 21
98.375004503758404
 31
0.0
  0
LINE
  5
3A1
  8
0
 10
473.40141582582709
 20
4.0000045037578911
 30
0.0
 11
473.40141582582743
 21
98.375004503758475
 31
0.0
  0
LINE
  5
3A2
  8
0
 10
474.40141582582731
 20
98.375004503758475
 30
0.0
 11
474.40141582582709
 21
4.0000045037578911
 31
0.0
  0
LINE
  5
3A3
  8
0
 10
473.40141582582709
 20
4.0000045037578911
 30
0.0
 11
474.40141582582709
 21
4.0000045037578911
 31
0.0
  0
LINE
  5
3A4
  8
0
 10
474.40141582582731
 20
98.375004503758475
 30
0.0
 11
473.40141582582743
 21
98.375004503758475
 31
0.0
  0
LINE
  5
3A5
  8
0
 10
460.15141582582692
 20
98.375004503759627
 30
0.0
 11
460.15141582582692
 21
4.0000045037577321
 31
0.0
  0
LINE
  5
3A6
  8
0
 10
460.15141582582692
 20
4.0000045037577321
 30
0.0
 11
473.40141582582589
 21
4.0000045037577321
 31
0.0
  0
LINE
  5
3A7
  8
0
 10
473.40141582582589
 20
4.0000045037577321
 30
0.0
 11
473.40141582582589
 21
98.375004503759627
 31
0.0
1001
ACAD
1000
ASC_BOUNDS
1002
{
1070
    19
1005
50B
1002
}
  0
LINE
  5
3A8
  8
0
 10
473.40141582582589
 20
98.375004503759627
 30
0.0
 11
460.15141582582692
 21
98.375004503759627
 31
0.0
  0
LINE
  5
3A9
  8
0
 10
515.39863779700022
 20
98.375004503758404
 30
0.0
 11
499.40141582582692
 21
98.375004503758404
 31
0.0
  0
LINE
  5
3AA
  8
0
 10
499.40141582582692
 20
98.375004503758404
 30
0.0
 11
499.40141582582692
 21
4.0000045037578484
 31
0.0
1001
ACAD
1000
ASC_BOUNDS
1002
{
1070
    19
1005
50B
1002
}
  0
LINE
  5
3AB
  8
0
 10
499.40141582582692
 20
4.0000045037578484
 30
0.0
 11
515.39863779700022
 21
4.0000045037578484
 31
0.0
  0
LINE
  5
3AC
  8
0
 10
515.39863779700022
 20
4.0000045037578484
 30
0.0
 11
515.39863779700022
 21
98.375004503758404
 31
0.0
1001
ACAD
1000
ASC_BOUNDS
1002
{
1070
    19
1005
50B
1002
}
  0
LINE
  5
3AD
  8
0
 10
596.65141582582692
 20
98.375004503758404
 30
0.0
 11
583.39343114259589
 21
98.375004503758404
 31
0.0
  0
LINE
  5
3AE
  8
0
 10
583.39343114259589
 20
98.375004503758404
 30
0.0
 11
583.39343114259589
 21
4.0000045037578484
 31
0.0
1001
ACAD
1000
ASC_BOUNDS
1002
{
1070
    19
1005
50B
1002
}
  0
LINE
  5
3AF
  8
0
 10
583.39343114259589
 20
4.0000045037578484
 30
0.0
 11
596.65141582582692
 21
4.0000045037578484
 31
0.0
  0
LINE
  5
3B0
  8
0
 10
596.65141582582692
 20
4.0000045037578484
 30
0.0
 11
596.65141582582692
 21
98.375004503758404
 31
0.0
  0
LINE
  5
3B1
  8
0
 10
557.41041548049839
 20
98.375004503758404
 30
0.0
 11
541.39390142657339
 21
98.375004503758404
 31
0.0
  0
LINE
  5
3B2
  8
0
 10
541.39390142657339
 20
98.375004503758404
 30
0.0
 11
541.39390142657339
 21
4.0000045037578484
 31
0.0
1001
ACAD
1000
ASC_BOUNDS
1002
{
1070
    19
1005
50B
1002
}
  0
LINE
  5
3B3
  8
0
 10
541.39390142657339
 20
4.0000045037578484
 30
0.0
 11
557.41041548049839
 21
4.0000045037578484
 31
0.0
  0
LINE
  5
3B4
  8
0
 10
557.41041548049839
 20
4.0000045037578484
 30
0.0
 11
557.41041548049839
 21
98.375004503758404
 31
0.0
1001
ACAD
1000
ASC_BOUNDS
1002
{
1070
    19
1005
50B
1002
}
  0
LINE
  5
3B5
  8
0
 10
458.5264158258276
 20
100.00000450375769
 30
0.0
 11
598.27641582582726
 21
100.00000450375769
 31
0.0
  0
LINE
  5
3B6
  8
0
 10
598.27641582582726
 20
0.0000045037577365
 30
0.0
 11
458.5264158258276
 21
0.0000045037577365
 31
0.0
  0
LINE
  5
3B7
  8
0
 10
458.5264158258276
 20
0.0000045037577365
 30
0.0
 11
458.5264158258276
 21
100.00000450375769
 31
0.0
  0
LINE
  5
3B8
  8
0
 10
460.15141582582709
 20
4.0000045037565908
 30
0.0
 11
460.15141582582618
 21
98.375004503757125
 31
0.0
1001
ACAD
1000
ASC_BOUNDS
1002
{
1070
    19
1005
50B
1002
}
  0
LINE
  5
3B9
  8
0
 10
460.15141582582618
 20
98.375004503757125
 30
0.0
 11
596.65141582582623
 21
98.375004503758575
 31
0.0
1001
ACAD
1000
ASC_BOUNDS
1002
{
1070
    19
1005
50B
1005
50B
1005
50B
1005
50B
1002
}
  0
LINE
  5
3BA
  8
0
 10
596.65141582582623
 20
98.375004503758575
 30
0.0
 11
596.65141582582714
 21
4.0000045037579977
 31
0.0
1001
ACAD
1000
ASC_BOUNDS
1002
{
1070
    19
1005
50B
1002
}
  0
LINE
  5
3BB
  8
0
 10
596.65141582582714
 20
4.000004503758019
 30
0.0
 11
460.15141582582709
 21
4.0000045037566121
 31
0.0
1001
ACAD
1000
ASC_BOUNDS
1002
{
1070
    19
1005
50B
1005
50B
1005
50B
1005
50B
1002
}
  0
LINE
  5
3BC
  8
0
 10
598.27641582582726
 20
0.0000045037577365
 30
0.0
 11
598.27641582582726
 21
100.00000450375769
 31
0.0
  0
ARC
  5
3BD
  8
0
 10
528.40141582582692
 20
147.37500450375819
 30
0.0
 40
8.25
 50
179.99999999999969
 51
359.99999999999881
  0
ARC
  5
3BE
  8
0
 10
528.40141582582692
 20
147.37500450375819
 30
0.0
 40
8.25
 50
359.9999999999996
 51
179.99999999999969
  0
ARC
  5
3BF
  8
0
 10
528.40141582582692
 20
147.37500450375819
 30
0.0
 40
7.6874999999999956
 50
0.0000000000006934
 51
180.00000000000011
  0
ARC
  5
3C0
  8
0
 10
528.40141582582692
 20
147.37500450375819
 30
0.0
 40
7.687499999999992
 50
180.00000000000011
 51
359.9999999999996
  0
LINE
  5
3C1
  8
0
 10
533.52391659981447
 20
144.9331486549608
 30
0.0
 11
533.32897612362387
 21
144.4842399248021
 31
0.0
  0
LINE
  5
3C2
  8
0
 10
533.32897612362387
 20
144.4842399248021
 30
0.0
 11
532.87808326648133
 21
144.32699786130999
 31
0.0
  0
LINE
  5
3C3
  8
0
 10
532.87808326648133
 20
144.32699786130999
 30
0.0
 11
532.55355449663978
 21
144.39123397242119
 31
0.0
  0
LINE
  5
3C4
  8
0
 10
532.55355449663978
 20
144.39123397242119
 30
0.0
 11
532.31806342521145
 21
144.5839423057545
 31
0.0
  0
LINE
  5
3C5
  8
0
 10
532.31806342521145
 20
144.5839423057545
 30
0.0
 11
532.12709120298916
 21
145.34187881369101
 31
0.0
  0
LINE
  5
3C6
  8
0
 10
532.12709120298916
 20
145.34187881369101
 30
0.0
 11
532.31111898076699
 21
146.1057677025799
 31
0.0
  0
LINE
  5
3C7
  8
0
 10
532.31111898076699
 20
146.1057677025799
 30
0.0
 11
532.54090568711615
 21
146.29549984543701
 31
0.0
  0
LINE
  5
3C8
  8
0
 10
532.54090568711615
 20
146.29549984543701
 30
0.0
 11
532.8622102506082
 21
146.3587438930561
 31
0.0
  0
LINE
  5
3C9
  8
0
 10
532.8622102506082
 20
146.3587438930561
 30
0.0
 11
533.33046421886229
 21
146.21539071845291
 31
0.0
  0
LINE
  5
3CA
  8
0
 10
533.33046421886229
 20
146.21539071845291
 30
0.0
 11
533.52391659981447
 21
145.79029151210369
 31
0.0
  0
LINE
  5
3CB
  8
0
 10
533.52391659981447
 20
145.79029151210369
 30
0.0
 11
534.66677374267169
 21
145.79029151210369
 31
0.0
  0
LINE
  5
3CC
  8
0
 10
534.66677374267169
 20
145.79029151210369
 30
0.0
 11
534.50655548870338
 21
146.4379849644846
 31
0.0
  0
LINE
  5
3CD
  8
0
 10
534.50655548870338
 20
146.4379849644846
 30
0.0
 11
534.13899596489409
 21
146.91677960734179
 31
0.0
  0
LINE
  5
3CE
  8
0
 10
534.13899596489409
 20
146.91677960734179
 30
0.0
 11
533.57996818711615
 21
147.21253853591321
 31
0.0
  0
LINE
  5
3CF
  8
0
 10
533.57996818711615
 20
147.21253853591321
 30
0.0
 11
532.84534517124325
 21
147.31112484543701
 31
0.0
  0
LINE
  5
3D0
  8
0
 10
532.84534517124325
 20
147.31112484543701
 30
0.0
 11
532.04735409981447
 21
147.17918040099261
 31
0.0
  0
LINE
  5
3D1
  8
0
 10
532.04735409981447
 20
147.17918040099261
 30
0.0
 11
531.43711104425893
 21
146.78334706765921
 31
0.0
  0
LINE
  5
3D2
  8
0
 10
531.43711104425893
 20
146.78334706765921
 30
0.0
 11
531.04983425854471
 21
146.15933913115131
 31
0.0
  0
LINE
  5
3D3
  8
0
 10
531.04983425854471
 20
146.15933913115131
 30
0.0
 11
530.92074199663989
 21
145.342870877183
 31
0.0
  0
LINE
  5
3D4
  8
0
 10
530.92074199663989
 20
145.342870877183
 30
0.0
 11
531.05045429822735
 21
144.52454250416719
 31
0.0
  0
LINE
  5
3D5
  8
0
 10
531.05045429822735
 20
144.52454250416719
 30
0.0
 11
531.43959120298916
 21
143.90090659146881
 31
0.0
  0
LINE
  5
3D6
  8
0
 10
531.43959120298916
 20
143.90090659146881
 30
0.0
 11
532.05491858394146
 21
143.50618932956399
 31
0.0
  0
LINE
  5
3D7
  8
0
 10
532.05491858394146
 20
143.50618932956399
 30
0.0
 11
532.86320231410025
 21
143.37461690892911
 31
0.0
  0
LINE
  5
3D8
  8
0
 10
532.86320231410025
 20
143.37461690892911
 30
0.0
 11
533.58629259187819
 21
143.47679944861159
 31
0.0
  0
LINE
  5
3D9
  8
0
 10
533.58629259187819
 20
143.47679944861159
 30
0.0
 11
534.14246818711626
 21
143.78334706765921
 31
0.0
  0
LINE
  5
3DA
  8
0
 10
534.14246818711626
 20
143.78334706765921
 30
0.0
 11
534.50990370298928
 21
144.27516254384969
 31
0.0
  0
LINE
  5
3DB
  8
0
 10
534.50990370298928
 20
144.27516254384969
 30
0.0
 11
534.66677374267169
 21
144.9331486549608
 31
0.0
  0
LINE
  5
3DC
  8
0
 10
534.66677374267169
 20
144.9331486549608
 30
0.0
 11
533.52391659981447
 21
144.9331486549608
 31
0.0
  0
LINE
  5
3DD
  8
0
 10
526.30218922204699
 20
145.70722284388401
 30
0.0
 11
527.47976858712616
 21
145.70722284388401
 31
0.0
  0
LINE
  5
3DE
  8
0
 10
527.47976858712616
 20
145.70722284388401
 30
0.0
 11
527.62659398395169
 21
146.21515935182049
 31
0.0
  0
LINE
  5
3DF
  8
0
 10
527.62659398395169
 20
146.21515935182049
 30
0.0
 11
528.82996699982448
 21
146.21515935182049
 31
0.0
  0
LINE
  5
3E0
  8
0
 10
528.82996699982448
 20
146.21515935182049
 30
0.0
 11
528.97183207918977
 21
145.70722284388401
 31
0.0
  0
LINE
  5
3E1
  8
0
 10
528.97183207918977
 20
145.70722284388401
 30
0.0
 11
530.17520509506289
 21
145.70722284388401
 31
0.0
  0
LINE
  5
3E2
  8
0
 10
530.17520509506289
 20
145.70722284388401
 30
0.0
 11
528.8458400156976
 21
149.51674665340781
 31
0.0
  0
LINE
  5
3E3
  8
0
 10
528.8458400156976
 20
149.51674665340781
 30
0.0
 11
527.61667334903109
 21
149.51674665340789
 31
0.0
  0
LINE
  5
3E4
  8
0
 10
527.61667334903109
 20
149.51674665340789
 30
0.0
 11
526.30218922204699
 21
145.70722284388401
 31
0.0
  0
LINE
  5
3E5
  8
0
 10
527.84683207918977
 20
147.04055617721741
 30
0.0
 11
528.23274477760242
 21
148.3441276057888
 31
0.0
  0
LINE
  5
3E6
  8
0
 10
528.23274477760242
 20
148.3441276057888
 30
0.0
 11
528.60972890458652
 21
147.04055617721741
 31
0.0
  0
LINE
  5
3E7
  8
0
 10
528.60972890458652
 20
147.04055617721741
 30
0.0
 11
527.84683207918977
 21
147.04055617721741
 31
0.0
  0
LINE
  5
3E8
  8
0
 10
522.54145803178528
 20
147.44761115306429
 30
0.0
 11
524.24086279369021
 21
147.44761115306429
 31
0.0
  0
LINE
  5
3E9
  8
0
 10
524.24086279369021
 20
147.44761115306429
 30
0.0
 11
525.00871993654732
 21
147.4863016292548
 31
0.0
  0
LINE
  5
3EA
  8
0
 10
525.00871993654732
 20
147.4863016292548
 30
0.0
 11
525.42141834924576
 21
147.6182460736992
 31
0.0
  0
LINE
  5
3EB
  8
0
 10
525.42141834924576
 20
147.6182460736992
 30
0.0
 11
525.82965247622985
 21
148.0011825816357
 31
0.0
  0
LINE
  5
3EC
  8
0
 10
525.82965247622985
 20
148.0011825816357
 30
0.0
 11
525.97002946035695
 21
148.5884841689373
 31
0.0
  0
LINE
  5
3ED
  8
0
 10
525.97002946035695
 20
148.5884841689373
 30
0.0
 11
525.8261802540078
 21
149.1514802006833
 31
0.0
  0
LINE
  5
3EE
  8
0
 10
525.8261802540078
 20
149.1514802006833
 30
0.0
 11
525.3827278730555
 21
149.47638099433411
 31
0.0
  0
LINE
  5
3EF
  8
0
 10
525.3827278730555
 20
149.47638099433411
 30
0.0
 11
525.72796596829346
 21
149.79384131179449
 31
0.0
  0
LINE
  5
3F0
  8
0
 10
525.72796596829346
 20
149.79384131179449
 30
0.0
 11
525.84304533337286
 21
150.2462222641754
 31
0.0
  0
LINE
  5
3F1
  8
0
 10
525.84304533337286
 20
150.2462222641754
 30
0.0
 11
525.68927549210298
 21
150.80624210544531
 31
0.0
  0
LINE
  5
3F2
  8
0
 10
525.68927549210298
 20
150.80624210544531
 30
0.0
 11
525.24681517464273
 21
151.146023851477
 31
0.0
  0
LINE
  5
3F3
  8
0
 10
525.24681517464273
 20
151.146023851477
 30
0.0
 11
524.85147787305539
 21
151.23134131179449
 31
0.0
  0
LINE
  5
3F4
  8
0
 10
524.85147787305539
 20
151.23134131179449
 30
0.0
 11
524.11784692067431
 21
151.25713496258811
 31
0.0
  0
LINE
  5
3F5
  8
0
 10
524.11784692067431
 20
151.25713496258811
 30
0.0
 11
522.54145803178528
 21
151.25713496258811
 31
0.0
  0
LINE
  5
3F6
  8
0
 10
522.54145803178528
 20
151.25713496258811
 30
0.0
 11
522.54145803178528
 21
147.44761115306429
 31
0.0
  0
LINE
  5
3F7
  8
0
 10
523.74780723813478
 20
148.3365000419532
 30
0.0
 11
523.74780723813478
 21
149.03491274036591
 31
0.0
  0
LINE
  5
3F8
  8
0
 10
523.74780723813478
 20
149.03491274036591
 30
0.0
 11
524.29641834924587
 21
149.03491274036591
 31
0.0
  0
LINE
  5
3F9
  8
0
 10
524.29641834924587
 20
149.03491274036591
 30
0.0
 11
524.70564453972202
 21
148.95554766100079
 31
0.0
  0
LINE
  5
3FA
  8
0
 10
524.70564453972202
 20
148.95554766100079
 30
0.0
 11
524.82717231749984
 21
148.6886825816357
 31
0.0
  0
LINE
  5
3FB
  8
0
 10
524.82717231749984
 20
148.6886825816357
 30
0.0
 11
524.70812469845214
 21
148.41884131179441
 31
0.0
  0
LINE
  5
3FC
  8
0
 10
524.70812469845214
 20
148.41884131179441
 30
0.0
 11
524.30733104765864
 21
148.3365000419532
 31
0.0
  0
LINE
  5
3FD
  8
0
 10
524.30733104765864
 20
148.3365000419532
 30
0.0
 11
523.74780723813478
 21
148.3365000419532
 31
0.0
  0
LINE
  5
3FE
  8
0
 10
523.74780723813478
 20
149.73332543877859
 30
0.0
 11
523.74780723813478
 21
150.3682460736992
 31
0.0
  0
LINE
  5
3FF
  8
0
 10
523.74780723813478
 20
150.3682460736992
 30
0.0
 11
524.08213263496009
 21
150.3682460736992
 31
0.0
  0
LINE
  5
400
  8
0
 10
524.08213263496009
 20
150.3682460736992
 30
0.0
 11
524.59056517464273
 21
150.30078575623889
 31
0.0
  0
LINE
  5
401
  8
0
 10
524.59056517464273
 20
150.30078575623889
 30
0.0
 11
524.70018819051575
 21
150.05078575623889
 31
0.0
  0
LINE
  5
402
  8
0
 10
524.70018819051575
 20
150.05078575623889
 30
0.0
 11
524.59800565083299
 21
149.8057460736992
 31
0.0
  0
LINE
  5
403
  8
0
 10
524.59800565083299
 20
149.8057460736992
 30
0.0
 11
524.24582311115057
 21
149.73332543877859
 31
0.0
  0
LINE
  5
404
  8
0
 10
524.24582311115057
 20
149.73332543877859
 30
0.0
 11
523.74780723813478
 21
149.73332543877859
 31
0.0
  0
ARC
  5
405
  8
0
 10
528.40141582582623
 20
147.3750045037589
 30
0.0
 40
9.0000000000000178
 50
179.99999999999969
 51
359.99999999999881
  0
ARC
  5
406
  8
0
 10
528.40141582582623
 20
147.3750045037589
 30
0.0
 40
9.0
 50
359.99999999999937
 51
179.99999999999969
  0
ARC
  5
407
  8
0
 10
528.4014158258243
 20
169.62500450375771
 30
0.0
 40
4.0
 50
90.0
 51
270.0
  0
ARC
  5
408
  8
0
 10
528.4014158258243
 20
169.62500450375771
 30
0.0
 40
4.0000000000000133
 50
270.0
 51
90.0
  0
LINE
  5
409
  8
0
 10
458.27641582582839
 20
39.75000450375807
 30
0.0
 11
458.5264158258276
 21
39.75000450375807
 31
0.0
  0
LINE
  5
40A
  8
0
 10
458.5264158258276
 20
41.250004503758412
 30
0.0
 11
458.27641582582839
 21
41.250004503758412
 31
0.0
  0
LINE
  5
40B
  8
0
 10
458.27641582582748
 20
27.500004503757971
 30
0.0
 11
458.52641582582669
 21
27.500004503757971
 31
0.0
  0
LINE
  5
40C
  8
0
 10
458.52641582582669
 20
30.50000450375796
 30
0.0
 11
458.27641582582748
 21
30.50000450375796
 31
0.0
  0
LINE
  5
40D
  8
0
 10
458.27641582582748
 20
5.6250045037580758
 30
0.0
 11
458.52641582582669
 21
5.6250045037580758
 31
0.0
  0
LINE
  5
40E
  8
0
 10
458.52641582582669
 20
7.625004503757963
 30
0.0
 11
458.27641582582748
 21
7.625004503757963
 31
0.0
  0
LINE
  5
40F
  8
0
 10
458.27641582582748
 20
40.50000450375812
 30
0.0
 11
458.27641582582748
 21
40.694118787585019
 31
0.0
  0
LINE
  5
410
  8
0
 10
458.27641582582748
 20
40.694119208277179
 30
0.0
 11
458.27641582582748
 21
41.030334589648028
 31
0.0
  0
LINE
  5
411
  8
0
 10
458.27641582582748
 20
41.030335256035492
 30
0.0
 11
458.27641582582748
 21
41.14952270009038
 31
0.0
  0
LINE
  5
412
  8
0
 10
458.27641582582748
 20
41.149523556596463
 30
0.0
 11
458.27641582582748
 21
41.224448873474927
 31
0.0
  0
LINE
  5
413
  8
0
 10
458.27641582582748
 20
41.224450808908692
 30
0.0
 11
458.27641582582748
 21
41.250004503758127
 31
0.0
  0
LINE
  5
414
  8
0
 10
458.27641582582748
 20
39.750004503758142
 30
0.0
 11
458.27641582582748
 21
39.775558198605118
 31
0.0
  0
LINE
  5
415
  8
0
 10
458.27641582582748
 20
39.775560134041342
 30
0.0
 11
458.27641582582748
 21
39.850485450919813
 31
0.0
  0
LINE
  5
416
  8
0
 10
458.27641582582748
 20
39.8504863074252
 30
0.0
 11
458.27641582582748
 21
39.96967375147981
 31
0.0
  0
LINE
  5
417
  8
0
 10
458.27641582582748
 20
39.969674417868241
 30
0.0
 11
458.27641582582748
 21
40.305889799238642
 31
0.0
  0
LINE
  5
418
  8
0
 10
458.27641582582748
 20
40.305890219931229
 30
0.0
 11
458.27641582582748
 21
40.50000450375812
 31
0.0
  0
LINE
  5
419
  8
0
 10
458.276415825828
 20
29.000005468413558
 30
0.0
 11
458.276415825828
 21
29.750004503758142
 31
0.0
  0
LINE
  5
41A
  8
0
 10
458.276415825828
 20
29.750005547768129
 30
0.0
 11
458.276415825828
 21
30.29904168195733
 31
0.0
  0
LINE
  5
41B
  8
0
 10
458.276415825828
 20
30.299042609434789
 30
0.0
 11
458.276415825828
 21
30.448893243191741
 31
0.0
  0
LINE
  5
41C
  8
0
 10
458.276415825828
 20
30.448893321248359
 30
0.0
 11
458.276415825828
 21
30.500004503758142
 31
0.0
  0
LINE
  5
41D
  8
0
 10
458.276415825828
 20
27.500004503758142
 30
0.0
 11
458.276415825828
 21
27.551113789843139
 31
0.0
  0
LINE
  5
41E
  8
0
 10
458.276415825828
 20
27.551115764324539
 30
0.0
 11
458.276415825828
 21
27.70096639808148
 31
0.0
  0
LINE
  5
41F
  8
0
 10
458.276415825828
 20
27.70096654002537
 30
0.0
 11
458.276415825828
 21
27.939344110111541
 31
0.0
  0
LINE
  5
420
  8
0
 10
458.276415825828
 20
27.939344331978312
 30
0.0
 11
458.276415825828
 21
29.000004503758131
 31
0.0
  0
LINE
  5
421
  8
0
 10
458.276415825828
 20
6.6250045037581291
 30
0.0
 11
458.276415825828
 21
6.8838235488606498
 31
0.0
  0
LINE
  5
422
  8
0
 10
458.276415825828
 20
6.8838238598009589
 30
0.0
 11
458.276415825828
 21
7.3321111142962136
 31
0.0
  0
LINE
  5
423
  8
0
 10
458.276415825828
 20
7.332111284944677
 30
0.0
 11
458.276415825828
 21
7.4910299075425666
 31
0.0
  0
LINE
  5
424
  8
0
 10
458.276415825828
 20
7.4910302776755158
 30
0.0
 11
458.276415825828
 21
7.5909303300471986
 31
0.0
  0
LINE
  5
425
  8
0
 10
458.276415825828
 20
7.5909310142280528
 30
0.0
 11
458.276415825828
 21
7.62500450375813
 31
0.0
  0
LINE
  5
426
  8
0
 10
458.276415825828
 20
5.62500450375813
 30
0.0
 11
458.276415825828
 21
5.6590784673935657
 31
0.0
  0
LINE
  5
427
  8
0
 10
458.276415825828
 20
5.659078677469064
 30
0.0
 11
458.276415825828
 21
5.7589790422399183
 31
0.0
  0
LINE
  5
428
  8
0
 10
458.276415825828
 20
5.7589790999736943
 30
0.0
 11
458.276415825828
 21
5.917897722571583
 31
0.0
  0
LINE
  5
429
  8
0
 10
458.276415825828
 20
5.917897786665125
 30
0.0
 11
458.276415825828
 21
6.12500450375813
 31
0.0
  0
LINE
  5
42A
  8
0
 10
458.276415825828
 20
6.1250047278860302
 30
0.0
 11
458.276415825828
 21
6.3661853976965928
 31
0.0
  0
LINE
  5
42B
  8
0
 10
458.276415825828
 20
6.3661854586556084
 30
0.0
 11
458.276415825828
 21
6.625004262593543
 31
0.0
  0
LINE
  5
42C
  8
0
 10
458.27641582582743
 20
10.50000450375841
 30
0.0
 11
458.5264158258264
 21
10.50000450375841
 31
0.0
  0
LINE
  5
42D
  8
0
 10
458.5264158258264
 20
18.50000450375796
 30
0.0
 11
458.27641582582743
 21
18.50000450375796
 31
0.0
  0
LINE
  5
42E
  8
0
 10
458.27641582582783
 20
14.500004986086079
 30
0.0
 11
458.27641582582783
 21
17.32843162850434
 31
0.0
  0
LINE
  5
42F
  8
0
 10
458.27641582582783
 20
17.32843240529893
 30
0.0
 11
458.27641582582783
 21
17.964105871300109
 31
0.0
  0
LINE
  5
430
  8
0
 10
458.27641582582783
 20
17.964106118895899
 30
0.0
 11
458.27641582582783
 21
18.363707772104039
 31
0.0
  0
LINE
  5
431
  8
0
 10
458.27641582582783
 20
18.36370780891442
 30
0.0
 11
458.27641582582783
 21
18.500004503758159
 31
0.0
  0
LINE
  5
432
  8
0
 10
458.27641582582783
 20
10.500004503758159
 30
0.0
 11
458.27641582582783
 21
10.636301198601901
 31
0.0
  0
LINE
  5
433
  8
0
 10
458.27641582582783
 20
10.63630139712216
 30
0.0
 11
458.27641582582783
 21
11.03590265768692
 31
0.0
  0
LINE
  5
434
  8
0
 10
458.27641582582783
 20
11.035902888620409
 30
0.0
 11
458.27641582582783
 21
11.671577379011969
 31
0.0
  0
LINE
  5
435
  8
0
 10
458.27641582582783
 20
11.671577635386861
 30
0.0
 11
458.27641582582783
 21
12.500003981751931
 31
0.0
  0
LINE
  5
436
  8
0
 10
458.27641582582783
 20
12.50000450375815
 30
0.0
 11
458.27641582582783
 21
13.4647280795146
 31
0.0
  0
LINE
  5
437
  8
0
 10
458.27641582582783
 20
13.464728323348069
 30
0.0
 11
458.27641582582783
 21
14.50000450375815
 31
0.0
  0
LINE
  5
438
  8
0
 10
73.541856421551756
 20
177.37500450375751
 30
0.0
 11
213.2918564215461
 21
177.37500450375751
 31
0.0
  0
LINE
  5
439
  8
0
 10
213.2918564215461
 20
100.00000450375769
 30
0.0
 11
73.541856421551756
 21
100.00000450375769
 31
0.0
  0
LINE
  5
43A
  8
0
 10
73.541856421551756
 20
177.37500450375751
 30
0.0
 11
73.541856421551756
 21
100.00000450375769
 31
0.0
  0
LINE
  5
43B
  8
0
 10
213.2918564215461
 20
100.00000450375769
 30
0.0
 11
213.2918564215461
 21
177.37500450375751
 31
0.0
  0
LINE
  5
43C
  8
0
 10
73.541856421551984
 20
100.00000450375769
 30
0.0
 11
213.2918564215517
 21
100.00000450375769
 31
0.0
  0
LINE
  5
43D
  8
0
 10
213.2918564215517
 20
0.0000045037577365
 30
0.0
 11
73.541856421551984
 21
0.0000045037577365
 31
0.0
  0
LINE
  5
43E
  8
0
 10
213.2918564215517
 20
100.00000450375769
 30
0.0
 11
213.2918564215517
 21
0.0000045037577365
 31
0.0
  0
LINE
  5
43F
  8
0
 10
73.541856421551984
 20
0.0000045037577365
 30
0.0
 11
73.541856421551984
 21
100.00000450375769
 31
0.0
  0
ARC
  5
440
  8
0
 10
143.41685642155261
 20
147.37500450375859
 30
0.0
 40
8.2500000000000124
 50
179.9999999999996
 51
359.99999999999858
  0
ARC
  5
441
  8
0
 10
143.41685642155261
 20
147.37500450375859
 30
0.0
 40
8.2499999999999911
 50
359.99999999999949
 51
179.9999999999998
  0
ARC
  5
442
  8
0
 10
143.41685642155261
 20
147.37500450375859
 30
0.0
 40
7.6875
 50
0.0000000000006355
 51
179.9999999999998
  0
ARC
  5
443
  8
0
 10
143.41685642155261
 20
147.37500450375859
 30
0.0
 40
7.6874999999999831
 50
180.00000000000031
 51
359.9999999999996
  0
LINE
  5
444
  8
0
 10
148.5393571955403
 20
144.9331486549612
 30
0.0
 11
148.34441671934991
 21
144.48423992480249
 31
0.0
  0
LINE
  5
445
  8
0
 10
148.34441671934991
 20
144.48423992480249
 30
0.0
 11
147.8935238622071
 21
144.32699786131039
 31
0.0
  0
LINE
  5
446
  8
0
 10
147.8935238622071
 20
144.32699786131039
 30
0.0
 11
147.56899509236581
 21
144.39123397242159
 31
0.0
  0
LINE
  5
447
  8
0
 10
147.56899509236581
 20
144.39123397242159
 30
0.0
 11
147.3335040209372
 21
144.5839423057549
 31
0.0
  0
LINE
  5
448
  8
0
 10
147.3335040209372
 20
144.5839423057549
 30
0.0
 11
147.142531798715
 21
145.34187881369141
 31
0.0
  0
LINE
  5
449
  8
0
 10
147.142531798715
 20
145.34187881369141
 30
0.0
 11
147.3265595764928
 21
146.10576770258029
 31
0.0
  0
LINE
  5
44A
  8
0
 10
147.3265595764928
 20
146.10576770258029
 30
0.0
 11
147.55634628284199
 21
146.2954998454374
 31
0.0
  0
LINE
  5
44B
  8
0
 10
147.55634628284199
 20
146.2954998454374
 30
0.0
 11
147.87765084633401
 21
146.3587438930565
 31
0.0
  0
LINE
  5
44C
  8
0
 10
147.87765084633401
 20
146.3587438930565
 30
0.0
 11
148.34590481458801
 21
146.21539071845331
 31
0.0
  0
LINE
  5
44D
  8
0
 10
148.34590481458801
 20
146.21539071845331
 30
0.0
 11
148.5393571955403
 21
145.79029151210409
 31
0.0
  0
LINE
  5
44E
  8
0
 10
148.5393571955403
 20
145.79029151210409
 30
0.0
 11
149.68221433839739
 21
145.79029151210409
 31
0.0
  0
LINE
  5
44F
  8
0
 10
149.68221433839739
 20
145.79029151210409
 30
0.0
 11
149.52199608442919
 21
146.437984964485
 31
0.0
  0
LINE
  5
450
  8
0
 10
149.52199608442919
 20
146.437984964485
 30
0.0
 11
149.15443656061981
 21
146.91677960734219
 31
0.0
  0
LINE
  5
451
  8
0
 10
149.15443656061981
 20
146.91677960734219
 30
0.0
 11
148.59540878284199
 21
147.21253853591361
 31
0.0
  0
LINE
  5
452
  8
0
 10
148.59540878284199
 20
147.21253853591361
 30
0.0
 11
147.860785766969
 21
147.3111248454374
 31
0.0
  0
LINE
  5
453
  8
0
 10
147.860785766969
 20
147.3111248454374
 30
0.0
 11
147.0627946955403
 21
147.179180400993
 31
0.0
  0
LINE
  5
454
  8
0
 10
147.0627946955403
 20
147.179180400993
 30
0.0
 11
146.4525516399849
 21
146.78334706765969
 31
0.0
  0
LINE
  5
455
  8
0
 10
146.4525516399849
 20
146.78334706765969
 30
0.0
 11
146.0652748542704
 21
146.15933913115171
 31
0.0
  0
LINE
  5
456
  8
0
 10
146.0652748542704
 20
146.15933913115171
 30
0.0
 11
145.93618259236581
 21
145.34287087718349
 31
0.0
  0
LINE
  5
457
  8
0
 10
145.93618259236581
 20
145.34287087718349
 30
0.0
 11
146.0658948939531
 21
144.52454250416761
 31
0.0
  0
LINE
  5
458
  8
0
 10
146.0658948939531
 20
144.52454250416761
 30
0.0
 11
146.455031798715
 21
143.90090659146921
 31
0.0
  0
LINE
  5
459
  8
0
 10
146.455031798715
 20
143.90090659146921
 30
0.0
 11
147.07035917966729
 21
143.50618932956439
 31
0.0
  0
LINE
  5
45A
  8
0
 10
147.07035917966729
 20
143.50618932956439
 30
0.0
 11
147.87864290982611
 21
143.37461690892951
 31
0.0
  0
LINE
  5
45B
  8
0
 10
147.87864290982611
 20
143.37461690892951
 30
0.0
 11
148.60173318760391
 21
143.47679944861201
 31
0.0
  0
LINE
  5
45C
  8
0
 10
148.60173318760391
 20
143.47679944861201
 30
0.0
 11
149.15790878284199
 21
143.78334706765961
 31
0.0
  0
LINE
  5
45D
  8
0
 10
149.15790878284199
 20
143.78334706765961
 30
0.0
 11
149.525344298715
 21
144.27516254385009
 31
0.0
  0
LINE
  5
45E
  8
0
 10
149.525344298715
 20
144.27516254385009
 30
0.0
 11
149.68221433839739
 21
144.9331486549612
 31
0.0
  0
LINE
  5
45F
  8
0
 10
149.68221433839739
 20
144.9331486549612
 30
0.0
 11
148.5393571955403
 21
144.9331486549612
 31
0.0
  0
LINE
  5
460
  8
0
 10
141.31762981777271
 20
145.70722284388441
 30
0.0
 11
142.49520918285199
 21
145.70722284388441
 31
0.0
  0
LINE
  5
461
  8
0
 10
142.49520918285199
 20
145.70722284388441
 30
0.0
 11
142.6420345796775
 21
146.215159351821
 31
0.0
  0
LINE
  5
462
  8
0
 10
142.6420345796775
 20
146.215159351821
 30
0.0
 11
143.8454075955506
 21
146.215159351821
 31
0.0
  0
LINE
  5
463
  8
0
 10
143.8454075955506
 20
146.215159351821
 30
0.0
 11
143.9872726749156
 21
145.70722284388441
 31
0.0
  0
LINE
  5
464
  8
0
 10
143.9872726749156
 20
145.70722284388441
 30
0.0
 11
145.19064569078861
 21
145.70722284388441
 31
0.0
  0
LINE
  5
465
  8
0
 10
145.19064569078861
 20
145.70722284388441
 30
0.0
 11
143.8612806114235
 21
149.51674665340829
 31
0.0
  0
LINE
  5
466
  8
0
 10
143.8612806114235
 20
149.51674665340829
 30
0.0
 11
142.63211394475681
 21
149.51674665340829
 31
0.0
  0
LINE
  5
467
  8
0
 10
142.63211394475681
 20
149.51674665340829
 30
0.0
 11
141.31762981777271
 21
145.70722284388441
 31
0.0
  0
LINE
  5
468
  8
0
 10
142.8622726749156
 20
147.04055617721781
 30
0.0
 11
143.2481853733284
 21
148.3441276057892
 31
0.0
  0
LINE
  5
469
  8
0
 10
143.2481853733284
 20
148.3441276057892
 30
0.0
 11
143.6251695003125
 21
147.04055617721781
 31
0.0
  0
LINE
  5
46A
  8
0
 10
143.6251695003125
 20
147.04055617721781
 30
0.0
 11
142.8622726749156
 21
147.04055617721781
 31
0.0
  0
LINE
  5
46B
  8
0
 10
137.55689862751129
 20
147.44761115306471
 30
0.0
 11
139.25630338941619
 21
147.44761115306471
 31
0.0
  0
LINE
  5
46C
  8
0
 10
139.25630338941619
 20
147.44761115306471
 30
0.0
 11
140.0241605322733
 21
147.48630162925519
 31
0.0
  0
LINE
  5
46D
  8
0
 10
140.0241605322733
 20
147.48630162925519
 30
0.0
 11
140.43685894497159
 21
147.61824607369959
 31
0.0
  0
LINE
  5
46E
  8
0
 10
140.43685894497159
 20
147.61824607369959
 30
0.0
 11
140.84509307195589
 21
148.0011825816361
 31
0.0
  0
LINE
  5
46F
  8
0
 10
140.84509307195589
 20
148.0011825816361
 30
0.0
 11
140.9854700560827
 21
148.5884841689377
 31
0.0
  0
LINE
  5
470
  8
0
 10
140.9854700560827
 20
148.5884841689377
 30
0.0
 11
140.84162084973349
 21
149.15148020068381
 31
0.0
  0
LINE
  5
471
  8
0
 10
140.84162084973349
 20
149.15148020068381
 30
0.0
 11
140.39816846878119
 21
149.47638099433451
 31
0.0
  0
LINE
  5
472
  8
0
 10
140.39816846878119
 20
149.47638099433451
 30
0.0
 11
140.7434065640193
 21
149.79384131179489
 31
0.0
  0
LINE
  5
473
  8
0
 10
140.7434065640193
 20
149.79384131179489
 30
0.0
 11
140.85848592909861
 21
150.2462222641758
 31
0.0
  0
LINE
  5
474
  8
0
 10
140.85848592909861
 20
150.2462222641758
 30
0.0
 11
140.7047160878289
 21
150.80624210544559
 31
0.0
  0
LINE
  5
475
  8
0
 10
140.7047160878289
 20
150.80624210544559
 30
0.0
 11
140.26225577036851
 21
151.14602385147739
 31
0.0
  0
LINE
  5
476
  8
0
 10
140.26225577036851
 20
151.14602385147739
 30
0.0
 11
139.86691846878119
 21
151.23134131179489
 31
0.0
  0
LINE
  5
477
  8
0
 10
139.86691846878119
 20
151.23134131179489
 30
0.0
 11
139.13328751640029
 21
151.25713496258851
 31
0.0
  0
LINE
  5
478
  8
0
 10
139.13328751640029
 20
151.25713496258851
 30
0.0
 11
137.55689862751129
 21
151.25713496258851
 31
0.0
  0
LINE
  5
479
  8
0
 10
137.55689862751129
 20
151.25713496258851
 30
0.0
 11
137.55689862751129
 21
147.44761115306471
 31
0.0
  0
LINE
  5
47A
  8
0
 10
138.7632478338605
 20
148.3365000419536
 30
0.0
 11
138.7632478338605
 21
149.03491274036631
 31
0.0
  0
LINE
  5
47B
  8
0
 10
138.7632478338605
 20
149.03491274036631
 30
0.0
 11
139.31185894497159
 21
149.03491274036631
 31
0.0
  0
LINE
  5
47C
  8
0
 10
139.31185894497159
 20
149.03491274036631
 30
0.0
 11
139.72108513544771
 21
148.95554766100119
 31
0.0
  0
LINE
  5
47D
  8
0
 10
139.72108513544771
 20
148.95554766100119
 30
0.0
 11
139.84261291322559
 21
148.6886825816361
 31
0.0
  0
LINE
  5
47E
  8
0
 10
139.84261291322559
 20
148.6886825816361
 30
0.0
 11
139.72356529417809
 21
148.41884131179481
 31
0.0
  0
LINE
  5
47F
  8
0
 10
139.72356529417809
 20
148.41884131179481
 30
0.0
 11
139.32277164338441
 21
148.3365000419536
 31
0.0
  0
LINE
  5
480
  8
0
 10
139.32277164338441
 20
148.3365000419536
 30
0.0
 11
138.7632478338605
 21
148.3365000419536
 31
0.0
  0
LINE
  5
481
  8
0
 10
138.7632478338605
 20
149.73332543877899
 30
0.0
 11
138.7632478338605
 21
150.36824607369959
 31
0.0
  0
LINE
  5
482
  8
0
 10
138.7632478338605
 20
150.36824607369959
 30
0.0
 11
139.09757323068581
 21
150.36824607369959
 31
0.0
  0
LINE
  5
483
  8
0
 10
139.09757323068581
 20
150.36824607369959
 30
0.0
 11
139.60600577036851
 21
150.30078575623929
 31
0.0
  0
LINE
  5
484
  8
0
 10
139.60600577036851
 20
150.30078575623929
 30
0.0
 11
139.7156287862415
 21
150.05078575623929
 31
0.0
  0
LINE
  5
485
  8
0
 10
139.7156287862415
 20
150.05078575623929
 30
0.0
 11
139.61344624655879
 21
149.80574607369959
 31
0.0
  0
LINE
  5
486
  8
0
 10
139.61344624655879
 20
149.80574607369959
 30
0.0
 11
139.26126370687641
 21
149.73332543877899
 31
0.0
  0
LINE
  5
487
  8
0
 10
139.26126370687641
 20
149.73332543877899
 30
0.0
 11
138.7632478338605
 21
149.73332543877899
 31
0.0
  0
ARC
  5
488
  8
0
 10
143.41685642155221
 20
147.3750045037593
 30
0.0
 40
9.0000000000000089
 50
179.99999999999969
 51
359.99999999999881
  0
ARC
  5
489
  8
0
 10
143.41685642155221
 20
147.3750045037593
 30
0.0
 40
9.0000000000000089
 50
359.99999999999949
 51
179.99999999999969
  0
LINE
  5
48A
  8
0
 10
213.29185642155201
 20
39.75000450375807
 30
0.0
 11
213.5418564215511
 21
39.75000450375807
 31
0.0
  0
LINE
  5
48B
  8
0
 10
213.5418564215511
 20
41.250004503758412
 30
0.0
 11
213.29185642155201
 21
41.250004503758412
 31
0.0
  0
LINE
  5
48C
  8
0
 10
213.29185642155201
 20
27.500004503757971
 30
0.0
 11
213.5418564215511
 21
27.500004503757971
 31
0.0
  0
LINE
  5
48D
  8
0
 10
213.5418564215511
 20
30.50000450375796
 30
0.0
 11
213.29185642155201
 21
30.50000450375796
 31
0.0
  0
LINE
  5
48E
  8
0
 10
213.29185642155201
 20
5.6250045037580758
 30
0.0
 11
213.5418564215511
 21
5.6250045037580758
 31
0.0
  0
LINE
  5
48F
  8
0
 10
213.5418564215511
 20
7.625004503757963
 30
0.0
 11
213.29185642155201
 21
7.625004503757963
 31
0.0
  0
LINE
  5
490
  8
0
 10
213.54185642155221
 20
41.250004503758127
 30
0.0
 11
213.54185642155221
 21
41.224450808908692
 31
0.0
  0
LINE
  5
491
  8
0
 10
213.54185642155221
 20
41.224448873474927
 30
0.0
 11
213.54185642155221
 21
41.030335256035492
 31
0.0
  0
LINE
  5
492
  8
0
 10
213.54185642155221
 20
41.030334589648042
 30
0.0
 11
213.54185642155221
 21
40.694119208277179
 31
0.0
  0
LINE
  5
493
  8
0
 10
213.54185642155221
 20
40.694118787585019
 30
0.0
 11
213.54185642155221
 21
40.500004503758127
 31
0.0
  0
LINE
  5
494
  8
0
 10
213.54185642155221
 20
40.50000450375812
 30
0.0
 11
213.54185642155221
 21
40.305890219931229
 31
0.0
  0
LINE
  5
495
  8
0
 10
213.54185642155221
 20
40.305889799238642
 30
0.0
 11
213.54185642155221
 21
39.969674417868212
 31
0.0
  0
LINE
  5
496
  8
0
 10
213.54185642155221
 20
39.96967375147981
 30
0.0
 11
213.54185642155221
 21
39.775560134041342
 31
0.0
  0
LINE
  5
497
  8
0
 10
213.54185642155221
 20
39.775558198605118
 30
0.0
 11
213.54185642155221
 21
39.750004503758142
 31
0.0
  0
LINE
  5
498
  8
0
 10
213.54185642155201
 20
30.500004503758142
 30
0.0
 11
213.54185642155201
 21
30.44889332124837
 31
0.0
  0
LINE
  5
499
  8
0
 10
213.54185642155201
 20
30.448893243191751
 30
0.0
 11
213.54185642155201
 21
29.75000554776814
 31
0.0
  0
LINE
  5
49A
  8
0
 10
213.54185642155201
 20
29.750004503758142
 30
0.0
 11
213.54185642155201
 21
29.388233071411928
 31
0.0
  0
LINE
  5
49B
  8
0
 10
213.54185642155201
 20
29.388231991884851
 30
0.0
 11
213.54185642155201
 21
29.00000546841358
 31
0.0
  0
LINE
  5
49C
  8
0
 10
213.54185642155201
 20
29.000004503758131
 30
0.0
 11
213.54185642155201
 21
28.611776083844109
 31
0.0
  0
LINE
  5
49D
  8
0
 10
213.54185642155201
 20
28.611775936104351
 30
0.0
 11
213.54185642155201
 21
28.250005400270229
 31
0.0
  0
LINE
  5
49E
  8
0
 10
213.54185642155201
 20
28.250004503758142
 30
0.0
 11
213.54185642155201
 21
27.939344331978312
 31
0.0
  0
LINE
  5
49F
  8
0
 10
213.54185642155201
 20
27.939344110111541
 30
0.0
 11
213.54185642155201
 21
27.551115764324539
 31
0.0
  0
LINE
  5
4A0
  8
0
 10
213.54185642155201
 20
27.551113789843139
 30
0.0
 11
213.54185642155201
 21
27.500004503758142
 31
0.0
  0
LINE
  5
4A1
  8
0
 10
213.54185642155201
 20
7.62500450375813
 30
0.0
 11
213.54185642155201
 21
7.5909310142280564
 31
0.0
  0
LINE
  5
4A2
  8
0
 10
213.54185642155201
 20
7.5909303300472004
 30
0.0
 11
213.54185642155201
 21
7.4910302776755184
 31
0.0
  0
LINE
  5
4A3
  8
0
 10
213.54185642155201
 20
7.491029907542571
 30
0.0
 11
213.54185642155201
 21
7.3321112849446823
 31
0.0
  0
LINE
  5
4A4
  8
0
 10
213.54185642155201
 20
7.3321111142962181
 30
0.0
 11
213.54185642155201
 21
6.8838238598009669
 31
0.0
  0
LINE
  5
4A5
  8
0
 10
213.54185642155201
 20
6.8838235488606561
 30
0.0
 11
213.54185642155201
 21
6.6250045037581371
 31
0.0
  0
LINE
  5
4A6
  8
0
 10
213.54185642155201
 20
6.6250042625935386
 30
0.0
 11
213.54185642155201
 21
6.3661854586556057
 31
0.0
  0
LINE
  5
4A7
  8
0
 10
213.54185642155201
 20
6.3661853976965892
 30
0.0
 11
213.54185642155201
 21
6.1250047278860258
 31
0.0
  0
LINE
  5
4A8
  8
0
 10
213.54185642155201
 20
6.1250045037581273
 30
0.0
 11
213.54185642155201
 21
5.9178977866651188
 31
0.0
  0
LINE
  5
4A9
  8
0
 10
213.54185642155201
 20
5.9178977225715803
 30
0.0
 11
213.54185642155201
 21
5.7589790999736907
 31
0.0
  0
LINE
  5
4AA
  8
0
 10
213.54185642155201
 20
5.7589790422399139
 30
0.0
 11
213.54185642155201
 21
5.6590786774690622
 31
0.0
  0
LINE
  5
4AB
  8
0
 10
213.54185642155201
 20
5.6590784673935657
 30
0.0
 11
213.54185642155201
 21
5.62500450375813
 31
0.0
  0
LINE
  5
4AC
  8
0
 10
213.29185642155201
 20
10.50000450375841
 30
0.0
 11
213.5418564215511
 21
10.50000450375841
 31
0.0
  0
LINE
  5
4AD
  8
0
 10
213.5418564215511
 20
18.50000450375796
 30
0.0
 11
213.29185642155201
 21
18.50000450375796
 31
0.0
  0
LINE
  5
4AE
  8
0
 10
213.54185642155201
 20
18.500004503758159
 30
0.0
 11
213.54185642155201
 21
17.328432405298969
 31
0.0
  0
LINE
  5
4AF
  8
0
 10
213.54185642155201
 20
17.328431628504362
 30
0.0
 11
213.54185642155201
 21
15.53528068416826
 31
0.0
  0
LINE
  5
4B0
  8
0
 10
213.54185642155201
 20
15.53528044549109
 30
0.0
 11
213.54185642155201
 21
14.5000049860861
 31
0.0
  0
LINE
  5
4B1
  8
0
 10
213.54185642155201
 20
14.50000450375815
 30
0.0
 11
213.54185642155201
 21
13.46472832334806
 31
0.0
  0
LINE
  5
4B2
  8
0
 10
213.54185642155201
 20
13.464728079514581
 30
0.0
 11
213.54185642155201
 21
12.50000450375815
 31
0.0
  0
LINE
  5
4B3
  8
0
 10
213.54185642155201
 20
12.50000398175192
 30
0.0
 11
213.54185642155201
 21
11.035902888620409
 31
0.0
  0
LINE
  5
4B4
  8
0
 10
213.54185642155201
 20
11.035902657686909
 30
0.0
 11
213.54185642155201
 21
10.500004503758159
 31
0.0
  0
LINE
  5
4B5
  8
0
 10
261.4759165142213
 20
387.37715505698679
 30
0.0
 11
261.47591651422113
 21
247.62715505699251
 31
0.0
  0
LINE
  5
4B6
  8
0
 10
261.47591651422113
 20
247.62715505699251
 30
0.0
 11
402.22591651421811
 21
247.62715505699219
 31
0.0
  0
LINE
  5
4B7
  8
0
 10
402.22591651421811
 20
247.62715505699219
 30
0.0
 11
402.22591651421862
 21
387.37715505698651
 31
0.0
  0
LINE
  5
4B8
  8
0
 10
402.22591651421862
 20
387.37715505698651
 30
0.0
 11
261.4759165142213
 21
387.37715505698679
 31
0.0
  0
LINE
  5
4B9
  8
0
 10
400.6009165142213
 20
385.75215505698691
 30
0.0
 11
400.60091651422113
 21
249.25215505698679
 31
0.0
1001
ACAD
1000
ASC_BOUNDS
1002
{
1070
    19
1005
514
1002
}
  0
LINE
  5
4BA
  8
0
 10
400.60091651422113
 20
249.25215505698679
 30
0.0
 11
263.1009165142213
 21
249.25215505698719
 31
0.0
1001
ACAD
1000
ASC_BOUNDS
1002
{
1070
    19
1005
514
1002
}
  0
LINE
  5
4BB
  8
0
 10
263.1009165142213
 20
249.25215505698719
 30
0.0
 11
263.10091651422158
 21
385.75215505698708
 31
0.0
1001
ACAD
1000
ASC_BOUNDS
1002
{
1070
    19
1005
514
1002
}
  0
LINE
  5
4BC
  8
0
 10
263.10091651422158
 20
385.75215505698708
 30
0.0
 11
400.6009165142213
 21
385.75215505698691
 31
0.0
1001
ACAD
1000
ASC_BOUNDS
1002
{
1070
    19
1005
514
1002
}
  0
LINE
  5
4BD
  8
0
 10
402.22591651421811
 20
247.62715505698679
 30
0.0
 11
403.47591651422181
 21
247.62715505698679
 31
0.0
  0
LINE
  5
4BE
  8
0
 10
403.47591651422181
 20
247.62715505698679
 30
0.0
 11
403.47591651422181
 21
387.37715505698668
 31
0.0
  0
LINE
  5
4BF
  8
0
 10
403.47591651422181
 20
387.37715505698668
 30
0.0
 11
402.22591651421862
 21
387.37715505698668
 31
0.0
  0
LINE
  5
4C0
  8
0
 10
402.47591651422152
 20
321.5021550569839
 30
0.0
 11
402.22591651422152
 21
321.5021550569839
 31
0.0
  0
LINE
  5
4C1
  8
0
 10
402.22591651422152
 20
313.50215505698429
 30
0.0
 11
402.47591651422152
 21
313.50215505698429
 31
0.0
  0
LINE
  5
4C2
  8
0
 10
402.47591651422198
 20
317.5021539082681
 30
0.0
 11
402.47591651422198
 21
316.4668788765735
 31
0.0
  0
LINE
  5
4C3
  8
0
 10
402.47591651422198
 20
316.46687844195009
 30
0.0
 11
402.47591651422198
 21
314.6737279322374
 31
0.0
  0
LINE
  5
4C4
  8
0
 10
402.47591651422198
 20
314.67372638802323
 30
0.0
 11
402.47591651422198
 21
314.03805344184582
 31
0.0
  0
LINE
  5
4C5
  8
0
 10
402.47591651422198
 20
314.0380529724838
 30
0.0
 11
402.47591651422198
 21
313.63845175182729
 31
0.0
  0
LINE
  5
4C6
  8
0
 10
402.47591651422198
 20
313.63845054968402
 30
0.0
 11
402.47591651422198
 21
313.50215505698361
 31
0.0
  0
LINE
  5
4C7
  8
0
 10
402.47591651422198
 20
321.50215505698361
 30
0.0
 11
402.47591651422198
 21
321.36586073702392
 31
0.0
  0
LINE
  5
4C8
  8
0
 10
402.47591651422198
 20
321.36585836213987
 30
0.0
 11
402.47591651422198
 21
320.96625791422639
 31
0.0
  0
LINE
  5
4C9
  8
0
 10
402.47591651422198
 20
320.9662566721214
 30
0.0
 11
402.47591651422198
 21
318.53743229036752
 31
0.0
  0
LINE
  5
4CA
  8
0
 10
402.47591651422198
 20
318.53743123739372
 30
0.0
 11
402.47591651422198
 21
317.50215505698361
 31
0.0
  0
LINE
  5
4CB
  8
0
 10
327.4759165142209
 20
247.37715505698759
 30
0.0
 11
327.4759165142209
 21
247.62715505698671
 31
0.0
  0
LINE
  5
4CC
  8
0
 10
325.9759165142209
 20
247.62715505698671
 30
0.0
 11
325.9759165142209
 21
247.37715505698759
 31
0.0
  0
LINE
  5
4CD
  8
0
 10
267.7259165142209
 20
247.37715505698759
 30
0.0
 11
267.7259165142209
 21
247.62715505698671
 31
0.0
  0
LINE
  5
4CE
  8
0
 10
264.7259165142209
 20
247.62715505698671
 30
0.0
 11
264.7259165142209
 21
247.37715505698759
 31
0.0
  0
LINE
  5
4CF
  8
0
 10
263.85091651422039
 20
247.62715505698671
 30
0.0
 11
263.85091651422039
 21
247.37715505698759
 31
0.0
  0
LINE
  5
4D0
  8
0
 10
327.47591651422141
 20
247.37715505698651
 30
0.0
 11
327.45036088393817
 21
247.37715505698651
 31
0.0
  0
LINE
  5
4D1
  8
0
 10
327.45036057383169
 20
247.37715505698651
 30
0.0
 11
327.37543607896561
 21
247.37715505698651
 31
0.0
  0
LINE
  5
4D2
  8
0
 10
327.37543556705958
 20
247.37715505698651
 30
0.0
 11
327.25624726650489
 21
247.37715505698651
 31
0.0
  0
LINE
  5
4D3
  8
0
 10
327.25624660011113
 20
247.37715505698651
 30
0.0
 11
326.92003121874558
 21
247.37715505698651
 31
0.0
  0
LINE
  5
4D4
  8
0
 10
326.92003079804817
 20
247.37715505698651
 30
0.0
 11
326.53180223039431
 21
247.37715505698651
 31
0.0
  0
LINE
  5
4D5
  8
0
 10
326.53180180970708
 20
247.37715505698651
 30
0.0
 11
326.19558642833141
 21
247.37715505698651
 31
0.0
  0
LINE
  5
4D6
  8
0
 10
326.19558576194908
 20
247.37715505698651
 30
0.0
 11
326.00147214450448
 21
247.37715505698651
 31
0.0
  0
LINE
  5
4D7
  8
0
 10
326.0014702090798
 20
247.37715505698651
 30
0.0
 11
325.9759165142213
 21
247.37715505698651
 31
0.0
  0
LINE
  5
4D8
  8
0
 10
267.7259165142213
 20
247.37715505698671
 30
0.0
 11
267.52495461989793
 21
247.37715505698671
 31
0.0
  0
LINE
  5
4D9
  8
0
 10
267.52495447795809
 20
247.37715505698671
 30
0.0
 11
266.97591860224702
 21
247.37715505698671
 31
0.0
  0
LINE
  5
4DA
  8
0
 10
266.97591651422141
 20
247.37715505698671
 30
0.0
 11
266.61414792312348
 21
247.37715505698671
 31
0.0
  0
LINE
  5
4DB
  8
0
 10
266.61414508187499
 20
247.37715505698671
 30
0.0
 11
266.22591844353792
 21
247.37715505698671
 31
0.0
  0
LINE
  5
4DC
  8
0
 10
266.2259165142213
 20
247.37715505698671
 30
0.0
 11
265.83768902609859
 21
247.37715505698671
 31
0.0
  0
LINE
  5
4DD
  8
0
 10
265.83768794656748
 20
247.37715505698671
 30
0.0
 11
264.92687840854461
 21
247.37715505698671
 31
0.0
  0
LINE
  5
4DE
  8
0
 10
264.9268761351554
 20
247.37715505698671
 30
0.0
 11
264.77702777478771
 21
247.37715505698671
 31
0.0
  0
LINE
  5
4DF
  8
0
 10
264.77702769674079
 20
247.37715505698671
 30
0.0
 11
264.72591651422141
 21
247.37715505698671
 31
0.0
  0
LINE
  5
4E0
  8
0
 10
264.72481566004689
 20
247.37715505698671
 30
0.0
 11
264.59209746911853
 21
247.37715505698671
 31
0.0
  0
LINE
  5
4E1
  8
0
 10
264.5920969082008
 20
247.37715505698671
 30
0.0
 11
264.35091830725167
 21
247.37715505698671
 31
0.0
  0
LINE
  5
4E2
  8
0
 10
264.35091651422113
 20
247.37715505698671
 30
0.0
 11
264.14380973303452
 21
247.37715505698671
 31
0.0
  0
LINE
  5
4E3
  8
0
 10
264.14380884452339
 20
247.37715505698671
 30
0.0
 11
263.98489111043659
 21
247.37715505698671
 31
0.0
  0
LINE
  5
4E4
  8
0
 10
263.98489042791039
 20
247.37715505698671
 30
0.0
 11
263.88499068793197
 21
247.37715505698671
 31
0.0
  0
LINE
  5
4E5
  8
0
 10
263.88498810736218
 20
247.37715505698671
 30
0.0
 11
263.85091651422113
 21
247.37715505698671
 31
0.0
  0
LINE
  5
4E6
  8
0
 10
292.6009165142209
 20
247.37715505698759
 30
0.0
 11
292.6009165142209
 21
247.62715505698671
 31
0.0
  0
LINE
  5
4E7
  8
0
 10
284.60091651422113
 20
247.62715505698671
 30
0.0
 11
284.60091651422113
 21
247.37715505698759
 31
0.0
  0
LINE
  5
4E8
  8
0
 10
292.60091651422141
 20
247.3771550569866
 30
0.0
 11
292.0650183602981
 21
247.3771550569866
 31
0.0
  0
LINE
  5
4E9
  8
0
 10
292.06501812935932
 20
247.3771550569866
 30
0.0
 11
291.42934497122269
 21
247.3771550569866
 31
0.0
  0
LINE
  5
4EA
  8
0
 10
291.42934363896762
 20
247.3771550569866
 30
0.0
 11
290.60091860224787
 21
247.3771550569866
 31
0.0
  0
LINE
  5
4EB
  8
0
 10
290.60091651422141
 20
247.3771550569866
 30
0.0
 11
289.63619293846932
 21
247.3771550569866
 31
0.0
  0
LINE
  5
4EC
  8
0
 10
289.63619269463152
 20
247.3771550569866
 30
0.0
 11
288.60091651422141
 21
247.3771550569866
 31
0.0
  0
LINE
  5
4ED
  8
0
 10
288.60091458491428
 20
247.3771550569866
 30
0.0
 11
285.7724900720707
 21
247.3771550569866
 31
0.0
  0
LINE
  5
4EE
  8
0
 10
285.77248938947542
 20
247.3771550569866
 30
0.0
 11
284.7372132090652
 21
247.3771550569866
 31
0.0
  0
LINE
  5
4EF
  8
0
 10
284.73721047234682
 20
247.3771550569866
 30
0.0
 11
284.60091651422141
 21
247.3771550569866
 31
0.0
  0
INSERT
  5
50B
  8
0
  6
CONTINUOUS
  2
*X4
 10
0.0
 20
0.0
 30
0.0
1001
GRADIENTCOLOR1ACI
1070
     5
1001
GRADIENTCOLOR2ACI
1070
     2
1001
ACAD
1000
HATCH
1002
{
1070
    19
1000
NET
1040
12.0
1040
0.0
1000
ASC_BOUNDS
1070
     4
1070
     1
1070
     4
1005
3BA
1005
3BB
1005
3AE
1005
3B9
1070
     1
1070
     4
1005
3B4
1005
3BB
1005
3B2
1005
3B9
1070
     1
1070
     4
1005
3AC
1005
3BB
1005
3AA
1005
3B9
1070
     1
1070
     4
1005
3A7
1005
3BB
1005
3B8
1005
3B9
1000
ASC_SEEDPOINT
1011
467.16727699407642
1021
0.0
1031
0.0
1021
78.351266413684925
1031
0.0
1000
R14_HATCH_DATA
1000
50B
1011
1.0
1021
0.0
1031
0.0
1021
0.0
1031
0.0
1011
0.0
1021
0.0
1031
0.0
1021
1.0
1031
0.0
1011
0.0
1021
0.0
1031
0.0
1021
0.0
1031
1.0
1040
0.0
1010
0.0
1020
0.0
1030
1.0
1000
NET
1070
     0
1070
     1
1071
        4
1071
        7
1070
     0
1070
     1
1071
        4
1040
473.40141582582589
1040
98.375004503757282
1040
460.15141582582618
1040
98.375004503757125
1040
460.15141582582709
1040
4.000004503756613
1040
473.40141582582589
1040
4.0000045037567409
1071
        4
1005
3B9
1005
3B8
1005
3BB
1005
3A7
1071
        7
1070
     0
1070
     1
1071
        4
1040
515.39863779700022
1040
98.375004503757722
1040
499.40141582582692
1040
98.375004503757566
1040
499.40141582582692
1040
4.0000045037570251
1040
515.39863779700022
1040
4.0000045037571956
1071
        4
1005
3B9
1005
3AA
1005
3BB
1005
3AC
1071
        7
1070
     0
1070
     1
1071
        4
1040
557.41041548049839
1040
98.375004503758163
1040
541.39390142657339
1040
98.375004503757992
1040
541.39390142657339
1040
4.0000045037574523
1040
557.41041548049839
1040
4.000004503757622
1071
        4
1005
3B9
1005
3B2
1005
3BB
1005
3B4
1071
        7
1070
     0
1070
     1
1071
        4
1040
596.65141582582623
1040
98.375004503758575
1040
583.39343114259589
1040
98.375004503758433
1040
583.39343114259589
1040
4.000004503757892
1040
596.65141582582714
1040
4.0000045037580056
1071
        4
1005
3B9
1005
3AE
1005
3BB
1005
3BA
1070
     1
1070
     1
1040
0.0
1040
12.0
1070
     0
1070
     2
1040
0.0
1040
-28.74818335581336
1040
0.0
1040
0.0
1040
1.5
1070
     0
1040
1.5707963267948959
1040
-28.74818335581336
1040
0.0
1040
-1.5
1040
0.0000000000000001
1070
     0
1040
0.1604879827066072
1071
        4
1040
467.16727699407642
1040
78.351266413684925
1040
0.0
1040
508.2720280649811
1040
49.9448931704801
1040
0.0
1040
549.69791202473994
1040
46.895621640226409
1040
0.0
1040
590.8026630956449
1040
42.883422348272681
1040
0.0
1002
}
  0
INSERT
  5
514
  8
0
  6
CONTINUOUS
  2
*X5
 10
0.0
 20
0.0
 30
0.0
1001
GRADIENTCOLOR1ACI
1070
     5
1001
GRADIENTCOLOR2ACI
1070
     2
1001
ACAD
1000
HATCH
1002
{
1070
    19
1000
ANSI31
1040
12.0
1040
2.3561944901923439
1000
ASC_BOUNDS
1070
     1
1070
     1
1070
     4
1005
4B9
1005
4BA
1005
4BB
1005
4BC
1000
ASC_SEEDPOINT
1011
329.13101595162988
1021
0.0
1031
0.0
1021
306.61883268992761
1031
0.0
1000
R14_HATCH_DATA
1000
514
1011
1.0
1021
0.0
1031
0.0
1021
0.0
1031
0.0
1011
0.0
1021
0.0
1031
0.0
1021
1.0
1031
0.0
1011
0.0
1021
0.0
1031
0.0
1021
0.0
1031
1.0
1040
0.0
1010
0.0
1020
0.0
1030
1.0
1000
ANSI31
1070
     0
1070
     1
1071
        1
1071
        7
1070
     0
1070
     1
1071
        4
1040
400.60091651422113
1040
249.25215505698679
1040
400.6009165142213
1040
385.75215505698691
1040
263.10091651422158
1040
385.75215505698708
1040
263.1009165142213
1040
249.25215505698719
1071
        4
1005
4BC
1005
4BB
1005
4BA
1005
4B9
1070
     1
1070
     1
1040
2.3561944901923439
1040
12.0
1070
     0
1070
     1
1040
3.1415926535897931
1040
0.0
1040
22.75
1040
-0.0000000000000002
1040
-1.5
1070
     0
1040
1.0625155853284181
1071
        1
1040
329.13101595162988
1040
306.61883268992761
1040
0.0
1002
}
  0
ENDSEC
  0
EOF
