  0
SECTION
  2
HEADER
  9
$ACADVER
  1
AC1009
  9
$INSBASE
 10
0.0
 20
0.0
 30
0.0
  9
$EXTMIN
 10
-0.0220541979554128
 20
-0.0132116216359464
 30
-0.0015258207003583
  9
$EXTMAX
 10
722.74915502913791
 20
432.9646624793221
 30
0.0000000349246037
  9
$LIMMIN
 10
0.0
 20
0.0
  9
$LIMMAX
 10
12.0
 20
9.0
  9
$ORTHOMODE
 70
     0
  9
$REGENMODE
 70
     1
  9
$FILLMODE
 70
     1
  9
$QTEXTMODE
 70
     0
  9
$MIRRTEXT
 70
     0
  9
$DRAGMODE
 70
     2
  9
$LTSCALE
 40
1.0
  9
$OSMODE
 70
    37
  9
$ATTMODE
 70
     1
  9
$TEXTSIZE
 40
0.2
  9
$TRACEWID
 40
0.05
  9
$TEXTSTYLE
  7
ROMANS
  9
$CLAYER
  8
0
  9
$CELTYPE
  6
BYLAYER
  9
$CECOLOR
 62
   256
  9
$DIMSCALE
 40
1.0
  9
$DIMASZ
 40
0.09375
  9
$DIMEXO
 40
0.0625
  9
$DIMDLI
 40
0.375
  9
$DIMRND
 40
0.0
  9
$DIMDLE
 40
0.0
  9
$DIMEXE
 40
0.03125
  9
$DIMTP
 40
0.0
  9
$DIMTM
 40
0.0
  9
$DIMTXT
 40
0.09375
  9
$DIMCEN
 40
0.09375
  9
$DIMTSZ
 40
0.0
  9
$DIMTOL
 70
     0
  9
$DIMLIM
 70
     0
  9
$DIMTIH
 70
     0
  9
$DIMTOH
 70
     0
  9
$DIMSE1
 70
     0
  9
$DIMSE2
 70
     0
  9
$DIMTAD
 70
     0
  9
$DIMZIN
 70
     0
  9
$DIMBLK
  1

  9
$DIMASO
 70
     1
  9
$DIMSHO
 70
     1
  9
$DIMPOST
  1

  9
$DIMAPOST
  1

  9
$DIMALT
 70
     0
  9
$DIMALTD
 70
     2
  9
$DIMALTF
 40
25.399999999999999
  9
$DIMLFAC
 40
1.0
  9
$DIMTOFL
 70
     0
  9
$DIMTVP
 40
0.0
  9
$DIMTIX
 70
     0
  9
$DIMSOXD
 70
     0
  9
$DIMSAH
 70
     0
  9
$DIMBLK1
  1

  9
$DIMBLK2
  1

  9
$DIMSTYLE
  2
BAC
  9
$DIMCLRD
 70
     0
  9
$DIMCLRE
 70
     6
  9
$DIMCLRT
 70
     0
  9
$DIMTFAC
 40
1.0
  9
$DIMGAP
 40
0.0625
  9
$LUNITS
 70
     5
  9
$LUPREC
 70
     6
  9
$SKETCHINC
 40
0.1
  9
$FILLETRAD
 40
0.5
  9
$AUNITS
 70
     0
  9
$AUPREC
 70
     0
  9
$MENU
  1
.
  9
$ELEVATION
 40
0.0
  9
$PELEVATION
 40
0.0
  9
$THICKNESS
 40
0.0
  9
$LIMCHECK
 70
     0
  9
$BLIPMODE
 70
     0
  9
$CHAMFERA
 40
0.5
  9
$CHAMFERB
 40
0.5
  9
$SKPOLY
 70
     0
  9
$TDCREATE
 40
2456828.7304835878
  9
$TDUPDATE
 40
2456828.7312056939
  9
$TDINDWG
 40
0.0007237963
  9
$TDUSRTIMER
 40
0.0007235648
  9
$USRTIMER
 70
     1
  9
$ANGBASE
 50
0.0
  9
$ANGDIR
 70
     0
  9
$PDMODE
 70
     0
  9
$PDSIZE
 40
0.0
  9
$PLINEWID
 40
0.0
  9
$COORDS
 70
     1
  9
$SPLFRAME
 70
     0
  9
$SPLINETYPE
 70
     6
  9
$SPLINESEGS
 70
     8
  9
$ATTDIA
 70
     0
  9
$ATTREQ
 70
     1
  9
$HANDLING
 70
     1
  9
$HANDSEED
  5
79F
  9
$SURFTAB1
 70
     6
  9
$SURFTAB2
 70
     6
  9
$SURFTYPE
 70
     6
  9
$SURFU
 70
     6
  9
$SURFV
 70
     6
  9
$UCSNAME
  2

  9
$UCSORG
 10
0.0
 20
0.0
 30
0.0
  9
$UCSXDIR
 10
1.0
 20
0.0
 30
0.0
  9
$UCSYDIR
 10
0.0
 20
1.0
 30
0.0
  9
$PUCSNAME
  2

  9
$PUCSORG
 10
0.0
 20
0.0
 30
0.0
  9
$PUCSXDIR
 10
1.0
 20
0.0
 30
0.0
  9
$PUCSYDIR
 10
0.0
 20
1.0
 30
0.0
  9
$USERI1
 70
     0
  9
$USERI2
 70
     0
  9
$USERI3
 70
     0
  9
$USERI4
 70
     0
  9
$USERI5
 70
     0
  9
$USERR1
 40
0.0
  9
$USERR2
 40
0.0
  9
$USERR3
 40
0.0
  9
$USERR4
 40
0.0
  9
$USERR5
 40
0.0
  9
$WORLDVIEW
 70
     1
  9
$SHADEDGE
 70
     3
  9
$SHADEDIF
 70
    70
  9
$TILEMODE
 70
     1
  9
$MAXACTVP
 70
    48
  9
$PLIMCHECK
 70
     0
  9
$PEXTMIN
 10
1.0000000000000000E+020
 20
1.0000000000000000E+020
 30
1.0000000000000000E+020
  9
$PEXTMAX
 10
-1.0000000000000000E+020
 20
-1.0000000000000000E+020
 30
-1.0000000000000000E+020
  9
$PLIMMIN
 10
0.0
 20
0.0
  9
$PLIMMAX
 10
12.0
 20
9.0
  9
$UNITMODE
 70
     0
  9
$VISRETAIN
 70
     1
  9
$PLINEGEN
 70
     0
  9
$PSLTSCALE
 70
     1
  0
ENDSEC
  0
SECTION
  2
TABLES
  0
TABLE
  2
VPORT
 70
     1
  0
VPORT
  2
*ACTIVE
 70
     0
 10
0.0
 20
0.0
 11
1.0
 21
1.0
 12
361.36355041559119
 22
216.47572542884311
 13
0.0
 23
0.0
 14
0.5
 24
0.5
 15
0.5
 25
0.5
 16
0.0
 26
0.0
 36
1.0
 17
0.0
 27
0.0
 37
0.0
 40
435.85799299741677
 41
1.7702552719200879
 42
50.0
 43
0.0
 44
0.0
 50
0.0
 51
0.0
 71
     0
 72
   100
 73
     1
 74
     1
 75
     0
 76
     0
 77
     0
 78
     0
  0
ENDTAB
  0
TABLE
  2
LTYPE
 70
    19
  0
LTYPE
  2
CONTINUOUS
 70
     0
  3
Solid line
 72
    65
 73
     0
 40
0.0
  0
LTYPE
  2
CENTER
 70
     0
  3
Center ____ _ ____ _ ____ _ ____ _ ____ _ ____
 72
    65
 73
     4
 40
2.0
 49
1.25
 49
-0.25
 49
0.25
 49
-0.25
  0
LTYPE
  2
CENTER2
 70
     0
  3
Center (.5x) ___ _ ___ _ ___ _ ___ _ ___ _ ___
 72
    65
 73
     4
 40
1.125
 49
0.75
 49
-0.125
 49
0.125
 49
-0.125
  0
LTYPE
  2
HIDDEN
 70
     0
  3
Hidden __ __ __ __ __ __ __ __ __ __ __ __ __ _
 72
    65
 73
     2
 40
0.375
 49
0.25
 49
-0.125
  0
LTYPE
  2
HIDDEN2
 70
     0
  3
Hidden (.5x) _ _ _ _ _ _ _ _ _ _ _ _ _ _ _ _ _
 72
    65
 73
     2
 40
0.1875
 49
0.125
 49
-0.0625
  0
LTYPE
  2
PHANTOM2
 70
     0
  3
Phantom (.5x) ___ _ _ ___ _ _ ___ _ _ ___ _ _
 72
    65
 73
     6
 40
1.25
 49
0.625
 49
-0.125
 49
0.125
 49
-0.125
 49
0.125
 49
-0.125
  0
LTYPE
  2
AMCONSTR
 70
     0
  3
_______________________
 72
    65
 73
     2
 40
9999.0
 49
9999.0
 49
0.0
  0
LTYPE
  2
AMZIGZAG2
 70
     0
  3
/\/-/\/-/\/-/\/-/\/-/\/
 72
    65
 73
     2
 40
0.4401
 49
0.0001
 49
-0.4400000000000001
  0
LTYPE
  2
ACANSTGB
 70
     0
  3
__ . . __ . .
 72
    65
 73
     6
 40
0.35433070866
 49
0.15748031496
 49
-0.03937007874
 49
0.03937007874
 49
-0.03937007874
 49
0.03937007874
 49
-0.03937007874
  0
LTYPE
  2
ACANSTGL
 70
     0
  3
_ _ _ _ _
 72
    65
 73
     2
 40
0.11811023622
 49
0.07874015748
 49
-0.03937007874
  0
ENDTAB
  0
TABLE
  2
LAYER
 70
     8
  0
LAYER
  2
0
 70
     0
 62
     7
  6
CONTINUOUS
  0
ENDTAB
  0
TABLE
  2
STYLE
 70
    11
  0
STYLE
  2
STANDARD
 70
     0
 40
0.0
 41
1.0
 50
0.0
 71
     0
 42
0.2
  3
txt
  4

  0
STYLE
  2
ROMANS
 70
     0
 40
0.0
 41
0.75
 50
0.0
 71
     0
 42
0.2
  3
romans.shx
  4

  0
STYLE
  2

 70
     1
 40
0.0
 41
1.0
 50
0.0
 71
     0
 42
0.2
  3
genltshp.shx
  4

  0
STYLE
  2
ACANSGDT
 70
     0
 40
0.0
 41
1.0
 50
0.0
 71
     0
 42
0.2
  3
amgdt.shx
  4

  0
ENDTAB
  0
TABLE
  2
VIEW
 70
     0
  0
ENDTAB
  0
TABLE
  2
UCS
 70
     0
  0
ENDTAB
  0
TABLE
  2
APPID
 70
    14
  0
APPID
  2
ACAD
 70
     0
  0
APPID
  2
ACAD_MLEADERVER
 70
     0
  0
APPID
  2
ACAD_DSTYLE_DIMJAG
 70
     0
  0
APPID
  2
ACAD_DSTYLE_DIMTALN
 70
     0
  0
APPID
  2
ACAD_PSEXT
 70
     0
  0
APPID
  2
ACADANNOPO
 70
     0
  0
APPID
  2
MCAD_NO_VIS
 70
     0
  0
APPID
  2
ACAD_TEMP_GRAPHIC
 70
     0
  0
APPID
  2
ACATTRIBSERVICES
 70
     0
  0
APPID
  2
DESIGNERASSEMBLIES
 70
     0
  0
APPID
  2
ACAD_DSTYLE_DIMBREAK
 70
     0
  0
APPID
  2
ACAD_NAV_VCDISPLAY
 70
     0
  0
APPID
  2
GRADIENTCOLOR1ACI
 70
     0
  0
APPID
  2
GRADIENTCOLOR2ACI
 70
     0
  0
ENDTAB
  0
TABLE
  2
DIMSTYLE
 70
    13
  0
DIMSTYLE
  2
BAC
 70
     0
  3

  4

  5

  6

  7

 40
1.0
 41
0.09375
 42
0.0625
 43
0.375
 44
0.03125
 45
0.0
 46
0.0
 47
0.0
 48
0.0
140
0.09375
141
0.09375
142
0.0
143
25.399999999999999
144
1.0
145
0.0
146
1.0
147
0.0625
 71
     0
 72
     0
 73
     0
 74
     0
 75
     0
 76
     0
 77
     0
 78
     0
170
     0
171
     2
172
     0
173
     0
174
     0
175
     0
176
     0
177
     6
178
     0
  0
DIMSTYLE
  2
AM_ANSI
 70
     0
  3

  4
mm
  5

  6

  7

 40
1.0
 41
0.12
 42
0.05
 43
0.5
 44
0.1
 45
0.0
 46
0.0
 47
0.1
 48
0.1
140
0.12
141
0.0
142
0.0
143
25.399999999999999
144
1.0
145
0.0
146
0.71
147
0.06
 71
     0
 72
     0
 73
     1
 74
     1
 75
     0
 76
     0
 77
     0
 78
     7
170
     0
171
     2
172
     0
173
     0
174
     0
175
     0
176
   256
177
   256
178
     2
  0
DIMSTYLE
  2
AM_ANSI$3
 70
     0
  3

  4
mm
  5

  6

  7

 40
1.0
 41
0.12
 42
0.05
 43
0.5
 44
0.1
 45
0.0
 46
0.0
 47
0.1
 48
0.1
140
0.12
141
0.0
142
0.0
143
25.399999999999999
144
1.0
145
0.0
146
0.71
147
0.06
 71
     0
 72
     0
 73
     1
 74
     1
 75
     0
 76
     0
 77
     0
 78
     7
170
     0
171
     2
172
     0
173
     0
174
     0
175
     0
176
   256
177
   256
178
     2
  0
DIMSTYLE
  2
AM_ANSI$4
 70
     0
  3

  4
mm
  5

  6

  7

 40
1.0
 41
0.12
 42
0.05
 43
0.5
 44
0.1
 45
0.0
 46
0.0
 47
0.1
 48
0.1
140
0.12
141
0.0
142
0.0
143
25.399999999999999
144
1.0
145
0.0
146
0.71
147
0.06
 71
     0
 72
     0
 73
     1
 74
     1
 75
     0
 76
     0
 77
     0
 78
     7
170
     0
171
     2
172
     0
173
     0
174
     0
175
     0
176
   256
177
   256
178
     2
  0
DIMSTYLE
  2
AM_ANSI$7
 70
     0
  3

  4
mm
  5

  6

  7

 40
1.0
 41
0.12
 42
0.05
 43
0.5
 44
0.1
 45
0.0
 46
0.0
 47
0.1
 48
0.1
140
0.12
141
0.0
142
0.0
143
25.399999999999999
144
1.0
145
0.0
146
0.71
147
0.06
 71
     0
 72
     0
 73
     1
 74
     1
 75
     0
 76
     0
 77
     0
 78
     7
170
     0
171
     2
172
     0
173
     0
174
     0
175
     0
176
   256
177
   256
178
     2
  0
DIMSTYLE
  2
AM_ANSI$SF
 70
     0
  3

  4
mm
  5

  6

  7

 40
1.0
 41
0.12
 42
0.05
 43
0.5
 44
0.1
 45
0.0
 46
0.0
 47
0.1
 48
0.1
140
0.12
141
0.0
142
0.0
143
25.399999999999999
144
1.0
145
0.0
146
0.71
147
0.06
 71
     0
 72
     0
 73
     1
 74
     1
 75
     1
 76
     1
 77
     0
 78
     7
170
     0
171
     2
172
     0
173
     0
174
     0
175
     0
176
   256
177
   256
178
     2
  0
DIMSTYLE
  2
AM_ANSI$SH
 70
     0
  3

  4
mm
  5

  6
GENAXEH
  7

 40
1.0
 41
0.12
 42
0.05
 43
0.5
 44
0.1
 45
0.0
 46
0.0
 47
0.1
 48
0.1
140
0.12
141
0.0
142
0.0
143
25.399999999999999
144
1.0
145
0.0
146
0.71
147
0.06
 71
     0
 72
     0
 73
     1
 74
     1
 75
     1
 76
     1
 77
     0
 78
     7
170
     0
171
     2
172
     0
173
     1
174
     0
175
     0
176
   256
177
   256
178
     2
  0
DIMSTYLE
  2
STANDARD
 70
     0
  3

  4

  5

  6

  7

 40
1.0
 41
0.18
 42
0.0625
 43
0.38
 44
0.18
 45
0.0
 46
0.0
 47
0.0
 48
0.0
140
0.18
141
0.09
142
0.0
143
25.399999999999999
144
1.0
145
0.0
146
1.0
147
0.09
 71
     0
 72
     0
 73
     1
 74
     1
 75
     0
 76
     0
 77
     0
 78
     0
170
     0
171
     2
172
     0
173
     0
174
     0
175
     0
176
     0
177
     0
178
     0
  0
ENDTAB
  0
ENDSEC
  0
SECTION
  2
BLOCKS
  0
BLOCK
  8
0
  2
$MODEL_SPACE
 70
     0
 10
0.0
 20
0.0
 30
0.0
  3
$MODEL_SPACE
  1

  0
ENDBLK
  5
1A
  8
0
  0
BLOCK
 67
     1
  8
0
  2
$PAPER_SPACE
 70
     0
 10
0.0
 20
0.0
 30
0.0
  3
$PAPER_SPACE
  1

  0
ENDBLK
  5
17
 67
     1
  8
0
  0
BLOCK
  8
0
  2
*U0
 70
     1
 10
0.0
 20
0.0
 30
0.0
  3
*U0
  1

  0
ENDBLK
  5
17A
  8
0
  0
BLOCK
  8
0
  2
GENAXEH
 70
     0
 10
0.0
 20
0.0
 30
0.0
  3
GENAXEH
  1

  0
LINE
  5
1AD
  8
0
 10
-1.0
 20
0.0
 30
0.0
 11
1.0
 21
0.0
 31
0.0
  0
ENDBLK
  5
1AF
  8
0
  0
BLOCK
  8
0
  2
*X3
 70
     1
 10
0.0
 20
0.0
 30
0.0
  3
*X3
  1

  0
LINE
  5
58D
  8
0
 62
     0
 10
720.0
 20
4.000004503758384
 30
0.0
 11
720.0
 21
98.37500450375893
 31
0.0
  0
LINE
  5
58E
  8
0
 62
     0
 10
718.5
 20
4.0000045037583671
 30
0.0
 11
718.5
 21
98.375004503758916
 31
0.0
  0
LINE
  5
58F
  8
0
 62
     0
 10
717.0
 20
4.0000045037583503
 30
0.0
 11
717.0
 21
98.375004503758916
 31
0.0
  0
LINE
  5
590
  8
0
 62
     0
 10
715.5
 20
4.0000045037583316
 30
0.0
 11
715.5
 21
98.375004503758888
 31
0.0
  0
LINE
  5
591
  8
0
 62
     0
 10
714.0
 20
4.0000045037583147
 30
0.0
 11
714.0
 21
98.375004503758873
 31
0.0
  0
LINE
  5
592
  8
0
 62
     0
 10
712.5
 20
4.000004503758297
 30
0.0
 11
712.5
 21
98.375004503758859
 31
0.0
  0
LINE
  5
593
  8
0
 62
     0
 10
711.0
 20
4.0000045037582801
 30
0.0
 11
711.0
 21
98.375004503758845
 31
0.0
  0
LINE
  5
594
  8
0
 62
     0
 10
684.0
 20
4.0000045037579994
 30
0.0
 11
684.0
 21
98.375004503758575
 31
0.0
  0
LINE
  5
595
  8
0
 62
     0
 10
682.5
 20
4.0000045037579843
 30
0.0
 11
682.5
 21
98.375004503758561
 31
0.0
  0
LINE
  5
596
  8
0
 62
     0
 10
681.0
 20
4.0000045037579692
 30
0.0
 11
681.0
 21
98.375004503758547
 31
0.0
  0
LINE
  5
597
  8
0
 62
     0
 10
679.49999999999989
 20
4.0000045037579541
 30
0.0
 11
679.49999999999989
 21
98.375004503758518
 31
0.0
  0
LINE
  5
598
  8
0
 62
     0
 10
678.0
 20
4.000004503757939
 30
0.0
 11
678.0
 21
98.375004503758504
 31
0.0
  0
LINE
  5
599
  8
0
 62
     0
 10
676.5
 20
4.000004503757923
 30
0.0
 11
676.5
 21
98.375004503758475
 31
0.0
  0
LINE
  5
59A
  8
0
 62
     0
 10
675.0
 20
4.0000045037579079
 30
0.0
 11
675.0
 21
98.375004503758475
 31
0.0
  0
LINE
  5
59B
  8
0
 62
     0
 10
673.5
 20
4.000004503757892
 30
0.0
 11
673.5
 21
98.375004503758475
 31
0.0
  0
LINE
  5
59C
  8
0
 62
     0
 10
672.0
 20
4.0000045037578769
 30
0.0
 11
672.0
 21
98.375004503758447
 31
0.0
  0
LINE
  5
59D
  8
0
 62
     0
 10
670.5
 20
4.0000045037578618
 30
0.0
 11
670.5
 21
98.375004503758404
 31
0.0
  0
LINE
  5
59E
  8
0
 62
     0
 10
669.0
 20
4.0000045037578467
 30
0.0
 11
669.0
 21
98.375004503758404
 31
0.0
  0
LINE
  5
59F
  8
0
 62
     0
 10
667.49999999999989
 20
4.0000045037578316
 30
0.0
 11
667.49999999999989
 21
98.375004503758404
 31
0.0
  0
LINE
  5
5A0
  8
0
 62
     0
 10
666.0
 20
4.0000045037578174
 30
0.0
 11
666.0
 21
98.375004503758376
 31
0.0
  0
LINE
  5
5A1
  8
0
 62
     0
 10
664.5
 20
4.0000045037578023
 30
0.0
 11
664.5
 21
98.375004503758362
 31
0.0
  0
LINE
  5
5A2
  8
0
 62
     0
 10
663.0
 20
4.0000045037577863
 30
0.0
 11
663.0
 21
98.375004503758333
 31
0.0
  0
LINE
  5
5A3
  8
0
 62
     0
 10
661.5
 20
4.0000045037577712
 30
0.0
 11
661.5
 21
98.375004503758333
 31
0.0
  0
LINE
  5
5A4
  8
0
 62
     0
 10
660.0
 20
4.0000045037577561
 30
0.0
 11
660.0
 21
98.375004503758319
 31
0.0
  0
LINE
  5
5A5
  8
0
 62
     0
 10
658.49999999999989
 20
4.0000045037577401
 30
0.0
 11
658.49999999999989
 21
98.375004503758291
 31
0.0
  0
LINE
  5
5A6
  8
0
 62
     0
 10
657.0
 20
4.000004503757725
 30
0.0
 11
657.0
 21
98.375004503758277
 31
0.0
  0
LINE
  5
5A7
  8
0
 62
     0
 10
630.0
 20
4.0000045037574594
 30
0.0
 11
630.0
 21
98.375004503758007
 31
0.0
  0
LINE
  5
5A8
  8
0
 62
     0
 10
628.5
 20
4.0000045037574434
 30
0.0
 11
628.5
 21
98.375004503757992
 31
0.0
  0
LINE
  5
5A9
  8
0
 62
     0
 10
627.0
 20
4.0000045037574274
 30
0.0
 11
627.0
 21
98.375004503757992
 31
0.0
  0
LINE
  5
5AA
  8
0
 62
     0
 10
625.49999999999989
 20
4.0000045037574106
 30
0.0
 11
625.49999999999989
 21
98.375004503757964
 31
0.0
  0
LINE
  5
5AB
  8
0
 62
     0
 10
624.0
 20
4.0000045037573946
 30
0.0
 11
624.0
 21
98.37500450375795
 31
0.0
  0
LINE
  5
5AC
  8
0
 62
     0
 10
622.5
 20
4.0000045037573786
 30
0.0
 11
622.5
 21
98.375004503757935
 31
0.0
  0
LINE
  5
5AD
  8
0
 62
     0
 10
621.0
 20
4.0000045037573626
 30
0.0
 11
621.0
 21
98.375004503757921
 31
0.0
  0
LINE
  5
5AE
  8
0
 62
     0
 10
619.5
 20
4.0000045037573466
 30
0.0
 11
619.5
 21
98.375004503757921
 31
0.0
  0
LINE
  5
5AF
  8
0
 62
     0
 10
618.0
 20
4.0000045037573306
 30
0.0
 11
618.0
 21
98.375004503757879
 31
0.0
  0
LINE
  5
5B0
  8
0
 62
     0
 10
616.5
 20
4.0000045037573146
 30
0.0
 11
616.5
 21
98.375004503757864
 31
0.0
  0
LINE
  5
5B1
  8
0
 62
     0
 10
615.0
 20
4.0000045037572987
 30
0.0
 11
615.0
 21
98.37500450375785
 31
0.0
  0
LINE
  5
5B2
  8
0
 62
     0
 10
613.49999999999989
 20
4.0000045037572827
 30
0.0
 11
613.49999999999989
 21
98.37500450375785
 31
0.0
  0
LINE
  5
5B3
  8
0
 62
     0
 10
612.0
 20
4.0000045037572667
 30
0.0
 11
612.0
 21
98.375004503757836
 31
0.0
  0
LINE
  5
5B4
  8
0
 62
     0
 10
610.5
 20
4.0000045037572507
 30
0.0
 11
610.5
 21
98.375004503757808
 31
0.0
  0
LINE
  5
5B5
  8
0
 62
     0
 10
609.0
 20
4.0000045037572347
 30
0.0
 11
609.0
 21
98.375004503757793
 31
0.0
  0
LINE
  5
5B6
  8
0
 62
     0
 10
607.5
 20
4.0000045037572187
 30
0.0
 11
607.5
 21
98.375004503757765
 31
0.0
  0
LINE
  5
5B7
  8
0
 62
     0
 10
606.0
 20
4.0000045037572027
 30
0.0
 11
606.0
 21
98.375004503757765
 31
0.0
  0
LINE
  5
5B8
  8
0
 62
     0
 10
604.49999999999989
 20
4.0000045037571867
 30
0.0
 11
604.49999999999989
 21
98.375004503757737
 31
0.0
  0
LINE
  5
5B9
  8
0
 62
     0
 10
603.0
 20
4.0000045037571708
 30
0.0
 11
603.0
 21
98.375004503757722
 31
0.0
  0
LINE
  5
5BA
  8
0
 62
     0
 10
576.0
 20
4.0000045037568768
 30
0.0
 11
576.0
 21
98.375004503757452
 31
0.0
  0
LINE
  5
5BB
  8
0
 62
     0
 10
574.5
 20
4.0000045037568617
 30
0.0
 11
574.5
 21
98.375004503757424
 31
0.0
  0
LINE
  5
5BC
  8
0
 62
     0
 10
573.0
 20
4.0000045037568466
 30
0.0
 11
573.0
 21
98.375004503757424
 31
0.0
  0
LINE
  5
5BD
  8
0
 62
     0
 10
571.49999999999989
 20
4.0000045037568324
 30
0.0
 11
571.49999999999989
 21
98.375004503757395
 31
0.0
  0
LINE
  5
5BE
  8
0
 62
     0
 10
570.0
 20
4.0000045037568182
 30
0.0
 11
570.0
 21
98.375004503757381
 31
0.0
  0
LINE
  5
5BF
  8
0
 62
     0
 10
568.5
 20
4.0000045037568031
 30
0.0
 11
568.5
 21
98.375004503757367
 31
0.0
  0
LINE
  5
5C0
  8
0
 62
     0
 10
567.0
 20
4.0000045037567871
 30
0.0
 11
567.0
 21
98.375004503757353
 31
0.0
  0
LINE
  5
5C1
  8
0
 62
     0
 10
565.5
 20
4.0000045037567729
 30
0.0
 11
565.5
 21
98.375004503757353
 31
0.0
  0
LINE
  5
5C2
  8
0
 62
     0
 10
564.0
 20
4.0000045037567578
 30
0.0
 11
564.0
 21
98.375004503757324
 31
0.0
  0
LINE
  5
5C3
  8
0
 62
     0
 10
562.5
 20
4.0000045037567427
 30
0.0
 11
562.5
 21
98.37500450375731
 31
0.0
  0
LINE
  5
5C4
  8
0
 62
     0
 10
561.0
 20
4.0000045037567276
 30
0.0
 11
561.0
 21
98.375004503757296
 31
0.0
  0
LINE
  5
5C5
  8
0
 62
     0
 10
559.49999999999989
 20
4.0000045037567142
 30
0.0
 11
559.49999999999989
 21
98.375004503757282
 31
0.0
  0
LINE
  5
5C6
  8
0
 62
     0
 10
558.0
 20
4.0000045037566991
 30
0.0
 11
558.0
 21
98.375004503757282
 31
0.0
  0
LINE
  5
5C7
  8
0
 62
     0
 10
556.5
 20
4.000004503756684
 30
0.0
 11
556.5
 21
98.375004503757253
 31
0.0
  0
LINE
  5
5C8
  8
0
 62
     0
 10
555.0
 20
4.0000045037566689
 30
0.0
 11
555.0
 21
98.375004503757239
 31
0.0
  0
LINE
  5
5C9
  8
0
 62
     0
 10
553.5
 20
4.0000045037566538
 30
0.0
 11
553.5
 21
98.375004503757211
 31
0.0
  0
LINE
  5
5CA
  8
0
 62
     0
 10
552.0
 20
4.0000045037566387
 30
0.0
 11
552.0
 21
98.375004503757211
 31
0.0
  0
LINE
  5
5CB
  8
0
 62
     0
 10
550.49999999999989
 20
4.0000045037566236
 30
0.0
 11
550.49999999999989
 21
98.375004503757197
 31
0.0
  0
LINE
  5
5CC
  8
0
 62
     0
 10
549.0
 20
4.0000045037566103
 30
0.0
 11
549.0
 21
98.375004503757168
 31
0.0
  0
LINE
  5
5CD
  8
0
 62
     0
 10
522.0
 20
4.0000045037563501
 30
0.0
 11
522.0
 21
98.375004503756884
 31
0.0
  0
LINE
  5
5CE
  8
0
 62
     0
 10
520.5
 20
4.0000045037563332
 30
0.0
 11
520.5
 21
98.37500450375687
 31
0.0
  0
LINE
  5
5CF
  8
0
 62
     0
 10
519.0
 20
4.0000045037563154
 30
0.0
 11
519.0
 21
98.375004503756855
 31
0.0
  0
LINE
  5
5D0
  8
0
 62
     0
 10
517.49999999999989
 20
4.0000045037562977
 30
0.0
 11
517.49999999999989
 21
98.375004503756855
 31
0.0
  0
LINE
  5
5D1
  8
0
 62
     0
 10
516.0
 20
4.0000045037562799
 30
0.0
 11
516.0
 21
98.375004503756827
 31
0.0
  0
LINE
  5
5D2
  8
0
 62
     0
 10
514.5
 20
4.000004503756263
 30
0.0
 11
514.5
 21
98.375004503756813
 31
0.0
  0
LINE
  5
5D3
  8
0
 62
     0
 10
513.0
 20
4.0000045037562462
 30
0.0
 11
513.0
 21
98.375004503756799
 31
0.0
  0
LINE
  5
5D4
  8
0
 62
     0
 10
602.66459746572139
 20
4.5
 30
0.0
 11
630.67359712039286
 21
4.5
 31
0.0
  0
LINE
  5
5D5
  8
0
 62
     0
 10
656.65661278249058
 20
4.5
 30
0.0
 11
684.66527652298964
 21
4.5
 31
0.0
  0
LINE
  5
5D6
  8
0
 62
     0
 10
548.67218615683839
 20
4.5
 30
0.0
 11
576.66459746572139
 21
4.5
 31
0.0
  0
LINE
  5
5D7
  8
0
 62
     0
 10
710.6505829355699
 20
4.5
 30
0.0
 11
721.10209746572173
 21
4.5
 31
0.0
  0
LINE
  5
5D8
  8
0
 62
     0
 10
512.22709746572184
 20
4.5
 30
0.0
 11
522.66314662646982
 21
4.5
 31
0.0
  0
LINE
  5
5D9
  8
0
 62
     0
 10
602.66459746572139
 20
6.0
 30
0.0
 11
630.67359712039286
 21
6.0
 31
0.0
  0
LINE
  5
5DA
  8
0
 62
     0
 10
656.65661278249058
 20
6.0
 30
0.0
 11
684.66527652298964
 21
6.0
 31
0.0
  0
LINE
  5
5DB
  8
0
 62
     0
 10
548.67218615683839
 20
6.0
 30
0.0
 11
576.66459746572139
 21
6.0
 31
0.0
  0
LINE
  5
5DC
  8
0
 62
     0
 10
710.6505829355699
 20
6.0
 30
0.0
 11
721.10209746572173
 21
6.0
 31
0.0
  0
LINE
  5
5DD
  8
0
 62
     0
 10
512.22709746572184
 20
6.0
 30
0.0
 11
522.66314662646982
 21
6.0
 31
0.0
  0
LINE
  5
5DE
  8
0
 62
     0
 10
602.66459746572139
 20
7.5
 30
0.0
 11
630.67359712039286
 21
7.5
 31
0.0
  0
LINE
  5
5DF
  8
0
 62
     0
 10
656.65661278249058
 20
7.5
 30
0.0
 11
684.66527652298964
 21
7.5
 31
0.0
  0
LINE
  5
5E0
  8
0
 62
     0
 10
548.67218615683839
 20
7.5
 30
0.0
 11
576.66459746572139
 21
7.5
 31
0.0
  0
LINE
  5
5E1
  8
0
 62
     0
 10
710.6505829355699
 20
7.5
 30
0.0
 11
721.10209746572173
 21
7.5
 31
0.0
  0
LINE
  5
5E2
  8
0
 62
     0
 10
512.22709746572184
 20
7.5
 30
0.0
 11
522.66314662646982
 21
7.5
 31
0.0
  0
LINE
  5
5E3
  8
0
 62
     0
 10
602.66459746572139
 20
9.0
 30
0.0
 11
630.67359712039286
 21
9.0
 31
0.0
  0
LINE
  5
5E4
  8
0
 62
     0
 10
656.65661278249058
 20
9.0
 30
0.0
 11
684.66527652298964
 21
9.0
 31
0.0
  0
LINE
  5
5E5
  8
0
 62
     0
 10
548.67218615683839
 20
9.0
 30
0.0
 11
576.66459746572139
 21
9.0
 31
0.0
  0
LINE
  5
5E6
  8
0
 62
     0
 10
710.6505829355699
 20
9.0
 30
0.0
 11
721.10209746572173
 21
9.0
 31
0.0
  0
LINE
  5
5E7
  8
0
 62
     0
 10
512.22709746572184
 20
9.0
 30
0.0
 11
522.66314662646982
 21
9.0
 31
0.0
  0
LINE
  5
5E8
  8
0
 62
     0
 10
602.66459746572139
 20
10.5
 30
0.0
 11
630.67359712039286
 21
10.5
 31
0.0
  0
LINE
  5
5E9
  8
0
 62
     0
 10
656.65661278249058
 20
10.5
 30
0.0
 11
684.66527652298964
 21
10.5
 31
0.0
  0
LINE
  5
5EA
  8
0
 62
     0
 10
548.67218615683839
 20
10.5
 30
0.0
 11
576.66459746572139
 21
10.5
 31
0.0
  0
LINE
  5
5EB
  8
0
 62
     0
 10
710.6505829355699
 20
10.5
 30
0.0
 11
721.10209746572161
 21
10.5
 31
0.0
  0
LINE
  5
5EC
  8
0
 62
     0
 10
512.22709746572173
 20
10.5
 30
0.0
 11
522.66314662646982
 21
10.5
 31
0.0
  0
LINE
  5
5ED
  8
0
 62
     0
 10
602.66459746572139
 20
12.0
 30
0.0
 11
630.67359712039286
 21
12.0
 31
0.0
  0
LINE
  5
5EE
  8
0
 62
     0
 10
656.65661278249058
 20
12.0
 30
0.0
 11
684.66527652298964
 21
12.0
 31
0.0
  0
LINE
  5
5EF
  8
0
 62
     0
 10
548.67218615683839
 20
12.0
 30
0.0
 11
576.66459746572139
 21
12.0
 31
0.0
  0
LINE
  5
5F0
  8
0
 62
     0
 10
710.6505829355699
 20
12.0
 30
0.0
 11
721.10209746572161
 21
12.0
 31
0.0
  0
LINE
  5
5F1
  8
0
 62
     0
 10
512.22709746572173
 20
12.0
 30
0.0
 11
522.66314662646982
 21
12.0
 31
0.0
  0
LINE
  5
5F2
  8
0
 62
     0
 10
602.66459746572139
 20
13.5
 30
0.0
 11
630.67359712039286
 21
13.5
 31
0.0
  0
LINE
  5
5F3
  8
0
 62
     0
 10
656.65661278249058
 20
13.5
 30
0.0
 11
684.66527652298964
 21
13.5
 31
0.0
  0
LINE
  5
5F4
  8
0
 62
     0
 10
548.67218615683839
 20
13.5
 30
0.0
 11
576.66459746572139
 21
13.5
 31
0.0
  0
LINE
  5
5F5
  8
0
 62
     0
 10
710.6505829355699
 20
13.5
 30
0.0
 11
721.10209746572161
 21
13.5
 31
0.0
  0
LINE
  5
5F6
  8
0
 62
     0
 10
512.22709746572173
 20
13.5
 30
0.0
 11
522.66314662646982
 21
13.5
 31
0.0
  0
LINE
  5
5F7
  8
0
 62
     0
 10
602.66459746572139
 20
15.0
 30
0.0
 11
630.67359712039286
 21
15.0
 31
0.0
  0
LINE
  5
5F8
  8
0
 62
     0
 10
656.65661278249058
 20
15.0
 30
0.0
 11
684.66527652298964
 21
15.0
 31
0.0
  0
LINE
  5
5F9
  8
0
 62
     0
 10
548.67218615683839
 20
15.0
 30
0.0
 11
576.66459746572139
 21
15.0
 31
0.0
  0
LINE
  5
5FA
  8
0
 62
     0
 10
710.6505829355699
 20
15.0
 30
0.0
 11
721.10209746572161
 21
15.0
 31
0.0
  0
LINE
  5
5FB
  8
0
 62
     0
 10
512.22709746572173
 20
15.0
 30
0.0
 11
522.66314662646982
 21
15.0
 31
0.0
  0
LINE
  5
5FC
  8
0
 62
     0
 10
602.66459746572139
 20
16.5
 30
0.0
 11
630.67359712039286
 21
16.5
 31
0.0
  0
LINE
  5
5FD
  8
0
 62
     0
 10
656.65661278249058
 20
16.5
 30
0.0
 11
684.66527652298964
 21
16.5
 31
0.0
  0
LINE
  5
5FE
  8
0
 62
     0
 10
548.67218615683839
 20
16.5
 30
0.0
 11
576.66459746572139
 21
16.5
 31
0.0
  0
LINE
  5
5FF
  8
0
 62
     0
 10
710.6505829355699
 20
16.5
 30
0.0
 11
721.10209746572161
 21
16.5
 31
0.0
  0
LINE
  5
600
  8
0
 62
     0
 10
512.22709746572173
 20
16.5
 30
0.0
 11
522.66314662646982
 21
16.5
 31
0.0
  0
LINE
  5
601
  8
0
 62
     0
 10
602.66459746572139
 20
18.0
 30
0.0
 11
630.67359712039286
 21
18.0
 31
0.0
  0
LINE
  5
602
  8
0
 62
     0
 10
656.65661278249058
 20
18.0
 30
0.0
 11
684.66527652298964
 21
18.0
 31
0.0
  0
LINE
  5
603
  8
0
 62
     0
 10
548.67218615683839
 20
18.0
 30
0.0
 11
576.66459746572139
 21
18.0
 31
0.0
  0
LINE
  5
604
  8
0
 62
     0
 10
710.6505829355699
 20
18.0
 30
0.0
 11
721.10209746572161
 21
18.0
 31
0.0
  0
LINE
  5
605
  8
0
 62
     0
 10
512.22709746572173
 20
18.0
 30
0.0
 11
522.66314662646982
 21
18.0
 31
0.0
  0
LINE
  5
606
  8
0
 62
     0
 10
602.66459746572139
 20
19.5
 30
0.0
 11
630.67359712039286
 21
19.5
 31
0.0
  0
LINE
  5
607
  8
0
 62
     0
 10
656.65661278249058
 20
19.5
 30
0.0
 11
684.66527652298964
 21
19.5
 31
0.0
  0
LINE
  5
608
  8
0
 62
     0
 10
548.67218615683839
 20
19.5
 30
0.0
 11
576.66459746572139
 21
19.5
 31
0.0
  0
LINE
  5
609
  8
0
 62
     0
 10
710.6505829355699
 20
19.5
 30
0.0
 11
721.10209746572161
 21
19.5
 31
0.0
  0
LINE
  5
60A
  8
0
 62
     0
 10
512.22709746572173
 20
19.5
 30
0.0
 11
522.66314662646982
 21
19.5
 31
0.0
  0
LINE
  5
60B
  8
0
 62
     0
 10
602.66459746572139
 20
21.0
 30
0.0
 11
630.67359712039286
 21
21.0
 31
0.0
  0
LINE
  5
60C
  8
0
 62
     0
 10
656.65661278249058
 20
21.0
 30
0.0
 11
684.66527652298964
 21
21.0
 31
0.0
  0
LINE
  5
60D
  8
0
 62
     0
 10
548.67218615683839
 20
21.0
 30
0.0
 11
576.66459746572139
 21
21.0
 31
0.0
  0
LINE
  5
60E
  8
0
 62
     0
 10
710.6505829355699
 20
21.0
 30
0.0
 11
721.10209746572161
 21
21.0
 31
0.0
  0
LINE
  5
60F
  8
0
 62
     0
 10
512.22709746572161
 20
21.0
 30
0.0
 11
522.66314662646982
 21
21.0
 31
0.0
  0
LINE
  5
610
  8
0
 62
     0
 10
602.66459746572139
 20
22.5
 30
0.0
 11
630.67359712039286
 21
22.5
 31
0.0
  0
LINE
  5
611
  8
0
 62
     0
 10
656.65661278249058
 20
22.5
 30
0.0
 11
684.66527652298964
 21
22.5
 31
0.0
  0
LINE
  5
612
  8
0
 62
     0
 10
548.67218615683839
 20
22.5
 30
0.0
 11
576.66459746572139
 21
22.5
 31
0.0
  0
LINE
  5
613
  8
0
 62
     0
 10
710.6505829355699
 20
22.5
 30
0.0
 11
721.10209746572139
 21
22.5
 31
0.0
  0
LINE
  5
614
  8
0
 62
     0
 10
512.22709746572161
 20
22.5
 30
0.0
 11
522.66314662646982
 21
22.5
 31
0.0
  0
LINE
  5
615
  8
0
 62
     0
 10
602.66459746572139
 20
24.0
 30
0.0
 11
630.67359712039286
 21
24.0
 31
0.0
  0
LINE
  5
616
  8
0
 62
     0
 10
656.65661278249058
 20
24.0
 30
0.0
 11
684.66527652298964
 21
24.0
 31
0.0
  0
LINE
  5
617
  8
0
 62
     0
 10
548.67218615683839
 20
24.0
 30
0.0
 11
576.66459746572139
 21
24.0
 31
0.0
  0
LINE
  5
618
  8
0
 62
     0
 10
710.6505829355699
 20
24.0
 30
0.0
 11
721.10209746572139
 21
24.0
 31
0.0
  0
LINE
  5
619
  8
0
 62
     0
 10
512.22709746572161
 20
24.0
 30
0.0
 11
522.66314662646982
 21
24.0
 31
0.0
  0
LINE
  5
61A
  8
0
 62
     0
 10
602.66459746572139
 20
25.5
 30
0.0
 11
630.67359712039286
 21
25.5
 31
0.0
  0
LINE
  5
61B
  8
0
 62
     0
 10
656.65661278249058
 20
25.5
 30
0.0
 11
684.66527652298964
 21
25.5
 31
0.0
  0
LINE
  5
61C
  8
0
 62
     0
 10
548.67218615683839
 20
25.5
 30
0.0
 11
576.66459746572139
 21
25.5
 31
0.0
  0
LINE
  5
61D
  8
0
 62
     0
 10
710.6505829355699
 20
25.5
 30
0.0
 11
721.10209746572139
 21
25.5
 31
0.0
  0
LINE
  5
61E
  8
0
 62
     0
 10
512.22709746572161
 20
25.5
 30
0.0
 11
522.66314662646982
 21
25.5
 31
0.0
  0
LINE
  5
61F
  8
0
 62
     0
 10
602.66459746572139
 20
27.0
 30
0.0
 11
630.67359712039286
 21
27.0
 31
0.0
  0
LINE
  5
620
  8
0
 62
     0
 10
656.65661278249058
 20
27.0
 30
0.0
 11
684.66527652298964
 21
27.0
 31
0.0
  0
LINE
  5
621
  8
0
 62
     0
 10
548.67218615683839
 20
27.0
 30
0.0
 11
576.66459746572139
 21
27.0
 31
0.0
  0
LINE
  5
622
  8
0
 62
     0
 10
710.6505829355699
 20
27.0
 30
0.0
 11
721.10209746572139
 21
27.0
 31
0.0
  0
LINE
  5
623
  8
0
 62
     0
 10
512.22709746572161
 20
27.0
 30
0.0
 11
522.66314662646982
 21
27.0
 31
0.0
  0
LINE
  5
624
  8
0
 62
     0
 10
602.66459746572139
 20
28.5
 30
0.0
 11
630.67359712039286
 21
28.5
 31
0.0
  0
LINE
  5
625
  8
0
 62
     0
 10
656.65661278249058
 20
28.5
 30
0.0
 11
684.66527652298964
 21
28.5
 31
0.0
  0
LINE
  5
626
  8
0
 62
     0
 10
548.67218615683839
 20
28.5
 30
0.0
 11
576.66459746572139
 21
28.5
 31
0.0
  0
LINE
  5
627
  8
0
 62
     0
 10
710.6505829355699
 20
28.5
 30
0.0
 11
721.10209746572139
 21
28.5
 31
0.0
  0
LINE
  5
628
  8
0
 62
     0
 10
512.22709746572161
 20
28.5
 30
0.0
 11
522.66314662646982
 21
28.5
 31
0.0
  0
LINE
  5
629
  8
0
 62
     0
 10
602.66459746572139
 20
30.0
 30
0.0
 11
630.67359712039286
 21
30.0
 31
0.0
  0
LINE
  5
62A
  8
0
 62
     0
 10
656.65661278249058
 20
30.0
 30
0.0
 11
684.66527652298964
 21
30.0
 31
0.0
  0
LINE
  5
62B
  8
0
 62
     0
 10
548.67218615683839
 20
30.0
 30
0.0
 11
576.66459746572139
 21
30.0
 31
0.0
  0
LINE
  5
62C
  8
0
 62
     0
 10
710.6505829355699
 20
30.0
 30
0.0
 11
721.10209746572139
 21
30.0
 31
0.0
  0
LINE
  5
62D
  8
0
 62
     0
 10
512.22709746572161
 20
30.0
 30
0.0
 11
522.66314662646982
 21
30.0
 31
0.0
  0
LINE
  5
62E
  8
0
 62
     0
 10
602.66459746572139
 20
31.5
 30
0.0
 11
630.67359712039286
 21
31.5
 31
0.0
  0
LINE
  5
62F
  8
0
 62
     0
 10
656.65661278249058
 20
31.5
 30
0.0
 11
684.66527652298964
 21
31.5
 31
0.0
  0
LINE
  5
630
  8
0
 62
     0
 10
548.67218615683839
 20
31.5
 30
0.0
 11
576.66459746572139
 21
31.5
 31
0.0
  0
LINE
  5
631
  8
0
 62
     0
 10
710.6505829355699
 20
31.5
 30
0.0
 11
721.10209746572139
 21
31.5
 31
0.0
  0
LINE
  5
632
  8
0
 62
     0
 10
512.22709746572139
 20
31.5
 30
0.0
 11
522.66314662646982
 21
31.5
 31
0.0
  0
LINE
  5
633
  8
0
 62
     0
 10
602.66459746572139
 20
33.0
 30
0.0
 11
630.67359712039286
 21
33.0
 31
0.0
  0
LINE
  5
634
  8
0
 62
     0
 10
656.65661278249058
 20
33.0
 30
0.0
 11
684.66527652298964
 21
33.0
 31
0.0
  0
LINE
  5
635
  8
0
 62
     0
 10
548.67218615683839
 20
33.0
 30
0.0
 11
576.66459746572139
 21
33.0
 31
0.0
  0
LINE
  5
636
  8
0
 62
     0
 10
710.6505829355699
 20
33.0
 30
0.0
 11
721.10209746572139
 21
33.0
 31
0.0
  0
LINE
  5
637
  8
0
 62
     0
 10
512.22709746572139
 20
33.0
 30
0.0
 11
522.66314662646982
 21
33.0
 31
0.0
  0
LINE
  5
638
  8
0
 62
     0
 10
602.66459746572139
 20
34.5
 30
0.0
 11
630.67359712039286
 21
34.5
 31
0.0
  0
LINE
  5
639
  8
0
 62
     0
 10
656.65661278249058
 20
34.5
 30
0.0
 11
684.66527652298964
 21
34.5
 31
0.0
  0
LINE
  5
63A
  8
0
 62
     0
 10
548.67218615683839
 20
34.5
 30
0.0
 11
576.66459746572139
 21
34.5
 31
0.0
  0
LINE
  5
63B
  8
0
 62
     0
 10
710.6505829355699
 20
34.5
 30
0.0
 11
721.10209746572139
 21
34.5
 31
0.0
  0
LINE
  5
63C
  8
0
 62
     0
 10
512.22709746572139
 20
34.5
 30
0.0
 11
522.66314662646982
 21
34.5
 31
0.0
  0
LINE
  5
63D
  8
0
 62
     0
 10
602.66459746572139
 20
36.0
 30
0.0
 11
630.67359712039286
 21
36.0
 31
0.0
  0
LINE
  5
63E
  8
0
 62
     0
 10
656.65661278249058
 20
36.0
 30
0.0
 11
684.66527652298964
 21
36.0
 31
0.0
  0
LINE
  5
63F
  8
0
 62
     0
 10
548.67218615683839
 20
36.0
 30
0.0
 11
576.66459746572139
 21
36.0
 31
0.0
  0
LINE
  5
640
  8
0
 62
     0
 10
710.6505829355699
 20
36.0
 30
0.0
 11
721.10209746572139
 21
36.0
 31
0.0
  0
LINE
  5
641
  8
0
 62
     0
 10
512.22709746572139
 20
36.0
 30
0.0
 11
522.66314662646982
 21
36.0
 31
0.0
  0
LINE
  5
642
  8
0
 62
     0
 10
602.66459746572139
 20
37.5
 30
0.0
 11
630.67359712039286
 21
37.5
 31
0.0
  0
LINE
  5
643
  8
0
 62
     0
 10
656.65661278249058
 20
37.5
 30
0.0
 11
684.66527652298964
 21
37.5
 31
0.0
  0
LINE
  5
644
  8
0
 62
     0
 10
548.67218615683839
 20
37.5
 30
0.0
 11
576.66459746572139
 21
37.5
 31
0.0
  0
LINE
  5
645
  8
0
 62
     0
 10
710.6505829355699
 20
37.5
 30
0.0
 11
721.10209746572139
 21
37.5
 31
0.0
  0
LINE
  5
646
  8
0
 62
     0
 10
512.22709746572139
 20
37.5
 30
0.0
 11
522.66314662646982
 21
37.5
 31
0.0
  0
LINE
  5
647
  8
0
 62
     0
 10
602.66459746572139
 20
39.0
 30
0.0
 11
630.67359712039286
 21
39.0
 31
0.0
  0
LINE
  5
648
  8
0
 62
     0
 10
656.65661278249058
 20
39.0
 30
0.0
 11
684.66527652298964
 21
39.0
 31
0.0
  0
LINE
  5
649
  8
0
 62
     0
 10
548.67218615683839
 20
39.0
 30
0.0
 11
576.66459746572139
 21
39.0
 31
0.0
  0
LINE
  5
64A
  8
0
 62
     0
 10
710.6505829355699
 20
39.0
 30
0.0
 11
721.10209746572139
 21
39.0
 31
0.0
  0
LINE
  5
64B
  8
0
 62
     0
 10
512.22709746572139
 20
39.0
 30
0.0
 11
522.66314662646982
 21
39.0
 31
0.0
  0
LINE
  5
64C
  8
0
 62
     0
 10
602.66459746572139
 20
40.499999999999993
 30
0.0
 11
630.67359712039286
 21
40.499999999999993
 31
0.0
  0
LINE
  5
64D
  8
0
 62
     0
 10
656.65661278249058
 20
40.499999999999993
 30
0.0
 11
684.66527652298964
 21
40.499999999999993
 31
0.0
  0
LINE
  5
64E
  8
0
 62
     0
 10
548.67218615683839
 20
40.499999999999993
 30
0.0
 11
576.66459746572139
 21
40.499999999999993
 31
0.0
  0
LINE
  5
64F
  8
0
 62
     0
 10
710.6505829355699
 20
40.499999999999993
 30
0.0
 11
721.10209746572139
 21
40.499999999999993
 31
0.0
  0
LINE
  5
650
  8
0
 62
     0
 10
512.22709746572139
 20
40.499999999999993
 30
0.0
 11
522.66314662646982
 21
40.499999999999993
 31
0.0
  0
LINE
  5
651
  8
0
 62
     0
 10
602.66459746572139
 20
42.0
 30
0.0
 11
630.67359712039286
 21
42.0
 31
0.0
  0
LINE
  5
652
  8
0
 62
     0
 10
656.65661278249058
 20
42.0
 30
0.0
 11
684.66527652298964
 21
42.0
 31
0.0
  0
LINE
  5
653
  8
0
 62
     0
 10
548.67218615683839
 20
42.0
 30
0.0
 11
576.66459746572139
 21
42.0
 31
0.0
  0
LINE
  5
654
  8
0
 62
     0
 10
710.6505829355699
 20
42.0
 30
0.0
 11
721.10209746572139
 21
42.0
 31
0.0
  0
LINE
  5
655
  8
0
 62
     0
 10
512.22709746572127
 20
42.0
 30
0.0
 11
522.66314662646982
 21
42.0
 31
0.0
  0
LINE
  5
656
  8
0
 62
     0
 10
602.66459746572139
 20
43.5
 30
0.0
 11
630.67359712039286
 21
43.5
 31
0.0
  0
LINE
  5
657
  8
0
 62
     0
 10
656.65661278249058
 20
43.5
 30
0.0
 11
684.66527652298964
 21
43.5
 31
0.0
  0
LINE
  5
658
  8
0
 62
     0
 10
548.67218615683839
 20
43.5
 30
0.0
 11
576.66459746572139
 21
43.5
 31
0.0
  0
LINE
  5
659
  8
0
 62
     0
 10
710.6505829355699
 20
43.5
 30
0.0
 11
721.10209746572139
 21
43.5
 31
0.0
  0
LINE
  5
65A
  8
0
 62
     0
 10
512.22709746572127
 20
43.5
 30
0.0
 11
522.66314662646982
 21
43.5
 31
0.0
  0
LINE
  5
65B
  8
0
 62
     0
 10
602.66459746572139
 20
45.0
 30
0.0
 11
630.67359712039286
 21
45.0
 31
0.0
  0
LINE
  5
65C
  8
0
 62
     0
 10
656.65661278249058
 20
45.0
 30
0.0
 11
684.66527652298964
 21
45.0
 31
0.0
  0
LINE
  5
65D
  8
0
 62
     0
 10
548.67218615683839
 20
45.0
 30
0.0
 11
576.66459746572139
 21
45.0
 31
0.0
  0
LINE
  5
65E
  8
0
 62
     0
 10
710.6505829355699
 20
45.0
 30
0.0
 11
721.10209746572139
 21
45.0
 31
0.0
  0
LINE
  5
65F
  8
0
 62
     0
 10
512.22709746572127
 20
45.0
 30
0.0
 11
522.66314662646982
 21
45.0
 31
0.0
  0
LINE
  5
660
  8
0
 62
     0
 10
602.66459746572139
 20
46.5
 30
0.0
 11
630.67359712039286
 21
46.5
 31
0.0
  0
LINE
  5
661
  8
0
 62
     0
 10
656.65661278249058
 20
46.5
 30
0.0
 11
684.66527652298964
 21
46.5
 31
0.0
  0
LINE
  5
662
  8
0
 62
     0
 10
548.67218615683839
 20
46.5
 30
0.0
 11
576.66459746572139
 21
46.5
 31
0.0
  0
LINE
  5
663
  8
0
 62
     0
 10
710.6505829355699
 20
46.5
 30
0.0
 11
721.10209746572127
 21
46.5
 31
0.0
  0
LINE
  5
664
  8
0
 62
     0
 10
512.22709746572127
 20
46.5
 30
0.0
 11
522.66314662646982
 21
46.5
 31
0.0
  0
LINE
  5
665
  8
0
 62
     0
 10
602.66459746572139
 20
48.0
 30
0.0
 11
630.67359712039286
 21
48.0
 31
0.0
  0
LINE
  5
666
  8
0
 62
     0
 10
656.65661278249058
 20
48.0
 30
0.0
 11
684.66527652298964
 21
48.0
 31
0.0
  0
LINE
  5
667
  8
0
 62
     0
 10
548.67218615683839
 20
48.0
 30
0.0
 11
576.66459746572139
 21
48.0
 31
0.0
  0
LINE
  5
668
  8
0
 62
     0
 10
710.6505829355699
 20
48.0
 30
0.0
 11
721.10209746572127
 21
48.0
 31
0.0
  0
LINE
  5
669
  8
0
 62
     0
 10
512.22709746572127
 20
48.0
 30
0.0
 11
522.66314662646982
 21
48.0
 31
0.0
  0
LINE
  5
66A
  8
0
 62
     0
 10
602.66459746572139
 20
49.5
 30
0.0
 11
630.67359712039286
 21
49.5
 31
0.0
  0
LINE
  5
66B
  8
0
 62
     0
 10
656.65661278249058
 20
49.5
 30
0.0
 11
684.66527652298964
 21
49.5
 31
0.0
  0
LINE
  5
66C
  8
0
 62
     0
 10
548.67218615683839
 20
49.5
 30
0.0
 11
576.66459746572139
 21
49.5
 31
0.0
  0
LINE
  5
66D
  8
0
 62
     0
 10
710.6505829355699
 20
49.5
 30
0.0
 11
721.10209746572127
 21
49.5
 31
0.0
  0
LINE
  5
66E
  8
0
 62
     0
 10
512.22709746572127
 20
49.5
 30
0.0
 11
522.66314662646982
 21
49.5
 31
0.0
  0
LINE
  5
66F
  8
0
 62
     0
 10
602.66459746572139
 20
51.0
 30
0.0
 11
630.67359712039286
 21
51.0
 31
0.0
  0
LINE
  5
670
  8
0
 62
     0
 10
656.65661278249058
 20
51.0
 30
0.0
 11
684.66527652298964
 21
51.0
 31
0.0
  0
LINE
  5
671
  8
0
 62
     0
 10
548.67218615683839
 20
51.0
 30
0.0
 11
576.66459746572139
 21
51.0
 31
0.0
  0
LINE
  5
672
  8
0
 62
     0
 10
710.6505829355699
 20
51.0
 30
0.0
 11
721.10209746572127
 21
51.0
 31
0.0
  0
LINE
  5
673
  8
0
 62
     0
 10
512.22709746572127
 20
51.0
 30
0.0
 11
522.66314662646982
 21
51.0
 31
0.0
  0
LINE
  5
674
  8
0
 62
     0
 10
602.66459746572139
 20
52.5
 30
0.0
 11
630.67359712039286
 21
52.5
 31
0.0
  0
LINE
  5
675
  8
0
 62
     0
 10
656.65661278249058
 20
52.5
 30
0.0
 11
684.66527652298964
 21
52.5
 31
0.0
  0
LINE
  5
676
  8
0
 62
     0
 10
548.67218615683839
 20
52.5
 30
0.0
 11
576.66459746572139
 21
52.5
 31
0.0
  0
LINE
  5
677
  8
0
 62
     0
 10
710.6505829355699
 20
52.5
 30
0.0
 11
721.10209746572127
 21
52.5
 31
0.0
  0
LINE
  5
678
  8
0
 62
     0
 10
512.22709746572127
 20
52.5
 30
0.0
 11
522.66314662646982
 21
52.5
 31
0.0
  0
LINE
  5
679
  8
0
 62
     0
 10
602.66459746572139
 20
54.0
 30
0.0
 11
630.67359712039286
 21
54.0
 31
0.0
  0
LINE
  5
67A
  8
0
 62
     0
 10
656.65661278249058
 20
54.0
 30
0.0
 11
684.66527652298964
 21
54.0
 31
0.0
  0
LINE
  5
67B
  8
0
 62
     0
 10
548.67218615683839
 20
54.0
 30
0.0
 11
576.66459746572139
 21
54.0
 31
0.0
  0
LINE
  5
67C
  8
0
 62
     0
 10
710.6505829355699
 20
54.0
 30
0.0
 11
721.10209746572127
 21
54.0
 31
0.0
  0
LINE
  5
67D
  8
0
 62
     0
 10
512.22709746572127
 20
54.0
 30
0.0
 11
522.66314662646982
 21
54.0
 31
0.0
  0
LINE
  5
67E
  8
0
 62
     0
 10
602.66459746572139
 20
55.5
 30
0.0
 11
630.67359712039286
 21
55.5
 31
0.0
  0
LINE
  5
67F
  8
0
 62
     0
 10
656.65661278249058
 20
55.5
 30
0.0
 11
684.66527652298964
 21
55.5
 31
0.0
  0
LINE
  5
680
  8
0
 62
     0
 10
548.67218615683839
 20
55.5
 30
0.0
 11
576.66459746572139
 21
55.5
 31
0.0
  0
LINE
  5
681
  8
0
 62
     0
 10
710.6505829355699
 20
55.5
 30
0.0
 11
721.10209746572127
 21
55.5
 31
0.0
  0
LINE
  5
682
  8
0
 62
     0
 10
512.22709746572127
 20
55.5
 30
0.0
 11
522.66314662646982
 21
55.5
 31
0.0
  0
LINE
  5
683
  8
0
 62
     0
 10
602.66459746572139
 20
57.0
 30
0.0
 11
630.67359712039286
 21
57.0
 31
0.0
  0
LINE
  5
684
  8
0
 62
     0
 10
656.65661278249058
 20
57.0
 30
0.0
 11
684.66527652298964
 21
57.0
 31
0.0
  0
LINE
  5
685
  8
0
 62
     0
 10
548.67218615683839
 20
57.0
 30
0.0
 11
576.66459746572139
 21
57.0
 31
0.0
  0
LINE
  5
686
  8
0
 62
     0
 10
710.6505829355699
 20
57.0
 30
0.0
 11
721.10209746572127
 21
57.0
 31
0.0
  0
LINE
  5
687
  8
0
 62
     0
 10
512.22709746572127
 20
57.0
 30
0.0
 11
522.66314662646982
 21
57.0
 31
0.0
  0
LINE
  5
688
  8
0
 62
     0
 10
602.66459746572139
 20
58.5
 30
0.0
 11
630.67359712039286
 21
58.5
 31
0.0
  0
LINE
  5
689
  8
0
 62
     0
 10
656.65661278249058
 20
58.5
 30
0.0
 11
684.66527652298964
 21
58.5
 31
0.0
  0
LINE
  5
68A
  8
0
 62
     0
 10
548.67218615683839
 20
58.5
 30
0.0
 11
576.66459746572139
 21
58.5
 31
0.0
  0
LINE
  5
68B
  8
0
 62
     0
 10
710.6505829355699
 20
58.5
 30
0.0
 11
721.10209746572104
 21
58.5
 31
0.0
  0
LINE
  5
68C
  8
0
 62
     0
 10
512.22709746572127
 20
58.5
 30
0.0
 11
522.66314662646982
 21
58.5
 31
0.0
  0
LINE
  5
68D
  8
0
 62
     0
 10
602.66459746572139
 20
60.0
 30
0.0
 11
630.67359712039286
 21
60.0
 31
0.0
  0
LINE
  5
68E
  8
0
 62
     0
 10
656.65661278249058
 20
60.0
 30
0.0
 11
684.66527652298964
 21
60.0
 31
0.0
  0
LINE
  5
68F
  8
0
 62
     0
 10
548.67218615683839
 20
60.0
 30
0.0
 11
576.66459746572139
 21
60.0
 31
0.0
  0
LINE
  5
690
  8
0
 62
     0
 10
710.6505829355699
 20
60.0
 30
0.0
 11
721.10209746572104
 21
60.0
 31
0.0
  0
LINE
  5
691
  8
0
 62
     0
 10
512.22709746572127
 20
60.0
 30
0.0
 11
522.66314662646982
 21
60.0
 31
0.0
  0
LINE
  5
692
  8
0
 62
     0
 10
602.66459746572139
 20
61.5
 30
0.0
 11
630.67359712039286
 21
61.5
 31
0.0
  0
LINE
  5
693
  8
0
 62
     0
 10
656.65661278249058
 20
61.5
 30
0.0
 11
684.66527652298964
 21
61.5
 31
0.0
  0
LINE
  5
694
  8
0
 62
     0
 10
548.67218615683839
 20
61.5
 30
0.0
 11
576.66459746572139
 21
61.5
 31
0.0
  0
LINE
  5
695
  8
0
 62
     0
 10
710.6505829355699
 20
61.5
 30
0.0
 11
721.10209746572104
 21
61.5
 31
0.0
  0
LINE
  5
696
  8
0
 62
     0
 10
512.22709746572127
 20
61.5
 30
0.0
 11
522.66314662646982
 21
61.5
 31
0.0
  0
LINE
  5
697
  8
0
 62
     0
 10
602.66459746572139
 20
63.0
 30
0.0
 11
630.67359712039286
 21
63.0
 31
0.0
  0
LINE
  5
698
  8
0
 62
     0
 10
656.65661278249058
 20
63.0
 30
0.0
 11
684.66527652298964
 21
63.0
 31
0.0
  0
LINE
  5
699
  8
0
 62
     0
 10
548.67218615683839
 20
63.0
 30
0.0
 11
576.66459746572139
 21
63.0
 31
0.0
  0
LINE
  5
69A
  8
0
 62
     0
 10
710.6505829355699
 20
63.0
 30
0.0
 11
721.10209746572104
 21
63.0
 31
0.0
  0
LINE
  5
69B
  8
0
 62
     0
 10
512.22709746572104
 20
63.0
 30
0.0
 11
522.66314662646982
 21
63.0
 31
0.0
  0
LINE
  5
69C
  8
0
 62
     0
 10
602.66459746572139
 20
64.5
 30
0.0
 11
630.67359712039286
 21
64.5
 31
0.0
  0
LINE
  5
69D
  8
0
 62
     0
 10
656.65661278249058
 20
64.5
 30
0.0
 11
684.66527652298964
 21
64.5
 31
0.0
  0
LINE
  5
69E
  8
0
 62
     0
 10
548.67218615683839
 20
64.5
 30
0.0
 11
576.66459746572139
 21
64.5
 31
0.0
  0
LINE
  5
69F
  8
0
 62
     0
 10
710.6505829355699
 20
64.5
 30
0.0
 11
721.10209746572104
 21
64.5
 31
0.0
  0
LINE
  5
6A0
  8
0
 62
     0
 10
512.22709746572104
 20
64.5
 30
0.0
 11
522.66314662646982
 21
64.5
 31
0.0
  0
LINE
  5
6A1
  8
0
 62
     0
 10
602.66459746572139
 20
66.0
 30
0.0
 11
630.67359712039286
 21
66.0
 31
0.0
  0
LINE
  5
6A2
  8
0
 62
     0
 10
656.65661278249058
 20
66.0
 30
0.0
 11
684.66527652298964
 21
66.0
 31
0.0
  0
LINE
  5
6A3
  8
0
 62
     0
 10
548.67218615683839
 20
66.0
 30
0.0
 11
576.66459746572139
 21
66.0
 31
0.0
  0
LINE
  5
6A4
  8
0
 62
     0
 10
710.6505829355699
 20
66.0
 30
0.0
 11
721.10209746572104
 21
66.0
 31
0.0
  0
LINE
  5
6A5
  8
0
 62
     0
 10
512.22709746572104
 20
66.0
 30
0.0
 11
522.66314662646982
 21
66.0
 31
0.0
  0
LINE
  5
6A6
  8
0
 62
     0
 10
602.66459746572139
 20
67.5
 30
0.0
 11
630.67359712039286
 21
67.5
 31
0.0
  0
LINE
  5
6A7
  8
0
 62
     0
 10
656.65661278249058
 20
67.5
 30
0.0
 11
684.66527652298964
 21
67.5
 31
0.0
  0
LINE
  5
6A8
  8
0
 62
     0
 10
548.67218615683839
 20
67.5
 30
0.0
 11
576.66459746572139
 21
67.5
 31
0.0
  0
LINE
  5
6A9
  8
0
 62
     0
 10
710.6505829355699
 20
67.5
 30
0.0
 11
721.10209746572104
 21
67.5
 31
0.0
  0
LINE
  5
6AA
  8
0
 62
     0
 10
512.22709746572104
 20
67.5
 30
0.0
 11
522.66314662646982
 21
67.5
 31
0.0
  0
LINE
  5
6AB
  8
0
 62
     0
 10
602.66459746572139
 20
69.0
 30
0.0
 11
630.67359712039286
 21
69.0
 31
0.0
  0
LINE
  5
6AC
  8
0
 62
     0
 10
656.65661278249058
 20
69.0
 30
0.0
 11
684.66527652298964
 21
69.0
 31
0.0
  0
LINE
  5
6AD
  8
0
 62
     0
 10
548.67218615683839
 20
69.0
 30
0.0
 11
576.66459746572139
 21
69.0
 31
0.0
  0
LINE
  5
6AE
  8
0
 62
     0
 10
710.6505829355699
 20
69.0
 30
0.0
 11
721.10209746572104
 21
69.0
 31
0.0
  0
LINE
  5
6AF
  8
0
 62
     0
 10
512.22709746572104
 20
69.0
 30
0.0
 11
522.66314662646982
 21
69.0
 31
0.0
  0
LINE
  5
6B0
  8
0
 62
     0
 10
602.66459746572139
 20
70.5
 30
0.0
 11
630.67359712039286
 21
70.5
 31
0.0
  0
LINE
  5
6B1
  8
0
 62
     0
 10
656.65661278249058
 20
70.5
 30
0.0
 11
684.66527652298964
 21
70.5
 31
0.0
  0
LINE
  5
6B2
  8
0
 62
     0
 10
548.67218615683839
 20
70.5
 30
0.0
 11
576.66459746572139
 21
70.5
 31
0.0
  0
LINE
  5
6B3
  8
0
 62
     0
 10
710.6505829355699
 20
70.5
 30
0.0
 11
721.10209746572104
 21
70.5
 31
0.0
  0
LINE
  5
6B4
  8
0
 62
     0
 10
512.22709746572104
 20
70.5
 30
0.0
 11
522.66314662646982
 21
70.5
 31
0.0
  0
LINE
  5
6B5
  8
0
 62
     0
 10
602.66459746572139
 20
72.0
 30
0.0
 11
630.67359712039286
 21
72.0
 31
0.0
  0
LINE
  5
6B6
  8
0
 62
     0
 10
656.65661278249058
 20
72.0
 30
0.0
 11
684.66527652298964
 21
72.0
 31
0.0
  0
LINE
  5
6B7
  8
0
 62
     0
 10
548.67218615683839
 20
72.0
 30
0.0
 11
576.66459746572139
 21
72.0
 31
0.0
  0
LINE
  5
6B8
  8
0
 62
     0
 10
710.6505829355699
 20
72.0
 30
0.0
 11
721.10209746572104
 21
72.0
 31
0.0
  0
LINE
  5
6B9
  8
0
 62
     0
 10
512.22709746572104
 20
72.0
 30
0.0
 11
522.66314662646982
 21
72.0
 31
0.0
  0
LINE
  5
6BA
  8
0
 62
     0
 10
602.66459746572139
 20
73.5
 30
0.0
 11
630.67359712039286
 21
73.5
 31
0.0
  0
LINE
  5
6BB
  8
0
 62
     0
 10
656.65661278249058
 20
73.5
 30
0.0
 11
684.66527652298964
 21
73.5
 31
0.0
  0
LINE
  5
6BC
  8
0
 62
     0
 10
548.67218615683839
 20
73.5
 30
0.0
 11
576.66459746572139
 21
73.5
 31
0.0
  0
LINE
  5
6BD
  8
0
 62
     0
 10
710.6505829355699
 20
73.5
 30
0.0
 11
721.10209746572104
 21
73.5
 31
0.0
  0
LINE
  5
6BE
  8
0
 62
     0
 10
512.22709746572104
 20
73.5
 30
0.0
 11
522.66314662646982
 21
73.5
 31
0.0
  0
LINE
  5
6BF
  8
0
 62
     0
 10
602.66459746572139
 20
75.0
 30
0.0
 11
630.67359712039286
 21
75.0
 31
0.0
  0
LINE
  5
6C0
  8
0
 62
     0
 10
656.65661278249058
 20
75.0
 30
0.0
 11
684.66527652298964
 21
75.0
 31
0.0
  0
LINE
  5
6C1
  8
0
 62
     0
 10
548.67218615683839
 20
75.0
 30
0.0
 11
576.66459746572139
 21
75.0
 31
0.0
  0
LINE
  5
6C2
  8
0
 62
     0
 10
710.6505829355699
 20
75.0
 30
0.0
 11
721.10209746572104
 21
75.0
 31
0.0
  0
LINE
  5
6C3
  8
0
 62
     0
 10
512.22709746572104
 20
75.0
 30
0.0
 11
522.66314662646982
 21
75.0
 31
0.0
  0
LINE
  5
6C4
  8
0
 62
     0
 10
602.66459746572139
 20
76.5
 30
0.0
 11
630.67359712039286
 21
76.5
 31
0.0
  0
LINE
  5
6C5
  8
0
 62
     0
 10
656.65661278249058
 20
76.5
 30
0.0
 11
684.66527652298964
 21
76.5
 31
0.0
  0
LINE
  5
6C6
  8
0
 62
     0
 10
548.67218615683839
 20
76.5
 30
0.0
 11
576.66459746572139
 21
76.5
 31
0.0
  0
LINE
  5
6C7
  8
0
 62
     0
 10
710.6505829355699
 20
76.5
 30
0.0
 11
721.10209746572104
 21
76.5
 31
0.0
  0
LINE
  5
6C8
  8
0
 62
     0
 10
512.22709746572104
 20
76.5
 30
0.0
 11
522.66314662646982
 21
76.5
 31
0.0
  0
LINE
  5
6C9
  8
0
 62
     0
 10
602.66459746572139
 20
78.0
 30
0.0
 11
630.67359712039286
 21
78.0
 31
0.0
  0
LINE
  5
6CA
  8
0
 62
     0
 10
656.65661278249058
 20
78.0
 30
0.0
 11
684.66527652298964
 21
78.0
 31
0.0
  0
LINE
  5
6CB
  8
0
 62
     0
 10
548.67218615683839
 20
78.0
 30
0.0
 11
576.66459746572139
 21
78.0
 31
0.0
  0
LINE
  5
6CC
  8
0
 62
     0
 10
710.6505829355699
 20
78.0
 30
0.0
 11
721.10209746572104
 21
78.0
 31
0.0
  0
LINE
  5
6CD
  8
0
 62
     0
 10
512.22709746572104
 20
78.0
 30
0.0
 11
522.66314662646982
 21
78.0
 31
0.0
  0
LINE
  5
6CE
  8
0
 62
     0
 10
602.66459746572139
 20
79.5
 30
0.0
 11
630.67359712039286
 21
79.5
 31
0.0
  0
LINE
  5
6CF
  8
0
 62
     0
 10
656.65661278249058
 20
79.5
 30
0.0
 11
684.66527652298964
 21
79.5
 31
0.0
  0
LINE
  5
6D0
  8
0
 62
     0
 10
548.67218615683839
 20
79.5
 30
0.0
 11
576.66459746572139
 21
79.5
 31
0.0
  0
LINE
  5
6D1
  8
0
 62
     0
 10
710.6505829355699
 20
79.5
 30
0.0
 11
721.10209746572104
 21
79.5
 31
0.0
  0
LINE
  5
6D2
  8
0
 62
     0
 10
512.22709746572104
 20
79.5
 30
0.0
 11
522.66314662646982
 21
79.5
 31
0.0
  0
LINE
  5
6D3
  8
0
 62
     0
 10
602.66459746572139
 20
81.0
 30
0.0
 11
630.67359712039286
 21
81.0
 31
0.0
  0
LINE
  5
6D4
  8
0
 62
     0
 10
656.65661278249058
 20
81.0
 30
0.0
 11
684.66527652298964
 21
81.0
 31
0.0
  0
LINE
  5
6D5
  8
0
 62
     0
 10
548.67218615683839
 20
81.0
 30
0.0
 11
576.66459746572139
 21
81.0
 31
0.0
  0
LINE
  5
6D6
  8
0
 62
     0
 10
710.6505829355699
 20
81.0
 30
0.0
 11
721.10209746572093
 21
81.0
 31
0.0
  0
LINE
  5
6D7
  8
0
 62
     0
 10
512.22709746572104
 20
81.0
 30
0.0
 11
522.66314662646982
 21
81.0
 31
0.0
  0
LINE
  5
6D8
  8
0
 62
     0
 10
602.66459746572139
 20
82.5
 30
0.0
 11
630.67359712039286
 21
82.5
 31
0.0
  0
LINE
  5
6D9
  8
0
 62
     0
 10
656.65661278249058
 20
82.5
 30
0.0
 11
684.66527652298964
 21
82.5
 31
0.0
  0
LINE
  5
6DA
  8
0
 62
     0
 10
548.67218615683839
 20
82.5
 30
0.0
 11
576.66459746572139
 21
82.5
 31
0.0
  0
LINE
  5
6DB
  8
0
 62
     0
 10
710.6505829355699
 20
82.5
 30
0.0
 11
721.10209746572093
 21
82.5
 31
0.0
  0
LINE
  5
6DC
  8
0
 62
     0
 10
512.22709746572104
 20
82.5
 30
0.0
 11
522.66314662646982
 21
82.5
 31
0.0
  0
LINE
  5
6DD
  8
0
 62
     0
 10
602.66459746572139
 20
84.0
 30
0.0
 11
630.67359712039286
 21
84.0
 31
0.0
  0
LINE
  5
6DE
  8
0
 62
     0
 10
656.65661278249058
 20
84.0
 30
0.0
 11
684.66527652298964
 21
84.0
 31
0.0
  0
LINE
  5
6DF
  8
0
 62
     0
 10
548.67218615683839
 20
84.0
 30
0.0
 11
576.66459746572139
 21
84.0
 31
0.0
  0
LINE
  5
6E0
  8
0
 62
     0
 10
710.6505829355699
 20
84.0
 30
0.0
 11
721.10209746572093
 21
84.0
 31
0.0
  0
LINE
  5
6E1
  8
0
 62
     0
 10
512.22709746572093
 20
84.0
 30
0.0
 11
522.66314662646982
 21
84.0
 31
0.0
  0
LINE
  5
6E2
  8
0
 62
     0
 10
602.66459746572139
 20
85.5
 30
0.0
 11
630.67359712039286
 21
85.5
 31
0.0
  0
LINE
  5
6E3
  8
0
 62
     0
 10
656.65661278249058
 20
85.5
 30
0.0
 11
684.66527652298964
 21
85.5
 31
0.0
  0
LINE
  5
6E4
  8
0
 62
     0
 10
548.67218615683839
 20
85.5
 30
0.0
 11
576.66459746572139
 21
85.5
 31
0.0
  0
LINE
  5
6E5
  8
0
 62
     0
 10
710.6505829355699
 20
85.5
 30
0.0
 11
721.10209746572093
 21
85.5
 31
0.0
  0
LINE
  5
6E6
  8
0
 62
     0
 10
512.22709746572093
 20
85.5
 30
0.0
 11
522.66314662646982
 21
85.5
 31
0.0
  0
LINE
  5
6E7
  8
0
 62
     0
 10
602.66459746572139
 20
87.0
 30
0.0
 11
630.67359712039286
 21
87.0
 31
0.0
  0
LINE
  5
6E8
  8
0
 62
     0
 10
656.65661278249058
 20
87.0
 30
0.0
 11
684.66527652298964
 21
87.0
 31
0.0
  0
LINE
  5
6E9
  8
0
 62
     0
 10
548.67218615683839
 20
87.0
 30
0.0
 11
576.66459746572139
 21
87.0
 31
0.0
  0
LINE
  5
6EA
  8
0
 62
     0
 10
710.6505829355699
 20
87.0
 30
0.0
 11
721.10209746572093
 21
87.0
 31
0.0
  0
LINE
  5
6EB
  8
0
 62
     0
 10
512.22709746572093
 20
87.0
 30
0.0
 11
522.66314662646982
 21
87.0
 31
0.0
  0
LINE
  5
6EC
  8
0
 62
     0
 10
602.66459746572139
 20
88.499999999999986
 30
0.0
 11
630.67359712039286
 21
88.499999999999986
 31
0.0
  0
LINE
  5
6ED
  8
0
 62
     0
 10
656.65661278249058
 20
88.499999999999986
 30
0.0
 11
684.66527652298964
 21
88.499999999999986
 31
0.0
  0
LINE
  5
6EE
  8
0
 62
     0
 10
548.67218615683839
 20
88.499999999999986
 30
0.0
 11
576.66459746572139
 21
88.499999999999986
 31
0.0
  0
LINE
  5
6EF
  8
0
 62
     0
 10
710.6505829355699
 20
88.499999999999986
 30
0.0
 11
721.10209746572093
 21
88.499999999999986
 31
0.0
  0
LINE
  5
6F0
  8
0
 62
     0
 10
512.22709746572093
 20
88.499999999999986
 30
0.0
 11
522.66314662646982
 21
88.499999999999986
 31
0.0
  0
LINE
  5
6F1
  8
0
 62
     0
 10
602.66459746572139
 20
90.0
 30
0.0
 11
630.67359712039286
 21
90.0
 31
0.0
  0
LINE
  5
6F2
  8
0
 62
     0
 10
656.65661278249058
 20
90.0
 30
0.0
 11
684.66527652298964
 21
90.0
 31
0.0
  0
LINE
  5
6F3
  8
0
 62
     0
 10
548.67218615683839
 20
90.0
 30
0.0
 11
576.66459746572139
 21
90.0
 31
0.0
  0
LINE
  5
6F4
  8
0
 62
     0
 10
710.6505829355699
 20
90.0
 30
0.0
 11
721.10209746572093
 21
90.0
 31
0.0
  0
LINE
  5
6F5
  8
0
 62
     0
 10
512.22709746572093
 20
90.0
 30
0.0
 11
522.66314662646982
 21
90.0
 31
0.0
  0
LINE
  5
6F6
  8
0
 62
     0
 10
602.66459746572139
 20
91.5
 30
0.0
 11
630.67359712039286
 21
91.5
 31
0.0
  0
LINE
  5
6F7
  8
0
 62
     0
 10
656.65661278249058
 20
91.5
 30
0.0
 11
684.66527652298964
 21
91.5
 31
0.0
  0
LINE
  5
6F8
  8
0
 62
     0
 10
548.67218615683839
 20
91.5
 30
0.0
 11
576.66459746572139
 21
91.5
 31
0.0
  0
LINE
  5
6F9
  8
0
 62
     0
 10
710.6505829355699
 20
91.5
 30
0.0
 11
721.10209746572093
 21
91.5
 31
0.0
  0
LINE
  5
6FA
  8
0
 62
     0
 10
512.22709746572093
 20
91.5
 30
0.0
 11
522.66314662646982
 21
91.5
 31
0.0
  0
LINE
  5
6FB
  8
0
 62
     0
 10
602.66459746572139
 20
93.0
 30
0.0
 11
630.67359712039286
 21
93.0
 31
0.0
  0
LINE
  5
6FC
  8
0
 62
     0
 10
656.65661278249058
 20
93.0
 30
0.0
 11
684.66527652298964
 21
93.0
 31
0.0
  0
LINE
  5
6FD
  8
0
 62
     0
 10
548.67218615683839
 20
93.0
 30
0.0
 11
576.66459746572139
 21
93.0
 31
0.0
  0
LINE
  5
6FE
  8
0
 62
     0
 10
710.6505829355699
 20
93.0
 30
0.0
 11
721.10209746572082
 21
93.0
 31
0.0
  0
LINE
  5
6FF
  8
0
 62
     0
 10
512.22709746572093
 20
93.0
 30
0.0
 11
522.66314662646982
 21
93.0
 31
0.0
  0
LINE
  5
700
  8
0
 62
     0
 10
602.66459746572139
 20
94.500000000000014
 30
0.0
 11
630.67359712039286
 21
94.500000000000014
 31
0.0
  0
LINE
  5
701
  8
0
 62
     0
 10
656.65661278249058
 20
94.500000000000014
 30
0.0
 11
684.66527652298964
 21
94.500000000000014
 31
0.0
  0
LINE
  5
702
  8
0
 62
     0
 10
548.67218615683839
 20
94.500000000000014
 30
0.0
 11
576.66459746572139
 21
94.500000000000014
 31
0.0
  0
LINE
  5
703
  8
0
 62
     0
 10
710.6505829355699
 20
94.500000000000014
 30
0.0
 11
721.10209746572082
 21
94.500000000000014
 31
0.0
  0
LINE
  5
704
  8
0
 62
     0
 10
512.22709746572082
 20
94.500000000000014
 30
0.0
 11
522.66314662646982
 21
94.500000000000014
 31
0.0
  0
LINE
  5
705
  8
0
 62
     0
 10
602.66459746572139
 20
96.0
 30
0.0
 11
630.67359712039286
 21
96.0
 31
0.0
  0
LINE
  5
706
  8
0
 62
     0
 10
656.65661278249058
 20
96.0
 30
0.0
 11
684.66527652298964
 21
96.0
 31
0.0
  0
LINE
  5
707
  8
0
 62
     0
 10
548.67218615683839
 20
96.0
 30
0.0
 11
576.66459746572139
 21
96.0
 31
0.0
  0
LINE
  5
708
  8
0
 62
     0
 10
710.6505829355699
 20
96.0
 30
0.0
 11
721.10209746572082
 21
96.0
 31
0.0
  0
LINE
  5
709
  8
0
 62
     0
 10
512.22709746572082
 20
96.0
 30
0.0
 11
522.66314662646982
 21
96.0
 31
0.0
  0
LINE
  5
70A
  8
0
 62
     0
 10
602.66459746572139
 20
97.5
 30
0.0
 11
630.67359712039286
 21
97.5
 31
0.0
  0
LINE
  5
70B
  8
0
 62
     0
 10
656.65661278249058
 20
97.5
 30
0.0
 11
684.66527652298964
 21
97.5
 31
0.0
  0
LINE
  5
70C
  8
0
 62
     0
 10
548.67218615683839
 20
97.5
 30
0.0
 11
576.66459746572139
 21
97.5
 31
0.0
  0
LINE
  5
70D
  8
0
 62
     0
 10
710.6505829355699
 20
97.5
 30
0.0
 11
721.10209746572082
 21
97.5
 31
0.0
  0
LINE
  5
70E
  8
0
 62
     0
 10
512.22709746572082
 20
97.5
 30
0.0
 11
522.66314662646982
 21
97.5
 31
0.0
  0
ENDBLK
  5
710
  8
0
  0
BLOCK
  8
0
  2
*X4
 70
     1
 10
0.0
 20
0.0
 30
0.0
  3
*X4
  1

  0
LINE
  5
712
  8
0
 62
     0
 10
422.63223065534561
 20
430.49999999999989
 30
0.0
 11
285.13223065534572
 21
430.49999999999989
 31
0.0
  0
LINE
  5
713
  8
0
 62
     0
 10
422.63223065534561
 20
428.99999999999989
 30
0.0
 11
285.13223065534572
 21
428.99999999999989
 31
0.0
  0
LINE
  5
714
  8
0
 62
     0
 10
422.63223065534561
 20
427.49999999999989
 30
0.0
 11
285.13223065534572
 21
427.49999999999989
 31
0.0
  0
LINE
  5
715
  8
0
 62
     0
 10
422.63223065534561
 20
425.99999999999989
 30
0.0
 11
285.13223065534572
 21
425.99999999999989
 31
0.0
  0
LINE
  5
716
  8
0
 62
     0
 10
422.63223065534561
 20
424.49999999999989
 30
0.0
 11
285.13223065534572
 21
424.49999999999989
 31
0.0
  0
LINE
  5
717
  8
0
 62
     0
 10
422.63223065534561
 20
422.99999999999989
 30
0.0
 11
285.13223065534572
 21
422.99999999999989
 31
0.0
  0
LINE
  5
718
  8
0
 62
     0
 10
422.63223065534561
 20
421.49999999999989
 30
0.0
 11
285.13223065534572
 21
421.49999999999989
 31
0.0
  0
LINE
  5
719
  8
0
 62
     0
 10
422.63223065534561
 20
419.99999999999989
 30
0.0
 11
285.13223065534572
 21
419.99999999999989
 31
0.0
  0
LINE
  5
71A
  8
0
 62
     0
 10
422.63223065534561
 20
418.49999999999989
 30
0.0
 11
285.13223065534572
 21
418.49999999999989
 31
0.0
  0
LINE
  5
71B
  8
0
 62
     0
 10
422.63223065534561
 20
416.99999999999989
 30
0.0
 11
285.13223065534572
 21
416.99999999999989
 31
0.0
  0
LINE
  5
71C
  8
0
 62
     0
 10
422.63223065534561
 20
415.49999999999989
 30
0.0
 11
285.13223065534561
 21
415.49999999999989
 31
0.0
  0
LINE
  5
71D
  8
0
 62
     0
 10
422.63223065534561
 20
413.99999999999989
 30
0.0
 11
285.13223065534561
 21
413.99999999999989
 31
0.0
  0
LINE
  5
71E
  8
0
 62
     0
 10
422.63223065534561
 20
412.49999999999989
 30
0.0
 11
285.13223065534561
 21
412.49999999999989
 31
0.0
  0
LINE
  5
71F
  8
0
 62
     0
 10
422.63223065534561
 20
410.99999999999989
 30
0.0
 11
285.13223065534561
 21
410.99999999999989
 31
0.0
  0
LINE
  5
720
  8
0
 62
     0
 10
422.63223065534561
 20
409.49999999999989
 30
0.0
 11
285.13223065534561
 21
409.49999999999989
 31
0.0
  0
LINE
  5
721
  8
0
 62
     0
 10
422.63223065534561
 20
407.99999999999989
 30
0.0
 11
285.13223065534561
 21
407.99999999999989
 31
0.0
  0
LINE
  5
722
  8
0
 62
     0
 10
422.63223065534561
 20
406.49999999999989
 30
0.0
 11
285.13223065534561
 21
406.49999999999989
 31
0.0
  0
LINE
  5
723
  8
0
 62
     0
 10
422.63223065534561
 20
404.99999999999989
 30
0.0
 11
285.13223065534561
 21
404.99999999999989
 31
0.0
  0
LINE
  5
724
  8
0
 62
     0
 10
422.63223065534561
 20
403.49999999999989
 30
0.0
 11
285.13223065534561
 21
403.49999999999989
 31
0.0
  0
LINE
  5
725
  8
0
 62
     0
 10
422.63223065534561
 20
401.99999999999989
 30
0.0
 11
285.13223065534561
 21
401.99999999999989
 31
0.0
  0
LINE
  5
726
  8
0
 62
     0
 10
422.63223065534561
 20
400.49999999999989
 30
0.0
 11
285.13223065534561
 21
400.49999999999989
 31
0.0
  0
LINE
  5
727
  8
0
 62
     0
 10
422.63223065534561
 20
398.99999999999989
 30
0.0
 11
285.13223065534561
 21
398.99999999999989
 31
0.0
  0
LINE
  5
728
  8
0
 62
     0
 10
422.63223065534561
 20
397.5
 30
0.0
 11
285.13223065534561
 21
397.5
 31
0.0
  0
LINE
  5
729
  8
0
 62
     0
 10
422.63223065534561
 20
395.99999999999989
 30
0.0
 11
285.13223065534561
 21
395.99999999999989
 31
0.0
  0
LINE
  5
72A
  8
0
 62
     0
 10
422.63223065534561
 20
394.49999999999989
 30
0.0
 11
285.13223065534561
 21
394.49999999999989
 31
0.0
  0
LINE
  5
72B
  8
0
 62
     0
 10
422.63223065534561
 20
393.0
 30
0.0
 11
285.13223065534561
 21
393.0
 31
0.0
  0
LINE
  5
72C
  8
0
 62
     0
 10
422.6322306553455
 20
391.5
 30
0.0
 11
285.13223065534561
 21
391.5
 31
0.0
  0
LINE
  5
72D
  8
0
 62
     0
 10
422.6322306553455
 20
390.0
 30
0.0
 11
285.13223065534561
 21
390.0
 31
0.0
  0
LINE
  5
72E
  8
0
 62
     0
 10
422.6322306553455
 20
388.49999999999989
 30
0.0
 11
285.13223065534561
 21
388.49999999999989
 31
0.0
  0
LINE
  5
72F
  8
0
 62
     0
 10
422.6322306553455
 20
387.0
 30
0.0
 11
285.13223065534561
 21
387.0
 31
0.0
  0
LINE
  5
730
  8
0
 62
     0
 10
422.6322306553455
 20
385.5
 30
0.0
 11
285.13223065534561
 21
385.5
 31
0.0
  0
LINE
  5
731
  8
0
 62
     0
 10
422.6322306553455
 20
383.99999999999989
 30
0.0
 11
285.13223065534561
 21
383.99999999999989
 31
0.0
  0
LINE
  5
732
  8
0
 62
     0
 10
422.6322306553455
 20
382.49999999999989
 30
0.0
 11
285.13223065534561
 21
382.49999999999989
 31
0.0
  0
LINE
  5
733
  8
0
 62
     0
 10
422.6322306553455
 20
381.0
 30
0.0
 11
285.13223065534561
 21
381.0
 31
0.0
  0
LINE
  5
734
  8
0
 62
     0
 10
422.6322306553455
 20
379.49999999999989
 30
0.0
 11
285.13223065534561
 21
379.49999999999989
 31
0.0
  0
LINE
  5
735
  8
0
 62
     0
 10
422.6322306553455
 20
377.99999999999989
 30
0.0
 11
285.13223065534561
 21
377.99999999999989
 31
0.0
  0
LINE
  5
736
  8
0
 62
     0
 10
422.6322306553455
 20
376.5
 30
0.0
 11
285.13223065534561
 21
376.5
 31
0.0
  0
LINE
  5
737
  8
0
 62
     0
 10
422.6322306553455
 20
375.0
 30
0.0
 11
285.13223065534561
 21
375.0
 31
0.0
  0
LINE
  5
738
  8
0
 62
     0
 10
422.6322306553455
 20
373.49999999999989
 30
0.0
 11
285.13223065534561
 21
373.49999999999989
 31
0.0
  0
LINE
  5
739
  8
0
 62
     0
 10
422.6322306553455
 20
371.99999999999989
 30
0.0
 11
285.13223065534561
 21
371.99999999999989
 31
0.0
  0
LINE
  5
73A
  8
0
 62
     0
 10
422.6322306553455
 20
370.5
 30
0.0
 11
285.13223065534561
 21
370.5
 31
0.0
  0
LINE
  5
73B
  8
0
 62
     0
 10
422.6322306553455
 20
368.99999999999989
 30
0.0
 11
285.13223065534561
 21
368.99999999999989
 31
0.0
  0
LINE
  5
73C
  8
0
 62
     0
 10
422.6322306553455
 20
367.49999999999989
 30
0.0
 11
285.13223065534561
 21
367.49999999999989
 31
0.0
  0
LINE
  5
73D
  8
0
 62
     0
 10
422.6322306553455
 20
366.0
 30
0.0
 11
285.13223065534561
 21
366.0
 31
0.0
  0
LINE
  5
73E
  8
0
 62
     0
 10
422.6322306553455
 20
364.5
 30
0.0
 11
285.13223065534561
 21
364.5
 31
0.0
  0
LINE
  5
73F
  8
0
 62
     0
 10
422.6322306553455
 20
362.99999999999989
 30
0.0
 11
285.13223065534561
 21
362.99999999999989
 31
0.0
  0
LINE
  5
740
  8
0
 62
     0
 10
422.6322306553455
 20
361.49999999999989
 30
0.0
 11
285.13223065534561
 21
361.49999999999989
 31
0.0
  0
LINE
  5
741
  8
0
 62
     0
 10
422.6322306553455
 20
360.0
 30
0.0
 11
285.13223065534561
 21
360.0
 31
0.0
  0
LINE
  5
742
  8
0
 62
     0
 10
422.6322306553455
 20
358.49999999999989
 30
0.0
 11
285.13223065534561
 21
358.49999999999989
 31
0.0
  0
LINE
  5
743
  8
0
 62
     0
 10
422.6322306553455
 20
356.99999999999989
 30
0.0
 11
285.13223065534561
 21
356.99999999999989
 31
0.0
  0
LINE
  5
744
  8
0
 62
     0
 10
422.6322306553455
 20
355.5
 30
0.0
 11
285.13223065534561
 21
355.5
 31
0.0
  0
LINE
  5
745
  8
0
 62
     0
 10
422.6322306553455
 20
354.0
 30
0.0
 11
285.13223065534561
 21
354.0
 31
0.0
  0
LINE
  5
746
  8
0
 62
     0
 10
422.6322306553455
 20
352.49999999999989
 30
0.0
 11
285.13223065534561
 21
352.49999999999989
 31
0.0
  0
LINE
  5
747
  8
0
 62
     0
 10
422.6322306553455
 20
350.99999999999989
 30
0.0
 11
285.13223065534561
 21
350.99999999999989
 31
0.0
  0
LINE
  5
748
  8
0
 62
     0
 10
422.6322306553455
 20
349.5
 30
0.0
 11
285.13223065534561
 21
349.5
 31
0.0
  0
LINE
  5
749
  8
0
 62
     0
 10
422.6322306553455
 20
347.99999999999989
 30
0.0
 11
285.13223065534561
 21
347.99999999999989
 31
0.0
  0
LINE
  5
74A
  8
0
 62
     0
 10
422.6322306553455
 20
346.49999999999989
 30
0.0
 11
285.13223065534561
 21
346.49999999999989
 31
0.0
  0
LINE
  5
74B
  8
0
 62
     0
 10
422.6322306553455
 20
344.99999999999989
 30
0.0
 11
285.13223065534561
 21
344.99999999999989
 31
0.0
  0
LINE
  5
74C
  8
0
 62
     0
 10
422.6322306553455
 20
343.5
 30
0.0
 11
285.13223065534561
 21
343.5
 31
0.0
  0
LINE
  5
74D
  8
0
 62
     0
 10
422.6322306553455
 20
341.99999999999989
 30
0.0
 11
285.13223065534561
 21
341.99999999999989
 31
0.0
  0
LINE
  5
74E
  8
0
 62
     0
 10
422.6322306553455
 20
340.49999999999989
 30
0.0
 11
285.13223065534561
 21
340.49999999999989
 31
0.0
  0
LINE
  5
74F
  8
0
 62
     0
 10
422.63223065534538
 20
339.0
 30
0.0
 11
285.13223065534561
 21
339.0
 31
0.0
  0
LINE
  5
750
  8
0
 62
     0
 10
422.63223065534538
 20
337.5
 30
0.0
 11
285.13223065534561
 21
337.5
 31
0.0
  0
LINE
  5
751
  8
0
 62
     0
 10
422.63223065534538
 20
335.99999999999989
 30
0.0
 11
285.13223065534561
 21
335.99999999999989
 31
0.0
  0
LINE
  5
752
  8
0
 62
     0
 10
422.63223065534538
 20
334.49999999999989
 30
0.0
 11
285.13223065534561
 21
334.49999999999989
 31
0.0
  0
LINE
  5
753
  8
0
 62
     0
 10
422.63223065534538
 20
333.0
 30
0.0
 11
285.13223065534561
 21
333.0
 31
0.0
  0
LINE
  5
754
  8
0
 62
     0
 10
422.63223065534538
 20
331.49999999999989
 30
0.0
 11
285.13223065534561
 21
331.49999999999989
 31
0.0
  0
LINE
  5
755
  8
0
 62
     0
 10
422.63223065534538
 20
329.99999999999989
 30
0.0
 11
285.13223065534561
 21
329.99999999999989
 31
0.0
  0
LINE
  5
756
  8
0
 62
     0
 10
422.63223065534538
 20
328.5
 30
0.0
 11
285.13223065534561
 21
328.5
 31
0.0
  0
LINE
  5
757
  8
0
 62
     0
 10
422.63223065534538
 20
327.0
 30
0.0
 11
285.13223065534561
 21
327.0
 31
0.0
  0
LINE
  5
758
  8
0
 62
     0
 10
422.63223065534538
 20
325.49999999999989
 30
0.0
 11
285.1322306553455
 21
325.49999999999989
 31
0.0
  0
LINE
  5
759
  8
0
 62
     0
 10
422.63223065534538
 20
323.99999999999989
 30
0.0
 11
285.1322306553455
 21
323.99999999999989
 31
0.0
  0
LINE
  5
75A
  8
0
 62
     0
 10
422.63223065534538
 20
322.5
 30
0.0
 11
285.1322306553455
 21
322.5
 31
0.0
  0
LINE
  5
75B
  8
0
 62
     0
 10
422.63223065534538
 20
320.99999999999989
 30
0.0
 11
285.1322306553455
 21
320.99999999999989
 31
0.0
  0
LINE
  5
75C
  8
0
 62
     0
 10
422.63223065534538
 20
319.49999999999989
 30
0.0
 11
285.1322306553455
 21
319.49999999999989
 31
0.0
  0
LINE
  5
75D
  8
0
 62
     0
 10
422.63223065534538
 20
318.0
 30
0.0
 11
285.1322306553455
 21
318.0
 31
0.0
  0
LINE
  5
75E
  8
0
 62
     0
 10
422.63223065534538
 20
316.5
 30
0.0
 11
285.1322306553455
 21
316.5
 31
0.0
  0
LINE
  5
75F
  8
0
 62
     0
 10
422.63223065534538
 20
314.99999999999989
 30
0.0
 11
285.1322306553455
 21
314.99999999999989
 31
0.0
  0
LINE
  5
760
  8
0
 62
     0
 10
422.63223065534538
 20
313.49999999999989
 30
0.0
 11
285.1322306553455
 21
313.49999999999989
 31
0.0
  0
LINE
  5
761
  8
0
 62
     0
 10
422.63223065534538
 20
312.0
 30
0.0
 11
285.1322306553455
 21
312.0
 31
0.0
  0
LINE
  5
762
  8
0
 62
     0
 10
422.63223065534538
 20
310.49999999999989
 30
0.0
 11
285.1322306553455
 21
310.49999999999989
 31
0.0
  0
LINE
  5
763
  8
0
 62
     0
 10
422.63223065534538
 20
308.99999999999989
 30
0.0
 11
285.1322306553455
 21
308.99999999999989
 31
0.0
  0
LINE
  5
764
  8
0
 62
     0
 10
422.63223065534538
 20
307.49999999999989
 30
0.0
 11
285.1322306553455
 21
307.49999999999989
 31
0.0
  0
LINE
  5
765
  8
0
 62
     0
 10
422.63223065534538
 20
306.0
 30
0.0
 11
285.1322306553455
 21
306.0
 31
0.0
  0
LINE
  5
766
  8
0
 62
     0
 10
422.63223065534538
 20
304.49999999999989
 30
0.0
 11
285.1322306553455
 21
304.49999999999989
 31
0.0
  0
LINE
  5
767
  8
0
 62
     0
 10
422.63223065534538
 20
302.99999999999989
 30
0.0
 11
285.1322306553455
 21
302.99999999999989
 31
0.0
  0
LINE
  5
768
  8
0
 62
     0
 10
422.63223065534538
 20
301.5
 30
0.0
 11
285.1322306553455
 21
301.5
 31
0.0
  0
LINE
  5
769
  8
0
 62
     0
 10
422.63223065534538
 20
300.0
 30
0.0
 11
285.1322306553455
 21
300.0
 31
0.0
  0
LINE
  5
76A
  8
0
 62
     0
 10
422.63223065534538
 20
298.49999999999989
 30
0.0
 11
285.1322306553455
 21
298.49999999999989
 31
0.0
  0
LINE
  5
76B
  8
0
 62
     0
 10
422.63223065534538
 20
296.99999999999989
 30
0.0
 11
285.13223065534538
 21
296.99999999999989
 31
0.0
  0
LINE
  5
76C
  8
0
 62
     0
 10
422.63223065534538
 20
295.5
 30
0.0
 11
285.13223065534538
 21
295.5
 31
0.0
  0
LINE
  5
76D
  8
0
 62
     0
 10
422.63223065534538
 20
293.99999999999989
 30
0.0
 11
285.13223065534538
 21
293.99999999999989
 31
0.0
  0
LINE
  5
76E
  8
0
 62
     0
 10
422.63223065534538
 20
292.49999999999989
 30
0.0
 11
285.13223065534538
 21
292.49999999999989
 31
0.0
  0
LINE
  5
76F
  8
0
 62
     0
 10
422.63223065534538
 20
291.0
 30
0.0
 11
285.13223065534538
 21
291.0
 31
0.0
  0
LINE
  5
770
  8
0
 62
     0
 10
422.63223065534538
 20
289.49999999999989
 30
0.0
 11
285.13223065534538
 21
289.49999999999989
 31
0.0
  0
LINE
  5
771
  8
0
 62
     0
 10
422.63223065534538
 20
287.99999999999989
 30
0.0
 11
285.13223065534538
 21
287.99999999999989
 31
0.0
  0
LINE
  5
772
  8
0
 62
     0
 10
422.63223065534532
 20
286.49999999999989
 30
0.0
 11
285.13223065534538
 21
286.49999999999989
 31
0.0
  0
LINE
  5
773
  8
0
 62
     0
 10
422.63223065534532
 20
285.0
 30
0.0
 11
285.13223065534538
 21
285.0
 31
0.0
  0
LINE
  5
774
  8
0
 62
     0
 10
422.63223065534532
 20
283.49999999999989
 30
0.0
 11
285.13223065534538
 21
283.49999999999989
 31
0.0
  0
LINE
  5
775
  8
0
 62
     0
 10
422.63223065534532
 20
281.99999999999989
 30
0.0
 11
285.13223065534538
 21
281.99999999999989
 31
0.0
  0
LINE
  5
776
  8
0
 62
     0
 10
422.63223065534532
 20
280.49999999999989
 30
0.0
 11
285.13223065534538
 21
280.49999999999989
 31
0.0
  0
LINE
  5
777
  8
0
 62
     0
 10
422.63223065534532
 20
279.0
 30
0.0
 11
285.13223065534538
 21
279.0
 31
0.0
  0
LINE
  5
778
  8
0
 62
     0
 10
422.63223065534532
 20
277.49999999999989
 30
0.0
 11
285.13223065534538
 21
277.49999999999989
 31
0.0
  0
LINE
  5
779
  8
0
 62
     0
 10
422.63223065534532
 20
275.99999999999989
 30
0.0
 11
285.13223065534538
 21
275.99999999999989
 31
0.0
  0
LINE
  5
77A
  8
0
 62
     0
 10
422.63223065534532
 20
274.5
 30
0.0
 11
285.13223065534538
 21
274.5
 31
0.0
  0
LINE
  5
77B
  8
0
 62
     0
 10
422.63223065534532
 20
272.99999999999989
 30
0.0
 11
285.13223065534538
 21
272.99999999999989
 31
0.0
  0
LINE
  5
77C
  8
0
 62
     0
 10
422.63223065534532
 20
271.49999999999989
 30
0.0
 11
285.13223065534538
 21
271.49999999999989
 31
0.0
  0
LINE
  5
77D
  8
0
 62
     0
 10
422.63223065534532
 20
269.99999999999989
 30
0.0
 11
285.13223065534538
 21
269.99999999999989
 31
0.0
  0
LINE
  5
77E
  8
0
 62
     0
 10
422.63223065534532
 20
268.5
 30
0.0
 11
285.13223065534538
 21
268.5
 31
0.0
  0
LINE
  5
77F
  8
0
 62
     0
 10
422.63223065534532
 20
266.99999999999989
 30
0.0
 11
285.13223065534538
 21
266.99999999999989
 31
0.0
  0
LINE
  5
780
  8
0
 62
     0
 10
422.63223065534532
 20
265.49999999999989
 30
0.0
 11
285.13223065534538
 21
265.49999999999989
 31
0.0
  0
LINE
  5
781
  8
0
 62
     0
 10
422.63223065534532
 20
264.0
 30
0.0
 11
285.13223065534538
 21
264.0
 31
0.0
  0
LINE
  5
782
  8
0
 62
     0
 10
422.63223065534532
 20
262.5
 30
0.0
 11
285.13223065534538
 21
262.5
 31
0.0
  0
LINE
  5
783
  8
0
 62
     0
 10
422.63223065534521
 20
260.99999999999989
 30
0.0
 11
285.13223065534538
 21
260.99999999999989
 31
0.0
  0
LINE
  5
784
  8
0
 62
     0
 10
422.63223065534521
 20
259.49999999999989
 30
0.0
 11
285.13223065534538
 21
259.49999999999989
 31
0.0
  0
LINE
  5
785
  8
0
 62
     0
 10
422.63223065534521
 20
258.0
 30
0.0
 11
285.13223065534538
 21
258.0
 31
0.0
  0
LINE
  5
786
  8
0
 62
     0
 10
422.63223065534521
 20
256.49999999999989
 30
0.0
 11
285.13223065534538
 21
256.49999999999989
 31
0.0
  0
LINE
  5
787
  8
0
 62
     0
 10
422.63223065534521
 20
254.99999999999989
 30
0.0
 11
285.13223065534538
 21
255.0
 31
0.0
  0
LINE
  5
788
  8
0
 62
     0
 10
422.63223065534521
 20
253.5
 30
0.0
 11
285.13223065534538
 21
253.5
 31
0.0
  0
LINE
  5
789
  8
0
 62
     0
 10
422.63223065534521
 20
252.0
 30
0.0
 11
285.13223065534538
 21
252.0
 31
0.0
  0
LINE
  5
78A
  8
0
 62
     0
 10
422.63223065534521
 20
250.49999999999989
 30
0.0
 11
285.13223065534538
 21
250.5
 31
0.0
  0
LINE
  5
78B
  8
0
 62
     0
 10
422.63223065534521
 20
248.99999999999989
 30
0.0
 11
285.13223065534538
 21
249.0
 31
0.0
  0
LINE
  5
78C
  8
0
 62
     0
 10
422.63223065534521
 20
247.5
 30
0.0
 11
285.13223065534538
 21
247.5
 31
0.0
  0
LINE
  5
78D
  8
0
 62
     0
 10
422.63223065534521
 20
245.99999999999989
 30
0.0
 11
285.13223065534538
 21
246.0
 31
0.0
  0
LINE
  5
78E
  8
0
 62
     0
 10
422.63223065534521
 20
244.49999999999989
 30
0.0
 11
285.13223065534538
 21
244.5
 31
0.0
  0
LINE
  5
78F
  8
0
 62
     0
 10
422.63223065534521
 20
242.99999999999989
 30
0.0
 11
285.13223065534538
 21
243.0
 31
0.0
  0
LINE
  5
790
  8
0
 62
     0
 10
422.63223065534521
 20
241.5
 30
0.0
 11
285.13223065534538
 21
241.5
 31
0.0
  0
LINE
  5
791
  8
0
 62
     0
 10
422.63223065534521
 20
239.99999999999989
 30
0.0
 11
285.13223065534538
 21
240.0
 31
0.0
  0
LINE
  5
792
  8
0
 62
     0
 10
422.63223065534521
 20
238.49999999999989
 30
0.0
 11
285.13223065534538
 21
238.5
 31
0.0
  0
LINE
  5
793
  8
0
 62
     0
 10
422.63223065534521
 20
237.0
 30
0.0
 11
285.13223065534532
 21
237.0
 31
0.0
  0
LINE
  5
794
  8
0
 62
     0
 10
422.63223065534521
 20
235.49999999999989
 30
0.0
 11
285.13223065534532
 21
235.5
 31
0.0
  0
LINE
  5
795
  8
0
 62
     0
 10
422.63223065534521
 20
233.99999999999989
 30
0.0
 11
285.13223065534532
 21
234.0
 31
0.0
  0
LINE
  5
796
  8
0
 62
     0
 10
422.63223065534521
 20
232.49999999999989
 30
0.0
 11
285.13223065534532
 21
232.5
 31
0.0
  0
LINE
  5
797
  8
0
 62
     0
 10
422.63223065534521
 20
231.0
 30
0.0
 11
285.13223065534532
 21
231.0
 31
0.0
  0
LINE
  5
798
  8
0
 62
     0
 10
422.63223065534521
 20
229.49999999999989
 30
0.0
 11
285.13223065534532
 21
229.5
 31
0.0
  0
LINE
  5
799
  8
0
 62
     0
 10
422.63223065534521
 20
227.99999999999989
 30
0.0
 11
285.13223065534532
 21
228.0
 31
0.0
  0
LINE
  5
79A
  8
0
 62
     0
 10
422.63223065534521
 20
226.5
 30
0.0
 11
285.13223065534532
 21
226.5
 31
0.0
  0
LINE
  5
79B
  8
0
 62
     0
 10
422.63223065534521
 20
225.0
 30
0.0
 11
285.13223065534532
 21
225.0
 31
0.0
  0
LINE
  5
79C
  8
0
 62
     0
 10
422.63223065534521
 20
223.49999999999989
 30
0.0
 11
285.13223065534532
 21
223.5
 31
0.0
  0
ENDBLK
  5
79E
  8
0
  0
ENDSEC
  0
SECTION
  2
ENTITIES
  0
LINE
  5
378
  8
0
 10
283.50723065534538
 20
154.62500450375751
 30
0.0
 11
424.2572306553422
 21
154.62500450375751
 31
0.0
  0
LINE
  5
379
  8
0
 10
424.2572306553422
 20
100.00000450375769
 30
0.0
 11
283.50723065534538
 21
100.00000450375769
 31
0.0
  0
LINE
  5
37A
  8
0
 10
283.50723065534538
 20
100.00000450375769
 30
0.0
 11
283.50723065534538
 21
154.62500450375751
 31
0.0
  0
LINE
  5
37B
  8
0
 10
424.2572306553422
 20
100.00000450375769
 30
0.0
 11
424.2572306553422
 21
154.62500450375751
 31
0.0
  0
LINE
  5
37C
  8
0
 10
283.50723065534601
 20
100.00000450375769
 30
0.0
 11
425.50723065534601
 21
100.00000450375769
 31
0.0
  0
LINE
  5
37D
  8
0
 10
425.50723065534601
 20
0.0000045037577365
 30
0.0
 11
283.50723065534601
 21
0.0000045037577365
 31
0.0
  0
LINE
  5
37E
  8
0
 10
283.50723065534601
 20
100.00000450375769
 30
0.0
 11
283.50723065534601
 21
0.0000045037577365
 31
0.0
  0
LINE
  5
37F
  8
0
 10
425.50723065534601
 20
0.0000045037577365
 30
0.0
 11
425.50723065534601
 21
100.00000450375769
 31
0.0
  0
LINE
  5
380
  8
0
 10
424.50723065534618
 20
150.87500450375791
 30
0.0
 11
424.25723065534697
 21
150.87500450375791
 31
0.0
  0
LINE
  5
381
  8
0
 10
424.25723065534697
 20
140.87500450375779
 30
0.0
 11
424.50723065534618
 21
140.87500450375779
 31
0.0
  0
LINE
  5
382
  8
0
 10
424.50723065534601
 20
150.87500450375771
 30
0.0
 11
424.50723065534601
 21
150.70463363520309
 31
0.0
  0
LINE
  5
383
  8
0
 10
424.50723065534601
 20
150.7046302741131
 30
0.0
 11
424.50723065534601
 21
150.20513152267989
 31
0.0
  0
LINE
  5
384
  8
0
 10
424.50723065534601
 20
150.2051289547783
 30
0.0
 11
424.50723065534601
 21
149.4105428522756
 31
0.0
  0
LINE
  5
385
  8
0
 10
424.50723065534601
 20
149.4105384096905
 30
0.0
 11
424.50723065534601
 21
148.37500450375771
 31
0.0
  0
LINE
  5
386
  8
0
 10
424.50723065534601
 20
148.3750009177069
 30
0.0
 11
424.50723065534601
 21
147.16910253388599
 31
0.0
  0
LINE
  5
387
  8
0
 10
424.50723065534601
 20
147.1690997292703
 30
0.0
 11
424.50723065534601
 21
144.58090927824509
 31
0.0
  0
LINE
  5
388
  8
0
 10
424.50723065534601
 20
144.5809064736294
 30
0.0
 11
424.50723065534601
 21
143.3750080898082
 31
0.0
  0
LINE
  5
389
  8
0
 10
424.50723065534601
 20
143.37500450375779
 30
0.0
 11
424.50723065534601
 21
142.339470597825
 31
0.0
  0
LINE
  5
38A
  8
0
 10
424.50723065534601
 20
142.33946615523979
 30
0.0
 11
424.50723065534601
 21
141.5448800527368
 31
0.0
  0
LINE
  5
38B
  8
0
 10
424.50723065534601
 20
141.5448774848355
 30
0.0
 11
424.50723065534601
 21
141.04537873340209
 31
0.0
  0
LINE
  5
38C
  8
0
 10
424.50723065534601
 20
141.04537537231241
 30
0.0
 11
424.50723065534601
 21
140.87500450375771
 31
0.0
  0
ARC
  5
38D
  8
0
 10
348.75723065534538
 20
40.50000450375812
 30
0.0
 40
0.7499999999999965
 50
359.99999999999937
 51
179.99999999999969
  0
ARC
  5
38E
  8
0
 10
348.75723065534538
 20
40.50000450375812
 30
0.0
 40
0.7500000000000036
 50
180.00000000000031
 51
359.99999999999881
  0
ARC
  5
38F
  8
0
 10
288.25723065534538
 20
29.000004503758142
 30
0.0
 40
1.5000000000000011
 50
359.99999999999937
 51
179.9999999999994
  0
ARC
  5
390
  8
0
 10
288.25723065534538
 20
29.000004503758142
 30
0.0
 40
1.5
 50
180.0
 51
359.99999999999949
  0
ARC
  5
391
  8
0
 10
286.88223065534521
 20
6.62500450375813
 30
0.0
 40
0.999999999999996
 50
359.9999999999996
 51
179.9999999999996
  0
ARC
  5
392
  8
0
 10
286.88223065534521
 20
6.62500450375813
 30
0.0
 40
1.0000000000000011
 50
180.00000000000011
 51
359.99999999999937
  0
ARC
  5
393
  8
0
 10
310.6322306553455
 20
13.500004503758159
 30
0.0
 40
5.0000000000000107
 50
359.99999999999932
 51
179.99999999999949
  0
ARC
  5
394
  8
0
 10
310.6322306553455
 20
13.500004503758159
 30
0.0
 40
5.0000000000000009
 50
180.00000000000031
 51
359.99999999999937
  0
CIRCLE
  5
395
  8
0
 10
306.25723065534561
 20
44.250004503757722
 30
0.0
 40
11.18749999999998
  0
LINE
  5
396
  8
0
 10
510.60209746572752
 20
154.62500450375751
 30
0.0
 11
722.72709746572184
 21
154.62500450375751
 31
0.0
  0
LINE
  5
397
  8
0
 10
510.60209746572752
 20
100.00000450375769
 30
0.0
 11
510.60209746572752
 21
154.62500450375751
 31
0.0
  0
LINE
  5
398
  8
0
 10
722.72709746572173
 20
100.00000450375769
 30
0.0
 11
722.72709746572173
 21
154.62500450375751
 31
0.0
  0
LINE
  5
399
  8
0
 10
685.66459746572173
 20
6.0000045037577348
 30
0.0
 11
709.66459746572309
 21
6.0000045037577348
 31
0.0
  0
LINE
  5
39A
  8
0
 10
685.66459746572195
 20
86.080200527385429
 30
0.0
 11
709.66459746572195
 21
86.080200527385401
 31
0.0
  0
LINE
  5
39B
  8
0
 10
523.66459746572173
 20
6.0000045037584178
 30
0.0
 11
547.66459746572173
 21
6.0000045037577348
 31
0.0
  0
LINE
  5
39C
  8
0
 10
523.66459746572184
 20
86.080200527385742
 30
0.0
 11
547.66459746572184
 21
86.080200527385671
 31
0.0
  0
LINE
  5
39D
  8
0
 10
709.66459746572173
 20
4.000004503757653
 30
0.0
 11
709.66459746572195
 21
98.37500450375822
 31
0.0
  0
LINE
  5
39E
  8
0
 10
710.65058293557036
 20
98.37500450375822
 30
0.0
 11
710.65058293557013
 21
4.000004503757645
 31
0.0
  0
LINE
  5
39F
  8
0
 10
709.66459746572173
 20
4.000004503757653
 30
0.0
 11
710.65058293557013
 21
4.0000045037576486
 31
0.0
  0
LINE
  5
3A0
  8
0
 10
710.65058293557036
 20
98.37500450375822
 30
0.0
 11
709.66459746572195
 21
98.37500450375822
 31
0.0
  0
LINE
  5
3A1
  8
0
 10
684.66527652298976
 20
4.000004503757693
 30
0.0
 11
684.66527652298987
 21
98.375004503758248
 31
0.0
  0
LINE
  5
3A2
  8
0
 10
685.66459746572195
 20
98.375004503758248
 30
0.0
 11
685.66459746572173
 21
4.0000045037576886
 31
0.0
  0
LINE
  5
3A3
  8
0
 10
684.66527652298976
 20
4.000004503757693
 30
0.0
 11
685.66459746572173
 21
4.0000045037576921
 31
0.0
  0
LINE
  5
3A4
  8
0
 10
685.66459746572195
 20
98.375004503758248
 30
0.0
 11
684.66527652298987
 21
98.375004503758248
 31
0.0
  0
LINE
  5
3A5
  8
0
 10
547.66459746572173
 20
4.0000045037579133
 30
0.0
 11
547.66459746572184
 21
98.375004503758475
 31
0.0
  0
LINE
  5
3A6
  8
0
 10
548.67218615683873
 20
98.375004503758475
 30
0.0
 11
548.67218615683862
 21
4.0000045037579133
 31
0.0
  0
LINE
  5
3A7
  8
0
 10
547.66459746572173
 20
4.0000045037579133
 30
0.0
 11
548.67218615683862
 21
4.0000045037579106
 31
0.0
  0
LINE
  5
3A8
  8
0
 10
548.67218615683873
 20
98.375004503758475
 30
0.0
 11
547.66459746572184
 21
98.375004503758475
 31
0.0
  0
LINE
  5
3A9
  8
0
 10
522.66314662646994
 20
4.000004503757955
 30
0.0
 11
522.66314662647005
 21
98.375004503758518
 31
0.0
  0
LINE
  5
3AA
  8
0
 10
523.66459746572184
 20
98.375004503758518
 30
0.0
 11
523.66459746572161
 21
4.000004503757955
 31
0.0
  0
LINE
  5
3AB
  8
0
 10
522.66314662646994
 20
4.000004503757955
 30
0.0
 11
523.66459746572161
 21
4.0000045037579532
 31
0.0
  0
LINE
  5
3AC
  8
0
 10
523.66459746572184
 20
98.375004503758518
 30
0.0
 11
522.66314662647005
 21
98.375004503758518
 31
0.0
  0
LINE
  5
3AD
  8
0
 10
631.66459746572173
 20
6.0000045037577348
 30
0.0
 11
655.66459746572173
 21
6.0000045037577348
 31
0.0
  0
LINE
  5
3AE
  8
0
 10
631.66459746572195
 20
86.080200527385585
 30
0.0
 11
655.66459746572195
 21
86.080200527385514
 31
0.0
  0
LINE
  5
3AF
  8
0
 10
630.67359712039308
 20
4.0000045037577836
 30
0.0
 11
630.6735971203932
 21
98.375004503758362
 31
0.0
  0
LINE
  5
3B0
  8
0
 10
631.66459746572195
 20
98.375004503758362
 30
0.0
 11
631.66459746572173
 21
4.0000045037577836
 31
0.0
  0
LINE
  5
3B1
  8
0
 10
630.67359712039308
 20
4.0000045037577836
 30
0.0
 11
631.66459746572173
 21
4.0000045037577836
 31
0.0
  0
LINE
  5
3B2
  8
0
 10
631.66459746572195
 20
98.375004503758362
 30
0.0
 11
630.6735971203932
 21
98.375004503758362
 31
0.0
  0
LINE
  5
3B3
  8
0
 10
655.66459746572173
 20
4.0000045037577419
 30
0.0
 11
655.66459746572195
 21
98.375004503758291
 31
0.0
  0
LINE
  5
3B4
  8
0
 10
656.65661278249104
 20
98.375004503758291
 30
0.0
 11
656.6566127824907
 21
4.0000045037577419
 31
0.0
  0
LINE
  5
3B5
  8
0
 10
656.6566127824907
 20
4.0000045037577419
 30
0.0
 11
655.66459746572173
 21
4.0000045037577419
 31
0.0
  0
LINE
  5
3B6
  8
0
 10
656.65661278249104
 20
98.375004503758291
 30
0.0
 11
655.66459746572195
 21
98.375004503758291
 31
0.0
  0
LINE
  5
3B7
  8
0
 10
577.66459746572173
 20
6.0000045037577348
 30
0.0
 11
601.66459746572173
 21
6.0000045037577348
 31
0.0
  0
LINE
  5
3B8
  8
0
 10
577.66459746572082
 20
86.080200527385287
 30
0.0
 11
601.66459746572082
 21
86.080200527385514
 31
0.0
  0
LINE
  5
3B9
  8
0
 10
601.66459746572173
 20
4.000004503757828
 30
0.0
 11
601.66459746572173
 21
98.375004503758404
 31
0.0
  0
LINE
  5
3BA
  8
0
 10
602.66459746572173
 20
98.375004503758404
 30
0.0
 11
602.66459746572173
 21
4.000004503757828
 31
0.0
  0
LINE
  5
3BB
  8
0
 10
601.66459746572173
 20
4.000004503757828
 30
0.0
 11
602.66459746572173
 21
4.000004503757828
 31
0.0
  0
LINE
  5
3BC
  8
0
 10
602.66459746572173
 20
98.375004503758404
 30
0.0
 11
601.66459746572173
 21
98.375004503758404
 31
0.0
  0
LINE
  5
3BD
  8
0
 10
576.66459746572173
 20
4.0000045037578689
 30
0.0
 11
576.66459746572184
 21
98.375004503758404
 31
0.0
  0
LINE
  5
3BE
  8
0
 10
577.66459746572184
 20
98.375004503758404
 30
0.0
 11
577.66459746572173
 21
4.0000045037578689
 31
0.0
  0
LINE
  5
3BF
  8
0
 10
576.66459746572173
 20
4.0000045037578689
 30
0.0
 11
577.66459746572173
 21
4.0000045037578689
 31
0.0
  0
LINE
  5
3C0
  8
0
 10
577.66459746572184
 20
98.375004503758404
 30
0.0
 11
576.66459746572184
 21
98.375004503758404
 31
0.0
  0
LINE
  5
3C1
  8
0
 10
512.22709746572104
 20
98.375004503758404
 30
0.0
 11
512.22709746572104
 21
4.000004503757828
 31
0.0
  0
LINE
  5
3C2
  8
0
 10
512.22709746572104
 20
4.000004503757828
 30
0.0
 11
522.66314662646982
 21
4.000004503757828
 31
0.0
  0
LINE
  5
3C3
  8
0
 10
522.66314662646982
 20
4.000004503757828
 30
0.0
 11
522.66314662646982
 21
98.375004503758404
 31
0.0
1001
ACAD
1000
ASC_BOUNDS
1002
{
1070
    19
1005
530
1002
}
  0
LINE
  5
3C4
  8
0
 10
522.66314662646982
 20
98.375004503758404
 30
0.0
 11
512.22709746572104
 21
98.375004503758404
 31
0.0
  0
LINE
  5
3C5
  8
0
 10
630.67359712039286
 20
98.375004503758404
 30
0.0
 11
602.66459746572139
 21
98.375004503758404
 31
0.0
  0
LINE
  5
3C6
  8
0
 10
602.66459746572139
 20
98.375004503758404
 30
0.0
 11
602.66459746572139
 21
4.000004503757828
 31
0.0
1001
ACAD
1000
ASC_BOUNDS
1002
{
1070
    19
1005
530
1002
}
  0
LINE
  5
3C7
  8
0
 10
602.66459746572139
 20
4.000004503757828
 30
0.0
 11
630.67359712039286
 21
4.000004503757828
 31
0.0
  0
LINE
  5
3C8
  8
0
 10
630.67359712039286
 20
4.000004503757828
 30
0.0
 11
630.67359712039286
 21
98.375004503758404
 31
0.0
1001
ACAD
1000
ASC_BOUNDS
1002
{
1070
    19
1005
530
1002
}
  0
LINE
  5
3C9
  8
0
 10
721.10209746572139
 20
98.375004503758404
 30
0.0
 11
710.6505829355699
 21
98.375004503758404
 31
0.0
  0
LINE
  5
3CA
  8
0
 10
710.6505829355699
 20
98.375004503758404
 30
0.0
 11
710.6505829355699
 21
4.000004503757828
 31
0.0
1001
ACAD
1000
ASC_BOUNDS
1002
{
1070
    19
1005
530
1002
}
  0
LINE
  5
3CB
  8
0
 10
710.6505829355699
 20
4.000004503757828
 30
0.0
 11
721.10209746572139
 21
4.000004503757828
 31
0.0
  0
LINE
  5
3CC
  8
0
 10
721.10209746572139
 20
4.000004503757828
 30
0.0
 11
721.10209746572139
 21
98.375004503758404
 31
0.0
  0
LINE
  5
3CD
  8
0
 10
576.66459746572139
 20
98.375004503758404
 30
0.0
 11
548.67218615683839
 21
98.375004503758404
 31
0.0
  0
LINE
  5
3CE
  8
0
 10
548.67218615683839
 20
98.375004503758404
 30
0.0
 11
548.67218615683839
 21
4.000004503757828
 31
0.0
1001
ACAD
1000
ASC_BOUNDS
1002
{
1070
    19
1005
530
1002
}
  0
LINE
  5
3CF
  8
0
 10
548.67218615683839
 20
4.000004503757828
 30
0.0
 11
576.66459746572139
 21
4.000004503757828
 31
0.0
  0
LINE
  5
3D0
  8
0
 10
576.66459746572139
 20
4.000004503757828
 30
0.0
 11
576.66459746572139
 21
98.375004503758404
 31
0.0
1001
ACAD
1000
ASC_BOUNDS
1002
{
1070
    19
1005
530
1002
}
  0
LINE
  5
3D1
  8
0
 10
684.66527652298964
 20
98.375004503758404
 30
0.0
 11
656.65661278249058
 21
98.375004503758404
 31
0.0
  0
LINE
  5
3D2
  8
0
 10
656.65661278249058
 20
98.375004503758404
 30
0.0
 11
656.65661278249058
 21
4.000004503757828
 31
0.0
1001
ACAD
1000
ASC_BOUNDS
1002
{
1070
    19
1005
530
1002
}
  0
LINE
  5
3D3
  8
0
 10
656.65661278249058
 20
4.000004503757828
 30
0.0
 11
684.66527652298964
 21
4.000004503757828
 31
0.0
  0
LINE
  5
3D4
  8
0
 10
684.66527652298964
 20
4.000004503757828
 30
0.0
 11
684.66527652298964
 21
98.375004503758404
 31
0.0
1001
ACAD
1000
ASC_BOUNDS
1002
{
1070
    19
1005
530
1002
}
  0
LINE
  5
3D5
  8
0
 10
510.6020974657219
 20
100.00000450375769
 30
0.0
 11
722.72709746572195
 21
100.00000450375769
 31
0.0
  0
LINE
  5
3D6
  8
0
 10
722.72709746572195
 20
0.0000045037577365
 30
0.0
 11
510.6020974657219
 21
0.0000045037577365
 31
0.0
  0
LINE
  5
3D7
  8
0
 10
510.6020974657219
 20
0.0000045037577365
 30
0.0
 11
510.6020974657219
 21
100.00000450375769
 31
0.0
  0
LINE
  5
3D8
  8
0
 10
512.22709746572184
 20
4.0000045037562302
 30
0.0
 11
512.22709746572082
 21
98.375004503756784
 31
0.0
1001
ACAD
1000
ASC_BOUNDS
1002
{
1070
    19
1005
530
1002
}
  0
LINE
  5
3D9
  8
0
 10
512.22709746572082
 20
98.375004503756784
 30
0.0
 11
721.10209746572082
 21
98.375004503758944
 31
0.0
1001
ACAD
1000
ASC_BOUNDS
1002
{
1070
    19
1005
530
1005
530
1005
530
1005
530
1005
530
1002
}
  0
LINE
  5
3DA
  8
0
 10
721.10209746572082
 20
98.375004503758944
 30
0.0
 11
721.10209746572173
 21
4.0000045037583813
 31
0.0
1001
ACAD
1000
ASC_BOUNDS
1002
{
1070
    19
1005
530
1002
}
  0
LINE
  5
3DB
  8
0
 10
721.10209746572173
 20
4.000004503758392
 30
0.0
 11
512.22709746572184
 21
4.0000045037562302
 31
0.0
1001
ACAD
1000
ASC_BOUNDS
1002
{
1070
    19
1005
530
1005
530
1005
530
1005
530
1005
530
1002
}
  0
LINE
  5
3DC
  8
0
 10
722.72709746572195
 20
0.0000045037577365
 30
0.0
 11
722.72709746572195
 21
100.00000450375769
 31
0.0
  0
ARC
  5
3DD
  8
0
 10
616.66459746572139
 20
124.62500450375821
 30
0.0
 40
8.25
 50
179.99999999999969
 51
359.99999999999881
  0
ARC
  5
3DE
  8
0
 10
616.66459746572139
 20
124.62500450375821
 30
0.0
 40
8.25
 50
359.9999999999996
 51
179.99999999999969
  0
ARC
  5
3DF
  8
0
 10
616.66459746572139
 20
124.62500450375821
 30
0.0
 40
7.6874999999999956
 50
0.0000000000006934
 51
180.00000000000011
  0
ARC
  5
3E0
  8
0
 10
616.66459746572139
 20
124.62500450375821
 30
0.0
 40
7.687499999999992
 50
180.00000000000011
 51
359.9999999999996
  0
LINE
  5
3E1
  8
0
 10
621.78709823970917
 20
122.1831486549608
 30
0.0
 11
621.59215776351857
 21
121.7342399248021
 31
0.0
  0
LINE
  5
3E2
  8
0
 10
621.59215776351857
 20
121.7342399248021
 30
0.0
 11
621.14126490637591
 21
121.57699786131001
 31
0.0
  0
LINE
  5
3E3
  8
0
 10
621.14126490637591
 20
121.57699786131001
 30
0.0
 11
620.81673613653459
 21
121.6412339724212
 31
0.0
  0
LINE
  5
3E4
  8
0
 10
620.81673613653459
 20
121.6412339724212
 30
0.0
 11
620.58124506510603
 21
121.8339423057545
 31
0.0
  0
LINE
  5
3E5
  8
0
 10
620.58124506510603
 20
121.8339423057545
 30
0.0
 11
620.39027284288375
 21
122.591878813691
 31
0.0
  0
LINE
  5
3E6
  8
0
 10
620.39027284288375
 20
122.591878813691
 30
0.0
 11
620.57430062066146
 21
123.3557677025799
 31
0.0
  0
LINE
  5
3E7
  8
0
 10
620.57430062066146
 20
123.3557677025799
 30
0.0
 11
620.80408732701085
 21
123.54549984543701
 31
0.0
  0
LINE
  5
3E8
  8
0
 10
620.80408732701085
 20
123.54549984543701
 30
0.0
 11
621.1253918905029
 21
123.6087438930561
 31
0.0
  0
LINE
  5
3E9
  8
0
 10
621.1253918905029
 20
123.6087438930561
 30
0.0
 11
621.59364585875676
 21
123.46539071845289
 31
0.0
  0
LINE
  5
3EA
  8
0
 10
621.59364585875676
 20
123.46539071845289
 30
0.0
 11
621.78709823970917
 21
123.04029151210371
 31
0.0
  0
LINE
  5
3EB
  8
0
 10
621.78709823970917
 20
123.04029151210371
 30
0.0
 11
622.92995538256628
 21
123.04029151210371
 31
0.0
  0
LINE
  5
3EC
  8
0
 10
622.92995538256628
 20
123.04029151210371
 30
0.0
 11
622.76973712859797
 21
123.6879849644846
 31
0.0
  0
LINE
  5
3ED
  8
0
 10
622.76973712859797
 20
123.6879849644846
 30
0.0
 11
622.40217760478845
 21
124.16677960734179
 31
0.0
  0
LINE
  5
3EE
  8
0
 10
622.40217760478845
 20
124.16677960734179
 30
0.0
 11
621.84314982701085
 21
124.4625385359132
 31
0.0
  0
LINE
  5
3EF
  8
0
 10
621.84314982701085
 20
124.4625385359132
 30
0.0
 11
621.10852681113784
 21
124.56112484543701
 31
0.0
  0
LINE
  5
3F0
  8
0
 10
621.10852681113784
 20
124.56112484543701
 30
0.0
 11
620.31053573970917
 21
124.42918040099261
 31
0.0
  0
LINE
  5
3F1
  8
0
 10
620.31053573970917
 20
124.42918040099261
 30
0.0
 11
619.70029268415351
 21
124.03334706765919
 31
0.0
  0
LINE
  5
3F2
  8
0
 10
619.70029268415351
 20
124.03334706765919
 30
0.0
 11
619.3130158984394
 21
123.4093391311513
 31
0.0
  0
LINE
  5
3F3
  8
0
 10
619.3130158984394
 20
123.4093391311513
 30
0.0
 11
619.18392363653447
 21
122.592870877183
 31
0.0
  0
LINE
  5
3F4
  8
0
 10
619.18392363653447
 20
122.592870877183
 30
0.0
 11
619.31363593812193
 21
121.7745425041672
 31
0.0
  0
LINE
  5
3F5
  8
0
 10
619.31363593812193
 20
121.7745425041672
 30
0.0
 11
619.70277284288375
 21
121.1509065914688
 31
0.0
  0
LINE
  5
3F6
  8
0
 10
619.70277284288375
 20
121.1509065914688
 30
0.0
 11
620.31810022383615
 21
120.75618932956399
 31
0.0
  0
LINE
  5
3F7
  8
0
 10
620.31810022383615
 20
120.75618932956399
 30
0.0
 11
621.12638395399495
 21
120.6246169089291
 31
0.0
  0
LINE
  5
3F8
  8
0
 10
621.12638395399495
 20
120.6246169089291
 30
0.0
 11
621.84947423177266
 21
120.7267994486116
 31
0.0
  0
LINE
  5
3F9
  8
0
 10
621.84947423177266
 20
120.7267994486116
 30
0.0
 11
622.40564982701085
 21
121.03334706765919
 31
0.0
  0
LINE
  5
3FA
  8
0
 10
622.40564982701085
 20
121.03334706765919
 30
0.0
 11
622.77308534288375
 21
121.5251625438497
 31
0.0
  0
LINE
  5
3FB
  8
0
 10
622.77308534288375
 20
121.5251625438497
 30
0.0
 11
622.92995538256616
 21
122.1831486549608
 31
0.0
  0
LINE
  5
3FC
  8
0
 10
622.92995538256616
 20
122.1831486549608
 30
0.0
 11
621.78709823970917
 21
122.1831486549608
 31
0.0
  0
LINE
  5
3FD
  8
0
 10
614.56537086194135
 20
122.957222843884
 30
0.0
 11
615.74295022702086
 21
122.957222843884
 31
0.0
  0
LINE
  5
3FE
  8
0
 10
615.74295022702086
 20
122.957222843884
 30
0.0
 11
615.88977562384616
 21
123.4651593518205
 31
0.0
  0
LINE
  5
3FF
  8
0
 10
615.88977562384616
 20
123.4651593518205
 30
0.0
 11
617.09314863971929
 21
123.4651593518205
 31
0.0
  0
LINE
  5
400
  8
0
 10
617.09314863971929
 20
123.4651593518205
 30
0.0
 11
617.23501371908446
 21
122.957222843884
 31
0.0
  0
LINE
  5
401
  8
0
 10
617.23501371908446
 20
122.957222843884
 30
0.0
 11
618.43838673495725
 21
122.957222843884
 31
0.0
  0
LINE
  5
402
  8
0
 10
618.43838673495725
 20
122.957222843884
 30
0.0
 11
617.10902165559219
 21
126.76674665340779
 31
0.0
  0
LINE
  5
403
  8
0
 10
617.10902165559219
 20
126.76674665340779
 30
0.0
 11
615.87985498892556
 21
126.76674665340791
 31
0.0
  0
LINE
  5
404
  8
0
 10
615.87985498892556
 20
126.76674665340791
 30
0.0
 11
614.56537086194135
 21
122.957222843884
 31
0.0
  0
LINE
  5
405
  8
0
 10
616.11001371908435
 20
124.2905561772174
 30
0.0
 11
616.49592641749712
 21
125.5941276057888
 31
0.0
  0
LINE
  5
406
  8
0
 10
616.49592641749712
 20
125.5941276057888
 30
0.0
 11
616.8729105444811
 21
124.2905561772174
 31
0.0
  0
LINE
  5
407
  8
0
 10
616.8729105444811
 20
124.2905561772174
 30
0.0
 11
616.11001371908435
 21
124.2905561772174
 31
0.0
  0
LINE
  5
408
  8
0
 10
610.80463967168009
 20
124.6976111530643
 30
0.0
 11
612.50404443358491
 21
124.6976111530643
 31
0.0
  0
LINE
  5
409
  8
0
 10
612.50404443358491
 20
124.6976111530643
 30
0.0
 11
613.27190157644179
 21
124.7363016292548
 31
0.0
  0
LINE
  5
40A
  8
0
 10
613.27190157644179
 20
124.7363016292548
 30
0.0
 11
613.68459998914045
 21
124.8682460736992
 31
0.0
  0
LINE
  5
40B
  8
0
 10
613.68459998914045
 20
124.8682460736992
 30
0.0
 11
614.09283411612455
 21
125.2511825816357
 31
0.0
  0
LINE
  5
40C
  8
0
 10
614.09283411612455
 20
125.2511825816357
 30
0.0
 11
614.23321110025154
 21
125.8384841689373
 31
0.0
  0
LINE
  5
40D
  8
0
 10
614.23321110025154
 20
125.8384841689373
 30
0.0
 11
614.08936189390215
 21
126.4014802006833
 31
0.0
  0
LINE
  5
40E
  8
0
 10
614.08936189390215
 20
126.4014802006833
 30
0.0
 11
613.64590951294997
 21
126.72638099433409
 31
0.0
  0
LINE
  5
40F
  8
0
 10
613.64590951294997
 20
126.72638099433409
 30
0.0
 11
613.99114760818804
 21
127.04384131179449
 31
0.0
  0
LINE
  5
410
  8
0
 10
613.99114760818804
 20
127.04384131179449
 30
0.0
 11
614.10622697326744
 21
127.4962222641754
 31
0.0
  0
LINE
  5
411
  8
0
 10
614.10622697326744
 20
127.4962222641754
 30
0.0
 11
613.95245713199745
 21
128.05624210544531
 31
0.0
  0
LINE
  5
412
  8
0
 10
613.95245713199745
 20
128.05624210544531
 30
0.0
 11
613.50999681453732
 21
128.396023851477
 31
0.0
  0
LINE
  5
413
  8
0
 10
613.50999681453732
 20
128.396023851477
 30
0.0
 11
613.11465951294986
 21
128.48134131179449
 31
0.0
  0
LINE
  5
414
  8
0
 10
613.11465951294986
 20
128.48134131179449
 30
0.0
 11
612.38102856056889
 21
128.50713496258811
 31
0.0
  0
LINE
  5
415
  8
0
 10
612.38102856056889
 20
128.50713496258811
 30
0.0
 11
610.80463967168009
 21
128.50713496258811
 31
0.0
  0
LINE
  5
416
  8
0
 10
610.80463967168009
 20
128.50713496258811
 30
0.0
 11
610.80463967168009
 21
124.6976111530643
 31
0.0
  0
LINE
  5
417
  8
0
 10
612.01098887802937
 20
125.5865000419532
 30
0.0
 11
612.01098887802937
 21
126.2849127403659
 31
0.0
  0
LINE
  5
418
  8
0
 10
612.01098887802937
 20
126.2849127403659
 30
0.0
 11
612.55959998914045
 21
126.2849127403659
 31
0.0
  0
LINE
  5
419
  8
0
 10
612.55959998914045
 20
126.2849127403659
 30
0.0
 11
612.96882617961649
 21
126.20554766100079
 31
0.0
  0
LINE
  5
41A
  8
0
 10
612.96882617961649
 20
126.20554766100079
 30
0.0
 11
613.09035395739443
 21
125.9386825816357
 31
0.0
  0
LINE
  5
41B
  8
0
 10
613.09035395739443
 20
125.9386825816357
 30
0.0
 11
612.97130633834672
 21
125.6688413117944
 31
0.0
  0
LINE
  5
41C
  8
0
 10
612.97130633834672
 20
125.6688413117944
 30
0.0
 11
612.57051268755322
 21
125.5865000419532
 31
0.0
  0
LINE
  5
41D
  8
0
 10
612.57051268755322
 20
125.5865000419532
 30
0.0
 11
612.01098887802937
 21
125.5865000419532
 31
0.0
  0
LINE
  5
41E
  8
0
 10
612.01098887802937
 20
126.98332543877861
 30
0.0
 11
612.01098887802937
 21
127.6182460736992
 31
0.0
  0
LINE
  5
41F
  8
0
 10
612.01098887802937
 20
127.6182460736992
 30
0.0
 11
612.34531427485456
 21
127.6182460736992
 31
0.0
  0
LINE
  5
420
  8
0
 10
612.34531427485456
 20
127.6182460736992
 30
0.0
 11
612.85374681453732
 21
127.55078575623889
 31
0.0
  0
LINE
  5
421
  8
0
 10
612.85374681453732
 20
127.55078575623889
 30
0.0
 11
612.96336983041033
 21
127.30078575623889
 31
0.0
  0
LINE
  5
422
  8
0
 10
612.96336983041033
 20
127.30078575623889
 30
0.0
 11
612.8611872907278
 21
127.0557460736992
 31
0.0
  0
LINE
  5
423
  8
0
 10
612.8611872907278
 20
127.0557460736992
 30
0.0
 11
612.50900475104515
 21
126.98332543877861
 31
0.0
  0
LINE
  5
424
  8
0
 10
612.50900475104515
 20
126.98332543877861
 30
0.0
 11
612.01098887802937
 21
126.98332543877861
 31
0.0
  0
ARC
  5
425
  8
0
 10
616.66459746572082
 20
124.6250045037589
 30
0.0
 40
9.0000000000000178
 50
179.99999999999969
 51
359.99999999999881
  0
ARC
  5
426
  8
0
 10
616.66459746572082
 20
124.6250045037589
 30
0.0
 40
9.0
 50
359.99999999999937
 51
179.99999999999969
  0
ARC
  5
427
  8
0
 10
616.66459746571877
 20
145.87500450375771
 30
0.0
 40
4.999999999999984
 50
90.0
 51
270.0
  0
ARC
  5
428
  8
0
 10
616.66459746571877
 20
145.87500450375771
 30
0.0
 40
5.0
 50
270.0
 51
90.0
  0
LINE
  5
429
  8
0
 10
510.35209746572178
 20
39.75000450375807
 30
0.0
 11
510.6020974657223
 21
39.75000450375807
 31
0.0
  0
LINE
  5
42A
  8
0
 10
510.6020974657223
 20
41.250004503758412
 30
0.0
 11
510.35209746572178
 21
41.250004503758412
 31
0.0
  0
LINE
  5
42B
  8
0
 10
510.3520974657207
 20
27.500004503757971
 30
0.0
 11
510.6020974657211
 21
27.500004503757971
 31
0.0
  0
LINE
  5
42C
  8
0
 10
510.6020974657211
 20
30.50000450375796
 30
0.0
 11
510.3520974657207
 21
30.50000450375796
 31
0.0
  0
LINE
  5
42D
  8
0
 10
510.3520974657207
 20
5.6250045037580758
 30
0.0
 11
510.6020974657211
 21
5.6250045037580758
 31
0.0
  0
LINE
  5
42E
  8
0
 10
510.6020974657211
 20
7.625004503757963
 30
0.0
 11
510.3520974657207
 21
7.625004503757963
 31
0.0
  0
LINE
  5
42F
  8
0
 10
510.35209746572218
 20
40.50000450375812
 30
0.0
 11
510.35209746572218
 21
40.694118787585019
 31
0.0
  0
LINE
  5
430
  8
0
 10
510.35209746572218
 20
40.694119208277179
 30
0.0
 11
510.35209746572218
 21
41.030334589648028
 31
0.0
  0
LINE
  5
431
  8
0
 10
510.35209746572218
 20
41.030335256035492
 30
0.0
 11
510.35209746572218
 21
41.14952270009038
 31
0.0
  0
LINE
  5
432
  8
0
 10
510.35209746572218
 20
41.149523556596463
 30
0.0
 11
510.35209746572218
 21
41.224448873474927
 31
0.0
  0
LINE
  5
433
  8
0
 10
510.35209746572218
 20
41.224450808908692
 30
0.0
 11
510.35209746572218
 21
41.250004503758127
 31
0.0
  0
LINE
  5
434
  8
0
 10
510.35209746572218
 20
39.750004503758142
 30
0.0
 11
510.35209746572218
 21
39.775558198605118
 31
0.0
  0
LINE
  5
435
  8
0
 10
510.35209746572218
 20
39.775560134041342
 30
0.0
 11
510.35209746572218
 21
39.850485450919813
 31
0.0
  0
LINE
  5
436
  8
0
 10
510.35209746572218
 20
39.8504863074252
 30
0.0
 11
510.35209746572218
 21
39.96967375147981
 31
0.0
  0
LINE
  5
437
  8
0
 10
510.35209746572218
 20
39.969674417868241
 30
0.0
 11
510.35209746572218
 21
40.305889799238642
 31
0.0
  0
LINE
  5
438
  8
0
 10
510.35209746572218
 20
40.305890219931229
 30
0.0
 11
510.35209746572218
 21
40.50000450375812
 31
0.0
  0
LINE
  5
439
  8
0
 10
510.35209746572252
 20
29.000005468413558
 30
0.0
 11
510.35209746572252
 21
29.750004503758142
 31
0.0
  0
LINE
  5
43A
  8
0
 10
510.35209746572252
 20
29.750005547768129
 30
0.0
 11
510.35209746572252
 21
30.29904168195733
 31
0.0
  0
LINE
  5
43B
  8
0
 10
510.35209746572252
 20
30.299042609434789
 30
0.0
 11
510.35209746572252
 21
30.448893243191741
 31
0.0
  0
LINE
  5
43C
  8
0
 10
510.35209746572252
 20
30.448893321248359
 30
0.0
 11
510.35209746572252
 21
30.500004503758142
 31
0.0
  0
LINE
  5
43D
  8
0
 10
510.35209746572252
 20
27.500004503758142
 30
0.0
 11
510.35209746572252
 21
27.551113789843139
 31
0.0
  0
LINE
  5
43E
  8
0
 10
510.35209746572252
 20
27.551115764324539
 30
0.0
 11
510.35209746572252
 21
27.70096639808148
 31
0.0
  0
LINE
  5
43F
  8
0
 10
510.35209746572252
 20
27.70096654002537
 30
0.0
 11
510.35209746572252
 21
27.939344110111541
 31
0.0
  0
LINE
  5
440
  8
0
 10
510.35209746572252
 20
27.939344331978312
 30
0.0
 11
510.35209746572252
 21
29.000004503758131
 31
0.0
  0
LINE
  5
441
  8
0
 10
510.35209746572252
 20
6.6250045037581291
 30
0.0
 11
510.35209746572252
 21
6.8838235488606498
 31
0.0
  0
LINE
  5
442
  8
0
 10
510.35209746572252
 20
6.8838238598009589
 30
0.0
 11
510.35209746572252
 21
7.3321111142962136
 31
0.0
  0
LINE
  5
443
  8
0
 10
510.35209746572252
 20
7.332111284944677
 30
0.0
 11
510.35209746572252
 21
7.4910299075425666
 31
0.0
  0
LINE
  5
444
  8
0
 10
510.35209746572252
 20
7.4910302776755158
 30
0.0
 11
510.35209746572252
 21
7.5909303300471986
 31
0.0
  0
LINE
  5
445
  8
0
 10
510.35209746572252
 20
7.5909310142280528
 30
0.0
 11
510.35209746572252
 21
7.62500450375813
 31
0.0
  0
LINE
  5
446
  8
0
 10
510.35209746572252
 20
5.62500450375813
 30
0.0
 11
510.35209746572252
 21
5.6590784673935657
 31
0.0
  0
LINE
  5
447
  8
0
 10
510.35209746572252
 20
5.659078677469064
 30
0.0
 11
510.35209746572252
 21
5.7589790422399183
 31
0.0
  0
LINE
  5
448
  8
0
 10
510.35209746572252
 20
5.7589790999736943
 30
0.0
 11
510.35209746572252
 21
5.917897722571583
 31
0.0
  0
LINE
  5
449
  8
0
 10
510.35209746572252
 20
5.917897786665125
 30
0.0
 11
510.35209746572252
 21
6.12500450375813
 31
0.0
  0
LINE
  5
44A
  8
0
 10
510.35209746572252
 20
6.1250047278860302
 30
0.0
 11
510.35209746572252
 21
6.3661853976965928
 31
0.0
  0
LINE
  5
44B
  8
0
 10
510.35209746572252
 20
6.3661854586556084
 30
0.0
 11
510.35209746572252
 21
6.625004262593543
 31
0.0
  0
LINE
  5
44C
  8
0
 10
510.35209746572059
 20
8.5000045037581877
 30
0.0
 11
510.60209746572099
 21
8.5000045037581877
 31
0.0
  0
LINE
  5
44D
  8
0
 10
510.60209746572099
 20
18.50000450375796
 30
0.0
 11
510.35209746572059
 21
18.50000450375796
 31
0.0
  0
LINE
  5
44E
  8
0
 10
510.3520974657223
 20
13.50000450375814
 30
0.0
 11
510.3520974657223
 21
16.000004503758142
 31
0.0
  0
LINE
  5
44F
  8
0
 10
510.3520974657223
 20
16.00000502576302
 30
0.0
 11
510.3520974657223
 21
17.035537982667542
 31
0.0
  0
LINE
  5
450
  8
0
 10
510.3520974657223
 20
17.035538409690879
 30
0.0
 11
510.3520974657223
 21
17.830131311376839
 31
0.0
  0
LINE
  5
451
  8
0
 10
510.3520974657223
 20
17.83013152268035
 30
0.0
 11
510.3520974657223
 21
18.329633184914609
 31
0.0
  0
LINE
  5
452
  8
0
 10
510.3520974657223
 20
18.329633635203511
 30
0.0
 11
510.3520974657223
 21
18.500004503758159
 31
0.0
  0
LINE
  5
453
  8
0
 10
510.3520974657223
 20
8.5000045037581664
 30
0.0
 11
510.3520974657223
 21
8.6703752701587788
 31
0.0
  0
LINE
  5
454
  8
0
 10
510.3520974657223
 20
8.6703753723128241
 30
0.0
 11
510.3520974657223
 21
9.1698774848359719
 31
0.0
  0
LINE
  5
455
  8
0
 10
510.3520974657223
 20
9.1698776961387871
 30
0.0
 11
510.3520974657223
 21
9.9644703211494363
 31
0.0
  0
LINE
  5
456
  8
0
 10
510.3520974657223
 20
9.9644705978254251
 30
0.0
 11
510.3520974657223
 21
11.00000450375815
 31
0.0
  0
LINE
  5
457
  8
0
 10
510.3520974657223
 20
11.000004727885649
 30
0.0
 11
510.3520974657223
 21
13.50000450375814
 31
0.0
  0
LINE
  5
458
  8
0
 10
0.0000093705685913
 20
154.62500450375751
 30
0.0
 11
212.12500937056291
 21
154.62500450375751
 31
0.0
  0
LINE
  5
459
  8
0
 10
212.12500937056291
 20
100.00000450375769
 30
0.0
 11
0.0000093705685913
 21
100.00000450375769
 31
0.0
  0
LINE
  5
45A
  8
0
 10
0.0000093705685913
 20
154.62500450375751
 30
0.0
 11
0.0000093705685913
 21
100.00000450375769
 31
0.0
  0
LINE
  5
45B
  8
0
 10
212.12500937056291
 20
100.00000450375769
 30
0.0
 11
212.12500937056291
 21
154.62500450375751
 31
0.0
  0
LINE
  5
45C
  8
0
 10
0.0000093705686481
 20
100.00000450375769
 30
0.0
 11
212.12500937056851
 21
100.00000450375769
 31
0.0
  0
LINE
  5
45D
  8
0
 10
212.12500937056851
 20
0.0000045037577365
 30
0.0
 11
0.0000093705686481
 21
0.0000045037577365
 31
0.0
  0
LINE
  5
45E
  8
0
 10
212.12500937056851
 20
100.00000450375769
 30
0.0
 11
212.12500937056851
 21
0.0000045037577365
 31
0.0
  0
LINE
  5
45F
  8
0
 10
0.0000093705686481
 20
0.0000045037577365
 30
0.0
 11
0.0000093705686481
 21
100.00000450375769
 31
0.0
  0
ARC
  5
460
  8
0
 10
106.0625093705693
 20
124.6250045037586
 30
0.0
 40
8.2500000000000124
 50
179.9999999999996
 51
359.99999999999858
  0
ARC
  5
461
  8
0
 10
106.0625093705693
 20
124.6250045037586
 30
0.0
 40
8.2499999999999911
 50
359.99999999999949
 51
179.9999999999998
  0
ARC
  5
462
  8
0
 10
106.0625093705693
 20
124.6250045037586
 30
0.0
 40
7.6875
 50
0.0000000000006355
 51
179.9999999999998
  0
ARC
  5
463
  8
0
 10
106.0625093705693
 20
124.6250045037586
 30
0.0
 40
7.6874999999999831
 50
180.00000000000031
 51
359.9999999999996
  0
LINE
  5
464
  8
0
 10
111.1850101445571
 20
122.1831486549612
 30
0.0
 11
110.9900696683666
 21
121.73423992480249
 31
0.0
  0
LINE
  5
465
  8
0
 10
110.9900696683666
 20
121.73423992480249
 30
0.0
 11
110.5391768112237
 21
121.5769978613104
 31
0.0
  0
LINE
  5
466
  8
0
 10
110.5391768112237
 20
121.5769978613104
 30
0.0
 11
110.2146480413825
 21
121.6412339724216
 31
0.0
  0
LINE
  5
467
  8
0
 10
110.2146480413825
 20
121.6412339724216
 30
0.0
 11
109.97915696995391
 21
121.8339423057549
 31
0.0
  0
LINE
  5
468
  8
0
 10
109.97915696995391
 20
121.8339423057549
 30
0.0
 11
109.78818474773171
 21
122.59187881369139
 31
0.0
  0
LINE
  5
469
  8
0
 10
109.78818474773171
 20
122.59187881369139
 30
0.0
 11
109.97221252550951
 21
123.35576770258029
 31
0.0
  0
LINE
  5
46A
  8
0
 10
109.97221252550951
 20
123.35576770258029
 30
0.0
 11
110.20199923185869
 21
123.5454998454374
 31
0.0
  0
LINE
  5
46B
  8
0
 10
110.20199923185869
 20
123.5454998454374
 30
0.0
 11
110.5233037953508
 21
123.6087438930565
 31
0.0
  0
LINE
  5
46C
  8
0
 10
110.5233037953508
 20
123.6087438930565
 30
0.0
 11
110.9915577636047
 21
123.46539071845331
 31
0.0
  0
LINE
  5
46D
  8
0
 10
110.9915577636047
 20
123.46539071845331
 30
0.0
 11
111.1850101445571
 21
123.0402915121041
 31
0.0
  0
LINE
  5
46E
  8
0
 10
111.1850101445571
 20
123.0402915121041
 30
0.0
 11
112.32786728741431
 21
123.0402915121041
 31
0.0
  0
LINE
  5
46F
  8
0
 10
112.32786728741431
 20
123.0402915121041
 30
0.0
 11
112.167649033446
 21
123.687984964485
 31
0.0
  0
LINE
  5
470
  8
0
 10
112.167649033446
 20
123.687984964485
 30
0.0
 11
111.80008950963639
 21
124.16677960734221
 31
0.0
  0
LINE
  5
471
  8
0
 10
111.80008950963639
 20
124.16677960734221
 30
0.0
 11
111.24106173185869
 21
124.46253853591359
 31
0.0
  0
LINE
  5
472
  8
0
 10
111.24106173185869
 20
124.46253853591359
 30
0.0
 11
110.50643871598569
 21
124.5611248454374
 31
0.0
  0
LINE
  5
473
  8
0
 10
110.50643871598569
 20
124.5611248454374
 30
0.0
 11
109.7084476445571
 21
124.429180400993
 31
0.0
  0
LINE
  5
474
  8
0
 10
109.7084476445571
 20
124.429180400993
 30
0.0
 11
109.0982045890015
 21
124.0333470676597
 31
0.0
  0
LINE
  5
475
  8
0
 10
109.0982045890015
 20
124.0333470676597
 30
0.0
 11
108.71092780328721
 21
123.4093391311517
 31
0.0
  0
LINE
  5
476
  8
0
 10
108.71092780328721
 20
123.4093391311517
 30
0.0
 11
108.5818355413825
 21
122.5928708771835
 31
0.0
  0
LINE
  5
477
  8
0
 10
108.5818355413825
 20
122.5928708771835
 30
0.0
 11
108.71154784296991
 21
121.7745425041676
 31
0.0
  0
LINE
  5
478
  8
0
 10
108.71154784296991
 20
121.7745425041676
 30
0.0
 11
109.10068474773171
 21
121.15090659146919
 31
0.0
  0
LINE
  5
479
  8
0
 10
109.10068474773171
 20
121.15090659146919
 30
0.0
 11
109.7160121286841
 21
120.75618932956441
 31
0.0
  0
LINE
  5
47A
  8
0
 10
109.7160121286841
 20
120.75618932956441
 30
0.0
 11
110.52429585884281
 21
120.6246169089295
 31
0.0
  0
LINE
  5
47B
  8
0
 10
110.52429585884281
 20
120.6246169089295
 30
0.0
 11
111.24738613662051
 21
120.726799448612
 31
0.0
  0
LINE
  5
47C
  8
0
 10
111.24738613662051
 20
120.726799448612
 30
0.0
 11
111.80356173185869
 21
121.03334706765961
 31
0.0
  0
LINE
  5
47D
  8
0
 10
111.80356173185869
 20
121.03334706765961
 30
0.0
 11
112.17099724773171
 21
121.5251625438501
 31
0.0
  0
LINE
  5
47E
  8
0
 10
112.17099724773171
 20
121.5251625438501
 30
0.0
 11
112.32786728741431
 21
122.1831486549612
 31
0.0
  0
LINE
  5
47F
  8
0
 10
112.32786728741431
 20
122.1831486549612
 30
0.0
 11
111.1850101445571
 21
122.1831486549612
 31
0.0
  0
LINE
  5
480
  8
0
 10
103.9632827667894
 20
122.9572228438844
 30
0.0
 11
105.1408621318688
 21
122.9572228438844
 31
0.0
  0
LINE
  5
481
  8
0
 10
105.1408621318688
 20
122.9572228438844
 30
0.0
 11
105.28768752869421
 21
123.465159351821
 31
0.0
  0
LINE
  5
482
  8
0
 10
105.28768752869421
 20
123.465159351821
 30
0.0
 11
106.4910605445672
 21
123.465159351821
 31
0.0
  0
LINE
  5
483
  8
0
 10
106.4910605445672
 20
123.465159351821
 30
0.0
 11
106.63292562393229
 21
122.9572228438844
 31
0.0
  0
LINE
  5
484
  8
0
 10
106.63292562393229
 20
122.9572228438844
 30
0.0
 11
107.83629863980531
 21
122.9572228438844
 31
0.0
  0
LINE
  5
485
  8
0
 10
107.83629863980531
 20
122.9572228438844
 30
0.0
 11
106.5069335604402
 21
126.7667466534083
 31
0.0
  0
LINE
  5
486
  8
0
 10
106.5069335604402
 20
126.7667466534083
 30
0.0
 11
105.2777668937735
 21
126.7667466534083
 31
0.0
  0
LINE
  5
487
  8
0
 10
105.2777668937735
 20
126.7667466534083
 30
0.0
 11
103.9632827667894
 21
122.9572228438844
 31
0.0
  0
LINE
  5
488
  8
0
 10
105.50792562393229
 20
124.29055617721779
 30
0.0
 11
105.893838322345
 21
125.5941276057892
 31
0.0
  0
LINE
  5
489
  8
0
 10
105.893838322345
 20
125.5941276057892
 30
0.0
 11
106.2708224493291
 21
124.29055617721779
 31
0.0
  0
LINE
  5
48A
  8
0
 10
106.2708224493291
 20
124.29055617721779
 30
0.0
 11
105.50792562393229
 21
124.29055617721779
 31
0.0
  0
LINE
  5
48B
  8
0
 10
100.20255157652799
 20
124.6976111530647
 30
0.0
 11
101.9019563384328
 21
124.6976111530647
 31
0.0
  0
LINE
  5
48C
  8
0
 10
101.9019563384328
 20
124.6976111530647
 30
0.0
 11
102.66981348128991
 21
124.73630162925519
 31
0.0
  0
LINE
  5
48D
  8
0
 10
102.66981348128991
 20
124.73630162925519
 30
0.0
 11
103.0825118939883
 21
124.86824607369959
 31
0.0
  0
LINE
  5
48E
  8
0
 10
103.0825118939883
 20
124.86824607369959
 30
0.0
 11
103.49074602097249
 21
125.2511825816361
 31
0.0
  0
LINE
  5
48F
  8
0
 10
103.49074602097249
 20
125.2511825816361
 30
0.0
 11
103.6311230050994
 21
125.8384841689377
 31
0.0
  0
LINE
  5
490
  8
0
 10
103.6311230050994
 20
125.8384841689377
 30
0.0
 11
103.48727379875019
 21
126.40148020068381
 31
0.0
  0
LINE
  5
491
  8
0
 10
103.48727379875019
 20
126.40148020068381
 30
0.0
 11
103.0438214177978
 21
126.72638099433451
 31
0.0
  0
LINE
  5
492
  8
0
 10
103.0438214177978
 20
126.72638099433451
 30
0.0
 11
103.3890595130359
 21
127.04384131179491
 31
0.0
  0
LINE
  5
493
  8
0
 10
103.3890595130359
 20
127.04384131179491
 30
0.0
 11
103.5041388781153
 21
127.4962222641758
 31
0.0
  0
LINE
  5
494
  8
0
 10
103.5041388781153
 20
127.4962222641758
 30
0.0
 11
103.35036903684551
 21
128.05624210544559
 31
0.0
  0
LINE
  5
495
  8
0
 10
103.35036903684551
 20
128.05624210544559
 30
0.0
 11
102.9079087193852
 21
128.39602385147739
 31
0.0
  0
LINE
  5
496
  8
0
 10
102.9079087193852
 20
128.39602385147739
 30
0.0
 11
102.5125714177979
 21
128.48134131179489
 31
0.0
  0
LINE
  5
497
  8
0
 10
102.5125714177979
 20
128.48134131179489
 30
0.0
 11
101.77894046541689
 21
128.50713496258851
 31
0.0
  0
LINE
  5
498
  8
0
 10
101.77894046541689
 20
128.50713496258851
 30
0.0
 11
100.20255157652799
 21
128.50713496258851
 31
0.0
  0
LINE
  5
499
  8
0
 10
100.20255157652799
 20
128.50713496258851
 30
0.0
 11
100.20255157652799
 21
124.6976111530647
 31
0.0
  0
LINE
  5
49A
  8
0
 10
101.4089007828772
 20
125.5865000419536
 30
0.0
 11
101.4089007828772
 21
126.28491274036629
 31
0.0
  0
LINE
  5
49B
  8
0
 10
101.4089007828772
 20
126.28491274036629
 30
0.0
 11
101.9575118939883
 21
126.28491274036629
 31
0.0
  0
LINE
  5
49C
  8
0
 10
101.9575118939883
 20
126.28491274036629
 30
0.0
 11
102.3667380844645
 21
126.20554766100121
 31
0.0
  0
LINE
  5
49D
  8
0
 10
102.3667380844645
 20
126.20554766100121
 30
0.0
 11
102.4882658622424
 21
125.9386825816361
 31
0.0
  0
LINE
  5
49E
  8
0
 10
102.4882658622424
 20
125.9386825816361
 30
0.0
 11
102.36921824319469
 21
125.66884131179479
 31
0.0
  0
LINE
  5
49F
  8
0
 10
102.36921824319469
 20
125.66884131179479
 30
0.0
 11
101.96842459240101
 21
125.5865000419536
 31
0.0
  0
LINE
  5
4A0
  8
0
 10
101.96842459240101
 20
125.5865000419536
 30
0.0
 11
101.4089007828772
 21
125.5865000419536
 31
0.0
  0
LINE
  5
4A1
  8
0
 10
101.4089007828772
 20
126.983325438779
 30
0.0
 11
101.4089007828772
 21
127.61824607369959
 31
0.0
  0
LINE
  5
4A2
  8
0
 10
101.4089007828772
 20
127.61824607369959
 30
0.0
 11
101.7432261797026
 21
127.61824607369959
 31
0.0
  0
LINE
  5
4A3
  8
0
 10
101.7432261797026
 20
127.61824607369959
 30
0.0
 11
102.25165871938511
 21
127.55078575623931
 31
0.0
  0
LINE
  5
4A4
  8
0
 10
102.25165871938511
 20
127.55078575623931
 30
0.0
 11
102.3612817352582
 21
127.30078575623931
 31
0.0
  0
LINE
  5
4A5
  8
0
 10
102.3612817352582
 20
127.30078575623931
 30
0.0
 11
102.2590991955756
 21
127.05574607369959
 31
0.0
  0
LINE
  5
4A6
  8
0
 10
102.2590991955756
 20
127.05574607369959
 30
0.0
 11
101.9069166558931
 21
126.983325438779
 31
0.0
  0
LINE
  5
4A7
  8
0
 10
101.9069166558931
 20
126.983325438779
 30
0.0
 11
101.4089007828772
 21
126.983325438779
 31
0.0
  0
ARC
  5
4A8
  8
0
 10
106.0625093705688
 20
124.6250045037593
 30
0.0
 40
9.0000000000000089
 50
179.99999999999969
 51
359.99999999999881
  0
ARC
  5
4A9
  8
0
 10
106.0625093705688
 20
124.6250045037593
 30
0.0
 40
9.0000000000000089
 50
359.99999999999949
 51
179.99999999999969
  0
LINE
  5
4AA
  8
0
 10
212.1250093705674
 20
39.75000450375807
 30
0.0
 11
212.3750093705693
 21
39.75000450375807
 31
0.0
  0
LINE
  5
4AB
  8
0
 10
212.3750093705693
 20
41.250004503758412
 30
0.0
 11
212.1250093705674
 21
41.250004503758412
 31
0.0
  0
LINE
  5
4AC
  8
0
 10
212.1250093705674
 20
27.500004503757971
 30
0.0
 11
212.3750093705691
 21
27.500004503757971
 31
0.0
  0
LINE
  5
4AD
  8
0
 10
212.3750093705691
 20
30.50000450375796
 30
0.0
 11
212.1250093705674
 21
30.50000450375796
 31
0.0
  0
LINE
  5
4AE
  8
0
 10
212.1250093705674
 20
5.6250045037580758
 30
0.0
 11
212.3750093705691
 21
5.6250045037580758
 31
0.0
  0
LINE
  5
4AF
  8
0
 10
212.3750093705691
 20
7.625004503757963
 30
0.0
 11
212.1250093705674
 21
7.625004503757963
 31
0.0
  0
LINE
  5
4B0
  8
0
 10
212.37500937056899
 20
41.250004503758127
 30
0.0
 11
212.37500937056899
 21
41.224450808908692
 31
0.0
  0
LINE
  5
4B1
  8
0
 10
212.37500937056899
 20
41.224448873474927
 30
0.0
 11
212.37500937056899
 21
41.030335256035492
 31
0.0
  0
LINE
  5
4B2
  8
0
 10
212.37500937056899
 20
41.030334589648042
 30
0.0
 11
212.37500937056899
 21
40.694119208277179
 31
0.0
  0
LINE
  5
4B3
  8
0
 10
212.37500937056899
 20
40.694118787585019
 30
0.0
 11
212.37500937056899
 21
40.500004503758127
 31
0.0
  0
LINE
  5
4B4
  8
0
 10
212.37500937056899
 20
40.50000450375812
 30
0.0
 11
212.37500937056899
 21
40.305890219931229
 31
0.0
  0
LINE
  5
4B5
  8
0
 10
212.37500937056899
 20
40.305889799238642
 30
0.0
 11
212.37500937056899
 21
39.969674417868212
 31
0.0
  0
LINE
  5
4B6
  8
0
 10
212.37500937056899
 20
39.96967375147981
 30
0.0
 11
212.37500937056899
 21
39.775560134041342
 31
0.0
  0
LINE
  5
4B7
  8
0
 10
212.37500937056899
 20
39.775558198605118
 30
0.0
 11
212.37500937056899
 21
39.750004503758142
 31
0.0
  0
LINE
  5
4B8
  8
0
 10
212.37500937056879
 20
30.500004503758142
 30
0.0
 11
212.37500937056879
 21
30.44889332124837
 31
0.0
  0
LINE
  5
4B9
  8
0
 10
212.37500937056879
 20
30.448893243191751
 30
0.0
 11
212.37500937056879
 21
29.75000554776814
 31
0.0
  0
LINE
  5
4BA
  8
0
 10
212.37500937056879
 20
29.750004503758142
 30
0.0
 11
212.37500937056879
 21
29.388233071411928
 31
0.0
  0
LINE
  5
4BB
  8
0
 10
212.37500937056879
 20
29.388231991884851
 30
0.0
 11
212.37500937056879
 21
29.00000546841358
 31
0.0
  0
LINE
  5
4BC
  8
0
 10
212.37500937056879
 20
29.000004503758131
 30
0.0
 11
212.37500937056879
 21
28.611776083844109
 31
0.0
  0
LINE
  5
4BD
  8
0
 10
212.37500937056879
 20
28.611775936104351
 30
0.0
 11
212.37500937056879
 21
28.250005400270229
 31
0.0
  0
LINE
  5
4BE
  8
0
 10
212.37500937056879
 20
28.250004503758142
 30
0.0
 11
212.37500937056879
 21
27.939344331978312
 31
0.0
  0
LINE
  5
4BF
  8
0
 10
212.37500937056879
 20
27.939344110111541
 30
0.0
 11
212.37500937056879
 21
27.551115764324539
 31
0.0
  0
LINE
  5
4C0
  8
0
 10
212.37500937056879
 20
27.551113789843139
 30
0.0
 11
212.37500937056879
 21
27.500004503758142
 31
0.0
  0
LINE
  5
4C1
  8
0
 10
212.37500937056879
 20
7.62500450375813
 30
0.0
 11
212.37500937056879
 21
7.5909310142280564
 31
0.0
  0
LINE
  5
4C2
  8
0
 10
212.37500937056879
 20
7.5909303300472004
 30
0.0
 11
212.37500937056879
 21
7.4910302776755184
 31
0.0
  0
LINE
  5
4C3
  8
0
 10
212.37500937056879
 20
7.491029907542571
 30
0.0
 11
212.37500937056879
 21
7.3321112849446823
 31
0.0
  0
LINE
  5
4C4
  8
0
 10
212.37500937056879
 20
7.3321111142962181
 30
0.0
 11
212.37500937056879
 21
6.8838238598009669
 31
0.0
  0
LINE
  5
4C5
  8
0
 10
212.37500937056879
 20
6.8838235488606561
 30
0.0
 11
212.37500937056879
 21
6.6250045037581371
 31
0.0
  0
LINE
  5
4C6
  8
0
 10
212.37500937056879
 20
6.6250042625935386
 30
0.0
 11
212.37500937056879
 21
6.3661854586556057
 31
0.0
  0
LINE
  5
4C7
  8
0
 10
212.37500937056879
 20
6.3661853976965892
 30
0.0
 11
212.37500937056879
 21
6.1250047278860258
 31
0.0
  0
LINE
  5
4C8
  8
0
 10
212.37500937056879
 20
6.1250045037581273
 30
0.0
 11
212.37500937056879
 21
5.9178977866651188
 31
0.0
  0
LINE
  5
4C9
  8
0
 10
212.37500937056879
 20
5.9178977225715803
 30
0.0
 11
212.37500937056879
 21
5.7589790999736907
 31
0.0
  0
LINE
  5
4CA
  8
0
 10
212.37500937056879
 20
5.7589790422399139
 30
0.0
 11
212.37500937056879
 21
5.6590786774690622
 31
0.0
  0
LINE
  5
4CB
  8
0
 10
212.37500937056879
 20
5.6590784673935657
 30
0.0
 11
212.37500937056879
 21
5.62500450375813
 31
0.0
  0
LINE
  5
4CC
  8
0
 10
212.1250093705674
 20
8.5000045037581877
 30
0.0
 11
212.3750093705691
 21
8.5000045037581877
 31
0.0
  0
LINE
  5
4CD
  8
0
 10
212.3750093705691
 20
18.50000450375796
 30
0.0
 11
212.1250093705674
 21
18.50000450375796
 31
0.0
  0
LINE
  5
4CE
  8
0
 10
212.37500937056879
 20
18.500004503758159
 30
0.0
 11
212.37500937056879
 21
16.000005025763059
 31
0.0
  0
LINE
  5
4CF
  8
0
 10
212.37500937056879
 20
16.000004503758181
 30
0.0
 11
212.37500937056879
 21
14.794099729270791
 31
0.0
  0
LINE
  5
4D0
  8
0
 10
212.37500937056879
 20
14.79409954739757
 30
0.0
 11
212.37500937056879
 21
13.5000045037582
 31
0.0
  0
LINE
  5
4D1
  8
0
 10
212.37500937056879
 20
13.500004503758131
 30
0.0
 11
212.37500937056879
 21
12.20590946011796
 31
0.0
  0
LINE
  5
4D2
  8
0
 10
212.37500937056879
 20
12.20590927824553
 30
0.0
 11
212.37500937056879
 21
9.9644705978254162
 31
0.0
  0
LINE
  5
4D3
  8
0
 10
212.37500937056879
 20
9.9644703211494257
 30
0.0
 11
212.37500937056879
 21
8.6703753723128205
 31
0.0
  0
LINE
  5
4D4
  8
0
 10
212.37500937056879
 20
8.6703752701587771
 30
0.0
 11
212.37500937056879
 21
8.5000045037581664
 31
0.0
  0
LINE
  5
4D5
  8
0
 10
283.50723065534538
 20
432.95144884159868
 30
0.0
 11
283.50723065534532
 21
220.8264488416045
 31
0.0
  0
LINE
  5
4D6
  8
0
 10
283.50723065534532
 20
220.8264488416045
 30
0.0
 11
424.2572306553422
 21
220.82644884160419
 31
0.0
  0
LINE
  5
4D7
  8
0
 10
424.2572306553422
 20
220.82644884160419
 30
0.0
 11
424.25723065534271
 21
432.95144884159839
 31
0.0
  0
LINE
  5
4D8
  8
0
 10
424.25723065534271
 20
432.95144884159839
 30
0.0
 11
283.50723065534538
 21
432.95144884159868
 31
0.0
  0
LINE
  5
4D9
  8
0
 10
422.63223065534561
 20
431.32644884159868
 30
0.0
 11
422.63223065534521
 21
222.45144884159879
 31
0.0
1001
ACAD
1000
ASC_BOUNDS
1002
{
1070
    19
1005
53A
1002
}
  0
LINE
  5
4DA
  8
0
 10
422.63223065534521
 20
222.45144884159879
 30
0.0
 11
285.13223065534532
 21
222.45144884159919
 31
0.0
1001
ACAD
1000
ASC_BOUNDS
1002
{
1070
    19
1005
53A
1002
}
  0
LINE
  5
4DB
  8
0
 10
285.13223065534532
 20
222.45144884159919
 30
0.0
 11
285.13223065534572
 21
431.32644884159902
 31
0.0
1001
ACAD
1000
ASC_BOUNDS
1002
{
1070
    19
1005
53A
1002
}
  0
LINE
  5
4DC
  8
0
 10
285.13223065534572
 20
431.32644884159902
 30
0.0
 11
422.63223065534561
 21
431.32644884159868
 31
0.0
1001
ACAD
1000
ASC_BOUNDS
1002
{
1070
    19
1005
53A
1002
}
  0
LINE
  5
4DD
  8
0
 10
424.2572306553422
 20
220.8264488415987
 30
0.0
 11
425.50723065534589
 21
220.8264488415987
 31
0.0
  0
LINE
  5
4DE
  8
0
 10
425.50723065534589
 20
220.8264488415987
 30
0.0
 11
425.50723065534601
 21
432.95144884159868
 31
0.0
  0
LINE
  5
4DF
  8
0
 10
425.50723065534601
 20
432.95144884159868
 30
0.0
 11
424.25723065534271
 21
432.95144884159868
 31
0.0
  0
LINE
  5
4E0
  8
0
 10
424.50723065534578
 20
331.88894884159492
 30
0.0
 11
424.25723065534572
 21
331.88894884159492
 31
0.0
  0
LINE
  5
4E1
  8
0
 10
424.25723065534572
 20
321.88894884159453
 30
0.0
 11
424.50723065534578
 21
321.88894884159453
 31
0.0
  0
LINE
  5
4E2
  8
0
 10
424.50723065534612
 20
326.88894769288009
 30
0.0
 11
424.50723065534612
 21
325.5948536160829
 31
0.0
  0
LINE
  5
4E3
  8
0
 10
424.50723065534612
 20
325.59485262053659
 30
0.0
 11
424.50723065534612
 21
324.38894884159549
 31
0.0
  0
LINE
  5
4E4
  8
0
 10
424.50723065534612
 20
324.38894864239558
 30
0.0
 11
424.50723065534612
 21
323.35341562625541
 31
0.0
  0
LINE
  5
4E5
  8
0
 10
424.50723065534612
 20
323.35341493566278
 30
0.0
 11
424.50723065534612
 21
322.55882182267328
 31
0.0
  0
LINE
  5
4E6
  8
0
 10
424.50723065534612
 20
322.5588206707796
 30
0.0
 11
424.50723065534612
 21
322.0593203604393
 31
0.0
  0
LINE
  5
4E7
  8
0
 10
424.50723065534612
 20
322.05931971015019
 30
0.0
 11
424.50723065534612
 21
321.88894884159561
 31
0.0
  0
LINE
  5
4E8
  8
0
 10
424.50723065534612
 20
331.88894884159561
 30
0.0
 11
424.50723065534612
 21
331.71857797304079
 31
0.0
  0
LINE
  5
4E9
  8
0
 10
424.50723065534612
 20
331.71857772275382
 30
0.0
 11
424.50723065534612
 21
330.42448274752832
 31
0.0
  0
LINE
  5
4EA
  8
0
 10
424.50723065534612
 20
330.4244825840741
 30
0.0
 11
424.50723065534612
 21
329.38894968640528
 31
0.0
  0
LINE
  5
4EB
  8
0
 10
424.50723065534612
 20
329.38894884159561
 30
0.0
 11
424.50723065534612
 21
326.88894884159549
 31
0.0
  0
LINE
  5
4EC
  8
0
 10
349.5072306553451
 20
220.57644884159811
 30
0.0
 11
349.5072306553451
 21
220.82644884159859
 31
0.0
  0
LINE
  5
4ED
  8
0
 10
348.00723065534521
 20
220.82644884159859
 30
0.0
 11
348.00723065534521
 21
220.57644884159811
 31
0.0
  0
LINE
  5
4EE
  8
0
 10
289.75723065534493
 20
220.57644884159819
 30
0.0
 11
289.75723065534493
 21
220.82644884159859
 31
0.0
  0
LINE
  5
4EF
  8
0
 10
286.75723065534493
 20
220.82644884159859
 30
0.0
 11
286.75723065534493
 21
220.57644884159819
 31
0.0
  0
LINE
  5
4F0
  8
0
 10
285.8822306553447
 20
220.82644884159859
 30
0.0
 11
285.8822306553447
 21
220.57644884159819
 31
0.0
  0
LINE
  5
4F1
  8
0
 10
349.50723065534538
 20
220.57644884159839
 30
0.0
 11
349.48167502506209
 21
220.57644884159839
 31
0.0
  0
LINE
  5
4F2
  8
0
 10
349.48167471495577
 20
220.57644884159839
 30
0.0
 11
349.40675022008969
 21
220.57644884159839
 31
0.0
  0
LINE
  5
4F3
  8
0
 10
349.40674970818372
 20
220.57644884159839
 30
0.0
 11
349.28756140762903
 21
220.57644884159839
 31
0.0
  0
LINE
  5
4F4
  8
0
 10
349.28756074123532
 20
220.57644884159839
 30
0.0
 11
348.95134535986961
 21
220.57644884159839
 31
0.0
  0
LINE
  5
4F5
  8
0
 10
348.95134493917232
 20
220.57644884159839
 30
0.0
 11
348.5631163715185
 21
220.57644884159839
 31
0.0
  0
LINE
  5
4F6
  8
0
 10
348.5631159508311
 20
220.57644884159839
 30
0.0
 11
348.22690056945549
 21
220.57644884159839
 31
0.0
  0
LINE
  5
4F7
  8
0
 10
348.22689990307327
 20
220.57644884159839
 30
0.0
 11
348.0327862856285
 21
220.57644884159839
 31
0.0
  0
LINE
  5
4F8
  8
0
 10
348.03278435020383
 20
220.57644884159839
 30
0.0
 11
348.00723065534538
 21
220.57644884159839
 31
0.0
  0
LINE
  5
4F9
  8
0
 10
289.75723065534538
 20
220.5764488415987
 30
0.0
 11
289.55626876102201
 21
220.5764488415987
 31
0.0
  0
LINE
  5
4FA
  8
0
 10
289.55626861908218
 20
220.5764488415987
 30
0.0
 11
289.00723274337122
 21
220.5764488415987
 31
0.0
  0
LINE
  5
4FB
  8
0
 10
289.00723065534538
 20
220.5764488415987
 30
0.0
 11
288.6454620642474
 21
220.5764488415987
 31
0.0
  0
LINE
  5
4FC
  8
0
 10
288.64545922299919
 20
220.5764488415987
 30
0.0
 11
288.25723258466201
 21
220.5764488415987
 31
0.0
  0
LINE
  5
4FD
  8
0
 10
288.25723065534538
 20
220.5764488415987
 30
0.0
 11
287.86900316722267
 21
220.5764488415987
 31
0.0
  0
LINE
  5
4FE
  8
0
 10
287.86900208769163
 20
220.5764488415987
 30
0.0
 11
286.95819254966869
 21
220.5764488415987
 31
0.0
  0
LINE
  5
4FF
  8
0
 10
286.95819027627948
 20
220.5764488415987
 30
0.0
 11
286.8083419159118
 21
220.5764488415987
 31
0.0
  0
LINE
  5
500
  8
0
 10
286.80834183786499
 20
220.5764488415987
 30
0.0
 11
286.75723065534538
 21
220.5764488415987
 31
0.0
  0
LINE
  5
501
  8
0
 10
286.75612980117131
 20
220.5764488415987
 30
0.0
 11
286.62341161024273
 21
220.5764488415987
 31
0.0
  0
LINE
  5
502
  8
0
 10
286.623411049325
 20
220.5764488415987
 30
0.0
 11
286.38223244837587
 21
220.5764488415987
 31
0.0
  0
LINE
  5
503
  8
0
 10
286.38223065534521
 20
220.5764488415987
 30
0.0
 11
286.1751238741586
 21
220.5764488415987
 31
0.0
  0
LINE
  5
504
  8
0
 10
286.17512298564799
 20
220.5764488415987
 30
0.0
 11
286.01620525156079
 21
220.5764488415987
 31
0.0
  0
LINE
  5
505
  8
0
 10
286.01620456903441
 20
220.5764488415987
 30
0.0
 11
285.91630482905612
 21
220.5764488415987
 31
0.0
  0
LINE
  5
506
  8
0
 10
285.91630224848711
 20
220.5764488415987
 30
0.0
 11
285.88223065534521
 21
220.5764488415987
 31
0.0
  0
LINE
  5
507
  8
0
 10
315.63223065534493
 20
220.57644884159811
 30
0.0
 11
315.63223065534493
 21
220.82644884159859
 31
0.0
  0
LINE
  5
508
  8
0
 10
305.63223065534521
 20
220.82644884159859
 30
0.0
 11
305.63223065534521
 21
220.57644884159811
 31
0.0
  0
LINE
  5
509
  8
0
 10
315.63223065534561
 20
220.57644884159851
 30
0.0
 11
314.96235858774003
 21
220.57644884159851
 31
0.0
  0
LINE
  5
50A
  8
0
 10
314.96235767426771
 20
220.57644884159851
 30
0.0
 11
314.16776678205099
 21
220.57644884159851
 31
0.0
  0
LINE
  5
50B
  8
0
 10
314.16776456127832
 20
220.57644884159851
 30
0.0
 11
311.9263266856193
 21
220.57644884159851
 31
0.0
  0
LINE
  5
50C
  8
0
 10
311.92632588085809
 20
220.57644884159851
 30
0.0
 11
310.6322306553455
 21
220.57644884159851
 31
0.0
  0
LINE
  5
50D
  8
0
 10
310.63222872603842
 20
220.57644884159851
 30
0.0
 11
306.3021046332625
 21
220.57644884159851
 31
0.0
  0
LINE
  5
50E
  8
0
 10
306.30210363642328
 20
220.57644884159851
 30
0.0
 11
305.80260152390019
 21
220.57644884159851
 31
0.0
  0
LINE
  5
50F
  8
0
 10
305.8025962065812
 20
220.57644884159851
 30
0.0
 11
305.63223065534561
 21
220.57644884159851
 31
0.0
  0
INSERT
  5
530
  8
0
  6
CONTINUOUS
  2
*X3
 10
0.0
 20
0.0
 30
0.0
1001
GRADIENTCOLOR1ACI
1070
     5
1001
GRADIENTCOLOR2ACI
1070
     2
1001
ACAD
1000
HATCH
1002
{
1070
    19
1000
NET
1040
12.0
1040
0.0
1000
ASC_BOUNDS
1070
     5
1070
     1
1070
     4
1005
3DA
1005
3DB
1005
3CA
1005
3D9
1070
     1
1070
     4
1005
3D4
1005
3DB
1005
3D2
1005
3D9
1070
     1
1070
     4
1005
3C8
1005
3DB
1005
3C6
1005
3D9
1070
     1
1070
     4
1005
3D0
1005
3DB
1005
3CE
1005
3D9
1070
     1
1070
     4
1005
3C3
1005
3DB
1005
3D8
1005
3D9
1000
ASC_SEEDPOINT
1011
517.2562423157483
1021
0.0
1031
0.0
1021
61.99931606134043
1031
0.0
1000
R14_HATCH_DATA
1000
530
1011
1.0
1021
0.0
1031
0.0
1021
0.0
1031
0.0
1011
0.0
1021
0.0
1031
0.0
1021
1.0
1031
0.0
1011
0.0
1021
0.0
1031
0.0
1021
0.0
1031
1.0
1040
0.0
1010
0.0
1020
0.0
1030
1.0
1000
NET
1070
     0
1070
     1
1071
        5
1071
        7
1070
     0
1070
     1
1071
        4
1040
522.66314662646982
1040
98.375004503756884
1040
512.22709746572082
1040
98.375004503756784
1040
512.22709746572184
1040
4.0000045037562373
1040
522.66314662646982
1040
4.0000045037563581
1071
        4
1005
3D9
1005
3D8
1005
3DB
1005
3C3
1071
        7
1070
     0
1070
     1
1071
        4
1040
576.66459746572139
1040
98.375004503757452
1040
548.67218615683839
1040
98.375004503757168
1040
548.67218615683839
1040
4.0000045037566059
1040
576.66459746572139
1040
4.000004503756883
1071
        4
1005
3D9
1005
3CE
1005
3DB
1005
3D0
1071
        7
1070
     0
1070
     1
1071
        4
1040
630.67359712039286
1040
98.375004503758021
1040
602.66459746572139
1040
98.375004503757722
1040
602.66459746572139
1040
4.0000045037571681
1040
630.67359712039286
1040
4.0000045037574656
1071
        4
1005
3D9
1005
3C6
1005
3DB
1005
3C8
1071
        7
1070
     0
1070
     1
1071
        4
1040
684.66527652298964
1040
98.375004503758575
1040
656.65661278249058
1040
98.375004503758277
1040
656.65661278249058
1040
4.0000045037577223
1040
684.66527652298964
1040
4.0000045037580056
1071
        4
1005
3D9
1005
3D2
1005
3DB
1005
3D4
1071
        7
1070
     0
1070
     1
1071
        4
1040
721.10209746572082
1040
98.375004503758944
1040
710.6505829355699
1040
98.375004503758845
1040
710.6505829355699
1040
4.0000045037582757
1040
721.10209746572173
1040
4.0000045037583973
1071
        4
1005
3D9
1005
3CA
1005
3DB
1005
3DA
1070
     1
1070
     1
1040
0.0
1040
12.0
1070
     0
1070
     2
1040
0.0
1040
0.0
1040
0.0
1040
0.0
1040
1.5
1070
     0
1040
1.5707963267948959
1040
0.0
1040
0.0
1040
-1.5
1040
0.0000000000000001
1070
     0
1040
0.3038848510542002
1071
        5
1040
517.2562423157483
1040
61.99931606134043
1040
0.0
1040
556.78033874528899
1040
68.68478300728259
1040
0.0
1040
616.37051454132325
1040
74.458595369687146
1040
0.0
1040
676.26472148908067
1040
76.28190453676234
1040
0.0
1040
720.04525943184444
1040
74.762480230866345
1040
0.0
1002
}
  0
INSERT
  5
53A
  8
0
  6
CONTINUOUS
  2
*X4
 10
0.0
 20
0.0
 30
0.0
1001
GRADIENTCOLOR1ACI
1070
     5
1001
GRADIENTCOLOR2ACI
1070
     2
1001
ACAD
1000
HATCH
1002
{
1070
    19
1000
ANSI31
1040
12.0
1040
2.3561944901923439
1000
ASC_BOUNDS
1070
     1
1070
     1
1070
     4
1005
4D9
1005
4DA
1005
4DB
1005
4DC
1000
ASC_SEEDPOINT
1011
307.14267162736161
1021
0.0
1031
0.0
1021
394.33671806428941
1031
0.0
1000
R14_HATCH_DATA
1000
53A
1011
1.0
1021
0.0
1031
0.0
1021
0.0
1031
0.0
1011
0.0
1021
0.0
1031
0.0
1021
1.0
1031
0.0
1011
0.0
1021
0.0
1031
0.0
1021
0.0
1031
1.0
1040
0.0
1010
0.0
1020
0.0
1030
1.0
1000
ANSI31
1070
     0
1070
     1
1071
        1
1071
        7
1070
     0
1070
     1
1071
        4
1040
422.63223065534561
1040
431.32644884159868
1040
285.13223065534572
1040
431.32644884159902
1040
285.13223065534532
1040
222.45144884159919
1040
422.63223065534521
1040
222.45144884159879
1071
        4
1005
4DC
1005
4DB
1005
4DA
1005
4D9
1070
     1
1070
     1
1040
2.3561944901923439
1040
12.0
1070
     0
1070
     1
1040
3.1415926535897931
1040
0.0
1040
0.0
1040
-0.0000000000000002
1040
-1.5
1070
     0
1040
0.4860252383946801
1071
        1
1040
307.14267162736161
1040
394.33671806428941
1040
0.0
1002
}
  0
ENDSEC
  0
EOF
