  0
SECTION
  2
HEADER
  9
$ACADVER
  1
AC1009
  9
$INSBASE
 10
0.0
 20
0.0
 30
0.0
  9
$EXTMIN
 10
32.908916199628948
 20
22.464712879063651
 30
-0.0015258207003583
  9
$EXTMAX
 10
361.39150423225101
 20
238.50515438020329
 30
0.0000000349246037
  9
$LIMMIN
 10
0.0
 20
0.0
  9
$LIMMAX
 10
12.0
 20
9.0
  9
$ORTHOMODE
 70
     1
  9
$REGENMODE
 70
     1
  9
$FILLMODE
 70
     1
  9
$QTEXTMODE
 70
     0
  9
$MIRRTEXT
 70
     0
  9
$DRAGMODE
 70
     2
  9
$LTSCALE
 40
48.0
  9
$OSMODE
 70
    37
  9
$ATTMODE
 70
     1
  9
$TEXTSIZE
 40
0.2
  9
$TRACEWID
 40
0.05
  9
$TEXTSTYLE
  7
ROMANS
  9
$CLAYER
  8
0
  9
$CELTYPE
  6
BYLAYER
  9
$CECOLOR
 62
   256
  9
$DIMSCALE
 40
1.0
  9
$DIMASZ
 40
0.09375
  9
$DIMEXO
 40
0.0625
  9
$DIMDLI
 40
0.375
  9
$DIMRND
 40
0.0
  9
$DIMDLE
 40
0.0
  9
$DIMEXE
 40
0.03125
  9
$DIMTP
 40
0.0
  9
$DIMTM
 40
0.0
  9
$DIMTXT
 40
0.09375
  9
$DIMCEN
 40
0.09375
  9
$DIMTSZ
 40
0.0
  9
$DIMTOL
 70
     0
  9
$DIMLIM
 70
     0
  9
$DIMTIH
 70
     0
  9
$DIMTOH
 70
     0
  9
$DIMSE1
 70
     0
  9
$DIMSE2
 70
     0
  9
$DIMTAD
 70
     0
  9
$DIMZIN
 70
     0
  9
$DIMBLK
  1

  9
$DIMASO
 70
     1
  9
$DIMSHO
 70
     1
  9
$DIMPOST
  1

  9
$DIMAPOST
  1

  9
$DIMALT
 70
     0
  9
$DIMALTD
 70
     2
  9
$DIMALTF
 40
25.399999999999999
  9
$DIMLFAC
 40
1.0
  9
$DIMTOFL
 70
     0
  9
$DIMTVP
 40
0.0
  9
$DIMTIX
 70
     0
  9
$DIMSOXD
 70
     0
  9
$DIMSAH
 70
     0
  9
$DIMBLK1
  1

  9
$DIMBLK2
  1

  9
$DIMSTYLE
  2
BAC
  9
$DIMCLRD
 70
     0
  9
$DIMCLRE
 70
     6
  9
$DIMCLRT
 70
     0
  9
$DIMTFAC
 40
1.0
  9
$DIMGAP
 40
0.0625
  9
$LUNITS
 70
     5
  9
$LUPREC
 70
     6
  9
$SKETCHINC
 40
0.1
  9
$FILLETRAD
 40
0.0
  9
$AUNITS
 70
     0
  9
$AUPREC
 70
     0
  9
$MENU
  1
.
  9
$ELEVATION
 40
0.0
  9
$PELEVATION
 40
0.0
  9
$THICKNESS
 40
0.0
  9
$LIMCHECK
 70
     0
  9
$BLIPMODE
 70
     0
  9
$CHAMFERA
 40
0.5
  9
$CHAMFERB
 40
0.5
  9
$SKPOLY
 70
     0
  9
$TDCREATE
 40
2456825.6795218061
  9
$TDUPDATE
 40
2456825.6847469681
  9
$TDINDWG
 40
0.0052268287
  9
$TDUSRTIMER
 40
0.005226412
  9
$USRTIMER
 70
     1
  9
$ANGBASE
 50
0.0
  9
$ANGDIR
 70
     0
  9
$PDMODE
 70
     0
  9
$PDSIZE
 40
0.0
  9
$PLINEWID
 40
0.0
  9
$COORDS
 70
     1
  9
$SPLFRAME
 70
     0
  9
$SPLINETYPE
 70
     6
  9
$SPLINESEGS
 70
     8
  9
$ATTDIA
 70
     0
  9
$ATTREQ
 70
     1
  9
$HANDLING
 70
     1
  9
$HANDSEED
  5
8F0
  9
$SURFTAB1
 70
     6
  9
$SURFTAB2
 70
     6
  9
$SURFTYPE
 70
     6
  9
$SURFU
 70
     6
  9
$SURFV
 70
     6
  9
$UCSNAME
  2

  9
$UCSORG
 10
0.0
 20
0.0
 30
0.0
  9
$UCSXDIR
 10
1.0
 20
0.0
 30
0.0
  9
$UCSYDIR
 10
0.0
 20
1.0
 30
0.0
  9
$PUCSNAME
  2

  9
$PUCSORG
 10
0.0
 20
0.0
 30
0.0
  9
$PUCSXDIR
 10
1.0
 20
0.0
 30
0.0
  9
$PUCSYDIR
 10
0.0
 20
1.0
 30
0.0
  9
$USERI1
 70
     0
  9
$USERI2
 70
     0
  9
$USERI3
 70
     0
  9
$USERI4
 70
     0
  9
$USERI5
 70
     0
  9
$USERR1
 40
0.0
  9
$USERR2
 40
0.0
  9
$USERR3
 40
0.0
  9
$USERR4
 40
0.0
  9
$USERR5
 40
0.0
  9
$WORLDVIEW
 70
     1
  9
$SHADEDGE
 70
     3
  9
$SHADEDIF
 70
    70
  9
$TILEMODE
 70
     1
  9
$MAXACTVP
 70
    48
  9
$PLIMCHECK
 70
     0
  9
$PEXTMIN
 10
1.0000000000000000E+020
 20
1.0000000000000000E+020
 30
1.0000000000000000E+020
  9
$PEXTMAX
 10
-1.0000000000000000E+020
 20
-1.0000000000000000E+020
 30
-1.0000000000000000E+020
  9
$PLIMMIN
 10
0.0
 20
0.0
  9
$PLIMMAX
 10
12.0
 20
9.0
  9
$UNITMODE
 70
     0
  9
$VISRETAIN
 70
     1
  9
$PLINEGEN
 70
     0
  9
$PSLTSCALE
 70
     1
  0
ENDSEC
  0
SECTION
  2
TABLES
  0
TABLE
  2
VPORT
 70
     1
  0
VPORT
  2
*ACTIVE
 70
     0
 10
0.0
 20
0.0
 11
1.0
 21
1.0
 12
197.15021021594001
 22
130.48493362963339
 13
0.0
 23
0.0
 14
0.5
 24
0.5
 15
0.5
 25
0.5
 16
0.0
 26
0.0
 36
1.0
 17
0.0
 27
0.0
 37
0.0
 40
217.47751760868599
 41
1.7702552719200879
 42
50.0
 43
0.0
 44
0.0
 50
0.0
 51
0.0
 71
     0
 72
   100
 73
     1
 74
     1
 75
     0
 76
     0
 77
     0
 78
     0
  0
ENDTAB
  0
TABLE
  2
LTYPE
 70
    20
  0
LTYPE
  2
CONTINUOUS
 70
     0
  3
Solid line
 72
    65
 73
     0
 40
0.0
  0
LTYPE
  2
CENTER
 70
     0
  3
Center ____ _ ____ _ ____ _ ____ _ ____ _ ____
 72
    65
 73
     4
 40
2.0
 49
1.25
 49
-0.25
 49
0.25
 49
-0.25
  0
LTYPE
  2
CENTER2
 70
     0
  3
Center (.5x) ___ _ ___ _ ___ _ ___ _ ___ _ ___
 72
    65
 73
     4
 40
1.125
 49
0.75
 49
-0.125
 49
0.125
 49
-0.125
  0
LTYPE
  2
HIDDEN
 70
     0
  3
Hidden __ __ __ __ __ __ __ __ __ __ __ __ __ _
 72
    65
 73
     2
 40
0.375
 49
0.25
 49
-0.125
  0
LTYPE
  2
HIDDEN2
 70
     0
  3
Hidden (.5x) _ _ _ _ _ _ _ _ _ _ _ _ _ _ _ _ _
 72
    65
 73
     2
 40
0.1875
 49
0.125
 49
-0.0625
  0
LTYPE
  2
PHANTOM2
 70
     0
  3
Phantom (.5x) ___ _ _ ___ _ _ ___ _ _ ___ _ _
 72
    65
 73
     6
 40
1.25
 49
0.625
 49
-0.125
 49
0.125
 49
-0.125
 49
0.125
 49
-0.125
  0
LTYPE
  2
AMCONSTR
 70
     0
  3
_______________________
 72
    65
 73
     2
 40
9999.0
 49
9999.0
 49
0.0
  0
LTYPE
  2
AMZIGZAG2
 70
     0
  3
/\/-/\/-/\/-/\/-/\/-/\/
 72
    65
 73
     2
 40
0.4401
 49
0.0001
 49
-0.4400000000000001
  0
LTYPE
  2
ACANSTGB
 70
     0
  3
__ . . __ . .
 72
    65
 73
     6
 40
0.35433070866
 49
0.15748031496
 49
-0.03937007874
 49
0.03937007874
 49
-0.03937007874
 49
0.03937007874
 49
-0.03937007874
  0
LTYPE
  2
ACANSTGL
 70
     0
  3
_ _ _ _ _
 72
    65
 73
     2
 40
0.11811023622
 49
0.07874015748
 49
-0.03937007874
  0
ENDTAB
  0
TABLE
  2
LAYER
 70
     8
  0
LAYER
  2
0
 70
     0
 62
     7
  6
CONTINUOUS
  0
ENDTAB
  0
TABLE
  2
STYLE
 70
    11
  0
STYLE
  2
STANDARD
 70
     0
 40
0.0
 41
1.0
 50
0.0
 71
     0
 42
0.2
  3
txt
  4

  0
STYLE
  2
ROMANS
 70
     0
 40
0.0
 41
0.75
 50
0.0
 71
     0
 42
0.2
  3
romans.shx
  4

  0
STYLE
  2

 70
     1
 40
0.0
 41
1.0
 50
0.0
 71
     0
 42
0.2
  3
genltshp.shx
  4

  0
STYLE
  2
ACANSGDT
 70
     0
 40
0.0
 41
1.0
 50
0.0
 71
     0
 42
0.2
  3
amgdt.shx
  4

  0
ENDTAB
  0
TABLE
  2
VIEW
 70
     0
  0
ENDTAB
  0
TABLE
  2
UCS
 70
     0
  0
ENDTAB
  0
TABLE
  2
APPID
 70
    15
  0
APPID
  2
ACAD
 70
     0
  0
APPID
  2
ACAD_MLEADERVER
 70
     0
  0
APPID
  2
ACAD_DSTYLE_DIMJAG
 70
     0
  0
APPID
  2
ACAD_DSTYLE_DIMTALN
 70
     0
  0
APPID
  2
ACAD_PSEXT
 70
     0
  0
APPID
  2
ACADANNOPO
 70
     0
  0
APPID
  2
MCAD_NO_VIS
 70
     0
  0
APPID
  2
ACAD_TEMP_GRAPHIC
 70
     0
  0
APPID
  2
ACATTRIBSERVICES
 70
     0
  0
APPID
  2
DESIGNERASSEMBLIES
 70
     0
  0
APPID
  2
ACAD_DSTYLE_DIMBREAK
 70
     0
  0
APPID
  2
ACAD_NAV_VCDISPLAY
 70
     0
  0
APPID
  2
ACAD_EXEMPT_FROM_CAD_STANDARDS
 70
     0
  0
APPID
  2
GRADIENTCOLOR1ACI
 70
     0
  0
APPID
  2
GRADIENTCOLOR2ACI
 70
     0
  0
ENDTAB
  0
TABLE
  2
DIMSTYLE
 70
    14
  0
DIMSTYLE
  2
BAC
 70
     0
  3

  4

  5

  6

  7

 40
1.0
 41
0.09375
 42
0.0625
 43
0.375
 44
0.03125
 45
0.0
 46
0.0
 47
0.0
 48
0.0
140
0.09375
141
0.09375
142
0.0
143
25.399999999999999
144
1.0
145
0.0
146
1.0
147
0.0625
 71
     0
 72
     0
 73
     0
 74
     0
 75
     0
 76
     0
 77
     0
 78
     0
170
     0
171
     2
172
     0
173
     0
174
     0
175
     0
176
     0
177
     6
178
     0
  0
DIMSTYLE
  2
AM_ANSI
 70
     0
  3

  4
mm
  5

  6

  7

 40
1.0
 41
0.12
 42
0.05
 43
0.5
 44
0.1
 45
0.0
 46
0.0
 47
0.1
 48
0.1
140
0.12
141
0.0
142
0.0
143
25.399999999999999
144
1.0
145
0.0
146
0.71
147
0.06
 71
     0
 72
     0
 73
     1
 74
     1
 75
     0
 76
     0
 77
     0
 78
     7
170
     0
171
     2
172
     0
173
     0
174
     0
175
     0
176
   256
177
   256
178
     2
  0
DIMSTYLE
  2
AM_ANSI$3
 70
     0
  3

  4
mm
  5

  6

  7

 40
1.0
 41
0.12
 42
0.05
 43
0.5
 44
0.1
 45
0.0
 46
0.0
 47
0.1
 48
0.1
140
0.12
141
0.0
142
0.0
143
25.399999999999999
144
1.0
145
0.0
146
0.71
147
0.06
 71
     0
 72
     0
 73
     1
 74
     1
 75
     0
 76
     0
 77
     0
 78
     7
170
     0
171
     2
172
     0
173
     0
174
     0
175
     0
176
   256
177
   256
178
     2
  0
DIMSTYLE
  2
AM_ANSI$4
 70
     0
  3

  4
mm
  5

  6

  7

 40
1.0
 41
0.12
 42
0.05
 43
0.5
 44
0.1
 45
0.0
 46
0.0
 47
0.1
 48
0.1
140
0.12
141
0.0
142
0.0
143
25.399999999999999
144
1.0
145
0.0
146
0.71
147
0.06
 71
     0
 72
     0
 73
     1
 74
     1
 75
     0
 76
     0
 77
     0
 78
     7
170
     0
171
     2
172
     0
173
     0
174
     0
175
     0
176
   256
177
   256
178
     2
  0
DIMSTYLE
  2
AM_ANSI$7
 70
     0
  3

  4
mm
  5

  6

  7

 40
1.0
 41
0.12
 42
0.05
 43
0.5
 44
0.1
 45
0.0
 46
0.0
 47
0.1
 48
0.1
140
0.12
141
0.0
142
0.0
143
25.399999999999999
144
1.0
145
0.0
146
0.71
147
0.06
 71
     0
 72
     0
 73
     1
 74
     1
 75
     0
 76
     0
 77
     0
 78
     7
170
     0
171
     2
172
     0
173
     0
174
     0
175
     0
176
   256
177
   256
178
     2
  0
DIMSTYLE
  2
AM_ANSI$SF
 70
     0
  3

  4
mm
  5

  6

  7

 40
1.0
 41
0.12
 42
0.05
 43
0.5
 44
0.1
 45
0.0
 46
0.0
 47
0.1
 48
0.1
140
0.12
141
0.0
142
0.0
143
25.399999999999999
144
1.0
145
0.0
146
0.71
147
0.06
 71
     0
 72
     0
 73
     1
 74
     1
 75
     1
 76
     1
 77
     0
 78
     7
170
     0
171
     2
172
     0
173
     0
174
     0
175
     0
176
   256
177
   256
178
     2
  0
DIMSTYLE
  2
AM_ANSI$SH
 70
     0
  3

  4
mm
  5

  6
GENAXEH
  7

 40
1.0
 41
0.12
 42
0.05
 43
0.5
 44
0.1
 45
0.0
 46
0.0
 47
0.1
 48
0.1
140
0.12
141
0.0
142
0.0
143
25.399999999999999
144
1.0
145
0.0
146
0.71
147
0.06
 71
     0
 72
     0
 73
     1
 74
     1
 75
     1
 76
     1
 77
     0
 78
     7
170
     0
171
     2
172
     0
173
     1
174
     0
175
     0
176
   256
177
   256
178
     2
  0
DIMSTYLE
  2
STANDARD
 70
     0
  3

  4

  5

  6

  7

 40
1.0
 41
0.18
 42
0.0625
 43
0.38
 44
0.18
 45
0.0
 46
0.0
 47
0.0
 48
0.0
140
0.18
141
0.09
142
0.0
143
25.399999999999999
144
1.0
145
0.0
146
1.0
147
0.09
 71
     0
 72
     0
 73
     1
 74
     1
 75
     0
 76
     0
 77
     0
 78
     0
170
     0
171
     2
172
     0
173
     0
174
     0
175
     0
176
     0
177
     0
178
     0
  0
ENDTAB
  0
ENDSEC
  0
SECTION
  2
BLOCKS
  0
BLOCK
  8
0
  2
$MODEL_SPACE
 70
     0
 10
0.0
 20
0.0
 30
0.0
  3
$MODEL_SPACE
  1

  0
ENDBLK
  5
1A
  8
0
  0
BLOCK
 67
     1
  8
0
  2
$PAPER_SPACE
 70
     0
 10
0.0
 20
0.0
 30
0.0
  3
$PAPER_SPACE
  1

  0
ENDBLK
  5
17
 67
     1
  8
0
  0
BLOCK
  8
0
  2
*U0
 70
     1
 10
0.0
 20
0.0
 30
0.0
  3
*U0
  1

  0
ENDBLK
  5
17A
  8
0
  0
BLOCK
  8
0
  2
GENAXEH
 70
     0
 10
0.0
 20
0.0
 30
0.0
  3
GENAXEH
  1

  0
LINE
  5
1AD
  8
0
 10
-1.0
 20
0.0
 30
0.0
 11
1.0
 21
0.0
 31
0.0
  0
ENDBLK
  5
1AF
  8
0
  0
BLOCK
  8
0
  2
*X4
 70
     1
 10
0.0
 20
0.0
 30
0.0
  3
*X4
  1

  0
LINE
  5
5EB
  8
0
 62
     0
 10
226.59787028160369
 20
211.0346068287331
 30
0.0
 11
226.59787028160369
 21
279.90960682873299
 31
0.0
  0
LINE
  5
5EC
  8
0
 62
     0
 10
226.5336716133088
 20
211.09960682874191
 30
0.0
 11
226.6586716133088
 21
211.09960682874191
 31
0.0
  0
LINE
  5
5ED
  8
0
 62
     0
 10
226.5336716133088
 20
211.21760682874191
 30
0.0
 11
226.6586716133088
 21
211.21760682874191
 31
0.0
  0
LINE
  5
5EE
  8
0
 62
     0
 10
226.5336716133088
 20
211.3356068287419
 30
0.0
 11
226.6586716133088
 21
211.3356068287419
 31
0.0
  0
LINE
  5
5EF
  8
0
 62
     0
 10
226.5336716133088
 20
211.4536068287419
 30
0.0
 11
226.6586716133088
 21
211.4536068287419
 31
0.0
  0
LINE
  5
5F0
  8
0
 62
     0
 10
226.5336716133088
 20
211.57160682874189
 30
0.0
 11
226.6586716133088
 21
211.57160682874189
 31
0.0
  0
LINE
  5
5F1
  8
0
 62
     0
 10
226.5336716133088
 20
211.68960682874189
 30
0.0
 11
226.6586716133088
 21
211.68960682874189
 31
0.0
  0
LINE
  5
5F2
  8
0
 62
     0
 10
226.5336716133088
 20
211.807606828742
 30
0.0
 11
226.6586716133088
 21
211.807606828742
 31
0.0
  0
LINE
  5
5F3
  8
0
 62
     0
 10
226.5336716133088
 20
211.92560682874191
 30
0.0
 11
226.6586716133088
 21
211.92560682874191
 31
0.0
  0
LINE
  5
5F4
  8
0
 62
     0
 10
226.5336716133088
 20
212.0436068287419
 30
0.0
 11
226.6586716133088
 21
212.0436068287419
 31
0.0
  0
LINE
  5
5F5
  8
0
 62
     0
 10
226.5336716133088
 20
212.1616068287419
 30
0.0
 11
226.6586716133088
 21
212.1616068287419
 31
0.0
  0
LINE
  5
5F6
  8
0
 62
     0
 10
226.5336716133088
 20
212.27960682874189
 30
0.0
 11
226.6586716133088
 21
212.27960682874189
 31
0.0
  0
LINE
  5
5F7
  8
0
 62
     0
 10
226.5336716133088
 20
212.39760682874191
 30
0.0
 11
226.6586716133088
 21
212.39760682874191
 31
0.0
  0
LINE
  5
5F8
  8
0
 62
     0
 10
226.5336716133088
 20
212.51560682874191
 30
0.0
 11
226.6586716133088
 21
212.51560682874191
 31
0.0
  0
LINE
  5
5F9
  8
0
 62
     0
 10
226.5336716133088
 20
212.6336068287419
 30
0.0
 11
226.6586716133088
 21
212.6336068287419
 31
0.0
  0
LINE
  5
5FA
  8
0
 62
     0
 10
226.5336716133088
 20
212.7516068287419
 30
0.0
 11
226.6586716133088
 21
212.7516068287419
 31
0.0
  0
LINE
  5
5FB
  8
0
 62
     0
 10
226.5336716133088
 20
212.86960682874189
 30
0.0
 11
226.6586716133088
 21
212.86960682874189
 31
0.0
  0
LINE
  5
5FC
  8
0
 62
     0
 10
226.5336716133088
 20
212.98760682874189
 30
0.0
 11
226.6586716133088
 21
212.98760682874189
 31
0.0
  0
LINE
  5
5FD
  8
0
 62
     0
 10
226.5336716133088
 20
213.10560682874191
 30
0.0
 11
226.6586716133088
 21
213.10560682874191
 31
0.0
  0
LINE
  5
5FE
  8
0
 62
     0
 10
226.5336716133088
 20
213.22360682874191
 30
0.0
 11
226.6586716133088
 21
213.22360682874191
 31
0.0
  0
LINE
  5
5FF
  8
0
 62
     0
 10
226.5336716133088
 20
213.3416068287419
 30
0.0
 11
226.6586716133088
 21
213.3416068287419
 31
0.0
  0
LINE
  5
600
  8
0
 62
     0
 10
226.5336716133088
 20
213.4596068287419
 30
0.0
 11
226.6586716133088
 21
213.4596068287419
 31
0.0
  0
LINE
  5
601
  8
0
 62
     0
 10
226.5336716133088
 20
213.57760682874189
 30
0.0
 11
226.6586716133088
 21
213.57760682874189
 31
0.0
  0
LINE
  5
602
  8
0
 62
     0
 10
226.5336716133088
 20
213.69560682874189
 30
0.0
 11
226.6586716133088
 21
213.69560682874189
 31
0.0
  0
LINE
  5
603
  8
0
 62
     0
 10
226.5336716133088
 20
213.81360682874191
 30
0.0
 11
226.6586716133088
 21
213.81360682874191
 31
0.0
  0
LINE
  5
604
  8
0
 62
     0
 10
226.5336716133088
 20
213.93160682874191
 30
0.0
 11
226.6586716133088
 21
213.93160682874191
 31
0.0
  0
LINE
  5
605
  8
0
 62
     0
 10
226.5336716133088
 20
214.0496068287419
 30
0.0
 11
226.6586716133088
 21
214.0496068287419
 31
0.0
  0
LINE
  5
606
  8
0
 62
     0
 10
226.5336716133088
 20
214.1676068287419
 30
0.0
 11
226.6586716133088
 21
214.1676068287419
 31
0.0
  0
LINE
  5
607
  8
0
 62
     0
 10
226.5336716133088
 20
214.28560682874189
 30
0.0
 11
226.6586716133088
 21
214.28560682874189
 31
0.0
  0
LINE
  5
608
  8
0
 62
     0
 10
226.5336716133088
 20
214.40360682874191
 30
0.0
 11
226.6586716133088
 21
214.40360682874191
 31
0.0
  0
LINE
  5
609
  8
0
 62
     0
 10
226.5336716133088
 20
214.52160682874191
 30
0.0
 11
226.6586716133088
 21
214.52160682874191
 31
0.0
  0
LINE
  5
60A
  8
0
 62
     0
 10
226.5336716133088
 20
214.6396068287419
 30
0.0
 11
226.6586716133088
 21
214.6396068287419
 31
0.0
  0
LINE
  5
60B
  8
0
 62
     0
 10
226.5336716133088
 20
214.7576068287419
 30
0.0
 11
226.6586716133088
 21
214.7576068287419
 31
0.0
  0
LINE
  5
60C
  8
0
 62
     0
 10
226.5336716133088
 20
214.87560682874189
 30
0.0
 11
226.6586716133088
 21
214.87560682874189
 31
0.0
  0
LINE
  5
60D
  8
0
 62
     0
 10
226.5336716133088
 20
214.99360682874189
 30
0.0
 11
226.6586716133088
 21
214.99360682874189
 31
0.0
  0
LINE
  5
60E
  8
0
 62
     0
 10
226.5336716133088
 20
215.11160682874191
 30
0.0
 11
226.6586716133088
 21
215.11160682874191
 31
0.0
  0
LINE
  5
60F
  8
0
 62
     0
 10
226.5336716133088
 20
215.22960682874191
 30
0.0
 11
226.6586716133088
 21
215.22960682874191
 31
0.0
  0
LINE
  5
610
  8
0
 62
     0
 10
226.5336716133088
 20
215.3476068287419
 30
0.0
 11
226.6586716133088
 21
215.3476068287419
 31
0.0
  0
LINE
  5
611
  8
0
 62
     0
 10
226.5336716133088
 20
215.4656068287419
 30
0.0
 11
226.6586716133088
 21
215.4656068287419
 31
0.0
  0
LINE
  5
612
  8
0
 62
     0
 10
226.5336716133088
 20
215.58360682874189
 30
0.0
 11
226.6586716133088
 21
215.58360682874189
 31
0.0
  0
LINE
  5
613
  8
0
 62
     0
 10
226.5336716133088
 20
215.70160682874189
 30
0.0
 11
226.6586716133088
 21
215.70160682874189
 31
0.0
  0
LINE
  5
614
  8
0
 62
     0
 10
226.5336716133088
 20
215.81960682874191
 30
0.0
 11
226.6586716133088
 21
215.81960682874191
 31
0.0
  0
LINE
  5
615
  8
0
 62
     0
 10
226.5336716133088
 20
215.93760682874191
 30
0.0
 11
226.6586716133088
 21
215.93760682874191
 31
0.0
  0
LINE
  5
616
  8
0
 62
     0
 10
226.5336716133088
 20
216.0556068287419
 30
0.0
 11
226.6586716133088
 21
216.0556068287419
 31
0.0
  0
LINE
  5
617
  8
0
 62
     0
 10
226.5336716133088
 20
216.1736068287419
 30
0.0
 11
226.6586716133088
 21
216.1736068287419
 31
0.0
  0
LINE
  5
618
  8
0
 62
     0
 10
226.5336716133088
 20
216.29160682874189
 30
0.0
 11
226.6586716133088
 21
216.29160682874189
 31
0.0
  0
LINE
  5
619
  8
0
 62
     0
 10
226.5336716133088
 20
216.40960682874189
 30
0.0
 11
226.6586716133088
 21
216.40960682874189
 31
0.0
  0
LINE
  5
61A
  8
0
 62
     0
 10
226.5336716133088
 20
216.52760682874191
 30
0.0
 11
226.6586716133088
 21
216.52760682874191
 31
0.0
  0
LINE
  5
61B
  8
0
 62
     0
 10
226.5336716133088
 20
216.6456068287419
 30
0.0
 11
226.6586716133088
 21
216.6456068287419
 31
0.0
  0
LINE
  5
61C
  8
0
 62
     0
 10
226.5336716133088
 20
216.7636068287419
 30
0.0
 11
226.6586716133088
 21
216.7636068287419
 31
0.0
  0
LINE
  5
61D
  8
0
 62
     0
 10
226.5336716133088
 20
216.88160682874189
 30
0.0
 11
226.6586716133088
 21
216.88160682874189
 31
0.0
  0
LINE
  5
61E
  8
0
 62
     0
 10
226.5336716133088
 20
216.99960682874189
 30
0.0
 11
226.6586716133088
 21
216.99960682874189
 31
0.0
  0
LINE
  5
61F
  8
0
 62
     0
 10
226.5336716133088
 20
217.11760682874191
 30
0.0
 11
226.6586716133088
 21
217.11760682874191
 31
0.0
  0
LINE
  5
620
  8
0
 62
     0
 10
226.5336716133088
 20
217.23560682874191
 30
0.0
 11
226.6586716133088
 21
217.23560682874191
 31
0.0
  0
LINE
  5
621
  8
0
 62
     0
 10
226.5336716133088
 20
217.3536068287419
 30
0.0
 11
226.6586716133088
 21
217.3536068287419
 31
0.0
  0
LINE
  5
622
  8
0
 62
     0
 10
226.5336716133088
 20
217.4716068287419
 30
0.0
 11
226.6586716133088
 21
217.4716068287419
 31
0.0
  0
LINE
  5
623
  8
0
 62
     0
 10
226.5336716133088
 20
217.58960682874189
 30
0.0
 11
226.6586716133088
 21
217.58960682874189
 31
0.0
  0
LINE
  5
624
  8
0
 62
     0
 10
226.5336716133088
 20
217.70760682874189
 30
0.0
 11
226.6586716133088
 21
217.70760682874189
 31
0.0
  0
LINE
  5
625
  8
0
 62
     0
 10
226.5336716133088
 20
217.82560682874191
 30
0.0
 11
226.6586716133088
 21
217.82560682874191
 31
0.0
  0
LINE
  5
626
  8
0
 62
     0
 10
226.5336716133088
 20
217.94360682874191
 30
0.0
 11
226.6586716133088
 21
217.94360682874191
 31
0.0
  0
LINE
  5
627
  8
0
 62
     0
 10
226.5336716133088
 20
218.0616068287419
 30
0.0
 11
226.6586716133088
 21
218.0616068287419
 31
0.0
  0
LINE
  5
628
  8
0
 62
     0
 10
226.5336716133088
 20
218.1796068287419
 30
0.0
 11
226.6586716133088
 21
218.1796068287419
 31
0.0
  0
LINE
  5
629
  8
0
 62
     0
 10
226.5336716133088
 20
218.29760682874189
 30
0.0
 11
226.6586716133088
 21
218.29760682874189
 31
0.0
  0
LINE
  5
62A
  8
0
 62
     0
 10
226.5336716133088
 20
218.41560682874189
 30
0.0
 11
226.6586716133088
 21
218.41560682874189
 31
0.0
  0
LINE
  5
62B
  8
0
 62
     0
 10
226.5336716133088
 20
218.53360682874191
 30
0.0
 11
226.6586716133088
 21
218.53360682874191
 31
0.0
  0
LINE
  5
62C
  8
0
 62
     0
 10
226.5336716133088
 20
218.6516068287419
 30
0.0
 11
226.6586716133088
 21
218.6516068287419
 31
0.0
  0
LINE
  5
62D
  8
0
 62
     0
 10
226.5336716133088
 20
218.7696068287419
 30
0.0
 11
226.6586716133088
 21
218.7696068287419
 31
0.0
  0
LINE
  5
62E
  8
0
 62
     0
 10
226.5336716133088
 20
218.88760682874189
 30
0.0
 11
226.6586716133088
 21
218.88760682874189
 31
0.0
  0
LINE
  5
62F
  8
0
 62
     0
 10
226.5336716133088
 20
219.00560682874189
 30
0.0
 11
226.6586716133088
 21
219.00560682874189
 31
0.0
  0
LINE
  5
630
  8
0
 62
     0
 10
226.5336716133088
 20
219.12360682874191
 30
0.0
 11
226.6586716133088
 21
219.12360682874191
 31
0.0
  0
LINE
  5
631
  8
0
 62
     0
 10
226.5336716133088
 20
219.24160682874191
 30
0.0
 11
226.6586716133088
 21
219.24160682874191
 31
0.0
  0
LINE
  5
632
  8
0
 62
     0
 10
226.5336716133088
 20
219.3596068287419
 30
0.0
 11
226.6586716133088
 21
219.3596068287419
 31
0.0
  0
LINE
  5
633
  8
0
 62
     0
 10
226.5336716133088
 20
219.4776068287419
 30
0.0
 11
226.6586716133088
 21
219.4776068287419
 31
0.0
  0
LINE
  5
634
  8
0
 62
     0
 10
226.5336716133088
 20
219.59560682874189
 30
0.0
 11
226.6586716133088
 21
219.59560682874189
 31
0.0
  0
LINE
  5
635
  8
0
 62
     0
 10
226.5336716133088
 20
219.71360682874189
 30
0.0
 11
226.6586716133088
 21
219.71360682874189
 31
0.0
  0
LINE
  5
636
  8
0
 62
     0
 10
226.5336716133088
 20
219.83160682874191
 30
0.0
 11
226.6586716133088
 21
219.83160682874191
 31
0.0
  0
LINE
  5
637
  8
0
 62
     0
 10
226.5336716133088
 20
219.94960682874199
 30
0.0
 11
226.6586716133088
 21
219.94960682874199
 31
0.0
  0
LINE
  5
638
  8
0
 62
     0
 10
226.5336716133088
 20
220.0676068287419
 30
0.0
 11
226.6586716133088
 21
220.0676068287419
 31
0.0
  0
LINE
  5
639
  8
0
 62
     0
 10
226.5336716133088
 20
220.1856068287419
 30
0.0
 11
226.6586716133088
 21
220.1856068287419
 31
0.0
  0
LINE
  5
63A
  8
0
 62
     0
 10
226.5336716133088
 20
220.30360682874189
 30
0.0
 11
226.6586716133088
 21
220.30360682874189
 31
0.0
  0
LINE
  5
63B
  8
0
 62
     0
 10
226.5336716133088
 20
220.42160682874189
 30
0.0
 11
226.6586716133088
 21
220.42160682874189
 31
0.0
  0
LINE
  5
63C
  8
0
 62
     0
 10
226.5336716133088
 20
220.539606828742
 30
0.0
 11
226.6586716133088
 21
220.539606828742
 31
0.0
  0
LINE
  5
63D
  8
0
 62
     0
 10
226.5336716133088
 20
220.6576068287419
 30
0.0
 11
226.6586716133088
 21
220.6576068287419
 31
0.0
  0
LINE
  5
63E
  8
0
 62
     0
 10
226.5336716133088
 20
220.7756068287419
 30
0.0
 11
226.6586716133088
 21
220.7756068287419
 31
0.0
  0
LINE
  5
63F
  8
0
 62
     0
 10
226.5336716133088
 20
220.89360682874189
 30
0.0
 11
226.6586716133088
 21
220.89360682874189
 31
0.0
  0
LINE
  5
640
  8
0
 62
     0
 10
226.5336716133088
 20
221.01160682874189
 30
0.0
 11
226.6586716133088
 21
221.01160682874189
 31
0.0
  0
LINE
  5
641
  8
0
 62
     0
 10
226.5336716133088
 20
221.12960682874191
 30
0.0
 11
226.6586716133088
 21
221.12960682874191
 31
0.0
  0
LINE
  5
642
  8
0
 62
     0
 10
226.5336716133088
 20
221.24760682874191
 30
0.0
 11
226.6586716133088
 21
221.24760682874191
 31
0.0
  0
LINE
  5
643
  8
0
 62
     0
 10
226.5336716133088
 20
221.36560682874199
 30
0.0
 11
226.6586716133088
 21
221.36560682874199
 31
0.0
  0
LINE
  5
644
  8
0
 62
     0
 10
226.5336716133088
 20
221.4836068287419
 30
0.0
 11
226.6586716133088
 21
221.4836068287419
 31
0.0
  0
LINE
  5
645
  8
0
 62
     0
 10
226.5336716133088
 20
221.60160682874189
 30
0.0
 11
226.6586716133088
 21
221.60160682874189
 31
0.0
  0
LINE
  5
646
  8
0
 62
     0
 10
226.5336716133088
 20
221.71960682874189
 30
0.0
 11
226.6586716133088
 21
221.71960682874189
 31
0.0
  0
LINE
  5
647
  8
0
 62
     0
 10
226.5336716133088
 20
221.83760682874191
 30
0.0
 11
226.6586716133088
 21
221.83760682874191
 31
0.0
  0
LINE
  5
648
  8
0
 62
     0
 10
226.5336716133088
 20
221.95560682874199
 30
0.0
 11
226.6586716133088
 21
221.95560682874199
 31
0.0
  0
LINE
  5
649
  8
0
 62
     0
 10
226.5336716133088
 20
222.0736068287419
 30
0.0
 11
226.6586716133088
 21
222.0736068287419
 31
0.0
  0
LINE
  5
64A
  8
0
 62
     0
 10
226.5336716133088
 20
222.1916068287419
 30
0.0
 11
226.6586716133088
 21
222.1916068287419
 31
0.0
  0
LINE
  5
64B
  8
0
 62
     0
 10
226.5336716133088
 20
222.30960682874189
 30
0.0
 11
226.6586716133088
 21
222.30960682874189
 31
0.0
  0
LINE
  5
64C
  8
0
 62
     0
 10
226.5336716133088
 20
222.42760682874189
 30
0.0
 11
226.6586716133088
 21
222.42760682874189
 31
0.0
  0
LINE
  5
64D
  8
0
 62
     0
 10
226.5336716133088
 20
222.545606828742
 30
0.0
 11
226.6586716133088
 21
222.545606828742
 31
0.0
  0
LINE
  5
64E
  8
0
 62
     0
 10
226.5336716133088
 20
222.66360682874191
 30
0.0
 11
226.6586716133088
 21
222.66360682874191
 31
0.0
  0
LINE
  5
64F
  8
0
 62
     0
 10
226.5336716133088
 20
222.7816068287419
 30
0.0
 11
226.6586716133088
 21
222.7816068287419
 31
0.0
  0
LINE
  5
650
  8
0
 62
     0
 10
226.5336716133088
 20
222.8996068287419
 30
0.0
 11
226.6586716133088
 21
222.8996068287419
 31
0.0
  0
LINE
  5
651
  8
0
 62
     0
 10
226.5336716133088
 20
223.01760682874189
 30
0.0
 11
226.6586716133088
 21
223.01760682874189
 31
0.0
  0
LINE
  5
652
  8
0
 62
     0
 10
226.5336716133088
 20
223.13560682874191
 30
0.0
 11
226.6586716133088
 21
223.13560682874191
 31
0.0
  0
LINE
  5
653
  8
0
 62
     0
 10
226.5336716133088
 20
223.25360682874191
 30
0.0
 11
226.6586716133088
 21
223.25360682874191
 31
0.0
  0
LINE
  5
654
  8
0
 62
     0
 10
226.5336716133088
 20
223.3716068287419
 30
0.0
 11
226.6586716133088
 21
223.3716068287419
 31
0.0
  0
LINE
  5
655
  8
0
 62
     0
 10
226.5336716133088
 20
223.4896068287419
 30
0.0
 11
226.6586716133088
 21
223.4896068287419
 31
0.0
  0
LINE
  5
656
  8
0
 62
     0
 10
226.5336716133088
 20
223.60760682874189
 30
0.0
 11
226.6586716133088
 21
223.60760682874189
 31
0.0
  0
LINE
  5
657
  8
0
 62
     0
 10
226.5336716133088
 20
223.72560682874189
 30
0.0
 11
226.6586716133088
 21
223.72560682874189
 31
0.0
  0
LINE
  5
658
  8
0
 62
     0
 10
226.5336716133088
 20
223.84360682874191
 30
0.0
 11
226.6586716133088
 21
223.84360682874191
 31
0.0
  0
LINE
  5
659
  8
0
 62
     0
 10
226.5336716133088
 20
223.96160682874191
 30
0.0
 11
226.6586716133088
 21
223.96160682874191
 31
0.0
  0
LINE
  5
65A
  8
0
 62
     0
 10
226.5336716133088
 20
224.0796068287419
 30
0.0
 11
226.6586716133088
 21
224.0796068287419
 31
0.0
  0
LINE
  5
65B
  8
0
 62
     0
 10
226.5336716133088
 20
224.1976068287419
 30
0.0
 11
226.6586716133088
 21
224.1976068287419
 31
0.0
  0
LINE
  5
65C
  8
0
 62
     0
 10
226.5336716133088
 20
224.31560682874189
 30
0.0
 11
226.6586716133088
 21
224.31560682874189
 31
0.0
  0
LINE
  5
65D
  8
0
 62
     0
 10
226.5336716133088
 20
224.43360682874189
 30
0.0
 11
226.6586716133088
 21
224.43360682874189
 31
0.0
  0
LINE
  5
65E
  8
0
 62
     0
 10
226.5336716133088
 20
224.551606828742
 30
0.0
 11
226.6586716133088
 21
224.551606828742
 31
0.0
  0
LINE
  5
65F
  8
0
 62
     0
 10
226.5336716133088
 20
224.66960682874191
 30
0.0
 11
226.6586716133088
 21
224.66960682874191
 31
0.0
  0
LINE
  5
660
  8
0
 62
     0
 10
226.5336716133088
 20
224.7876068287419
 30
0.0
 11
226.6586716133088
 21
224.7876068287419
 31
0.0
  0
LINE
  5
661
  8
0
 62
     0
 10
226.5336716133088
 20
224.9056068287419
 30
0.0
 11
226.6586716133088
 21
224.9056068287419
 31
0.0
  0
LINE
  5
662
  8
0
 62
     0
 10
226.5336716133088
 20
225.02360682874189
 30
0.0
 11
226.6586716133088
 21
225.02360682874189
 31
0.0
  0
LINE
  5
663
  8
0
 62
     0
 10
226.5336716133088
 20
225.14160682874191
 30
0.0
 11
226.6586716133088
 21
225.14160682874191
 31
0.0
  0
LINE
  5
664
  8
0
 62
     0
 10
226.5336716133088
 20
225.25960682874191
 30
0.0
 11
226.6586716133088
 21
225.25960682874191
 31
0.0
  0
LINE
  5
665
  8
0
 62
     0
 10
226.5336716133088
 20
225.3776068287419
 30
0.0
 11
226.6586716133088
 21
225.3776068287419
 31
0.0
  0
LINE
  5
666
  8
0
 62
     0
 10
226.5336716133088
 20
225.4956068287419
 30
0.0
 11
226.6586716133088
 21
225.4956068287419
 31
0.0
  0
LINE
  5
667
  8
0
 62
     0
 10
226.5336716133088
 20
225.61360682874189
 30
0.0
 11
226.6586716133088
 21
225.61360682874189
 31
0.0
  0
LINE
  5
668
  8
0
 62
     0
 10
226.5336716133088
 20
225.73160682874189
 30
0.0
 11
226.6586716133088
 21
225.73160682874189
 31
0.0
  0
LINE
  5
669
  8
0
 62
     0
 10
226.5336716133088
 20
225.84960682874191
 30
0.0
 11
226.6586716133088
 21
225.84960682874191
 31
0.0
  0
LINE
  5
66A
  8
0
 62
     0
 10
226.5336716133088
 20
225.96760682874191
 30
0.0
 11
226.6586716133088
 21
225.96760682874191
 31
0.0
  0
LINE
  5
66B
  8
0
 62
     0
 10
226.5336716133088
 20
226.0856068287419
 30
0.0
 11
226.6586716133088
 21
226.0856068287419
 31
0.0
  0
LINE
  5
66C
  8
0
 62
     0
 10
226.5336716133088
 20
226.2036068287419
 30
0.0
 11
226.6586716133088
 21
226.2036068287419
 31
0.0
  0
LINE
  5
66D
  8
0
 62
     0
 10
226.5336716133088
 20
226.32160682874189
 30
0.0
 11
226.6586716133088
 21
226.32160682874189
 31
0.0
  0
LINE
  5
66E
  8
0
 62
     0
 10
226.5336716133088
 20
226.43960682874189
 30
0.0
 11
226.6586716133088
 21
226.43960682874189
 31
0.0
  0
LINE
  5
66F
  8
0
 62
     0
 10
226.5336716133088
 20
226.55760682874191
 30
0.0
 11
226.6586716133088
 21
226.55760682874191
 31
0.0
  0
LINE
  5
670
  8
0
 62
     0
 10
226.5336716133088
 20
226.67560682874191
 30
0.0
 11
226.6586716133088
 21
226.67560682874191
 31
0.0
  0
LINE
  5
671
  8
0
 62
     0
 10
226.5336716133088
 20
226.7936068287419
 30
0.0
 11
226.6586716133088
 21
226.7936068287419
 31
0.0
  0
LINE
  5
672
  8
0
 62
     0
 10
226.5336716133088
 20
226.9116068287419
 30
0.0
 11
226.6586716133088
 21
226.9116068287419
 31
0.0
  0
LINE
  5
673
  8
0
 62
     0
 10
226.5336716133088
 20
227.02960682874189
 30
0.0
 11
226.6586716133088
 21
227.02960682874189
 31
0.0
  0
LINE
  5
674
  8
0
 62
     0
 10
226.5336716133088
 20
227.14760682874191
 30
0.0
 11
226.6586716133088
 21
227.14760682874191
 31
0.0
  0
LINE
  5
675
  8
0
 62
     0
 10
226.5336716133088
 20
227.26560682874191
 30
0.0
 11
226.6586716133088
 21
227.26560682874191
 31
0.0
  0
LINE
  5
676
  8
0
 62
     0
 10
226.5336716133088
 20
227.3836068287419
 30
0.0
 11
226.6586716133088
 21
227.3836068287419
 31
0.0
  0
LINE
  5
677
  8
0
 62
     0
 10
226.5336716133088
 20
227.5016068287419
 30
0.0
 11
226.6586716133088
 21
227.5016068287419
 31
0.0
  0
LINE
  5
678
  8
0
 62
     0
 10
226.5336716133088
 20
227.61960682874189
 30
0.0
 11
226.6586716133088
 21
227.61960682874189
 31
0.0
  0
LINE
  5
679
  8
0
 62
     0
 10
226.5336716133088
 20
227.73760682874189
 30
0.0
 11
226.6586716133088
 21
227.73760682874189
 31
0.0
  0
LINE
  5
67A
  8
0
 62
     0
 10
226.5336716133088
 20
227.85560682874191
 30
0.0
 11
226.6586716133088
 21
227.85560682874191
 31
0.0
  0
LINE
  5
67B
  8
0
 62
     0
 10
226.5336716133088
 20
227.97360682874191
 30
0.0
 11
226.6586716133088
 21
227.97360682874191
 31
0.0
  0
LINE
  5
67C
  8
0
 62
     0
 10
226.5336716133088
 20
228.0916068287419
 30
0.0
 11
226.6586716133088
 21
228.0916068287419
 31
0.0
  0
LINE
  5
67D
  8
0
 62
     0
 10
226.5336716133088
 20
228.2096068287419
 30
0.0
 11
226.6586716133088
 21
228.2096068287419
 31
0.0
  0
LINE
  5
67E
  8
0
 62
     0
 10
226.5336716133088
 20
228.32760682874189
 30
0.0
 11
226.6586716133088
 21
228.32760682874189
 31
0.0
  0
LINE
  5
67F
  8
0
 62
     0
 10
226.5336716133088
 20
228.44560682874189
 30
0.0
 11
226.6586716133088
 21
228.44560682874189
 31
0.0
  0
LINE
  5
680
  8
0
 62
     0
 10
226.5336716133088
 20
228.56360682874191
 30
0.0
 11
226.6586716133088
 21
228.56360682874191
 31
0.0
  0
LINE
  5
681
  8
0
 62
     0
 10
226.5336716133088
 20
228.68160682874191
 30
0.0
 11
226.6586716133088
 21
228.68160682874191
 31
0.0
  0
LINE
  5
682
  8
0
 62
     0
 10
226.5336716133088
 20
228.7996068287419
 30
0.0
 11
226.6586716133088
 21
228.7996068287419
 31
0.0
  0
LINE
  5
683
  8
0
 62
     0
 10
226.5336716133088
 20
228.9176068287419
 30
0.0
 11
226.6586716133088
 21
228.9176068287419
 31
0.0
  0
LINE
  5
684
  8
0
 62
     0
 10
226.5336716133088
 20
229.03560682874189
 30
0.0
 11
226.6586716133088
 21
229.03560682874189
 31
0.0
  0
LINE
  5
685
  8
0
 62
     0
 10
226.5336716133088
 20
229.15360682874191
 30
0.0
 11
226.6586716133088
 21
229.15360682874191
 31
0.0
  0
LINE
  5
686
  8
0
 62
     0
 10
226.5336716133088
 20
229.27160682874191
 30
0.0
 11
226.6586716133088
 21
229.27160682874191
 31
0.0
  0
LINE
  5
687
  8
0
 62
     0
 10
226.5336716133088
 20
229.3896068287419
 30
0.0
 11
226.6586716133088
 21
229.3896068287419
 31
0.0
  0
LINE
  5
688
  8
0
 62
     0
 10
226.5336716133088
 20
229.5076068287419
 30
0.0
 11
226.6586716133088
 21
229.5076068287419
 31
0.0
  0
LINE
  5
689
  8
0
 62
     0
 10
226.5336716133088
 20
229.62560682874189
 30
0.0
 11
226.6586716133088
 21
229.62560682874189
 31
0.0
  0
LINE
  5
68A
  8
0
 62
     0
 10
226.5336716133088
 20
229.74360682874189
 30
0.0
 11
226.6586716133088
 21
229.74360682874189
 31
0.0
  0
LINE
  5
68B
  8
0
 62
     0
 10
226.5336716133088
 20
229.86160682874191
 30
0.0
 11
226.6586716133088
 21
229.86160682874191
 31
0.0
  0
LINE
  5
68C
  8
0
 62
     0
 10
226.5336716133088
 20
229.97960682874191
 30
0.0
 11
226.6586716133088
 21
229.97960682874191
 31
0.0
  0
LINE
  5
68D
  8
0
 62
     0
 10
226.5336716133088
 20
230.0976068287419
 30
0.0
 11
226.6586716133088
 21
230.0976068287419
 31
0.0
  0
LINE
  5
68E
  8
0
 62
     0
 10
226.5336716133088
 20
230.2156068287419
 30
0.0
 11
226.6586716133088
 21
230.2156068287419
 31
0.0
  0
LINE
  5
68F
  8
0
 62
     0
 10
226.5336716133088
 20
230.33360682874189
 30
0.0
 11
226.6586716133088
 21
230.33360682874189
 31
0.0
  0
LINE
  5
690
  8
0
 62
     0
 10
226.5336716133088
 20
230.45160682874189
 30
0.0
 11
226.6586716133088
 21
230.45160682874189
 31
0.0
  0
LINE
  5
691
  8
0
 62
     0
 10
226.5336716133088
 20
230.56960682874191
 30
0.0
 11
226.6586716133088
 21
230.56960682874191
 31
0.0
  0
LINE
  5
692
  8
0
 62
     0
 10
226.5336716133088
 20
230.68760682874191
 30
0.0
 11
226.6586716133088
 21
230.68760682874191
 31
0.0
  0
LINE
  5
693
  8
0
 62
     0
 10
226.5336716133088
 20
230.8056068287419
 30
0.0
 11
226.6586716133088
 21
230.8056068287419
 31
0.0
  0
LINE
  5
694
  8
0
 62
     0
 10
226.5336716133088
 20
230.9236068287419
 30
0.0
 11
226.6586716133088
 21
230.9236068287419
 31
0.0
  0
LINE
  5
695
  8
0
 62
     0
 10
226.5336716133088
 20
231.04160682874189
 30
0.0
 11
226.6586716133088
 21
231.04160682874189
 31
0.0
  0
LINE
  5
696
  8
0
 62
     0
 10
226.5336716133088
 20
231.15960682874189
 30
0.0
 11
226.6586716133088
 21
231.15960682874189
 31
0.0
  0
LINE
  5
697
  8
0
 62
     0
 10
226.5336716133088
 20
231.27760682874191
 30
0.0
 11
226.6586716133088
 21
231.27760682874191
 31
0.0
  0
LINE
  5
698
  8
0
 62
     0
 10
226.5336716133088
 20
231.3956068287419
 30
0.0
 11
226.6586716133088
 21
231.3956068287419
 31
0.0
  0
LINE
  5
699
  8
0
 62
     0
 10
226.5336716133088
 20
231.5136068287419
 30
0.0
 11
226.6586716133088
 21
231.5136068287419
 31
0.0
  0
LINE
  5
69A
  8
0
 62
     0
 10
226.5336716133088
 20
231.63160682874189
 30
0.0
 11
226.6586716133088
 21
231.63160682874189
 31
0.0
  0
LINE
  5
69B
  8
0
 62
     0
 10
226.5336716133088
 20
231.74960682874189
 30
0.0
 11
226.6586716133088
 21
231.74960682874189
 31
0.0
  0
LINE
  5
69C
  8
0
 62
     0
 10
226.5336716133088
 20
231.86760682874191
 30
0.0
 11
226.6586716133088
 21
231.86760682874191
 31
0.0
  0
LINE
  5
69D
  8
0
 62
     0
 10
226.5336716133088
 20
231.98560682874191
 30
0.0
 11
226.6586716133088
 21
231.98560682874191
 31
0.0
  0
LINE
  5
69E
  8
0
 62
     0
 10
226.5336716133088
 20
232.1036068287419
 30
0.0
 11
226.6586716133088
 21
232.1036068287419
 31
0.0
  0
LINE
  5
69F
  8
0
 62
     0
 10
226.5336716133088
 20
232.2216068287419
 30
0.0
 11
226.6586716133088
 21
232.2216068287419
 31
0.0
  0
LINE
  5
6A0
  8
0
 62
     0
 10
226.5336716133088
 20
232.33960682874189
 30
0.0
 11
226.6586716133088
 21
232.33960682874189
 31
0.0
  0
LINE
  5
6A1
  8
0
 62
     0
 10
226.5336716133088
 20
232.45760682874189
 30
0.0
 11
226.6586716133088
 21
232.45760682874189
 31
0.0
  0
LINE
  5
6A2
  8
0
 62
     0
 10
226.5336716133088
 20
232.57560682874191
 30
0.0
 11
226.6586716133088
 21
232.57560682874191
 31
0.0
  0
LINE
  5
6A3
  8
0
 62
     0
 10
226.5336716133088
 20
232.69360682874199
 30
0.0
 11
226.6586716133088
 21
232.69360682874199
 31
0.0
  0
LINE
  5
6A4
  8
0
 62
     0
 10
226.5336716133088
 20
232.8116068287419
 30
0.0
 11
226.6586716133088
 21
232.8116068287419
 31
0.0
  0
LINE
  5
6A5
  8
0
 62
     0
 10
226.5336716133088
 20
232.9296068287419
 30
0.0
 11
226.6586716133088
 21
232.9296068287419
 31
0.0
  0
LINE
  5
6A6
  8
0
 62
     0
 10
226.5336716133088
 20
233.04760682874189
 30
0.0
 11
226.6586716133088
 21
233.04760682874189
 31
0.0
  0
LINE
  5
6A7
  8
0
 62
     0
 10
226.5336716133088
 20
233.16560682874189
 30
0.0
 11
226.6586716133088
 21
233.16560682874189
 31
0.0
  0
LINE
  5
6A8
  8
0
 62
     0
 10
226.5336716133088
 20
233.28360682874199
 30
0.0
 11
226.6586716133088
 21
233.28360682874199
 31
0.0
  0
LINE
  5
6A9
  8
0
 62
     0
 10
226.5336716133088
 20
233.4016068287419
 30
0.0
 11
226.6586716133088
 21
233.4016068287419
 31
0.0
  0
LINE
  5
6AA
  8
0
 62
     0
 10
226.5336716133088
 20
233.5196068287419
 30
0.0
 11
226.6586716133088
 21
233.5196068287419
 31
0.0
  0
LINE
  5
6AB
  8
0
 62
     0
 10
226.5336716133088
 20
233.63760682874189
 30
0.0
 11
226.6586716133088
 21
233.63760682874189
 31
0.0
  0
LINE
  5
6AC
  8
0
 62
     0
 10
226.5336716133088
 20
233.75560682874189
 30
0.0
 11
226.6586716133088
 21
233.75560682874189
 31
0.0
  0
LINE
  5
6AD
  8
0
 62
     0
 10
226.5336716133088
 20
233.87360682874191
 30
0.0
 11
226.6586716133088
 21
233.87360682874191
 31
0.0
  0
LINE
  5
6AE
  8
0
 62
     0
 10
226.5336716133088
 20
233.99160682874191
 30
0.0
 11
226.6586716133088
 21
233.99160682874191
 31
0.0
  0
LINE
  5
6AF
  8
0
 62
     0
 10
226.5336716133088
 20
234.10960682874199
 30
0.0
 11
226.6586716133088
 21
234.10960682874199
 31
0.0
  0
LINE
  5
6B0
  8
0
 62
     0
 10
226.5336716133088
 20
234.2276068287419
 30
0.0
 11
226.6586716133088
 21
234.2276068287419
 31
0.0
  0
LINE
  5
6B1
  8
0
 62
     0
 10
226.5336716133088
 20
234.34560682874189
 30
0.0
 11
226.6586716133088
 21
234.34560682874189
 31
0.0
  0
LINE
  5
6B2
  8
0
 62
     0
 10
226.5336716133088
 20
234.46360682874189
 30
0.0
 11
226.6586716133088
 21
234.46360682874189
 31
0.0
  0
LINE
  5
6B3
  8
0
 62
     0
 10
226.5336716133088
 20
234.58160682874191
 30
0.0
 11
226.6586716133088
 21
234.58160682874191
 31
0.0
  0
LINE
  5
6B4
  8
0
 62
     0
 10
226.5336716133088
 20
234.69960682874199
 30
0.0
 11
226.6586716133088
 21
234.69960682874199
 31
0.0
  0
LINE
  5
6B5
  8
0
 62
     0
 10
226.5336716133088
 20
234.8176068287419
 30
0.0
 11
226.6586716133088
 21
234.8176068287419
 31
0.0
  0
LINE
  5
6B6
  8
0
 62
     0
 10
226.5336716133088
 20
234.9356068287419
 30
0.0
 11
226.6586716133088
 21
234.9356068287419
 31
0.0
  0
LINE
  5
6B7
  8
0
 62
     0
 10
226.5336716133088
 20
235.05360682874189
 30
0.0
 11
226.6586716133088
 21
235.05360682874189
 31
0.0
  0
LINE
  5
6B8
  8
0
 62
     0
 10
226.5336716133088
 20
235.17160682874189
 30
0.0
 11
226.6586716133088
 21
235.17160682874189
 31
0.0
  0
LINE
  5
6B9
  8
0
 62
     0
 10
226.5336716133088
 20
235.289606828742
 30
0.0
 11
226.6586716133088
 21
235.289606828742
 31
0.0
  0
LINE
  5
6BA
  8
0
 62
     0
 10
226.5336716133088
 20
235.4076068287419
 30
0.0
 11
226.6586716133088
 21
235.4076068287419
 31
0.0
  0
LINE
  5
6BB
  8
0
 62
     0
 10
226.5336716133088
 20
235.5256068287419
 30
0.0
 11
226.6586716133088
 21
235.5256068287419
 31
0.0
  0
LINE
  5
6BC
  8
0
 62
     0
 10
226.5336716133088
 20
235.64360682874189
 30
0.0
 11
226.6586716133088
 21
235.64360682874189
 31
0.0
  0
LINE
  5
6BD
  8
0
 62
     0
 10
226.5336716133088
 20
235.76160682874189
 30
0.0
 11
226.6586716133088
 21
235.76160682874189
 31
0.0
  0
LINE
  5
6BE
  8
0
 62
     0
 10
226.5336716133088
 20
235.87960682874191
 30
0.0
 11
226.6586716133088
 21
235.87960682874191
 31
0.0
  0
LINE
  5
6BF
  8
0
 62
     0
 10
226.5336716133088
 20
235.99760682874191
 30
0.0
 11
226.6586716133088
 21
235.99760682874191
 31
0.0
  0
LINE
  5
6C0
  8
0
 62
     0
 10
226.5336716133088
 20
236.1156068287419
 30
0.0
 11
226.6586716133088
 21
236.1156068287419
 31
0.0
  0
LINE
  5
6C1
  8
0
 62
     0
 10
226.5336716133088
 20
236.2336068287419
 30
0.0
 11
226.6586716133088
 21
236.2336068287419
 31
0.0
  0
LINE
  5
6C2
  8
0
 62
     0
 10
226.5336716133088
 20
236.35160682874189
 30
0.0
 11
226.6586716133088
 21
236.35160682874189
 31
0.0
  0
LINE
  5
6C3
  8
0
 62
     0
 10
226.5336716133088
 20
236.46960682874189
 30
0.0
 11
226.6586716133088
 21
236.46960682874189
 31
0.0
  0
LINE
  5
6C4
  8
0
 62
     0
 10
226.5336716133088
 20
236.58760682874191
 30
0.0
 11
226.6586716133088
 21
236.58760682874191
 31
0.0
  0
LINE
  5
6C5
  8
0
 62
     0
 10
226.5336716133088
 20
236.70560682874191
 30
0.0
 11
226.6586716133088
 21
236.70560682874191
 31
0.0
  0
LINE
  5
6C6
  8
0
 62
     0
 10
226.5336716133088
 20
236.8236068287419
 30
0.0
 11
226.6586716133088
 21
236.8236068287419
 31
0.0
  0
LINE
  5
6C7
  8
0
 62
     0
 10
226.5336716133088
 20
236.9416068287419
 30
0.0
 11
226.6586716133088
 21
236.9416068287419
 31
0.0
  0
LINE
  5
6C8
  8
0
 62
     0
 10
226.5336716133088
 20
237.05960682874189
 30
0.0
 11
226.6586716133088
 21
237.05960682874189
 31
0.0
  0
LINE
  5
6C9
  8
0
 62
     0
 10
226.5336716133088
 20
237.17760682874189
 30
0.0
 11
226.6586716133088
 21
237.17760682874189
 31
0.0
  0
LINE
  5
6CA
  8
0
 62
     0
 10
226.5336716133088
 20
237.295606828742
 30
0.0
 11
226.6586716133088
 21
237.295606828742
 31
0.0
  0
LINE
  5
6CB
  8
0
 62
     0
 10
226.5336716133088
 20
237.41360682874191
 30
0.0
 11
226.6586716133088
 21
237.41360682874191
 31
0.0
  0
LINE
  5
6CC
  8
0
 62
     0
 10
226.5336716133088
 20
237.5316068287419
 30
0.0
 11
226.6586716133088
 21
237.5316068287419
 31
0.0
  0
LINE
  5
6CD
  8
0
 62
     0
 10
226.5336716133088
 20
237.6496068287419
 30
0.0
 11
226.6586716133088
 21
237.6496068287419
 31
0.0
  0
LINE
  5
6CE
  8
0
 62
     0
 10
226.5336716133088
 20
237.76760682874189
 30
0.0
 11
226.6586716133088
 21
237.76760682874189
 31
0.0
  0
LINE
  5
6CF
  8
0
 62
     0
 10
226.5336716133088
 20
237.88560682874191
 30
0.0
 11
226.6586716133088
 21
237.88560682874191
 31
0.0
  0
LINE
  5
6D0
  8
0
 62
     0
 10
226.5336716133088
 20
238.00360682874191
 30
0.0
 11
226.6586716133088
 21
238.00360682874191
 31
0.0
  0
LINE
  5
6D1
  8
0
 62
     0
 10
226.5336716133088
 20
238.1216068287419
 30
0.0
 11
226.6586716133088
 21
238.1216068287419
 31
0.0
  0
LINE
  5
6D2
  8
0
 62
     0
 10
226.5336716133088
 20
238.2396068287419
 30
0.0
 11
226.6586716133088
 21
238.2396068287419
 31
0.0
  0
LINE
  5
6D3
  8
0
 62
     0
 10
226.5336716133088
 20
238.35760682874189
 30
0.0
 11
226.6586716133088
 21
238.35760682874189
 31
0.0
  0
LINE
  5
6D4
  8
0
 62
     0
 10
226.5336716133088
 20
238.47560682874189
 30
0.0
 11
226.6586716133088
 21
238.47560682874189
 31
0.0
  0
LINE
  5
6D5
  8
0
 62
     0
 10
226.5336716133088
 20
238.59360682874191
 30
0.0
 11
226.6586716133088
 21
238.59360682874191
 31
0.0
  0
LINE
  5
6D6
  8
0
 62
     0
 10
226.5336716133088
 20
238.71160682874191
 30
0.0
 11
226.6586716133088
 21
238.71160682874191
 31
0.0
  0
LINE
  5
6D7
  8
0
 62
     0
 10
226.5336716133088
 20
238.8296068287419
 30
0.0
 11
226.6586716133088
 21
238.8296068287419
 31
0.0
  0
LINE
  5
6D8
  8
0
 62
     0
 10
226.5336716133088
 20
238.9476068287419
 30
0.0
 11
226.6586716133088
 21
238.9476068287419
 31
0.0
  0
LINE
  5
6D9
  8
0
 62
     0
 10
226.5336716133088
 20
239.06560682874189
 30
0.0
 11
226.6586716133088
 21
239.06560682874189
 31
0.0
  0
LINE
  5
6DA
  8
0
 62
     0
 10
226.5336716133088
 20
239.18360682874189
 30
0.0
 11
226.6586716133088
 21
239.18360682874189
 31
0.0
  0
LINE
  5
6DB
  8
0
 62
     0
 10
226.5336716133088
 20
239.30160682874191
 30
0.0
 11
226.6586716133088
 21
239.30160682874191
 31
0.0
  0
LINE
  5
6DC
  8
0
 62
     0
 10
226.5336716133088
 20
239.41960682874191
 30
0.0
 11
226.6586716133088
 21
239.41960682874191
 31
0.0
  0
LINE
  5
6DD
  8
0
 62
     0
 10
226.5336716133088
 20
239.5376068287419
 30
0.0
 11
226.6586716133088
 21
239.5376068287419
 31
0.0
  0
LINE
  5
6DE
  8
0
 62
     0
 10
226.5336716133088
 20
239.6556068287419
 30
0.0
 11
226.6586716133088
 21
239.6556068287419
 31
0.0
  0
LINE
  5
6DF
  8
0
 62
     0
 10
226.5336716133088
 20
239.77360682874189
 30
0.0
 11
226.6586716133088
 21
239.77360682874189
 31
0.0
  0
LINE
  5
6E0
  8
0
 62
     0
 10
226.5336716133088
 20
239.89160682874191
 30
0.0
 11
226.6586716133088
 21
239.89160682874191
 31
0.0
  0
LINE
  5
6E1
  8
0
 62
     0
 10
226.5336716133088
 20
240.00960682874191
 30
0.0
 11
226.6586716133088
 21
240.00960682874191
 31
0.0
  0
LINE
  5
6E2
  8
0
 62
     0
 10
226.5336716133088
 20
240.1276068287419
 30
0.0
 11
226.6586716133088
 21
240.1276068287419
 31
0.0
  0
LINE
  5
6E3
  8
0
 62
     0
 10
226.5336716133088
 20
240.2456068287419
 30
0.0
 11
226.6586716133088
 21
240.2456068287419
 31
0.0
  0
LINE
  5
6E4
  8
0
 62
     0
 10
226.5336716133088
 20
240.36360682874189
 30
0.0
 11
226.6586716133088
 21
240.36360682874189
 31
0.0
  0
LINE
  5
6E5
  8
0
 62
     0
 10
226.5336716133088
 20
240.48160682874189
 30
0.0
 11
226.6586716133088
 21
240.48160682874189
 31
0.0
  0
LINE
  5
6E6
  8
0
 62
     0
 10
226.5336716133088
 20
240.59960682874191
 30
0.0
 11
226.6586716133088
 21
240.59960682874191
 31
0.0
  0
LINE
  5
6E7
  8
0
 62
     0
 10
226.5336716133088
 20
240.71760682874191
 30
0.0
 11
226.6586716133088
 21
240.71760682874191
 31
0.0
  0
LINE
  5
6E8
  8
0
 62
     0
 10
226.5336716133088
 20
240.8356068287419
 30
0.0
 11
226.6586716133088
 21
240.8356068287419
 31
0.0
  0
LINE
  5
6E9
  8
0
 62
     0
 10
226.5336716133088
 20
240.9536068287419
 30
0.0
 11
226.6586716133088
 21
240.9536068287419
 31
0.0
  0
LINE
  5
6EA
  8
0
 62
     0
 10
226.5336716133088
 20
241.07160682874189
 30
0.0
 11
226.6586716133088
 21
241.07160682874189
 31
0.0
  0
LINE
  5
6EB
  8
0
 62
     0
 10
226.5336716133088
 20
241.18960682874189
 30
0.0
 11
226.6586716133088
 21
241.18960682874189
 31
0.0
  0
LINE
  5
6EC
  8
0
 62
     0
 10
226.5336716133088
 20
241.30760682874191
 30
0.0
 11
226.6586716133088
 21
241.30760682874191
 31
0.0
  0
LINE
  5
6ED
  8
0
 62
     0
 10
226.5336716133088
 20
241.42560682874191
 30
0.0
 11
226.6586716133088
 21
241.42560682874191
 31
0.0
  0
LINE
  5
6EE
  8
0
 62
     0
 10
226.5336716133088
 20
241.5436068287419
 30
0.0
 11
226.6586716133088
 21
241.5436068287419
 31
0.0
  0
LINE
  5
6EF
  8
0
 62
     0
 10
226.5336716133088
 20
241.6616068287419
 30
0.0
 11
226.6586716133088
 21
241.6616068287419
 31
0.0
  0
LINE
  5
6F0
  8
0
 62
     0
 10
226.5336716133088
 20
241.77960682874189
 30
0.0
 11
226.6586716133088
 21
241.77960682874189
 31
0.0
  0
LINE
  5
6F1
  8
0
 62
     0
 10
226.5336716133088
 20
241.89760682874191
 30
0.0
 11
226.6586716133088
 21
241.89760682874191
 31
0.0
  0
LINE
  5
6F2
  8
0
 62
     0
 10
226.5336716133088
 20
242.01560682874191
 30
0.0
 11
226.6586716133088
 21
242.01560682874191
 31
0.0
  0
LINE
  5
6F3
  8
0
 62
     0
 10
226.5336716133088
 20
242.1336068287419
 30
0.0
 11
226.6586716133088
 21
242.1336068287419
 31
0.0
  0
LINE
  5
6F4
  8
0
 62
     0
 10
226.5336716133088
 20
242.2516068287419
 30
0.0
 11
226.6586716133088
 21
242.2516068287419
 31
0.0
  0
LINE
  5
6F5
  8
0
 62
     0
 10
226.5336716133088
 20
242.36960682874189
 30
0.0
 11
226.6586716133088
 21
242.36960682874189
 31
0.0
  0
LINE
  5
6F6
  8
0
 62
     0
 10
226.5336716133088
 20
242.48760682874189
 30
0.0
 11
226.6586716133088
 21
242.48760682874189
 31
0.0
  0
LINE
  5
6F7
  8
0
 62
     0
 10
226.5336716133088
 20
242.60560682874191
 30
0.0
 11
226.6586716133088
 21
242.60560682874191
 31
0.0
  0
LINE
  5
6F8
  8
0
 62
     0
 10
226.5336716133088
 20
242.72360682874191
 30
0.0
 11
226.6586716133088
 21
242.72360682874191
 31
0.0
  0
LINE
  5
6F9
  8
0
 62
     0
 10
226.5336716133088
 20
242.8416068287419
 30
0.0
 11
226.6586716133088
 21
242.8416068287419
 31
0.0
  0
LINE
  5
6FA
  8
0
 62
     0
 10
226.5336716133088
 20
242.9596068287419
 30
0.0
 11
226.6586716133088
 21
242.9596068287419
 31
0.0
  0
LINE
  5
6FB
  8
0
 62
     0
 10
226.5336716133088
 20
243.07760682874189
 30
0.0
 11
226.6586716133088
 21
243.07760682874189
 31
0.0
  0
LINE
  5
6FC
  8
0
 62
     0
 10
226.5336716133088
 20
243.19560682874189
 30
0.0
 11
226.6586716133088
 21
243.19560682874189
 31
0.0
  0
LINE
  5
6FD
  8
0
 62
     0
 10
226.5336716133088
 20
243.31360682874191
 30
0.0
 11
226.6586716133088
 21
243.31360682874191
 31
0.0
  0
LINE
  5
6FE
  8
0
 62
     0
 10
226.5336716133088
 20
243.43160682874191
 30
0.0
 11
226.6586716133088
 21
243.43160682874191
 31
0.0
  0
LINE
  5
6FF
  8
0
 62
     0
 10
226.5336716133088
 20
243.5496068287419
 30
0.0
 11
226.6586716133088
 21
243.5496068287419
 31
0.0
  0
LINE
  5
700
  8
0
 62
     0
 10
226.5336716133088
 20
243.6676068287419
 30
0.0
 11
226.6586716133088
 21
243.6676068287419
 31
0.0
  0
LINE
  5
701
  8
0
 62
     0
 10
226.5336716133088
 20
243.78560682874189
 30
0.0
 11
226.6586716133088
 21
243.78560682874189
 31
0.0
  0
LINE
  5
702
  8
0
 62
     0
 10
226.5336716133088
 20
243.90360682874191
 30
0.0
 11
226.6586716133088
 21
243.90360682874191
 31
0.0
  0
LINE
  5
703
  8
0
 62
     0
 10
226.5336716133088
 20
244.02160682874191
 30
0.0
 11
226.6586716133088
 21
244.02160682874191
 31
0.0
  0
LINE
  5
704
  8
0
 62
     0
 10
226.5336716133088
 20
244.1396068287419
 30
0.0
 11
226.6586716133088
 21
244.1396068287419
 31
0.0
  0
LINE
  5
705
  8
0
 62
     0
 10
226.5336716133088
 20
244.2576068287419
 30
0.0
 11
226.6586716133088
 21
244.2576068287419
 31
0.0
  0
LINE
  5
706
  8
0
 62
     0
 10
226.5336716133088
 20
244.37560682874189
 30
0.0
 11
226.6586716133088
 21
244.37560682874189
 31
0.0
  0
LINE
  5
707
  8
0
 62
     0
 10
226.5336716133088
 20
244.49360682874189
 30
0.0
 11
226.6586716133088
 21
244.49360682874189
 31
0.0
  0
LINE
  5
708
  8
0
 62
     0
 10
226.5336716133088
 20
244.61160682874191
 30
0.0
 11
226.6586716133088
 21
244.61160682874191
 31
0.0
  0
LINE
  5
709
  8
0
 62
     0
 10
226.5336716133088
 20
244.72960682874191
 30
0.0
 11
226.6586716133088
 21
244.72960682874191
 31
0.0
  0
LINE
  5
70A
  8
0
 62
     0
 10
226.5336716133088
 20
244.8476068287419
 30
0.0
 11
226.6586716133088
 21
244.8476068287419
 31
0.0
  0
LINE
  5
70B
  8
0
 62
     0
 10
226.5336716133088
 20
244.9656068287419
 30
0.0
 11
226.6586716133088
 21
244.9656068287419
 31
0.0
  0
LINE
  5
70C
  8
0
 62
     0
 10
226.5336716133088
 20
245.08360682874189
 30
0.0
 11
226.6586716133088
 21
245.08360682874189
 31
0.0
  0
LINE
  5
70D
  8
0
 62
     0
 10
226.5336716133088
 20
245.20160682874189
 30
0.0
 11
226.6586716133088
 21
245.20160682874189
 31
0.0
  0
LINE
  5
70E
  8
0
 62
     0
 10
226.5336716133088
 20
245.31960682874191
 30
0.0
 11
226.6586716133088
 21
245.31960682874191
 31
0.0
  0
LINE
  5
70F
  8
0
 62
     0
 10
226.5336716133088
 20
245.43760682874199
 30
0.0
 11
226.6586716133088
 21
245.43760682874199
 31
0.0
  0
LINE
  5
710
  8
0
 62
     0
 10
226.5336716133088
 20
245.5556068287419
 30
0.0
 11
226.6586716133088
 21
245.5556068287419
 31
0.0
  0
LINE
  5
711
  8
0
 62
     0
 10
226.5336716133088
 20
245.6736068287419
 30
0.0
 11
226.6586716133088
 21
245.6736068287419
 31
0.0
  0
LINE
  5
712
  8
0
 62
     0
 10
226.5336716133088
 20
245.79160682874189
 30
0.0
 11
226.6586716133088
 21
245.79160682874189
 31
0.0
  0
LINE
  5
713
  8
0
 62
     0
 10
226.5336716133088
 20
245.90960682874189
 30
0.0
 11
226.6586716133088
 21
245.90960682874189
 31
0.0
  0
LINE
  5
714
  8
0
 62
     0
 10
226.5336716133088
 20
246.02760682874199
 30
0.0
 11
226.6586716133088
 21
246.02760682874199
 31
0.0
  0
LINE
  5
715
  8
0
 62
     0
 10
226.5336716133088
 20
246.1456068287419
 30
0.0
 11
226.6586716133088
 21
246.1456068287419
 31
0.0
  0
LINE
  5
716
  8
0
 62
     0
 10
226.5336716133088
 20
246.2636068287419
 30
0.0
 11
226.6586716133088
 21
246.2636068287419
 31
0.0
  0
LINE
  5
717
  8
0
 62
     0
 10
226.5336716133088
 20
246.38160682874189
 30
0.0
 11
226.6586716133088
 21
246.38160682874189
 31
0.0
  0
LINE
  5
718
  8
0
 62
     0
 10
226.5336716133088
 20
246.49960682874189
 30
0.0
 11
226.6586716133088
 21
246.49960682874189
 31
0.0
  0
LINE
  5
719
  8
0
 62
     0
 10
226.5336716133088
 20
246.617606828742
 30
0.0
 11
226.6586716133088
 21
246.617606828742
 31
0.0
  0
LINE
  5
71A
  8
0
 62
     0
 10
226.5336716133088
 20
246.73560682874191
 30
0.0
 11
226.6586716133088
 21
246.73560682874191
 31
0.0
  0
LINE
  5
71B
  8
0
 62
     0
 10
226.5336716133088
 20
246.85360682874199
 30
0.0
 11
226.6586716133088
 21
246.85360682874199
 31
0.0
  0
LINE
  5
71C
  8
0
 62
     0
 10
226.5336716133088
 20
246.9716068287419
 30
0.0
 11
226.6586716133088
 21
246.9716068287419
 31
0.0
  0
LINE
  5
71D
  8
0
 62
     0
 10
226.5336716133088
 20
247.08960682874189
 30
0.0
 11
226.6586716133088
 21
247.08960682874189
 31
0.0
  0
LINE
  5
71E
  8
0
 62
     0
 10
226.5336716133088
 20
247.20760682874189
 30
0.0
 11
226.6586716133088
 21
247.20760682874189
 31
0.0
  0
LINE
  5
71F
  8
0
 62
     0
 10
226.5336716133088
 20
247.32560682874191
 30
0.0
 11
226.6586716133088
 21
247.32560682874191
 31
0.0
  0
LINE
  5
720
  8
0
 62
     0
 10
226.5336716133088
 20
247.44360682874199
 30
0.0
 11
226.6586716133088
 21
247.44360682874199
 31
0.0
  0
LINE
  5
721
  8
0
 62
     0
 10
226.5336716133088
 20
247.5616068287419
 30
0.0
 11
226.6586716133088
 21
247.5616068287419
 31
0.0
  0
LINE
  5
722
  8
0
 62
     0
 10
226.5336716133088
 20
247.6796068287419
 30
0.0
 11
226.6586716133088
 21
247.6796068287419
 31
0.0
  0
LINE
  5
723
  8
0
 62
     0
 10
226.5336716133088
 20
247.79760682874189
 30
0.0
 11
226.6586716133088
 21
247.79760682874189
 31
0.0
  0
LINE
  5
724
  8
0
 62
     0
 10
226.5336716133088
 20
247.91560682874189
 30
0.0
 11
226.6586716133088
 21
247.91560682874189
 31
0.0
  0
LINE
  5
725
  8
0
 62
     0
 10
226.5336716133088
 20
248.03360682874199
 30
0.0
 11
226.6586716133088
 21
248.03360682874199
 31
0.0
  0
LINE
  5
726
  8
0
 62
     0
 10
226.5336716133088
 20
248.1516068287419
 30
0.0
 11
226.6586716133088
 21
248.1516068287419
 31
0.0
  0
LINE
  5
727
  8
0
 62
     0
 10
226.5336716133088
 20
248.2696068287419
 30
0.0
 11
226.6586716133088
 21
248.2696068287419
 31
0.0
  0
LINE
  5
728
  8
0
 62
     0
 10
226.5336716133088
 20
248.38760682874189
 30
0.0
 11
226.6586716133088
 21
248.38760682874189
 31
0.0
  0
LINE
  5
729
  8
0
 62
     0
 10
226.5336716133088
 20
248.50560682874189
 30
0.0
 11
226.6586716133088
 21
248.50560682874189
 31
0.0
  0
LINE
  5
72A
  8
0
 62
     0
 10
226.5336716133088
 20
248.62360682874191
 30
0.0
 11
226.6586716133088
 21
248.62360682874191
 31
0.0
  0
LINE
  5
72B
  8
0
 62
     0
 10
226.5336716133088
 20
248.74160682874191
 30
0.0
 11
226.6586716133088
 21
248.74160682874191
 31
0.0
  0
LINE
  5
72C
  8
0
 62
     0
 10
226.5336716133088
 20
248.8596068287419
 30
0.0
 11
226.6586716133088
 21
248.8596068287419
 31
0.0
  0
LINE
  5
72D
  8
0
 62
     0
 10
226.5336716133088
 20
248.9776068287419
 30
0.0
 11
226.6586716133088
 21
248.9776068287419
 31
0.0
  0
LINE
  5
72E
  8
0
 62
     0
 10
226.5336716133088
 20
249.09560682874189
 30
0.0
 11
226.6586716133088
 21
249.09560682874189
 31
0.0
  0
LINE
  5
72F
  8
0
 62
     0
 10
226.5336716133088
 20
249.21360682874189
 30
0.0
 11
226.6586716133088
 21
249.21360682874189
 31
0.0
  0
LINE
  5
730
  8
0
 62
     0
 10
226.5336716133088
 20
249.33160682874191
 30
0.0
 11
226.6586716133088
 21
249.33160682874191
 31
0.0
  0
LINE
  5
731
  8
0
 62
     0
 10
226.5336716133088
 20
249.44960682874191
 30
0.0
 11
226.6586716133088
 21
249.44960682874191
 31
0.0
  0
LINE
  5
732
  8
0
 62
     0
 10
226.5336716133088
 20
249.5676068287419
 30
0.0
 11
226.6586716133088
 21
249.5676068287419
 31
0.0
  0
LINE
  5
733
  8
0
 62
     0
 10
226.5336716133088
 20
249.6856068287419
 30
0.0
 11
226.6586716133088
 21
249.6856068287419
 31
0.0
  0
LINE
  5
734
  8
0
 62
     0
 10
226.5336716133088
 20
249.80360682874189
 30
0.0
 11
226.6586716133088
 21
249.80360682874189
 31
0.0
  0
LINE
  5
735
  8
0
 62
     0
 10
226.5336716133088
 20
249.92160682874189
 30
0.0
 11
226.6586716133088
 21
249.92160682874189
 31
0.0
  0
LINE
  5
736
  8
0
 62
     0
 10
226.5336716133088
 20
250.039606828742
 30
0.0
 11
226.6586716133088
 21
250.039606828742
 31
0.0
  0
LINE
  5
737
  8
0
 62
     0
 10
226.5336716133088
 20
250.1576068287419
 30
0.0
 11
226.6586716133088
 21
250.1576068287419
 31
0.0
  0
LINE
  5
738
  8
0
 62
     0
 10
226.5336716133088
 20
250.2756068287419
 30
0.0
 11
226.6586716133088
 21
250.2756068287419
 31
0.0
  0
LINE
  5
739
  8
0
 62
     0
 10
226.5336716133088
 20
250.39360682874189
 30
0.0
 11
226.6586716133088
 21
250.39360682874189
 31
0.0
  0
LINE
  5
73A
  8
0
 62
     0
 10
226.5336716133088
 20
250.51160682874189
 30
0.0
 11
226.6586716133088
 21
250.51160682874189
 31
0.0
  0
LINE
  5
73B
  8
0
 62
     0
 10
226.5336716133088
 20
250.629606828742
 30
0.0
 11
226.6586716133088
 21
250.629606828742
 31
0.0
  0
LINE
  5
73C
  8
0
 62
     0
 10
226.5336716133088
 20
250.74760682874191
 30
0.0
 11
226.6586716133088
 21
250.74760682874191
 31
0.0
  0
LINE
  5
73D
  8
0
 62
     0
 10
226.5336716133088
 20
250.8656068287419
 30
0.0
 11
226.6586716133088
 21
250.8656068287419
 31
0.0
  0
LINE
  5
73E
  8
0
 62
     0
 10
226.5336716133088
 20
250.9836068287419
 30
0.0
 11
226.6586716133088
 21
250.9836068287419
 31
0.0
  0
LINE
  5
73F
  8
0
 62
     0
 10
226.5336716133088
 20
251.10160682874189
 30
0.0
 11
226.6586716133088
 21
251.10160682874189
 31
0.0
  0
LINE
  5
740
  8
0
 62
     0
 10
226.5336716133088
 20
251.21960682874189
 30
0.0
 11
226.6586716133088
 21
251.21960682874189
 31
0.0
  0
LINE
  5
741
  8
0
 62
     0
 10
226.5336716133088
 20
251.33760682874191
 30
0.0
 11
226.6586716133088
 21
251.33760682874191
 31
0.0
  0
LINE
  5
742
  8
0
 62
     0
 10
226.5336716133088
 20
251.45560682874191
 30
0.0
 11
226.6586716133088
 21
251.45560682874191
 31
0.0
  0
LINE
  5
743
  8
0
 62
     0
 10
226.5336716133088
 20
251.5736068287419
 30
0.0
 11
226.6586716133088
 21
251.5736068287419
 31
0.0
  0
LINE
  5
744
  8
0
 62
     0
 10
226.5336716133088
 20
251.6916068287419
 30
0.0
 11
226.6586716133088
 21
251.6916068287419
 31
0.0
  0
LINE
  5
745
  8
0
 62
     0
 10
226.5336716133088
 20
251.80960682874189
 30
0.0
 11
226.6586716133088
 21
251.80960682874189
 31
0.0
  0
LINE
  5
746
  8
0
 62
     0
 10
226.5336716133088
 20
251.92760682874189
 30
0.0
 11
226.6586716133088
 21
251.92760682874189
 31
0.0
  0
LINE
  5
747
  8
0
 62
     0
 10
226.5336716133088
 20
252.04560682874191
 30
0.0
 11
226.6586716133088
 21
252.04560682874191
 31
0.0
  0
LINE
  5
748
  8
0
 62
     0
 10
226.5336716133088
 20
252.16360682874191
 30
0.0
 11
226.6586716133088
 21
252.16360682874191
 31
0.0
  0
LINE
  5
749
  8
0
 62
     0
 10
226.5336716133088
 20
252.2816068287419
 30
0.0
 11
226.6586716133088
 21
252.2816068287419
 31
0.0
  0
LINE
  5
74A
  8
0
 62
     0
 10
226.5336716133088
 20
252.3996068287419
 30
0.0
 11
226.6586716133088
 21
252.3996068287419
 31
0.0
  0
LINE
  5
74B
  8
0
 62
     0
 10
226.5336716133088
 20
252.51760682874189
 30
0.0
 11
226.6586716133088
 21
252.51760682874189
 31
0.0
  0
LINE
  5
74C
  8
0
 62
     0
 10
226.5336716133088
 20
252.63560682874191
 30
0.0
 11
226.6586716133088
 21
252.63560682874191
 31
0.0
  0
LINE
  5
74D
  8
0
 62
     0
 10
226.5336716133088
 20
252.75360682874191
 30
0.0
 11
226.6586716133088
 21
252.75360682874191
 31
0.0
  0
LINE
  5
74E
  8
0
 62
     0
 10
226.5336716133088
 20
252.8716068287419
 30
0.0
 11
226.6586716133088
 21
252.8716068287419
 31
0.0
  0
LINE
  5
74F
  8
0
 62
     0
 10
226.5336716133088
 20
252.9896068287419
 30
0.0
 11
226.6586716133088
 21
252.9896068287419
 31
0.0
  0
LINE
  5
750
  8
0
 62
     0
 10
226.5336716133088
 20
253.10760682874189
 30
0.0
 11
226.6586716133088
 21
253.10760682874189
 31
0.0
  0
LINE
  5
751
  8
0
 62
     0
 10
226.5336716133088
 20
253.22560682874189
 30
0.0
 11
226.6586716133088
 21
253.22560682874189
 31
0.0
  0
LINE
  5
752
  8
0
 62
     0
 10
226.5336716133088
 20
253.34360682874191
 30
0.0
 11
226.6586716133088
 21
253.34360682874191
 31
0.0
  0
LINE
  5
753
  8
0
 62
     0
 10
226.5336716133088
 20
253.46160682874191
 30
0.0
 11
226.6586716133088
 21
253.46160682874191
 31
0.0
  0
LINE
  5
754
  8
0
 62
     0
 10
226.5336716133088
 20
253.5796068287419
 30
0.0
 11
226.6586716133088
 21
253.5796068287419
 31
0.0
  0
LINE
  5
755
  8
0
 62
     0
 10
226.5336716133088
 20
253.6976068287419
 30
0.0
 11
226.6586716133088
 21
253.6976068287419
 31
0.0
  0
LINE
  5
756
  8
0
 62
     0
 10
226.5336716133088
 20
253.81560682874189
 30
0.0
 11
226.6586716133088
 21
253.81560682874189
 31
0.0
  0
LINE
  5
757
  8
0
 62
     0
 10
226.5336716133088
 20
253.93360682874189
 30
0.0
 11
226.6586716133088
 21
253.93360682874189
 31
0.0
  0
LINE
  5
758
  8
0
 62
     0
 10
226.5336716133088
 20
254.05160682874191
 30
0.0
 11
226.6586716133088
 21
254.05160682874191
 31
0.0
  0
LINE
  5
759
  8
0
 62
     0
 10
226.5336716133088
 20
254.16960682874191
 30
0.0
 11
226.6586716133088
 21
254.16960682874191
 31
0.0
  0
LINE
  5
75A
  8
0
 62
     0
 10
226.5336716133088
 20
254.2876068287419
 30
0.0
 11
226.6586716133088
 21
254.2876068287419
 31
0.0
  0
LINE
  5
75B
  8
0
 62
     0
 10
226.5336716133088
 20
254.4056068287419
 30
0.0
 11
226.6586716133088
 21
254.4056068287419
 31
0.0
  0
LINE
  5
75C
  8
0
 62
     0
 10
226.5336716133088
 20
254.52360682874189
 30
0.0
 11
226.6586716133088
 21
254.52360682874189
 31
0.0
  0
LINE
  5
75D
  8
0
 62
     0
 10
226.5336716133088
 20
254.64160682874191
 30
0.0
 11
226.6586716133088
 21
254.64160682874191
 31
0.0
  0
LINE
  5
75E
  8
0
 62
     0
 10
226.5336716133088
 20
254.75960682874191
 30
0.0
 11
226.6586716133088
 21
254.75960682874191
 31
0.0
  0
LINE
  5
75F
  8
0
 62
     0
 10
226.5336716133088
 20
254.8776068287419
 30
0.0
 11
226.6586716133088
 21
254.8776068287419
 31
0.0
  0
LINE
  5
760
  8
0
 62
     0
 10
226.5336716133088
 20
254.9956068287419
 30
0.0
 11
226.6586716133088
 21
254.9956068287419
 31
0.0
  0
LINE
  5
761
  8
0
 62
     0
 10
226.5336716133088
 20
255.11360682874189
 30
0.0
 11
226.6586716133088
 21
255.11360682874189
 31
0.0
  0
LINE
  5
762
  8
0
 62
     0
 10
226.5336716133088
 20
255.23160682874189
 30
0.0
 11
226.6586716133088
 21
255.23160682874189
 31
0.0
  0
LINE
  5
763
  8
0
 62
     0
 10
226.5336716133088
 20
255.34960682874191
 30
0.0
 11
226.6586716133088
 21
255.34960682874191
 31
0.0
  0
LINE
  5
764
  8
0
 62
     0
 10
226.5336716133088
 20
255.46760682874191
 30
0.0
 11
226.6586716133088
 21
255.46760682874191
 31
0.0
  0
LINE
  5
765
  8
0
 62
     0
 10
226.5336716133088
 20
255.5856068287419
 30
0.0
 11
226.6586716133088
 21
255.5856068287419
 31
0.0
  0
LINE
  5
766
  8
0
 62
     0
 10
226.5336716133088
 20
255.7036068287419
 30
0.0
 11
226.6586716133088
 21
255.7036068287419
 31
0.0
  0
LINE
  5
767
  8
0
 62
     0
 10
226.5336716133088
 20
255.82160682874189
 30
0.0
 11
226.6586716133088
 21
255.82160682874189
 31
0.0
  0
LINE
  5
768
  8
0
 62
     0
 10
226.5336716133088
 20
255.93960682874189
 30
0.0
 11
226.6586716133088
 21
255.93960682874189
 31
0.0
  0
LINE
  5
769
  8
0
 62
     0
 10
226.5336716133088
 20
256.05760682874188
 30
0.0
 11
226.6586716133088
 21
256.05760682874188
 31
0.0
  0
LINE
  5
76A
  8
0
 62
     0
 10
226.5336716133088
 20
256.17560682874188
 30
0.0
 11
226.6586716133088
 21
256.17560682874188
 31
0.0
  0
LINE
  5
76B
  8
0
 62
     0
 10
226.5336716133088
 20
256.29360682874187
 30
0.0
 11
226.6586716133088
 21
256.29360682874187
 31
0.0
  0
LINE
  5
76C
  8
0
 62
     0
 10
226.5336716133088
 20
256.41160682874192
 30
0.0
 11
226.6586716133088
 21
256.41160682874192
 31
0.0
  0
LINE
  5
76D
  8
0
 62
     0
 10
226.5336716133088
 20
256.52960682874192
 30
0.0
 11
226.6586716133088
 21
256.52960682874192
 31
0.0
  0
LINE
  5
76E
  8
0
 62
     0
 10
226.5336716133088
 20
256.64760682874191
 30
0.0
 11
226.6586716133088
 21
256.64760682874191
 31
0.0
  0
LINE
  5
76F
  8
0
 62
     0
 10
226.5336716133088
 20
256.76560682874191
 30
0.0
 11
226.6586716133088
 21
256.76560682874191
 31
0.0
  0
LINE
  5
770
  8
0
 62
     0
 10
226.5336716133088
 20
256.8836068287419
 30
0.0
 11
226.6586716133088
 21
256.8836068287419
 31
0.0
  0
LINE
  5
771
  8
0
 62
     0
 10
226.5336716133088
 20
257.00160682874201
 30
0.0
 11
226.6586716133088
 21
257.00160682874201
 31
0.0
  0
LINE
  5
772
  8
0
 62
     0
 10
226.5336716133088
 20
257.11960682874201
 30
0.0
 11
226.6586716133088
 21
257.11960682874201
 31
0.0
  0
LINE
  5
773
  8
0
 62
     0
 10
226.5336716133088
 20
257.23760682874189
 30
0.0
 11
226.6586716133088
 21
257.23760682874189
 31
0.0
  0
LINE
  5
774
  8
0
 62
     0
 10
226.5336716133088
 20
257.355606828742
 30
0.0
 11
226.6586716133088
 21
257.355606828742
 31
0.0
  0
LINE
  5
775
  8
0
 62
     0
 10
226.5336716133088
 20
257.47360682874188
 30
0.0
 11
226.6586716133088
 21
257.47360682874188
 31
0.0
  0
LINE
  5
776
  8
0
 62
     0
 10
226.5336716133088
 20
257.59160682874187
 30
0.0
 11
226.6586716133088
 21
257.59160682874187
 31
0.0
  0
LINE
  5
777
  8
0
 62
     0
 10
226.5336716133088
 20
257.70960682874193
 30
0.0
 11
226.6586716133088
 21
257.70960682874193
 31
0.0
  0
LINE
  5
778
  8
0
 62
     0
 10
226.5336716133088
 20
257.82760682874192
 30
0.0
 11
226.6586716133088
 21
257.82760682874192
 31
0.0
  0
LINE
  5
779
  8
0
 62
     0
 10
226.5336716133088
 20
257.94560682874192
 30
0.0
 11
226.6586716133088
 21
257.94560682874192
 31
0.0
  0
LINE
  5
77A
  8
0
 62
     0
 10
226.5336716133088
 20
258.06360682874191
 30
0.0
 11
226.6586716133088
 21
258.06360682874191
 31
0.0
  0
LINE
  5
77B
  8
0
 62
     0
 10
226.5336716133088
 20
258.18160682874191
 30
0.0
 11
226.6586716133088
 21
258.18160682874191
 31
0.0
  0
LINE
  5
77C
  8
0
 62
     0
 10
226.5336716133088
 20
258.29960682874201
 30
0.0
 11
226.6586716133088
 21
258.29960682874201
 31
0.0
  0
LINE
  5
77D
  8
0
 62
     0
 10
226.5336716133088
 20
258.4176068287419
 30
0.0
 11
226.6586716133088
 21
258.4176068287419
 31
0.0
  0
LINE
  5
77E
  8
0
 62
     0
 10
226.5336716133088
 20
258.535606828742
 30
0.0
 11
226.6586716133088
 21
258.535606828742
 31
0.0
  0
LINE
  5
77F
  8
0
 62
     0
 10
226.5336716133088
 20
258.65360682874189
 30
0.0
 11
226.6586716133088
 21
258.65360682874189
 31
0.0
  0
LINE
  5
780
  8
0
 62
     0
 10
226.5336716133088
 20
258.77160682874199
 30
0.0
 11
226.6586716133088
 21
258.77160682874199
 31
0.0
  0
LINE
  5
781
  8
0
 62
     0
 10
226.5336716133088
 20
258.88960682874188
 30
0.0
 11
226.6586716133088
 21
258.88960682874188
 31
0.0
  0
LINE
  5
782
  8
0
 62
     0
 10
226.5336716133088
 20
259.00760682874193
 30
0.0
 11
226.6586716133088
 21
259.00760682874193
 31
0.0
  0
LINE
  5
783
  8
0
 62
     0
 10
226.5336716133088
 20
259.12560682874192
 30
0.0
 11
226.6586716133088
 21
259.12560682874192
 31
0.0
  0
LINE
  5
784
  8
0
 62
     0
 10
226.5336716133088
 20
259.24360682874192
 30
0.0
 11
226.6586716133088
 21
259.24360682874192
 31
0.0
  0
LINE
  5
785
  8
0
 62
     0
 10
226.5336716133088
 20
259.36160682874191
 30
0.0
 11
226.6586716133088
 21
259.36160682874191
 31
0.0
  0
LINE
  5
786
  8
0
 62
     0
 10
226.5336716133088
 20
259.47960682874191
 30
0.0
 11
226.6586716133088
 21
259.47960682874191
 31
0.0
  0
LINE
  5
787
  8
0
 62
     0
 10
226.5336716133088
 20
259.5976068287419
 30
0.0
 11
226.6586716133088
 21
259.5976068287419
 31
0.0
  0
LINE
  5
788
  8
0
 62
     0
 10
226.5336716133088
 20
259.71560682874201
 30
0.0
 11
226.6586716133088
 21
259.71560682874201
 31
0.0
  0
LINE
  5
789
  8
0
 62
     0
 10
226.5336716133088
 20
259.83360682874189
 30
0.0
 11
226.6586716133088
 21
259.83360682874189
 31
0.0
  0
LINE
  5
78A
  8
0
 62
     0
 10
226.5336716133088
 20
259.951606828742
 30
0.0
 11
226.6586716133088
 21
259.951606828742
 31
0.0
  0
LINE
  5
78B
  8
0
 62
     0
 10
226.5336716133088
 20
260.06960682874188
 30
0.0
 11
226.6586716133088
 21
260.06960682874188
 31
0.0
  0
LINE
  5
78C
  8
0
 62
     0
 10
226.5336716133088
 20
260.18760682874199
 30
0.0
 11
226.6586716133088
 21
260.18760682874199
 31
0.0
  0
LINE
  5
78D
  8
0
 62
     0
 10
226.5336716133088
 20
260.30560682874187
 30
0.0
 11
226.6586716133088
 21
260.30560682874187
 31
0.0
  0
LINE
  5
78E
  8
0
 62
     0
 10
226.5336716133088
 20
260.42360682874192
 30
0.0
 11
226.6586716133088
 21
260.42360682874192
 31
0.0
  0
LINE
  5
78F
  8
0
 62
     0
 10
226.5336716133088
 20
260.54160682874192
 30
0.0
 11
226.6586716133088
 21
260.54160682874192
 31
0.0
  0
LINE
  5
790
  8
0
 62
     0
 10
226.5336716133088
 20
260.65960682874191
 30
0.0
 11
226.6586716133088
 21
260.65960682874191
 31
0.0
  0
LINE
  5
791
  8
0
 62
     0
 10
226.5336716133088
 20
260.77760682874191
 30
0.0
 11
226.6586716133088
 21
260.77760682874191
 31
0.0
  0
LINE
  5
792
  8
0
 62
     0
 10
226.5336716133088
 20
260.8956068287419
 30
0.0
 11
226.6586716133088
 21
260.8956068287419
 31
0.0
  0
LINE
  5
793
  8
0
 62
     0
 10
226.5336716133088
 20
261.0136068287419
 30
0.0
 11
226.6586716133088
 21
261.0136068287419
 31
0.0
  0
LINE
  5
794
  8
0
 62
     0
 10
226.5336716133088
 20
261.13160682874201
 30
0.0
 11
226.6586716133088
 21
261.13160682874201
 31
0.0
  0
LINE
  5
795
  8
0
 62
     0
 10
226.5336716133088
 20
261.24960682874189
 30
0.0
 11
226.6586716133088
 21
261.24960682874189
 31
0.0
  0
LINE
  5
796
  8
0
 62
     0
 10
226.5336716133088
 20
261.367606828742
 30
0.0
 11
226.6586716133088
 21
261.367606828742
 31
0.0
  0
LINE
  5
797
  8
0
 62
     0
 10
226.5336716133088
 20
261.48560682874188
 30
0.0
 11
226.6586716133088
 21
261.48560682874188
 31
0.0
  0
LINE
  5
798
  8
0
 62
     0
 10
226.5336716133088
 20
261.60360682874187
 30
0.0
 11
226.6586716133088
 21
261.60360682874187
 31
0.0
  0
LINE
  5
799
  8
0
 62
     0
 10
226.5336716133088
 20
261.72160682874193
 30
0.0
 11
226.6586716133088
 21
261.72160682874193
 31
0.0
  0
LINE
  5
79A
  8
0
 62
     0
 10
226.5336716133088
 20
261.83960682874192
 30
0.0
 11
226.6586716133088
 21
261.83960682874192
 31
0.0
  0
LINE
  5
79B
  8
0
 62
     0
 10
226.5336716133088
 20
261.95760682874192
 30
0.0
 11
226.6586716133088
 21
261.95760682874192
 31
0.0
  0
LINE
  5
79C
  8
0
 62
     0
 10
226.5336716133088
 20
262.07560682874191
 30
0.0
 11
226.6586716133088
 21
262.07560682874191
 31
0.0
  0
LINE
  5
79D
  8
0
 62
     0
 10
226.5336716133088
 20
262.19360682874191
 30
0.0
 11
226.6586716133088
 21
262.19360682874191
 31
0.0
  0
LINE
  5
79E
  8
0
 62
     0
 10
226.5336716133088
 20
262.3116068287419
 30
0.0
 11
226.6586716133088
 21
262.3116068287419
 31
0.0
  0
LINE
  5
79F
  8
0
 62
     0
 10
226.5336716133088
 20
262.4296068287419
 30
0.0
 11
226.6586716133088
 21
262.4296068287419
 31
0.0
  0
LINE
  5
7A0
  8
0
 62
     0
 10
226.5336716133088
 20
262.547606828742
 30
0.0
 11
226.6586716133088
 21
262.547606828742
 31
0.0
  0
LINE
  5
7A1
  8
0
 62
     0
 10
226.5336716133088
 20
262.66560682874189
 30
0.0
 11
226.6586716133088
 21
262.66560682874189
 31
0.0
  0
LINE
  5
7A2
  8
0
 62
     0
 10
226.5336716133088
 20
262.78360682874199
 30
0.0
 11
226.6586716133088
 21
262.78360682874199
 31
0.0
  0
LINE
  5
7A3
  8
0
 62
     0
 10
226.5336716133088
 20
262.90160682874188
 30
0.0
 11
226.6586716133088
 21
262.90160682874188
 31
0.0
  0
LINE
  5
7A4
  8
0
 62
     0
 10
226.5336716133088
 20
263.01960682874193
 30
0.0
 11
226.6586716133088
 21
263.01960682874193
 31
0.0
  0
LINE
  5
7A5
  8
0
 62
     0
 10
226.5336716133088
 20
263.13760682874192
 30
0.0
 11
226.6586716133088
 21
263.13760682874192
 31
0.0
  0
LINE
  5
7A6
  8
0
 62
     0
 10
226.5336716133088
 20
263.25560682874192
 30
0.0
 11
226.6586716133088
 21
263.25560682874192
 31
0.0
  0
LINE
  5
7A7
  8
0
 62
     0
 10
226.5336716133088
 20
263.37360682874191
 30
0.0
 11
226.6586716133088
 21
263.37360682874191
 31
0.0
  0
LINE
  5
7A8
  8
0
 62
     0
 10
226.5336716133088
 20
263.49160682874191
 30
0.0
 11
226.6586716133088
 21
263.49160682874191
 31
0.0
  0
LINE
  5
7A9
  8
0
 62
     0
 10
226.5336716133088
 20
263.6096068287419
 30
0.0
 11
226.6586716133088
 21
263.6096068287419
 31
0.0
  0
LINE
  5
7AA
  8
0
 62
     0
 10
226.5336716133088
 20
263.72760682874201
 30
0.0
 11
226.6586716133088
 21
263.72760682874201
 31
0.0
  0
LINE
  5
7AB
  8
0
 62
     0
 10
226.5336716133088
 20
263.84560682874189
 30
0.0
 11
226.6586716133088
 21
263.84560682874189
 31
0.0
  0
LINE
  5
7AC
  8
0
 62
     0
 10
226.5336716133088
 20
263.963606828742
 30
0.0
 11
226.6586716133088
 21
263.963606828742
 31
0.0
  0
LINE
  5
7AD
  8
0
 62
     0
 10
226.5336716133088
 20
264.08160682874188
 30
0.0
 11
226.6586716133088
 21
264.08160682874188
 31
0.0
  0
LINE
  5
7AE
  8
0
 62
     0
 10
226.5336716133088
 20
264.19960682874188
 30
0.0
 11
226.6586716133088
 21
264.19960682874188
 31
0.0
  0
LINE
  5
7AF
  8
0
 62
     0
 10
226.5336716133088
 20
264.31760682874187
 30
0.0
 11
226.6586716133088
 21
264.31760682874187
 31
0.0
  0
LINE
  5
7B0
  8
0
 62
     0
 10
226.5336716133088
 20
264.43560682874192
 30
0.0
 11
226.6586716133088
 21
264.43560682874192
 31
0.0
  0
LINE
  5
7B1
  8
0
 62
     0
 10
226.5336716133088
 20
264.55360682874192
 30
0.0
 11
226.6586716133088
 21
264.55360682874192
 31
0.0
  0
LINE
  5
7B2
  8
0
 62
     0
 10
226.5336716133088
 20
264.67160682874191
 30
0.0
 11
226.6586716133088
 21
264.67160682874191
 31
0.0
  0
LINE
  5
7B3
  8
0
 62
     0
 10
226.5336716133088
 20
264.78960682874191
 30
0.0
 11
226.6586716133088
 21
264.78960682874191
 31
0.0
  0
LINE
  5
7B4
  8
0
 62
     0
 10
226.5336716133088
 20
264.9076068287419
 30
0.0
 11
226.6586716133088
 21
264.9076068287419
 31
0.0
  0
LINE
  5
7B5
  8
0
 62
     0
 10
226.5336716133088
 20
265.0256068287419
 30
0.0
 11
226.6586716133088
 21
265.0256068287419
 31
0.0
  0
LINE
  5
7B6
  8
0
 62
     0
 10
226.5336716133088
 20
265.14360682874201
 30
0.0
 11
226.6586716133088
 21
265.14360682874201
 31
0.0
  0
LINE
  5
7B7
  8
0
 62
     0
 10
226.5336716133088
 20
265.26160682874189
 30
0.0
 11
226.6586716133088
 21
265.26160682874189
 31
0.0
  0
LINE
  5
7B8
  8
0
 62
     0
 10
226.5336716133088
 20
265.37960682874188
 30
0.0
 11
226.6586716133088
 21
265.37960682874188
 31
0.0
  0
LINE
  5
7B9
  8
0
 62
     0
 10
226.5336716133088
 20
265.49760682874188
 30
0.0
 11
226.6586716133088
 21
265.49760682874188
 31
0.0
  0
LINE
  5
7BA
  8
0
 62
     0
 10
226.5336716133088
 20
265.61560682874187
 30
0.0
 11
226.6586716133088
 21
265.61560682874187
 31
0.0
  0
LINE
  5
7BB
  8
0
 62
     0
 10
226.5336716133088
 20
265.73360682874193
 30
0.0
 11
226.6586716133088
 21
265.73360682874193
 31
0.0
  0
LINE
  5
7BC
  8
0
 62
     0
 10
226.5336716133088
 20
265.85160682874192
 30
0.0
 11
226.6586716133088
 21
265.85160682874192
 31
0.0
  0
LINE
  5
7BD
  8
0
 62
     0
 10
226.5336716133088
 20
265.96960682874192
 30
0.0
 11
226.6586716133088
 21
265.96960682874192
 31
0.0
  0
LINE
  5
7BE
  8
0
 62
     0
 10
226.5336716133088
 20
266.08760682874191
 30
0.0
 11
226.6586716133088
 21
266.08760682874191
 31
0.0
  0
LINE
  5
7BF
  8
0
 62
     0
 10
226.5336716133088
 20
266.20560682874191
 30
0.0
 11
226.6586716133088
 21
266.20560682874191
 31
0.0
  0
LINE
  5
7C0
  8
0
 62
     0
 10
226.5336716133088
 20
266.32360682874202
 30
0.0
 11
226.6586716133088
 21
266.32360682874202
 31
0.0
  0
LINE
  5
7C1
  8
0
 62
     0
 10
226.5336716133088
 20
266.4416068287419
 30
0.0
 11
226.6586716133088
 21
266.4416068287419
 31
0.0
  0
LINE
  5
7C2
  8
0
 62
     0
 10
226.5336716133088
 20
266.55960682874201
 30
0.0
 11
226.6586716133088
 21
266.55960682874201
 31
0.0
  0
LINE
  5
7C3
  8
0
 62
     0
 10
226.5336716133088
 20
266.67760682874189
 30
0.0
 11
226.6586716133088
 21
266.67760682874189
 31
0.0
  0
LINE
  5
7C4
  8
0
 62
     0
 10
226.5336716133088
 20
266.79560682874188
 30
0.0
 11
226.6586716133088
 21
266.79560682874188
 31
0.0
  0
LINE
  5
7C5
  8
0
 62
     0
 10
226.5336716133088
 20
266.91360682874188
 30
0.0
 11
226.6586716133088
 21
266.91360682874188
 31
0.0
  0
LINE
  5
7C6
  8
0
 62
     0
 10
226.5336716133088
 20
267.03160682874187
 30
0.0
 11
226.6586716133088
 21
267.03160682874187
 31
0.0
  0
LINE
  5
7C7
  8
0
 62
     0
 10
226.5336716133088
 20
267.14960682874192
 30
0.0
 11
226.6586716133088
 21
267.14960682874192
 31
0.0
  0
LINE
  5
7C8
  8
0
 62
     0
 10
226.5336716133088
 20
267.26760682874192
 30
0.0
 11
226.6586716133088
 21
267.26760682874192
 31
0.0
  0
LINE
  5
7C9
  8
0
 62
     0
 10
226.5336716133088
 20
267.38560682874191
 30
0.0
 11
226.6586716133088
 21
267.38560682874191
 31
0.0
  0
LINE
  5
7CA
  8
0
 62
     0
 10
226.5336716133088
 20
267.50360682874191
 30
0.0
 11
226.6586716133088
 21
267.50360682874191
 31
0.0
  0
LINE
  5
7CB
  8
0
 62
     0
 10
226.5336716133088
 20
267.6216068287419
 30
0.0
 11
226.6586716133088
 21
267.6216068287419
 31
0.0
  0
LINE
  5
7CC
  8
0
 62
     0
 10
226.5336716133088
 20
267.73960682874201
 30
0.0
 11
226.6586716133088
 21
267.73960682874201
 31
0.0
  0
LINE
  5
7CD
  8
0
 62
     0
 10
226.5336716133088
 20
267.85760682874189
 30
0.0
 11
226.6586716133088
 21
267.85760682874189
 31
0.0
  0
LINE
  5
7CE
  8
0
 62
     0
 10
226.5336716133088
 20
267.97560682874189
 30
0.0
 11
226.6586716133088
 21
267.97560682874189
 31
0.0
  0
LINE
  5
7CF
  8
0
 62
     0
 10
226.5336716133088
 20
268.09360682874188
 30
0.0
 11
226.6586716133088
 21
268.09360682874188
 31
0.0
  0
LINE
  5
7D0
  8
0
 62
     0
 10
226.5336716133088
 20
268.21160682874188
 30
0.0
 11
226.6586716133088
 21
268.21160682874188
 31
0.0
  0
LINE
  5
7D1
  8
0
 62
     0
 10
226.5336716133088
 20
268.32960682874187
 30
0.0
 11
226.6586716133088
 21
268.32960682874187
 31
0.0
  0
LINE
  5
7D2
  8
0
 62
     0
 10
226.5336716133088
 20
268.44760682874193
 30
0.0
 11
226.6586716133088
 21
268.44760682874193
 31
0.0
  0
LINE
  5
7D3
  8
0
 62
     0
 10
226.5336716133088
 20
268.56560682874192
 30
0.0
 11
226.6586716133088
 21
268.56560682874192
 31
0.0
  0
LINE
  5
7D4
  8
0
 62
     0
 10
226.5336716133088
 20
268.68360682874192
 30
0.0
 11
226.6586716133088
 21
268.68360682874192
 31
0.0
  0
LINE
  5
7D5
  8
0
 62
     0
 10
226.5336716133088
 20
268.80160682874191
 30
0.0
 11
226.6586716133088
 21
268.80160682874191
 31
0.0
  0
LINE
  5
7D6
  8
0
 62
     0
 10
226.5336716133088
 20
268.91960682874191
 30
0.0
 11
226.6586716133088
 21
268.91960682874191
 31
0.0
  0
LINE
  5
7D7
  8
0
 62
     0
 10
226.5336716133088
 20
269.0376068287419
 30
0.0
 11
226.6586716133088
 21
269.0376068287419
 31
0.0
  0
LINE
  5
7D8
  8
0
 62
     0
 10
226.5336716133088
 20
269.15560682874201
 30
0.0
 11
226.6586716133088
 21
269.15560682874201
 31
0.0
  0
LINE
  5
7D9
  8
0
 62
     0
 10
226.5336716133088
 20
269.273606828742
 30
0.0
 11
226.6586716133088
 21
269.273606828742
 31
0.0
  0
LINE
  5
7DA
  8
0
 62
     0
 10
226.5336716133088
 20
269.39160682874189
 30
0.0
 11
226.6586716133088
 21
269.39160682874189
 31
0.0
  0
LINE
  5
7DB
  8
0
 62
     0
 10
226.5336716133088
 20
269.50960682874188
 30
0.0
 11
226.6586716133088
 21
269.50960682874188
 31
0.0
  0
LINE
  5
7DC
  8
0
 62
     0
 10
226.5336716133088
 20
269.62760682874188
 30
0.0
 11
226.6586716133088
 21
269.62760682874188
 31
0.0
  0
LINE
  5
7DD
  8
0
 62
     0
 10
226.5336716133088
 20
269.74560682874193
 30
0.0
 11
226.6586716133088
 21
269.74560682874193
 31
0.0
  0
LINE
  5
7DE
  8
0
 62
     0
 10
226.5336716133088
 20
269.86360682874192
 30
0.0
 11
226.6586716133088
 21
269.86360682874192
 31
0.0
  0
LINE
  5
7DF
  8
0
 62
     0
 10
226.5336716133088
 20
269.98160682874192
 30
0.0
 11
226.6586716133088
 21
269.98160682874192
 31
0.0
  0
LINE
  5
7E0
  8
0
 62
     0
 10
226.5336716133088
 20
270.09960682874191
 30
0.0
 11
226.6586716133088
 21
270.09960682874191
 31
0.0
  0
LINE
  5
7E1
  8
0
 62
     0
 10
226.5336716133088
 20
270.21760682874191
 30
0.0
 11
226.6586716133088
 21
270.21760682874191
 31
0.0
  0
LINE
  5
7E2
  8
0
 62
     0
 10
226.5336716133088
 20
270.3356068287419
 30
0.0
 11
226.6586716133088
 21
270.3356068287419
 31
0.0
  0
LINE
  5
7E3
  8
0
 62
     0
 10
226.5336716133088
 20
270.45360682874201
 30
0.0
 11
226.6586716133088
 21
270.45360682874201
 31
0.0
  0
LINE
  5
7E4
  8
0
 62
     0
 10
226.5336716133088
 20
270.57160682874189
 30
0.0
 11
226.6586716133088
 21
270.57160682874189
 31
0.0
  0
LINE
  5
7E5
  8
0
 62
     0
 10
226.5336716133088
 20
270.689606828742
 30
0.0
 11
226.6586716133088
 21
270.689606828742
 31
0.0
  0
LINE
  5
7E6
  8
0
 62
     0
 10
226.5336716133088
 20
270.80760682874188
 30
0.0
 11
226.6586716133088
 21
270.80760682874188
 31
0.0
  0
LINE
  5
7E7
  8
0
 62
     0
 10
226.5336716133088
 20
270.92560682874199
 30
0.0
 11
226.6586716133088
 21
270.92560682874199
 31
0.0
  0
LINE
  5
7E8
  8
0
 62
     0
 10
226.5336716133088
 20
271.04360682874187
 30
0.0
 11
226.6586716133088
 21
271.04360682874187
 31
0.0
  0
LINE
  5
7E9
  8
0
 62
     0
 10
226.5336716133088
 20
271.16160682874192
 30
0.0
 11
226.6586716133088
 21
271.16160682874192
 31
0.0
  0
LINE
  5
7EA
  8
0
 62
     0
 10
226.5336716133088
 20
271.27960682874192
 30
0.0
 11
226.6586716133088
 21
271.27960682874192
 31
0.0
  0
LINE
  5
7EB
  8
0
 62
     0
 10
226.5336716133088
 20
271.39760682874191
 30
0.0
 11
226.6586716133088
 21
271.39760682874191
 31
0.0
  0
LINE
  5
7EC
  8
0
 62
     0
 10
226.5336716133088
 20
271.51560682874191
 30
0.0
 11
226.6586716133088
 21
271.51560682874191
 31
0.0
  0
LINE
  5
7ED
  8
0
 62
     0
 10
226.5336716133088
 20
271.6336068287419
 30
0.0
 11
226.6586716133088
 21
271.6336068287419
 31
0.0
  0
LINE
  5
7EE
  8
0
 62
     0
 10
226.5336716133088
 20
271.7516068287419
 30
0.0
 11
226.6586716133088
 21
271.7516068287419
 31
0.0
  0
LINE
  5
7EF
  8
0
 62
     0
 10
226.5336716133088
 20
271.86960682874201
 30
0.0
 11
226.6586716133088
 21
271.86960682874201
 31
0.0
  0
LINE
  5
7F0
  8
0
 62
     0
 10
226.5336716133088
 20
271.98760682874189
 30
0.0
 11
226.6586716133088
 21
271.98760682874189
 31
0.0
  0
LINE
  5
7F1
  8
0
 62
     0
 10
226.5336716133088
 20
272.105606828742
 30
0.0
 11
226.6586716133088
 21
272.105606828742
 31
0.0
  0
LINE
  5
7F2
  8
0
 62
     0
 10
226.5336716133088
 20
272.22360682874188
 30
0.0
 11
226.6586716133088
 21
272.22360682874188
 31
0.0
  0
LINE
  5
7F3
  8
0
 62
     0
 10
226.5336716133088
 20
272.34160682874187
 30
0.0
 11
226.6586716133088
 21
272.34160682874187
 31
0.0
  0
LINE
  5
7F4
  8
0
 62
     0
 10
226.5336716133088
 20
272.45960682874193
 30
0.0
 11
226.6586716133088
 21
272.45960682874193
 31
0.0
  0
LINE
  5
7F5
  8
0
 62
     0
 10
226.5336716133088
 20
272.57760682874192
 30
0.0
 11
226.6586716133088
 21
272.57760682874192
 31
0.0
  0
LINE
  5
7F6
  8
0
 62
     0
 10
226.5336716133088
 20
272.69560682874192
 30
0.0
 11
226.6586716133088
 21
272.69560682874192
 31
0.0
  0
LINE
  5
7F7
  8
0
 62
     0
 10
226.5336716133088
 20
272.81360682874191
 30
0.0
 11
226.6586716133088
 21
272.81360682874191
 31
0.0
  0
LINE
  5
7F8
  8
0
 62
     0
 10
226.5336716133088
 20
272.93160682874191
 30
0.0
 11
226.6586716133088
 21
272.93160682874191
 31
0.0
  0
LINE
  5
7F9
  8
0
 62
     0
 10
226.5336716133088
 20
273.04960682874201
 30
0.0
 11
226.6586716133088
 21
273.04960682874201
 31
0.0
  0
LINE
  5
7FA
  8
0
 62
     0
 10
226.5336716133088
 20
273.1676068287419
 30
0.0
 11
226.6586716133088
 21
273.1676068287419
 31
0.0
  0
LINE
  5
7FB
  8
0
 62
     0
 10
226.5336716133088
 20
273.285606828742
 30
0.0
 11
226.6586716133088
 21
273.285606828742
 31
0.0
  0
LINE
  5
7FC
  8
0
 62
     0
 10
226.5336716133088
 20
273.40360682874189
 30
0.0
 11
226.6586716133088
 21
273.40360682874189
 31
0.0
  0
LINE
  5
7FD
  8
0
 62
     0
 10
226.5336716133088
 20
273.52160682874199
 30
0.0
 11
226.6586716133088
 21
273.52160682874199
 31
0.0
  0
LINE
  5
7FE
  8
0
 62
     0
 10
226.5336716133088
 20
273.63960682874188
 30
0.0
 11
226.6586716133088
 21
273.63960682874188
 31
0.0
  0
LINE
  5
7FF
  8
0
 62
     0
 10
226.5336716133088
 20
273.75760682874193
 30
0.0
 11
226.6586716133088
 21
273.75760682874193
 31
0.0
  0
LINE
  5
800
  8
0
 62
     0
 10
226.5336716133088
 20
273.87560682874192
 30
0.0
 11
226.6586716133088
 21
273.87560682874192
 31
0.0
  0
LINE
  5
801
  8
0
 62
     0
 10
226.5336716133088
 20
273.99360682874192
 30
0.0
 11
226.6586716133088
 21
273.99360682874192
 31
0.0
  0
LINE
  5
802
  8
0
 62
     0
 10
226.5336716133088
 20
274.11160682874191
 30
0.0
 11
226.6586716133088
 21
274.11160682874191
 31
0.0
  0
LINE
  5
803
  8
0
 62
     0
 10
226.5336716133088
 20
274.22960682874191
 30
0.0
 11
226.6586716133088
 21
274.22960682874191
 31
0.0
  0
LINE
  5
804
  8
0
 62
     0
 10
226.5336716133088
 20
274.3476068287419
 30
0.0
 11
226.6586716133088
 21
274.3476068287419
 31
0.0
  0
LINE
  5
805
  8
0
 62
     0
 10
226.5336716133088
 20
274.4656068287419
 30
0.0
 11
226.6586716133088
 21
274.4656068287419
 31
0.0
  0
LINE
  5
806
  8
0
 62
     0
 10
226.5336716133088
 20
274.58360682874189
 30
0.0
 11
226.6586716133088
 21
274.58360682874189
 31
0.0
  0
LINE
  5
807
  8
0
 62
     0
 10
226.5336716133088
 20
274.701606828742
 30
0.0
 11
226.6586716133088
 21
274.701606828742
 31
0.0
  0
LINE
  5
808
  8
0
 62
     0
 10
226.5336716133088
 20
274.81960682874188
 30
0.0
 11
226.6586716133088
 21
274.81960682874188
 31
0.0
  0
LINE
  5
809
  8
0
 62
     0
 10
226.5336716133088
 20
274.93760682874188
 30
0.0
 11
226.6586716133088
 21
274.93760682874188
 31
0.0
  0
LINE
  5
80A
  8
0
 62
     0
 10
226.5336716133088
 20
275.05560682874187
 30
0.0
 11
226.6586716133088
 21
275.05560682874187
 31
0.0
  0
LINE
  5
80B
  8
0
 62
     0
 10
226.5336716133088
 20
275.17360682874192
 30
0.0
 11
226.6586716133088
 21
275.17360682874192
 31
0.0
  0
LINE
  5
80C
  8
0
 62
     0
 10
226.5336716133088
 20
275.29160682874192
 30
0.0
 11
226.6586716133088
 21
275.29160682874192
 31
0.0
  0
LINE
  5
80D
  8
0
 62
     0
 10
226.5336716133088
 20
275.40960682874191
 30
0.0
 11
226.6586716133088
 21
275.40960682874191
 31
0.0
  0
LINE
  5
80E
  8
0
 62
     0
 10
226.5336716133088
 20
275.52760682874191
 30
0.0
 11
226.6586716133088
 21
275.52760682874191
 31
0.0
  0
LINE
  5
80F
  8
0
 62
     0
 10
226.5336716133088
 20
275.6456068287419
 30
0.0
 11
226.6586716133088
 21
275.6456068287419
 31
0.0
  0
LINE
  5
810
  8
0
 62
     0
 10
226.5336716133088
 20
275.7636068287419
 30
0.0
 11
226.6586716133088
 21
275.7636068287419
 31
0.0
  0
LINE
  5
811
  8
0
 62
     0
 10
226.5336716133088
 20
275.88160682874201
 30
0.0
 11
226.6586716133088
 21
275.88160682874201
 31
0.0
  0
LINE
  5
812
  8
0
 62
     0
 10
226.5336716133088
 20
275.99960682874189
 30
0.0
 11
226.6586716133088
 21
275.99960682874189
 31
0.0
  0
LINE
  5
813
  8
0
 62
     0
 10
226.5336716133088
 20
276.117606828742
 30
0.0
 11
226.6586716133088
 21
276.117606828742
 31
0.0
  0
LINE
  5
814
  8
0
 62
     0
 10
226.5336716133088
 20
276.23560682874188
 30
0.0
 11
226.6586716133088
 21
276.23560682874188
 31
0.0
  0
LINE
  5
815
  8
0
 62
     0
 10
226.5336716133088
 20
276.35360682874187
 30
0.0
 11
226.6586716133088
 21
276.35360682874187
 31
0.0
  0
LINE
  5
816
  8
0
 62
     0
 10
226.5336716133088
 20
276.47160682874193
 30
0.0
 11
226.6586716133088
 21
276.47160682874193
 31
0.0
  0
LINE
  5
817
  8
0
 62
     0
 10
226.5336716133088
 20
276.58960682874192
 30
0.0
 11
226.6586716133088
 21
276.58960682874192
 31
0.0
  0
LINE
  5
818
  8
0
 62
     0
 10
226.5336716133088
 20
276.70760682874192
 30
0.0
 11
226.6586716133088
 21
276.70760682874192
 31
0.0
  0
LINE
  5
819
  8
0
 62
     0
 10
226.5336716133088
 20
276.82560682874191
 30
0.0
 11
226.6586716133088
 21
276.82560682874191
 31
0.0
  0
LINE
  5
81A
  8
0
 62
     0
 10
226.5336716133088
 20
276.94360682874191
 30
0.0
 11
226.6586716133088
 21
276.94360682874191
 31
0.0
  0
LINE
  5
81B
  8
0
 62
     0
 10
226.5336716133088
 20
277.0616068287419
 30
0.0
 11
226.6586716133088
 21
277.0616068287419
 31
0.0
  0
LINE
  5
81C
  8
0
 62
     0
 10
226.5336716133088
 20
277.1796068287419
 30
0.0
 11
226.6586716133088
 21
277.1796068287419
 31
0.0
  0
LINE
  5
81D
  8
0
 62
     0
 10
226.5336716133088
 20
277.297606828742
 30
0.0
 11
226.6586716133088
 21
277.297606828742
 31
0.0
  0
LINE
  5
81E
  8
0
 62
     0
 10
226.5336716133088
 20
277.41560682874189
 30
0.0
 11
226.6586716133088
 21
277.41560682874189
 31
0.0
  0
LINE
  5
81F
  8
0
 62
     0
 10
226.5336716133088
 20
277.53360682874188
 30
0.0
 11
226.6586716133088
 21
277.53360682874188
 31
0.0
  0
LINE
  5
820
  8
0
 62
     0
 10
226.5336716133088
 20
277.65160682874188
 30
0.0
 11
226.6586716133088
 21
277.65160682874188
 31
0.0
  0
LINE
  5
821
  8
0
 62
     0
 10
226.5336716133088
 20
277.76960682874193
 30
0.0
 11
226.6586716133088
 21
277.76960682874193
 31
0.0
  0
LINE
  5
822
  8
0
 62
     0
 10
226.5336716133088
 20
277.88760682874192
 30
0.0
 11
226.6586716133088
 21
277.88760682874192
 31
0.0
  0
LINE
  5
823
  8
0
 62
     0
 10
226.5336716133088
 20
278.00560682874192
 30
0.0
 11
226.6586716133088
 21
278.00560682874192
 31
0.0
  0
LINE
  5
824
  8
0
 62
     0
 10
226.5336716133088
 20
278.12360682874191
 30
0.0
 11
226.6586716133088
 21
278.12360682874191
 31
0.0
  0
LINE
  5
825
  8
0
 62
     0
 10
226.5336716133088
 20
278.24160682874191
 30
0.0
 11
226.6586716133088
 21
278.24160682874191
 31
0.0
  0
LINE
  5
826
  8
0
 62
     0
 10
226.5336716133088
 20
278.3596068287419
 30
0.0
 11
226.6586716133088
 21
278.3596068287419
 31
0.0
  0
LINE
  5
827
  8
0
 62
     0
 10
226.5336716133088
 20
278.47760682874201
 30
0.0
 11
226.6586716133088
 21
278.47760682874201
 31
0.0
  0
LINE
  5
828
  8
0
 62
     0
 10
226.5336716133088
 20
278.59560682874189
 30
0.0
 11
226.6586716133088
 21
278.59560682874189
 31
0.0
  0
LINE
  5
829
  8
0
 62
     0
 10
226.5336716133088
 20
278.71360682874189
 30
0.0
 11
226.6586716133088
 21
278.71360682874189
 31
0.0
  0
LINE
  5
82A
  8
0
 62
     0
 10
226.5336716133088
 20
278.83160682874188
 30
0.0
 11
226.6586716133088
 21
278.83160682874188
 31
0.0
  0
LINE
  5
82B
  8
0
 62
     0
 10
226.5336716133088
 20
278.94960682874188
 30
0.0
 11
226.6586716133088
 21
278.94960682874188
 31
0.0
  0
LINE
  5
82C
  8
0
 62
     0
 10
226.5336716133088
 20
279.06760682874187
 30
0.0
 11
226.6586716133088
 21
279.06760682874187
 31
0.0
  0
LINE
  5
82D
  8
0
 62
     0
 10
226.5336716133088
 20
279.18560682874192
 30
0.0
 11
226.6586716133088
 21
279.18560682874192
 31
0.0
  0
LINE
  5
82E
  8
0
 62
     0
 10
226.5336716133088
 20
279.30360682874192
 30
0.0
 11
226.6586716133088
 21
279.30360682874192
 31
0.0
  0
LINE
  5
82F
  8
0
 62
     0
 10
226.5336716133088
 20
279.42160682874191
 30
0.0
 11
226.6586716133088
 21
279.42160682874191
 31
0.0
  0
LINE
  5
830
  8
0
 62
     0
 10
226.5336716133088
 20
279.53960682874191
 30
0.0
 11
226.6586716133088
 21
279.53960682874191
 31
0.0
  0
LINE
  5
831
  8
0
 62
     0
 10
226.5336716133088
 20
279.6576068287419
 30
0.0
 11
226.6586716133088
 21
279.6576068287419
 31
0.0
  0
LINE
  5
832
  8
0
 62
     0
 10
226.5336716133088
 20
279.7756068287419
 30
0.0
 11
226.6586716133088
 21
279.7756068287419
 31
0.0
  0
LINE
  5
833
  8
0
 62
     0
 10
226.5336716133088
 20
279.89360682874201
 30
0.0
 11
226.6586716133088
 21
279.89360682874201
 31
0.0
  0
ENDBLK
  5
835
  8
0
  0
BLOCK
  8
0
  2
*X5
 70
     1
 10
0.0
 20
0.0
 30
0.0
  3
*X5
  1

  0
LINE
  5
85D
  8
0
 62
     0
 10
357.0
 20
37.472665687349952
 30
0.0
 11
357.0
 21
113.9726656873504
 31
0.0
  0
LINE
  5
85E
  8
0
 62
     0
 10
354.0
 20
37.472665687349952
 30
0.0
 11
354.0
 21
113.9726656873504
 31
0.0
  0
LINE
  5
85F
  8
0
 62
     0
 10
351.0
 20
37.472665687349952
 30
0.0
 11
351.0
 21
113.9726656873504
 31
0.0
  0
LINE
  5
860
  8
0
 62
     0
 10
348.0
 20
37.472665687349952
 30
0.0
 11
348.0
 21
113.9726656873504
 31
0.0
  0
LINE
  5
861
  8
0
 62
     0
 10
345.0
 20
37.472665687349952
 30
0.0
 11
345.0
 21
113.9726656873504
 31
0.0
  0
LINE
  5
862
  8
0
 62
     0
 10
342.0
 20
37.472665687349952
 30
0.0
 11
342.0
 21
113.9726656873504
 31
0.0
  0
LINE
  5
863
  8
0
 62
     0
 10
339.0
 20
37.472665687349952
 30
0.0
 11
339.0
 21
113.9726656873504
 31
0.0
  0
LINE
  5
864
  8
0
 62
     0
 10
336.0
 20
37.472665687349952
 30
0.0
 11
336.0
 21
113.9726656873504
 31
0.0
  0
LINE
  5
865
  8
0
 62
     0
 10
333.0
 20
37.472665687349952
 30
0.0
 11
333.0
 21
113.9726656873504
 31
0.0
  0
LINE
  5
866
  8
0
 62
     0
 10
330.0
 20
37.472665687349952
 30
0.0
 11
330.0
 21
113.9726656873504
 31
0.0
  0
LINE
  5
867
  8
0
 62
     0
 10
327.0
 20
37.472665687349952
 30
0.0
 11
327.0
 21
113.9726656873504
 31
0.0
  0
LINE
  5
868
  8
0
 62
     0
 10
324.0
 20
37.472665687349952
 30
0.0
 11
324.0
 21
113.9726656873504
 31
0.0
  0
LINE
  5
869
  8
0
 62
     0
 10
321.0
 20
37.472665687349952
 30
0.0
 11
321.0
 21
113.9726656873504
 31
0.0
  0
LINE
  5
86A
  8
0
 62
     0
 10
318.0
 20
37.472665687349952
 30
0.0
 11
318.0
 21
113.9726656873504
 31
0.0
  0
LINE
  5
86B
  8
0
 62
     0
 10
315.0
 20
37.472665687349952
 30
0.0
 11
315.0
 21
113.9726656873504
 31
0.0
  0
LINE
  5
86C
  8
0
 62
     0
 10
312.0
 20
37.472665687349952
 30
0.0
 11
312.0
 21
113.9726656873504
 31
0.0
  0
LINE
  5
86D
  8
0
 62
     0
 10
309.0
 20
37.472665687349952
 30
0.0
 11
309.0
 21
113.9726656873504
 31
0.0
  0
LINE
  5
86E
  8
0
 62
     0
 10
306.0
 20
37.472665687349952
 30
0.0
 11
306.0
 21
113.9726656873504
 31
0.0
  0
LINE
  5
86F
  8
0
 62
     0
 10
303.0
 20
37.472665687349952
 30
0.0
 11
303.0
 21
113.9726656873504
 31
0.0
  0
LINE
  5
870
  8
0
 62
     0
 10
300.0
 20
37.472665687349952
 30
0.0
 11
300.0
 21
113.9726656873504
 31
0.0
  0
LINE
  5
871
  8
0
 62
     0
 10
297.0
 20
37.472665687349952
 30
0.0
 11
297.0
 21
113.9726656873504
 31
0.0
  0
LINE
  5
872
  8
0
 62
     0
 10
294.0
 20
37.472665687349952
 30
0.0
 11
294.0
 21
113.9726656873504
 31
0.0
  0
LINE
  5
873
  8
0
 62
     0
 10
291.0
 20
37.472665687349952
 30
0.0
 11
291.0
 21
113.9726656873504
 31
0.0
  0
LINE
  5
874
  8
0
 62
     0
 10
290.88047493395692
 20
39.0
 30
0.0
 11
359.75547493395692
 21
39.0
 31
0.0
  0
LINE
  5
875
  8
0
 62
     0
 10
290.88047493395692
 20
42.0
 30
0.0
 11
359.75547493395692
 21
42.0
 31
0.0
  0
LINE
  5
876
  8
0
 62
     0
 10
290.88047493395692
 20
45.0
 30
0.0
 11
359.75547493395692
 21
45.0
 31
0.0
  0
LINE
  5
877
  8
0
 62
     0
 10
290.88047493395692
 20
48.0
 30
0.0
 11
359.75547493395692
 21
48.0
 31
0.0
  0
LINE
  5
878
  8
0
 62
     0
 10
290.88047493395692
 20
51.0
 30
0.0
 11
359.75547493395692
 21
51.0
 31
0.0
  0
LINE
  5
879
  8
0
 62
     0
 10
290.88047493395692
 20
54.0
 30
0.0
 11
359.75547493395692
 21
54.0
 31
0.0
  0
LINE
  5
87A
  8
0
 62
     0
 10
290.88047493395692
 20
57.0
 30
0.0
 11
359.75547493395692
 21
57.0
 31
0.0
  0
LINE
  5
87B
  8
0
 62
     0
 10
290.88047493395692
 20
60.0
 30
0.0
 11
359.75547493395692
 21
60.0
 31
0.0
  0
LINE
  5
87C
  8
0
 62
     0
 10
290.88047493395692
 20
63.0
 30
0.0
 11
359.75547493395692
 21
63.0
 31
0.0
  0
LINE
  5
87D
  8
0
 62
     0
 10
290.88047493395692
 20
66.0
 30
0.0
 11
359.75547493395692
 21
66.0
 31
0.0
  0
LINE
  5
87E
  8
0
 62
     0
 10
290.88047493395692
 20
69.0
 30
0.0
 11
359.75547493395692
 21
69.0
 31
0.0
  0
LINE
  5
87F
  8
0
 62
     0
 10
290.88047493395692
 20
72.0
 30
0.0
 11
359.75547493395692
 21
72.0
 31
0.0
  0
LINE
  5
880
  8
0
 62
     0
 10
290.88047493395692
 20
75.0
 30
0.0
 11
359.75547493395692
 21
75.0
 31
0.0
  0
LINE
  5
881
  8
0
 62
     0
 10
290.88047493395692
 20
78.0
 30
0.0
 11
359.75547493395692
 21
78.0
 31
0.0
  0
LINE
  5
882
  8
0
 62
     0
 10
290.88047493395692
 20
81.0
 30
0.0
 11
359.75547493395692
 21
81.0
 31
0.0
  0
LINE
  5
883
  8
0
 62
     0
 10
290.88047493395692
 20
84.0
 30
0.0
 11
359.75547493395692
 21
84.0
 31
0.0
  0
LINE
  5
884
  8
0
 62
     0
 10
290.88047493395692
 20
87.0
 30
0.0
 11
359.75547493395692
 21
87.0
 31
0.0
  0
LINE
  5
885
  8
0
 62
     0
 10
290.88047493395692
 20
90.0
 30
0.0
 11
359.75547493395692
 21
90.0
 31
0.0
  0
LINE
  5
886
  8
0
 62
     0
 10
290.88047493395692
 20
93.0
 30
0.0
 11
359.75547493395692
 21
93.0
 31
0.0
  0
LINE
  5
887
  8
0
 62
     0
 10
290.88047493395692
 20
96.0
 30
0.0
 11
359.75547493395692
 21
96.0
 31
0.0
  0
LINE
  5
888
  8
0
 62
     0
 10
290.88047493395692
 20
99.0
 30
0.0
 11
359.75547493395692
 21
99.0
 31
0.0
  0
LINE
  5
889
  8
0
 62
     0
 10
290.88047493395692
 20
102.0
 30
0.0
 11
359.75547493395692
 21
102.0
 31
0.0
  0
LINE
  5
88A
  8
0
 62
     0
 10
290.88047493395692
 20
105.0
 30
0.0
 11
359.75547493395692
 21
105.0
 31
0.0
  0
LINE
  5
88B
  8
0
 62
     0
 10
290.88047493395692
 20
108.0
 30
0.0
 11
359.75547493395692
 21
108.0
 31
0.0
  0
LINE
  5
88C
  8
0
 62
     0
 10
290.88047493395692
 20
111.0
 30
0.0
 11
359.75547493395692
 21
111.0
 31
0.0
  0
ENDBLK
  5
88E
  8
0
  0
BLOCK
  8
0
  2
*X6
 70
     1
 10
0.0
 20
0.0
 30
0.0
  3
*X6
  1

  0
LINE
  5
890
  8
0
 62
     0
 10
102.0
 20
37.472665687352631
 30
0.0
 11
102.0
 21
115.4726656873499
 31
0.0
  0
LINE
  5
891
  8
0
 62
     0
 10
100.5
 20
37.47266568735261
 30
0.0
 11
100.5
 21
115.4726656873499
 31
0.0
  0
LINE
  5
892
  8
0
 62
     0
 10
99.0
 20
37.472665687352588
 30
0.0
 11
99.0
 21
115.4726656873499
 31
0.0
  0
LINE
  5
893
  8
0
 62
     0
 10
97.5
 20
37.472665687352581
 30
0.0
 11
97.5
 21
115.4726656873499
 31
0.0
  0
LINE
  5
894
  8
0
 62
     0
 10
96.0
 20
37.472665687352553
 30
0.0
 11
96.0
 21
115.4726656873499
 31
0.0
  0
LINE
  5
895
  8
0
 62
     0
 10
94.500000000000014
 20
37.472665687352531
 30
0.0
 11
94.500000000000014
 21
115.4726656873499
 31
0.0
  0
LINE
  5
896
  8
0
 62
     0
 10
93.0
 20
37.47266568735251
 30
0.0
 11
93.0
 21
115.4726656873499
 31
0.0
  0
LINE
  5
897
  8
0
 62
     0
 10
91.5
 20
37.472665687352489
 30
0.0
 11
91.5
 21
115.4726656873499
 31
0.0
  0
LINE
  5
898
  8
0
 62
     0
 10
90.0
 20
37.472665687352468
 30
0.0
 11
90.0
 21
115.4726656873499
 31
0.0
  0
LINE
  5
899
  8
0
 62
     0
 10
88.499999999999986
 20
37.472665687352453
 30
0.0
 11
88.499999999999986
 21
115.4726656873499
 31
0.0
  0
LINE
  5
89A
  8
0
 62
     0
 10
87.0
 20
37.472665687352432
 30
0.0
 11
87.0
 21
115.4726656873499
 31
0.0
  0
LINE
  5
89B
  8
0
 62
     0
 10
85.5
 20
37.472665687352404
 30
0.0
 11
85.5
 21
115.4726656873499
 31
0.0
  0
LINE
  5
89C
  8
0
 62
     0
 10
84.0
 20
37.472665687352382
 30
0.0
 11
84.0
 21
115.4726656873499
 31
0.0
  0
LINE
  5
89D
  8
0
 62
     0
 10
82.5
 20
37.472665687352368
 30
0.0
 11
82.5
 21
115.4726656873499
 31
0.0
  0
LINE
  5
89E
  8
0
 62
     0
 10
81.0
 20
37.472665687352347
 30
0.0
 11
81.0
 21
115.4726656873499
 31
0.0
  0
LINE
  5
89F
  8
0
 62
     0
 10
79.5
 20
37.472665687352332
 30
0.0
 11
79.5
 21
115.4726656873499
 31
0.0
  0
LINE
  5
8A0
  8
0
 62
     0
 10
78.0
 20
37.472665687352311
 30
0.0
 11
78.0
 21
115.4726656873499
 31
0.0
  0
LINE
  5
8A1
  8
0
 62
     0
 10
76.5
 20
37.472665687352283
 30
0.0
 11
76.5
 21
115.4726656873499
 31
0.0
  0
LINE
  5
8A2
  8
0
 62
     0
 10
75.0
 20
37.472665687352261
 30
0.0
 11
75.0
 21
115.4726656873499
 31
0.0
  0
LINE
  5
8A3
  8
0
 62
     0
 10
73.5
 20
37.47266568735224
 30
0.0
 11
73.5
 21
115.4726656873499
 31
0.0
  0
LINE
  5
8A4
  8
0
 62
     0
 10
72.0
 20
37.472665687352219
 30
0.0
 11
72.0
 21
115.4726656873499
 31
0.0
  0
LINE
  5
8A5
  8
0
 62
     0
 10
70.5
 20
37.472665687352197
 30
0.0
 11
70.5
 21
115.4726656873499
 31
0.0
  0
LINE
  5
8A6
  8
0
 62
     0
 10
69.0
 20
37.47266568735219
 30
0.0
 11
69.0
 21
115.4726656873499
 31
0.0
  0
LINE
  5
8A7
  8
0
 62
     0
 10
67.5
 20
37.472665687352162
 30
0.0
 11
67.5
 21
115.4726656873499
 31
0.0
  0
LINE
  5
8A8
  8
0
 62
     0
 10
66.0
 20
37.472665687352141
 30
0.0
 11
66.0
 21
115.4726656873499
 31
0.0
  0
LINE
  5
8A9
  8
0
 62
     0
 10
64.5
 20
37.472665687352119
 30
0.0
 11
64.5
 21
115.4726656873499
 31
0.0
  0
LINE
  5
8AA
  8
0
 62
     0
 10
63.0
 20
37.472665687352098
 30
0.0
 11
63.0
 21
115.4726656873499
 31
0.0
  0
LINE
  5
8AB
  8
0
 62
     0
 10
61.5
 20
37.472665687352077
 30
0.0
 11
61.500000000000007
 21
115.4726656873499
 31
0.0
  0
LINE
  5
8AC
  8
0
 62
     0
 10
60.0
 20
37.472665687352062
 30
0.0
 11
60.0
 21
115.4726656873499
 31
0.0
  0
LINE
  5
8AD
  8
0
 62
     0
 10
58.5
 20
37.472665687352041
 30
0.0
 11
58.500000000000007
 21
115.4726656873499
 31
0.0
  0
LINE
  5
8AE
  8
0
 62
     0
 10
57.0
 20
37.472665687352013
 30
0.0
 11
57.000000000000007
 21
115.4726656873499
 31
0.0
  0
LINE
  5
8AF
  8
0
 62
     0
 10
55.5
 20
37.472665687351991
 30
0.0
 11
55.5
 21
115.4726656873499
 31
0.0
  0
LINE
  5
8B0
  8
0
 62
     0
 10
54.0
 20
37.472665687351977
 30
0.0
 11
54.000000000000007
 21
115.4726656873499
 31
0.0
  0
LINE
  5
8B1
  8
0
 62
     0
 10
52.5
 20
37.472665687351963
 30
0.0
 11
52.5
 21
115.4726656873499
 31
0.0
  0
LINE
  5
8B2
  8
0
 62
     0
 10
51.0
 20
37.472665687351942
 30
0.0
 11
51.000000000000007
 21
115.4726656873499
 31
0.0
  0
LINE
  5
8B3
  8
0
 62
     0
 10
49.5
 20
37.47266568735192
 30
0.0
 11
49.500000000000007
 21
115.4726656873499
 31
0.0
  0
LINE
  5
8B4
  8
0
 62
     0
 10
48.0
 20
37.472665687351892
 30
0.0
 11
48.0
 21
115.4726656873499
 31
0.0
  0
LINE
  5
8B5
  8
0
 62
     0
 10
46.5
 20
37.472665687351871
 30
0.0
 11
46.500000000000007
 21
115.4726656873499
 31
0.0
  0
LINE
  5
8B6
  8
0
 62
     0
 10
45.0
 20
37.472665687351849
 30
0.0
 11
45.0
 21
115.4726656873499
 31
0.0
  0
LINE
  5
8B7
  8
0
 62
     0
 10
43.5
 20
37.472665687351828
 30
0.0
 11
43.5
 21
115.4726656873499
 31
0.0
  0
LINE
  5
8B8
  8
0
 62
     0
 10
42.0
 20
37.472665687351807
 30
0.0
 11
42.000000000000007
 21
115.4726656873499
 31
0.0
  0
LINE
  5
8B9
  8
0
 62
     0
 10
40.499999999999993
 20
37.472665687351792
 30
0.0
 11
40.5
 21
115.4726656873499
 31
0.0
  0
LINE
  5
8BA
  8
0
 62
     0
 10
39.0
 20
37.472665687351771
 30
0.0
 11
39.000000000000007
 21
115.4726656873499
 31
0.0
  0
LINE
  5
8BB
  8
0
 62
     0
 10
37.5
 20
37.47266568735175
 30
0.0
 11
37.500000000000007
 21
115.4726656873499
 31
0.0
  0
LINE
  5
8BC
  8
0
 62
     0
 10
36.0
 20
37.472665687351729
 30
0.0
 11
36.000000000000007
 21
115.4726656873499
 31
0.0
  0
ENDBLK
  5
8BE
  8
0
  0
BLOCK
  8
0
  2
*X7
 70
     1
 10
0.0
 20
0.0
 30
0.0
  3
*X7
  1

  0
LINE
  5
8C0
  8
0
 62
     0
 10
171.29575980436709
 20
235.5
 30
0.0
 11
157.54225530910679
 21
235.5
 31
0.0
  0
LINE
  5
8C1
  8
0
 62
     0
 10
171.29575980436709
 20
234.0
 30
0.0
 11
157.54225530910679
 21
234.0
 31
0.0
  0
LINE
  5
8C2
  8
0
 62
     0
 10
171.29575980436709
 20
232.5
 30
0.0
 11
157.54225530910679
 21
232.5
 31
0.0
  0
LINE
  5
8C3
  8
0
 62
     0
 10
171.29575980436709
 20
231.0
 30
0.0
 11
157.54225530910679
 21
231.0
 31
0.0
  0
LINE
  5
8C4
  8
0
 62
     0
 10
171.29575980436709
 20
229.5
 30
0.0
 11
157.54225530910679
 21
229.5
 31
0.0
  0
LINE
  5
8C5
  8
0
 62
     0
 10
171.29575980436709
 20
228.0
 30
0.0
 11
157.54225530910679
 21
228.0
 31
0.0
  0
LINE
  5
8C6
  8
0
 62
     0
 10
171.29575980436709
 20
226.5
 30
0.0
 11
157.54225530910679
 21
226.5
 31
0.0
  0
LINE
  5
8C7
  8
0
 62
     0
 10
171.29575980436701
 20
225.0
 30
0.0
 11
157.54225530910671
 21
225.0
 31
0.0
  0
LINE
  5
8C8
  8
0
 62
     0
 10
171.29575980436701
 20
223.5
 30
0.0
 11
157.54225530910671
 21
223.5
 31
0.0
  0
LINE
  5
8C9
  8
0
 62
     0
 10
171.29575980436701
 20
222.0
 30
0.0
 11
157.54225530910671
 21
222.0
 31
0.0
  0
LINE
  5
8CA
  8
0
 62
     0
 10
171.29575980436701
 20
220.5
 30
0.0
 11
157.54225530910671
 21
220.5
 31
0.0
  0
LINE
  5
8CB
  8
0
 62
     0
 10
171.29575980436701
 20
219.0
 30
0.0
 11
157.54225530910671
 21
219.0
 31
0.0
  0
LINE
  5
8CC
  8
0
 62
     0
 10
171.29575980436701
 20
217.5
 30
0.0
 11
157.54225530910671
 21
217.5
 31
0.0
  0
LINE
  5
8CD
  8
0
 62
     0
 10
171.29575980436701
 20
216.0
 30
0.0
 11
157.54225530910671
 21
216.0
 31
0.0
  0
LINE
  5
8CE
  8
0
 62
     0
 10
171.29575980436701
 20
214.5
 30
0.0
 11
157.54225530910671
 21
214.5
 31
0.0
  0
LINE
  5
8CF
  8
0
 62
     0
 10
171.29575980436701
 20
213.0
 30
0.0
 11
157.54225530910671
 21
213.0
 31
0.0
  0
LINE
  5
8D0
  8
0
 62
     0
 10
171.2957598043669
 20
211.5
 30
0.0
 11
157.54225530910671
 21
211.5
 31
0.0
  0
LINE
  5
8D1
  8
0
 62
     0
 10
171.2957598043669
 20
210.0
 30
0.0
 11
157.54225530910671
 21
210.0
 31
0.0
  0
LINE
  5
8D2
  8
0
 62
     0
 10
171.2957598043669
 20
208.5
 30
0.0
 11
157.54225530910671
 21
208.5
 31
0.0
  0
LINE
  5
8D3
  8
0
 62
     0
 10
171.2957598043669
 20
207.0
 30
0.0
 11
157.54225530910671
 21
207.0
 31
0.0
  0
LINE
  5
8D4
  8
0
 62
     0
 10
171.2957598043669
 20
205.5
 30
0.0
 11
157.54225530910671
 21
205.5
 31
0.0
  0
LINE
  5
8D5
  8
0
 62
     0
 10
171.2957598043669
 20
204.0
 30
0.0
 11
157.54225530910671
 21
204.0
 31
0.0
  0
LINE
  5
8D6
  8
0
 62
     0
 10
171.2957598043669
 20
202.5
 30
0.0
 11
157.54225530910671
 21
202.5
 31
0.0
  0
LINE
  5
8D7
  8
0
 62
     0
 10
171.2957598043669
 20
201.0
 30
0.0
 11
157.54225530910671
 21
201.0
 31
0.0
  0
LINE
  5
8D8
  8
0
 62
     0
 10
171.2957598043669
 20
199.49999999999989
 30
0.0
 11
157.54225530910671
 21
199.49999999999989
 31
0.0
  0
LINE
  5
8D9
  8
0
 62
     0
 10
171.2957598043669
 20
198.0
 30
0.0
 11
157.54225530910671
 21
198.0
 31
0.0
  0
LINE
  5
8DA
  8
0
 62
     0
 10
171.2957598043669
 20
196.5
 30
0.0
 11
157.54225530910671
 21
196.5
 31
0.0
  0
LINE
  5
8DB
  8
0
 62
     0
 10
171.2957598043669
 20
195.0
 30
0.0
 11
157.54225530910671
 21
195.0
 31
0.0
  0
LINE
  5
8DC
  8
0
 62
     0
 10
171.2957598043669
 20
193.5
 30
0.0
 11
157.54225530910659
 21
193.5
 31
0.0
  0
LINE
  5
8DD
  8
0
 62
     0
 10
171.29575980436681
 20
191.99999999999989
 30
0.0
 11
157.54225530910659
 21
191.99999999999989
 31
0.0
  0
LINE
  5
8DE
  8
0
 62
     0
 10
171.29575980436681
 20
190.5
 30
0.0
 11
157.54225530910659
 21
190.5
 31
0.0
  0
LINE
  5
8DF
  8
0
 62
     0
 10
171.29575980436681
 20
188.99999999999989
 30
0.0
 11
157.54225530910659
 21
188.99999999999989
 31
0.0
  0
LINE
  5
8E0
  8
0
 62
     0
 10
171.29575980436681
 20
187.5
 30
0.0
 11
157.54225530910659
 21
187.5
 31
0.0
  0
LINE
  5
8E1
  8
0
 62
     0
 10
171.29575980436681
 20
185.99999999999989
 30
0.0
 11
157.54225530910659
 21
185.99999999999989
 31
0.0
  0
LINE
  5
8E2
  8
0
 62
     0
 10
171.29575980436681
 20
184.49999999999989
 30
0.0
 11
157.54225530910659
 21
184.49999999999989
 31
0.0
  0
LINE
  5
8E3
  8
0
 62
     0
 10
171.29575980436681
 20
183.0
 30
0.0
 11
157.54225530910659
 21
183.0
 31
0.0
  0
LINE
  5
8E4
  8
0
 62
     0
 10
171.29575980436681
 20
181.49999999999989
 30
0.0
 11
157.54225530910659
 21
181.49999999999989
 31
0.0
  0
LINE
  5
8E5
  8
0
 62
     0
 10
171.29575980436681
 20
180.0
 30
0.0
 11
157.54225530910659
 21
180.0
 31
0.0
  0
LINE
  5
8E6
  8
0
 62
     0
 10
171.29575980436681
 20
178.49999999999989
 30
0.0
 11
157.54225530910659
 21
178.49999999999989
 31
0.0
  0
LINE
  5
8E7
  8
0
 62
     0
 10
171.29575980436681
 20
177.0
 30
0.0
 11
157.54225530910659
 21
177.0
 31
0.0
  0
LINE
  5
8E8
  8
0
 62
     0
 10
171.29575980436681
 20
175.49999999999989
 30
0.0
 11
157.54225530910659
 21
175.49999999999989
 31
0.0
  0
LINE
  5
8E9
  8
0
 62
     0
 10
171.2957598043667
 20
174.0
 30
0.0
 11
157.54225530910659
 21
174.0
 31
0.0
  0
LINE
  5
8EA
  8
0
 62
     0
 10
171.2957598043667
 20
172.49999999999989
 30
0.0
 11
157.54225530910659
 21
172.49999999999989
 31
0.0
  0
LINE
  5
8EB
  8
0
 62
     0
 10
171.2957598043667
 20
170.99999999999989
 30
0.0
 11
157.54225530910651
 21
170.99999999999989
 31
0.0
  0
LINE
  5
8EC
  8
0
 62
     0
 10
171.2957598043667
 20
169.5
 30
0.0
 11
157.54225530910651
 21
169.5
 31
0.0
  0
LINE
  5
8ED
  8
0
 62
     0
 10
171.2957598043667
 20
167.99999999999989
 30
0.0
 11
157.54225530910651
 21
167.99999999999989
 31
0.0
  0
ENDBLK
  5
8EF
  8
0
  0
ENDSEC
  0
SECTION
  2
ENTITIES
  0
LINE
  5
320
  8
0
 10
205.542255309106
 20
122.4726656873524
 30
0.0
 11
205.542255309106
 21
115.4726656873524
 31
0.0
  0
LINE
  5
321
  8
0
 10
176.79225530910611
 20
115.4726656873524
 30
0.0
 11
176.79225530910611
 21
122.4726656873524
 31
0.0
  0
LINE
  5
322
  8
0
 10
205.542255309106
 20
115.4726656873524
 30
0.0
 11
176.79225530910611
 21
115.4726656873524
 31
0.0
  0
LINE
  5
323
  8
0
 10
176.79225530910611
 20
122.4726656873524
 30
0.0
 11
205.542255309106
 21
122.4726656873524
 31
0.0
  0
LINE
  5
324
  8
0
 10
155.04225530910651
 20
115.4726656873499
 30
0.0
 11
242.41725530910651
 21
115.4726656873499
 31
0.0
  0
LINE
  5
325
  8
0
 10
242.41725530910651
 20
22.472665687349942
 30
0.0
 11
240.66725530910719
 21
22.472665687349942
 31
0.0
  0
LINE
  5
326
  8
0
 10
156.79225530910711
 20
22.472665687349942
 30
0.0
 11
155.04225530910651
 21
22.472665687349942
 31
0.0
  0
LINE
  5
327
  8
0
 10
155.04225530910651
 20
22.472665687349942
 30
0.0
 11
155.04225530910651
 21
115.4726656873499
 31
0.0
  0
LINE
  5
328
  8
0
 10
156.79225530910711
 20
22.472665687349942
 30
0.0
 11
156.79225530910711
 21
24.47266568735019
 31
0.0
  0
LINE
  5
329
  8
0
 10
156.79225530910711
 20
24.47266568735019
 30
0.0
 11
240.66725530910719
 21
24.47266568735019
 31
0.0
  0
LINE
  5
32A
  8
0
 10
240.66725530910719
 20
24.47266568735019
 30
0.0
 11
240.66725530910719
 21
22.472665687349942
 31
0.0
  0
LINE
  5
32B
  8
0
 10
242.41725530910651
 20
22.472665687349942
 30
0.0
 11
242.41725530910651
 21
115.4726656873499
 31
0.0
  0
ARC
  5
32C
  8
0
 10
185.47975530910611
 20
86.109029323715205
 30
0.0
 40
8.2500000000000053
 50
179.9999999999996
 51
359.99999999999881
  0
ARC
  5
32D
  8
0
 10
185.47975530910611
 20
86.109029323715205
 30
0.0
 40
8.2499999999999876
 50
359.9999999999996
 51
179.9999999999996
  0
ARC
  5
32E
  8
0
 10
185.47975530910611
 20
86.109029323715205
 30
0.0
 40
7.6874999999999858
 50
0.0000000000006107
 51
180.0
  0
ARC
  5
32F
  8
0
 10
185.47975530910611
 20
86.109029323715205
 30
0.0
 40
7.687499999999992
 50
180.0
 51
359.9999999999996
  0
LINE
  5
330
  8
0
 10
190.60225608309389
 20
83.667173474917846
 30
0.0
 11
190.40731560690341
 21
83.218264744759097
 31
0.0
  0
LINE
  5
331
  8
0
 10
190.40731560690341
 20
83.218264744759097
 30
0.0
 11
189.95642274976061
 21
83.061022681267019
 31
0.0
  0
LINE
  5
332
  8
0
 10
189.95642274976061
 20
83.061022681267019
 30
0.0
 11
189.63189397991931
 21
83.125258792378148
 31
0.0
  0
LINE
  5
333
  8
0
 10
189.63189397991931
 20
83.125258792378148
 30
0.0
 11
189.3964029084907
 21
83.317967125711476
 31
0.0
  0
LINE
  5
334
  8
0
 10
189.3964029084907
 20
83.317967125711476
 30
0.0
 11
189.2054306862685
 21
84.075903633647982
 31
0.0
  0
LINE
  5
335
  8
0
 10
189.2054306862685
 20
84.075903633647982
 30
0.0
 11
189.3894584640463
 21
84.839792522536868
 31
0.0
  0
LINE
  5
336
  8
0
 10
189.3894584640463
 20
84.839792522536868
 30
0.0
 11
189.61924517039549
 21
85.029524665394007
 31
0.0
  0
LINE
  5
337
  8
0
 10
189.61924517039549
 20
85.029524665394007
 30
0.0
 11
189.94054973388771
 21
85.092768713013044
 31
0.0
  0
LINE
  5
338
  8
0
 10
189.94054973388771
 20
85.092768713013044
 30
0.0
 11
190.40880370214151
 21
84.94941553840988
 31
0.0
  0
LINE
  5
339
  8
0
 10
190.40880370214151
 20
84.94941553840988
 30
0.0
 11
190.60225608309389
 21
84.524316332060664
 31
0.0
  0
LINE
  5
33A
  8
0
 10
190.60225608309389
 20
84.524316332060664
 30
0.0
 11
191.74511322595109
 21
84.524316332060664
 31
0.0
  0
LINE
  5
33B
  8
0
 10
191.74511322595109
 20
84.524316332060664
 30
0.0
 11
191.58489497198281
 21
85.172009784441627
 31
0.0
  0
LINE
  5
33C
  8
0
 10
191.58489497198281
 20
85.172009784441627
 30
0.0
 11
191.21733544817329
 21
85.650804427298766
 31
0.0
  0
LINE
  5
33D
  8
0
 10
191.21733544817329
 20
85.650804427298766
 30
0.0
 11
190.65830767039549
 21
85.946563355870211
 31
0.0
  0
LINE
  5
33E
  8
0
 10
190.65830767039549
 20
85.946563355870211
 30
0.0
 11
189.9236846545225
 21
86.045149665394007
 31
0.0
  0
LINE
  5
33F
  8
0
 10
189.9236846545225
 20
86.045149665394007
 30
0.0
 11
189.12569358309389
 21
85.913205220949578
 31
0.0
  0
LINE
  5
340
  8
0
 10
189.12569358309389
 20
85.913205220949578
 30
0.0
 11
188.51545052753841
 21
85.517371887616235
 31
0.0
  0
LINE
  5
341
  8
0
 10
188.51545052753841
 20
85.517371887616235
 30
0.0
 11
188.1281737418241
 21
84.893363951108299
 31
0.0
  0
LINE
  5
342
  8
0
 10
188.1281737418241
 20
84.893363951108299
 30
0.0
 11
187.99908147991931
 21
84.076895697140074
 31
0.0
  0
LINE
  5
343
  8
0
 10
187.99908147991931
 20
84.076895697140074
 30
0.0
 11
188.1287937815066
 21
83.258567324124158
 31
0.0
  0
LINE
  5
344
  8
0
 10
188.1287937815066
 20
83.258567324124158
 30
0.0
 11
188.5179306862685
 21
82.634931411425768
 31
0.0
  0
LINE
  5
345
  8
0
 10
188.5179306862685
 20
82.634931411425768
 30
0.0
 11
189.13325806722091
 21
82.240214149520995
 31
0.0
  0
LINE
  5
346
  8
0
 10
189.13325806722091
 20
82.240214149520995
 30
0.0
 11
189.9415417973797
 21
82.108641728886084
 31
0.0
  0
LINE
  5
347
  8
0
 10
189.9415417973797
 20
82.108641728886084
 30
0.0
 11
190.66463207515741
 21
82.210824268568601
 31
0.0
  0
LINE
  5
348
  8
0
 10
190.66463207515741
 20
82.210824268568601
 30
0.0
 11
191.22080767039549
 21
82.517371887616235
 31
0.0
  0
LINE
  5
349
  8
0
 10
191.22080767039549
 20
82.517371887616235
 30
0.0
 11
191.5882431862685
 21
83.009187363806717
 31
0.0
  0
LINE
  5
34A
  8
0
 10
191.5882431862685
 20
83.009187363806717
 30
0.0
 11
191.745113225951
 21
83.667173474917846
 31
0.0
  0
LINE
  5
34B
  8
0
 10
191.745113225951
 20
83.667173474917846
 30
0.0
 11
190.60225608309389
 21
83.667173474917846
 31
0.0
  0
LINE
  5
34C
  8
0
 10
183.3805287053263
 20
84.441247663841025
 30
0.0
 11
184.55810807040561
 21
84.441247663841025
 31
0.0
  0
LINE
  5
34D
  8
0
 10
184.55810807040561
 20
84.441247663841025
 30
0.0
 11
184.704933467231
 21
84.949184171777546
 31
0.0
  0
LINE
  5
34E
  8
0
 10
184.704933467231
 20
84.949184171777546
 30
0.0
 11
185.90830648310401
 21
84.949184171777546
 31
0.0
  0
LINE
  5
34F
  8
0
 10
185.90830648310401
 20
84.949184171777546
 30
0.0
 11
186.0501715624691
 21
84.441247663841025
 31
0.0
  0
LINE
  5
350
  8
0
 10
186.0501715624691
 20
84.441247663841025
 30
0.0
 11
187.25354457834209
 21
84.441247663841025
 31
0.0
  0
LINE
  5
351
  8
0
 10
187.25354457834209
 20
84.441247663841025
 30
0.0
 11
185.924179498977
 21
88.250771473364836
 31
0.0
  0
LINE
  5
352
  8
0
 10
185.924179498977
 20
88.250771473364836
 30
0.0
 11
184.6950128323104
 21
88.250771473364836
 31
0.0
  0
LINE
  5
353
  8
0
 10
184.6950128323104
 20
88.250771473364836
 30
0.0
 11
183.3805287053263
 21
84.441247663841025
 31
0.0
  0
LINE
  5
354
  8
0
 10
184.9251715624691
 20
85.774580997174354
 30
0.0
 11
185.31108426088181
 21
87.078152425745785
 31
0.0
  0
LINE
  5
355
  8
0
 10
185.31108426088181
 20
87.078152425745785
 30
0.0
 11
185.68806838786591
 21
85.774580997174354
 31
0.0
  0
LINE
  5
356
  8
0
 10
185.68806838786591
 20
85.774580997174354
 30
0.0
 11
184.9251715624691
 21
85.774580997174354
 31
0.0
  0
LINE
  5
357
  8
0
 10
179.61979751506479
 20
86.181635973021287
 30
0.0
 11
181.31920227696961
 21
86.181635973021287
 31
0.0
  0
LINE
  5
358
  8
0
 10
181.31920227696961
 20
86.181635973021287
 30
0.0
 11
182.08705941982669
 21
86.220326449211754
 31
0.0
  0
LINE
  5
359
  8
0
 10
182.08705941982669
 20
86.220326449211754
 30
0.0
 11
182.49975783252521
 21
86.352270893656225
 31
0.0
  0
LINE
  5
35A
  8
0
 10
182.49975783252521
 20
86.352270893656225
 30
0.0
 11
182.9079919595093
 21
86.735207401592746
 31
0.0
  0
LINE
  5
35B
  8
0
 10
182.9079919595093
 20
86.735207401592746
 30
0.0
 11
183.04836894363629
 21
87.322508988894299
 31
0.0
  0
LINE
  5
35C
  8
0
 10
183.04836894363629
 20
87.322508988894299
 30
0.0
 11
182.9045197372871
 21
87.885505020640323
 31
0.0
  0
LINE
  5
35D
  8
0
 10
182.9045197372871
 20
87.885505020640323
 30
0.0
 11
182.46106735633469
 21
88.210405814291136
 31
0.0
  0
LINE
  5
35E
  8
0
 10
182.46106735633469
 20
88.210405814291136
 30
0.0
 11
182.8063054515728
 21
88.527866131751466
 31
0.0
  0
LINE
  5
35F
  8
0
 10
182.8063054515728
 20
88.527866131751466
 30
0.0
 11
182.92138481665211
 21
88.980247084132415
 31
0.0
  0
LINE
  5
360
  8
0
 10
182.92138481665211
 20
88.980247084132415
 30
0.0
 11
182.7676149753824
 21
89.540266925402236
 31
0.0
  0
LINE
  5
361
  8
0
 10
182.7676149753824
 20
89.540266925402236
 30
0.0
 11
182.32515465792201
 21
89.880048671433983
 31
0.0
  0
LINE
  5
362
  8
0
 10
182.32515465792201
 20
89.880048671433983
 30
0.0
 11
181.92981735633469
 21
89.965366131751452
 31
0.0
  0
LINE
  5
363
  8
0
 10
181.92981735633469
 20
89.965366131751452
 30
0.0
 11
181.1961864039537
 21
89.991159782545111
 31
0.0
  0
LINE
  5
364
  8
0
 10
181.1961864039537
 20
89.991159782545111
 30
0.0
 11
179.61979751506479
 21
89.991159782545111
 31
0.0
  0
LINE
  5
365
  8
0
 10
179.61979751506479
 20
89.991159782545111
 30
0.0
 11
179.61979751506479
 21
86.181635973021287
 31
0.0
  0
LINE
  5
366
  8
0
 10
180.82614672141401
 20
87.070524861910187
 30
0.0
 11
180.82614672141401
 21
87.768937560322854
 31
0.0
  0
LINE
  5
367
  8
0
 10
180.82614672141401
 20
87.768937560322854
 30
0.0
 11
181.37475783252521
 21
87.768937560322854
 31
0.0
  0
LINE
  5
368
  8
0
 10
181.37475783252521
 20
87.768937560322854
 30
0.0
 11
181.78398402300141
 21
87.689572480957807
 31
0.0
  0
LINE
  5
369
  8
0
 10
181.78398402300141
 20
87.689572480957807
 30
0.0
 11
181.9055118007791
 21
87.422707401592717
 31
0.0
  0
LINE
  5
36A
  8
0
 10
181.9055118007791
 20
87.422707401592717
 30
0.0
 11
181.7864641817315
 21
87.152866131751452
 31
0.0
  0
LINE
  5
36B
  8
0
 10
181.7864641817315
 20
87.152866131751452
 30
0.0
 11
181.38567053093789
 21
87.070524861910187
 31
0.0
  0
LINE
  5
36C
  8
0
 10
181.38567053093789
 20
87.070524861910187
 30
0.0
 11
180.82614672141401
 21
87.070524861910187
 31
0.0
  0
LINE
  5
36D
  8
0
 10
180.82614672141401
 20
88.467350258735593
 30
0.0
 11
180.82614672141401
 21
89.102270893656225
 31
0.0
  0
LINE
  5
36E
  8
0
 10
180.82614672141401
 20
89.102270893656225
 30
0.0
 11
181.1604721182394
 21
89.102270893656225
 31
0.0
  0
LINE
  5
36F
  8
0
 10
181.1604721182394
 20
89.102270893656225
 30
0.0
 11
181.66890465792201
 21
89.034810576195895
 31
0.0
  0
LINE
  5
370
  8
0
 10
181.66890465792201
 20
89.034810576195895
 30
0.0
 11
181.778527673795
 21
88.784810576195881
 31
0.0
  0
LINE
  5
371
  8
0
 10
181.778527673795
 20
88.784810576195881
 30
0.0
 11
181.67634513411241
 21
88.539770893656225
 31
0.0
  0
LINE
  5
372
  8
0
 10
181.67634513411241
 20
88.539770893656225
 30
0.0
 11
181.32416259442991
 21
88.467350258735593
 31
0.0
  0
LINE
  5
373
  8
0
 10
181.32416259442991
 20
88.467350258735593
 30
0.0
 11
180.82614672141401
 21
88.467350258735593
 31
0.0
  0
ARC
  5
374
  8
0
 10
185.4797553091056
 20
86.109029323715873
 30
0.0
 40
9.0000000000000178
 50
179.9999999999996
 51
359.99999999999881
  0
ARC
  5
375
  8
0
 10
185.4797553091056
 20
86.109029323715873
 30
0.0
 40
9.0000000000000018
 50
359.99999999999937
 51
179.9999999999996
  0
ARC
  5
381
  8
0
 10
215.91725530910671
 20
47.597665687349952
 30
0.0
 40
0.4999999999999715
 50
359.99999999999937
 51
179.9999999999994
  0
ARC
  5
382
  8
0
 10
215.91725530910671
 20
47.597665687349952
 30
0.0
 40
0.5000000000000285
 50
180.0
 51
359.99999999999881
  0
LINE
  5
383
  8
0
 10
189.04225530910651
 20
122.7226656873499
 30
0.0
 11
189.04225530910651
 21
122.4726656873524
 31
0.0
  0
LINE
  5
384
  8
0
 10
197.04225530910639
 20
122.4726656873524
 30
0.0
 11
197.04225530910639
 21
122.7226656873499
 31
0.0
  0
LINE
  5
385
  8
0
 10
189.0422553091062
 20
122.7226656873499
 30
0.0
 11
189.1785515255055
 21
122.7226656873499
 31
0.0
  0
LINE
  5
386
  8
0
 10
189.1785520039499
 20
122.7226656873499
 30
0.0
 11
190.21382706407931
 21
122.7226656873499
 31
0.0
  0
LINE
  5
387
  8
0
 10
190.21382818436001
 20
122.7226656873499
 30
0.0
 11
192.0069790756564
 21
122.72266568735
 31
0.0
  0
LINE
  5
388
  8
0
 10
192.006979128696
 20
122.72266568735
 30
0.0
 11
193.0422545285133
 21
122.72266568735
 31
0.0
  0
LINE
  5
389
  8
0
 10
193.0422553091062
 20
122.72266568735
 30
0.0
 11
194.07753148951619
 21
122.72266568735
 31
0.0
  0
LINE
  5
38A
  8
0
 10
194.0775329240727
 20
122.72266568735
 30
0.0
 11
195.0422553091062
 21
122.72266568735
 31
0.0
  0
LINE
  5
38B
  8
0
 10
195.0422555083106
 20
122.72266568735
 30
0.0
 11
195.87068191391111
 21
122.72266568735
 31
0.0
  0
LINE
  5
38C
  8
0
 10
195.87068243385241
 20
122.72266568735
 30
0.0
 11
196.5063569242439
 21
122.72266568735
 31
0.0
  0
LINE
  5
38D
  8
0
 10
196.5063586432093
 20
122.72266568735
 30
0.0
 11
197.0422553091062
 21
122.72266568735
 31
0.0
  0
ARC
  5
38E
  8
0
 10
233.16725530910659
 20
30.972665687350371
 30
0.0
 40
3.9999999999999911
 50
359.9999999999996
 51
179.9999999999996
  0
ARC
  5
38F
  8
0
 10
233.16725530910659
 20
30.972665687350371
 30
0.0
 40
4.0000000000000311
 50
180.0
 51
359.9999999999992
  0
ARC
  5
390
  8
0
 10
209.41725530910651
 20
37.097665687349952
 30
0.0
 40
1.4999999999999949
 50
359.9999999999996
 51
179.9999999999996
  0
ARC
  5
391
  8
0
 10
209.41725530910651
 20
37.097665687349952
 30
0.0
 40
1.500000000000004
 50
180.0000000000002
 51
359.9999999999992
  0
ARC
  5
392
  8
0
 10
209.41725530910651
 20
27.097665687349942
 30
0.0
 40
0.9999999999999985
 50
359.9999999999996
 51
179.9999999999996
  0
ARC
  5
393
  8
0
 10
209.41725530910651
 20
27.097665687349942
 30
0.0
 40
1.0
 50
180.0
 51
359.9999999999992
  0
CIRCLE
  5
394
  8
0
 10
211.04225530910651
 20
61.597665687349938
 30
0.0
 40
8.4999999999999858
  0
ARC
  5
395
  8
0
 10
325.31797493395288
 20
81.472665687350187
 30
0.0
 40
32.50000000000005
 50
179.9999999999996
 51
359.99999999999898
  0
ARC
  5
396
  8
0
 10
325.31797493395288
 20
81.472665687350187
 30
0.0
 40
32.500000000000057
 50
0.0000000000002036
 51
179.9999999999996
  0
ARC
  5
397
  8
0
 10
325.31797493395288
 20
81.472665687350187
 30
0.0
 40
32.50000000000005
 50
179.9999999999996
 51
359.99999999999898
  0
ARC
  5
398
  8
0
 10
325.31797493395288
 20
81.472665687350187
 30
0.0
 40
32.500000000000057
 50
0.0000000000002036
 51
179.9999999999996
  0
ARC
  5
399
  8
0
 10
325.31797493395288
 20
81.472665687350187
 30
0.0
 40
30.50000000000006
 50
179.9999999999996
 51
359.99999999999898
  0
ARC
  5
39A
  8
0
 10
325.31797493395288
 20
81.472665687350187
 30
0.0
 40
30.50000000000006
 50
359.99999999999898
 51
179.9999999999996
  0
LINE
  5
39B
  8
0
 10
359.75547493395271
 20
37.472665687349952
 30
0.0
 11
359.75547493395271
 21
113.9726656873507
 31
0.0
  0
LINE
  5
39C
  8
0
 10
359.75547493395271
 20
113.9726656873507
 30
0.0
 11
290.88047493395271
 21
113.9726656873507
 31
0.0
  0
LINE
  5
39D
  8
0
 10
290.88047493395271
 20
113.9726656873507
 30
0.0
 11
290.88047493395271
 21
37.472665687349952
 31
0.0
  0
LINE
  5
39E
  8
0
 10
290.88047493395271
 20
37.472665687349952
 30
0.0
 11
359.75547493395271
 21
37.472665687349952
 31
0.0
  0
LINE
  5
39F
  8
0
 10
359.75547493395271
 20
37.472665687349952
 30
0.0
 11
290.88047493395271
 21
37.472665687349952
 31
0.0
  0
LINE
  5
3A0
  8
0
 10
290.88047493395271
 20
37.472665687349952
 30
0.0
 11
290.88047493395283
 21
113.9726656873507
 31
0.0
  0
LINE
  5
3A1
  8
0
 10
290.88047493395283
 20
113.9726656873507
 30
0.0
 11
359.75547493395271
 21
113.9726656873507
 31
0.0
  0
LINE
  5
3A2
  8
0
 10
359.75547493395271
 20
113.9726656873507
 30
0.0
 11
359.75547493395271
 21
37.472665687349952
 31
0.0
  0
LINE
  5
3A7
  8
0
 10
289.25547493395692
 20
115.4726656873524
 30
0.0
 11
361.38047493395698
 21
115.4726656873524
 31
0.0
  0
LINE
  5
3A8
  8
0
 10
361.38047493395698
 20
115.4726656873524
 30
0.0
 11
361.38047493395698
 21
122.4726656873524
 31
0.0
  0
LINE
  5
3A9
  8
0
 10
361.38047493395698
 20
122.4726656873524
 30
0.0
 11
289.25547493395692
 21
122.4726656873524
 31
0.0
  0
LINE
  5
3AA
  8
0
 10
289.25547493395692
 20
122.4726656873524
 30
0.0
 11
289.25547493395692
 21
115.4726656873524
 31
0.0
  0
LINE
  5
3AB
  8
0
 10
289.25547493395692
 20
115.4726656873524
 30
0.0
 11
289.25547493395692
 21
122.4726656873524
 31
0.0
  0
LINE
  5
3AC
  8
0
 10
289.25547493395692
 20
122.4726656873524
 30
0.0
 11
361.38047493395709
 21
122.4726656873524
 31
0.0
  0
LINE
  5
3AD
  8
0
 10
361.38047493395709
 20
122.4726656873524
 30
0.0
 11
361.38047493395709
 21
115.4726656873524
 31
0.0
  0
LINE
  5
3AE
  8
0
 10
361.38047493395709
 20
115.4726656873524
 30
0.0
 11
289.25547493395692
 21
115.4726656873524
 31
0.0
  0
LINE
  5
3B4
  8
0
 10
289.25547493395641
 20
115.4726656873499
 30
0.0
 11
361.38047493395641
 21
115.4726656873499
 31
0.0
  0
LINE
  5
3B6
  8
0
 10
361.3804749339568
 20
115.4726656873499
 30
0.0
 11
359.75547493395828
 21
115.4726656873499
 31
0.0
  0
LINE
  5
3B8
  8
0
 10
359.75547493395828
 20
115.4726656873499
 30
0.0
 11
290.8804749339584
 21
115.4726656873499
 31
0.0
  0
LINE
  5
3BA
  8
0
 10
290.8804749339584
 20
115.4726656873499
 30
0.0
 11
289.25547493395669
 21
115.4726656873499
 31
0.0
  0
LINE
  5
3BB
  8
0
 10
361.38047493395641
 20
22.472665687349942
 30
0.0
 11
289.25547493395641
 21
22.472665687349942
 31
0.0
  0
LINE
  5
3BD
  8
0
 10
289.25547493395641
 20
22.472665687349942
 30
0.0
 11
361.38047493395641
 21
22.472665687349942
 31
0.0
  0
LINE
  5
3BF
  8
0
 10
289.25547493395669
 20
22.472665687349942
 30
0.0
 11
361.3804749339568
 21
22.472665687349942
 31
0.0
  0
LINE
  5
3C1
  8
0
 10
361.3804749339568
 20
22.472665687349942
 30
0.0
 11
289.25547493395669
 21
22.472665687349942
 31
0.0
  0
LINE
  5
3C3
  8
0
 10
290.8804749339584
 20
115.4726656873499
 30
0.0
 11
290.88047493395732
 21
37.472665687352652
 31
0.0
  0
LINE
  5
3C4
  8
0
 10
290.88047493395732
 20
37.472665687352652
 30
0.0
 11
359.75547493395732
 21
37.472665687351707
 31
0.0
  0
LINE
  5
3C5
  8
0
 10
359.75547493395732
 20
37.472665687351707
 30
0.0
 11
359.75547493395828
 21
115.4726656873499
 31
0.0
  0
LINE
  5
3C6
  8
0
 10
361.3804749339568
 20
115.4726656873499
 30
0.0
 11
361.3804749339568
 21
22.472665687349942
 31
0.0
  0
LINE
  5
3C7
  8
0
 10
289.25547493395669
 20
22.472665687349942
 30
0.0
 11
289.25547493395669
 21
115.4726656873499
 31
0.0
  0
LINE
  5
3C8
  8
0
 10
289.25547493395669
 20
22.472665687349942
 30
0.0
 11
289.25547493395669
 21
24.47266568735019
 31
0.0
  0
LINE
  5
3CA
  8
0
 10
289.25547493395641
 20
24.47266568735019
 30
0.0
 11
289.25547493395641
 21
22.472665687349942
 31
0.0
  0
LINE
  5
3CB
  8
0
 10
289.25547493395641
 20
22.472665687349942
 30
0.0
 11
289.25547493395641
 21
115.4726656873499
 31
0.0
  0
LINE
  5
3CC
  8
0
 10
290.8804749339568
 20
113.9726656873504
 30
0.0
 11
359.75547493395669
 21
113.9726656873504
 31
0.0
  0
LINE
  5
3CD
  8
0
 10
359.75547493395669
 20
113.9726656873504
 30
0.0
 11
359.75547493395669
 21
37.472665687349952
 31
0.0
  0
LINE
  5
3CE
  8
0
 10
359.75547493395669
 20
37.472665687349952
 30
0.0
 11
290.8804749339568
 21
37.472665687349952
 31
0.0
  0
LINE
  5
3CF
  8
0
 10
290.8804749339568
 20
37.472665687349952
 30
0.0
 11
290.8804749339568
 21
113.9726656873504
 31
0.0
  0
LINE
  5
3D0
  8
0
 10
361.38047493395641
 20
22.472665687349942
 30
0.0
 11
361.38047493395641
 21
115.4726656873499
 31
0.0
  0
LINE
  5
3D1
  8
0
 10
361.38047493395641
 20
22.472665687349942
 30
0.0
 11
361.38047493395641
 21
24.472665687349188
 31
0.0
  0
LINE
  5
3D3
  8
0
 10
361.3804749339568
 20
24.472665687349188
 30
0.0
 11
361.3804749339568
 21
22.472665687349959
 31
0.0
  0
LINE
  5
3D4
  8
0
 10
361.38047493395709
 20
24.472665687349188
 30
0.0
 11
289.25547493395709
 21
24.47266568735019
 31
0.0
  0
LINE
  5
3D5
  8
0
 10
361.38047493395692
 20
24.472665687349188
 30
0.0
 11
289.25547493395692
 21
24.47266568735019
 31
0.0
  0
LINE
  5
3D7
  8
0
 10
359.75547493395732
 20
37.472665687351693
 30
0.0
 11
359.75547493395828
 21
115.47266568735211
 31
0.0
  0
LINE
  5
3D8
  8
0
 10
290.8804749339584
 20
115.4726656873531
 30
0.0
 11
290.88047493395732
 21
37.472665687352652
 31
0.0
  0
LINE
  5
3DA
  8
0
 10
359.75547493395732
 20
37.472665687351707
 30
0.0
 11
290.88047493395732
 21
37.472665687352652
 31
0.0
  0
LINE
  5
3DB
  8
0
 10
359.75547493395692
 20
113.9726656873504
 30
0.0
 11
290.88047493395692
 21
113.9726656873504
 31
0.0
1001
ACAD
1000
ASC_BOUNDS
1002
{
1070
    19
1005
472
1002
}
  0
LINE
  5
3DC
  8
0
 10
290.88047493395692
 20
113.9726656873504
 30
0.0
 11
290.88047493395692
 21
37.472665687349952
 31
0.0
1001
ACAD
1000
ASC_BOUNDS
1002
{
1070
    19
1005
472
1002
}
  0
LINE
  5
3DD
  8
0
 10
290.88047493395692
 20
37.472665687349952
 30
0.0
 11
359.75547493395692
 21
37.472665687349952
 31
0.0
1001
ACAD
1000
ASC_BOUNDS
1002
{
1070
    19
1005
472
1002
}
  0
LINE
  5
3DE
  8
0
 10
359.75547493395692
 20
37.472665687349952
 30
0.0
 11
359.75547493395692
 21
113.9726656873504
 31
0.0
1001
ACAD
1000
ASC_BOUNDS
1002
{
1070
    19
1005
472
1002
}
  0
LINE
  5
3E4
  8
0
 10
105.0605313407161
 20
115.4726656873524
 30
0.0
 11
105.0605313407161
 21
122.4726656873524
 31
0.0
  0
LINE
  5
3E5
  8
0
 10
105.0605313407161
 20
122.4726656873524
 30
0.0
 11
32.935531340715933
 21
122.4726656873524
 31
0.0
  0
LINE
  5
3E6
  8
0
 10
32.935531340715933
 20
122.4726656873524
 30
0.0
 11
32.935531340715933
 21
115.4726656873524
 31
0.0
  0
LINE
  5
3E7
  8
0
 10
32.93553134071631
 20
115.4726656873499
 30
0.0
 11
34.560531340714647
 21
115.4726656873499
 31
0.0
  0
LINE
  5
3E8
  8
0
 10
34.560531340714711
 20
115.4726656873499
 30
0.0
 11
103.4355313407147
 21
115.4726656873499
 31
0.0
1001
ACAD
1000
ASC_BOUNDS
1002
{
1070
    19
1005
47B
1002
}
  0
LINE
  5
3E9
  8
0
 10
103.4355313407146
 20
115.4726656873499
 30
0.0
 11
105.0605313407163
 21
115.4726656873499
 31
0.0
  0
LINE
  5
3EA
  8
0
 10
105.0605313407163
 20
22.472665687349942
 30
0.0
 11
32.93553134071631
 21
22.472665687349942
 31
0.0
  0
LINE
  5
3EB
  8
0
 10
103.4355313407146
 20
115.4726656873499
 30
0.0
 11
103.4355313407157
 21
37.472665687352652
 31
0.0
1001
ACAD
1000
ASC_BOUNDS
1002
{
1070
    19
1005
47B
1002
}
  0
LINE
  5
3EC
  8
0
 10
103.4355313407157
 20
37.472665687352652
 30
0.0
 11
34.560531340715727
 21
37.472665687351707
 31
0.0
1001
ACAD
1000
ASC_BOUNDS
1002
{
1070
    19
1005
47B
1002
}
  0
LINE
  5
3ED
  8
0
 10
34.560531340715762
 20
37.472665687351707
 30
0.0
 11
34.560531340714647
 21
115.4726656873499
 31
0.0
1001
ACAD
1000
ASC_BOUNDS
1002
{
1070
    19
1005
47B
1002
}
  0
LINE
  5
3EE
  8
0
 10
32.93553134071631
 20
115.4726656873499
 30
0.0
 11
32.93553134071631
 21
22.472665687349942
 31
0.0
  0
LINE
  5
3EF
  8
0
 10
105.0605313407163
 20
22.472665687349942
 30
0.0
 11
105.0605313407163
 21
115.4726656873499
 31
0.0
  0
POLYLINE
  5
3F3
  8
0
  6
HIDDEN2
 66
     1
 10
0.0
 20
0.0
 30
0.0
  0
VERTEX
  5
836
  8
0
  6
HIDDEN2
 10
231.04225530910671
 20
232.93537544734789
 30
0.0
  0
VERTEX
  5
837
  8
0
  6
HIDDEN2
 10
231.2514502228467
 20
232.9470819954017
 30
0.0
  0
VERTEX
  5
838
  8
0
  6
HIDDEN2
 10
231.4580329229224
 20
232.98205546007819
 30
0.0
  0
VERTEX
  5
839
  8
0
  6
HIDDEN2
 10
231.6594238143411
 20
233.03985912826269
 30
0.0
  0
VERTEX
  5
83A
  8
0
  6
HIDDEN2
 10
231.85310813214519
 20
233.11977120644141
 30
0.0
  0
VERTEX
  5
83B
  8
0
  6
HIDDEN2
 10
232.0366673432425
 20
233.22079383372559
 30
0.0
  0
VERTEX
  5
83C
  8
0
  6
HIDDEN2
 10
232.20780934659251
 20
233.34166554212479
 30
0.0
  0
VERTEX
  5
83D
  8
0
  6
HIDDEN2
 10
232.3643970946369
 20
233.4808770084789
 30
0.0
  0
VERTEX
  5
83E
  8
0
  6
HIDDEN2
 10
232.50447527857841
 20
233.63668990135261
 30
0.0
  0
VERTEX
  5
83F
  8
0
  6
HIDDEN2
 10
232.62629474429281
 20
233.80715858755369
 30
0.0
  0
VERTEX
  5
840
  8
0
  6
HIDDEN2
 10
232.72833433398881
 20
233.99015442722421
 30
0.0
  0
VERTEX
  5
841
  8
0
  6
HIDDEN2
 10
232.8093198808821
 20
234.1833923541341
 30
0.0
  0
VERTEX
  5
842
  8
0
  6
HIDDEN2
 10
232.86824011969679
 20
234.38445940926761
 30
0.0
  0
VERTEX
  5
843
  8
0
  6
HIDDEN2
 10
232.90435931431861
 20
234.59084487140561
 30
0.0
  0
VERTEX
  5
844
  8
0
  6
HIDDEN2
 10
232.92555755983949
 20
234.93537544734789
 30
0.0
  0
VERTEX
  5
845
  8
0
  6
HIDDEN2
 10
233.16725530910659
 20
234.93537544734789
 30
0.0
  0
SEQEND
  5
846
  8
0
  6
HIDDEN2
  0
POLYLINE
  5
3F4
  8
0
  6
HIDDEN2
 66
     1
 10
0.0
 20
0.0
 30
0.0
  0
VERTEX
  5
847
  8
0
  6
HIDDEN2
 10
233.16725530910651
 20
169.9353754473477
 30
0.0
  0
VERTEX
  5
848
  8
0
  6
HIDDEN2
 10
232.9242503095133
 20
169.9353754473477
 30
0.0
  0
VERTEX
  5
849
  8
0
  6
HIDDEN2
 10
232.9055487610525
 20
170.2695703610878
 30
0.0
  0
VERTEX
  5
84A
  8
0
  6
HIDDEN2
 10
232.8705752963761
 20
170.4761530611635
 30
0.0
  0
VERTEX
  5
84B
  8
0
  6
HIDDEN2
 10
232.81277162819151
 20
170.6775439525822
 30
0.0
  0
VERTEX
  5
84C
  8
0
  6
HIDDEN2
 10
232.73285955001271
 20
170.87122827038621
 30
0.0
  0
VERTEX
  5
84D
  8
0
  6
HIDDEN2
 10
232.6318369227287
 20
171.05478748148349
 30
0.0
  0
VERTEX
  5
84E
  8
0
  6
HIDDEN2
 10
232.5109652143295
 20
171.2259294848337
 30
0.0
  0
VERTEX
  5
84F
  8
0
  6
HIDDEN2
 10
232.37175374797539
 20
171.382517232878
 30
0.0
  0
VERTEX
  5
850
  8
0
  6
HIDDEN2
 10
232.21594085510159
 20
171.52259541681951
 30
0.0
  0
VERTEX
  5
851
  8
0
  6
HIDDEN2
 10
232.0454721689006
 20
171.64441488253379
 30
0.0
  0
VERTEX
  5
852
  8
0
  6
HIDDEN2
 10
231.86247632923011
 20
171.7464544722298
 30
0.0
  0
VERTEX
  5
853
  8
0
  6
HIDDEN2
 10
231.66923840232019
 20
171.8274400191232
 30
0.0
  0
VERTEX
  5
854
  8
0
  6
HIDDEN2
 10
231.46817134718671
 20
171.88636025793789
 30
0.0
  0
VERTEX
  5
855
  8
0
  6
HIDDEN2
 10
231.26178588504871
 20
171.92247945255971
 30
0.0
  0
VERTEX
  5
856
  8
0
  6
HIDDEN2
 10
231.0526591479917
 20
171.93534658316199
 30
0.0
  0
VERTEX
  5
857
  8
0
  6
HIDDEN2
 10
231.04225530910639
 20
171.9353754473477
 30
0.0
  0
SEQEND
  5
858
  8
0
  6
HIDDEN2
  0
LINE
  5
3F6
  8
0
  6
HIDDEN2
 10
224.41725530910651
 20
171.93537544734781
 30
0.0
 11
231.04225530910639
 21
171.9353754473477
 31
0.0
  0
LINE
  5
3F7
  8
0
  6
HIDDEN2
 10
231.04225530910671
 20
232.93537544734789
 30
0.0
 11
224.41725530910671
 21
232.93537544734789
 31
0.0
  0
LINE
  5
3F8
  8
0
  6
HIDDEN2
 10
233.16725530910639
 20
169.9353754473477
 30
0.0
 11
233.16725530910659
 21
234.93537544734789
 31
0.0
  0
LINE
  5
3F9
  8
0
  6
HIDDEN2
 10
233.16725530910659
 20
234.93537544734789
 30
0.0
 11
233.16725530910639
 21
169.9353754473477
 31
0.0
  0
LINE
  5
3FD
  8
0
  6
HIDDEN2
 10
224.41725530910671
 20
236.8728754473517
 30
0.0
 11
224.41725530910651
 21
167.9978754473517
 31
0.0
  0
LINE
  5
404
  8
0
  6
HIDDEN2
 10
224.41725530910679
 20
236.87287544734761
 30
0.0
 11
225.91725530910679
 21
236.87287544734761
 31
0.0
  0
LINE
  5
405
  8
0
  6
HIDDEN2
 10
224.41725530910639
 20
167.99787544734761
 30
0.0
 11
225.91725530910639
 21
167.99787544734761
 31
0.0
  0
LINE
  5
416
  8
0
 10
205.54225530910639
 20
238.4978754473519
 30
0.0
 11
205.54225530910611
 21
166.3728754473517
 31
0.0
  0
LINE
  5
419
  8
0
 10
176.79225530910611
 20
166.37287544735179
 30
0.0
 11
176.79225530910639
 21
238.49787544735199
 31
0.0
  0
LINE
  5
41B
  8
0
 10
176.79225530910639
 20
238.49787544735199
 30
0.0
 11
205.54225530910639
 21
238.4978754473519
 31
0.0
  0
LINE
  5
41C
  8
0
 10
176.79225530910611
 20
166.37287544735179
 30
0.0
 11
205.54225530910611
 21
166.3728754473517
 31
0.0
  0
LINE
  5
41D
  8
0
 10
155.04225530910651
 20
166.37287544735159
 30
0.0
 11
242.41725530910659
 21
166.3728754473513
 31
0.0
  0
LINE
  5
41E
  8
0
 10
242.41725530910659
 20
166.3728754473513
 30
0.0
 11
242.41725530910679
 21
238.49787544735119
 31
0.0
  0
LINE
  5
41F
  8
0
 10
242.41725530910679
 20
238.49787544735119
 30
0.0
 11
155.04225530910679
 21
238.49787544735159
 31
0.0
  0
LINE
  5
420
  8
0
 10
155.04225530910679
 20
238.49787544735159
 30
0.0
 11
155.04225530910679
 21
236.87287544735321
 31
0.0
  0
LINE
  5
421
  8
0
 10
155.04225530910679
 20
236.87287544735321
 30
0.0
 11
171.29575980436749
 21
236.87287544735321
 31
0.0
  0
LINE
  5
422
  8
0
 10
171.29575980436709
 20
236.87287544735321
 30
0.0
 11
171.2957598043667
 21
167.99787544735321
 31
0.0
1001
ACAD
1000
ASC_BOUNDS
1002
{
1070
    19
1005
484
1002
}
  0
LINE
  5
423
  8
0
 10
171.29575980436729
 20
167.99787544735321
 30
0.0
 11
155.04225530910651
 21
167.99787544735321
 31
0.0
  0
LINE
  5
424
  8
0
 10
155.04225530910651
 20
167.99787544735321
 30
0.0
 11
155.04225530910651
 21
166.37287544735159
 31
0.0
  0
LINE
  5
426
  8
0
 10
155.04225530910651
 20
167.99787544735219
 30
0.0
 11
155.04225530910679
 21
236.87287544735219
 31
0.0
  0
LINE
  5
433
  8
0
 10
155.04225530910679
 20
236.87287544735219
 30
0.0
 11
157.54225530910679
 21
236.87287544735219
 31
0.0
  0
LINE
  5
434
  8
0
 10
157.54225530910679
 20
236.87287544735219
 30
0.0
 11
171.29575980436749
 21
236.87287544735321
 31
0.0
1001
ACAD
1000
ASC_BOUNDS
1002
{
1070
    19
1005
484
1002
}
  0
LINE
  5
435
  8
0
 10
171.29575980436729
 20
167.99787544735321
 30
0.0
 11
157.54225530910651
 21
167.99787544735219
 31
0.0
1001
ACAD
1000
ASC_BOUNDS
1002
{
1070
    19
1005
484
1002
}
  0
LINE
  5
436
  8
0
 10
157.54225530910651
 20
167.99787544735219
 30
0.0
 11
155.04225530910651
 21
167.99787544735219
 31
0.0
  0
LINE
  5
437
  8
0
 10
157.54225530910679
 20
236.87287544735219
 30
0.0
 11
157.54225530910651
 21
167.99787544735219
 31
0.0
1001
ACAD
1000
ASC_BOUNDS
1002
{
1070
    19
1005
484
1002
}
  0
LINE
  5
43B
  8
0
  6
HIDDEN2
 10
242.41725530910631
 20
167.99787544735159
 30
0.0
 11
224.41725530910651
 21
167.9978754473517
 31
0.0
  0
LINE
  5
43C
  8
0
  6
HIDDEN2
 10
242.41725530910659
 20
236.87287544735159
 30
0.0
 11
224.41725530910671
 21
236.8728754473517
 31
0.0
  0
LINE
  5
443
  8
0
 10
215.41725530910659
 20
166.37287544735139
 30
0.0
 11
215.41725530910659
 21
166.12287544735139
 31
0.0
  0
LINE
  5
444
  8
0
 10
216.41725530910659
 20
166.12287544735139
 30
0.0
 11
216.41725530910659
 21
166.37287544735139
 31
0.0
  0
LINE
  5
445
  8
0
 10
216.41725530910659
 20
166.37287544735139
 30
0.0
 11
215.41725530910659
 21
166.37287544735139
 31
0.0
  0
LINE
  5
446
  8
0
 10
215.41725530910659
 20
166.37287544735139
 30
0.0
 11
216.41725530910659
 21
166.37287544735139
 31
0.0
  0
LINE
  5
447
  8
0
 10
216.41725530910659
 20
166.12287544735139
 30
0.0
 11
215.41725530910659
 21
166.12287544735139
 31
0.0
  0
LINE
  5
448
  8
0
 10
215.41725530910659
 20
166.12287544735139
 30
0.0
 11
216.41725530910659
 21
166.12287544735139
 31
0.0
  0
ARC
  5
449
  8
0
 10
193.0422553091062
 20
202.4353754473473
 30
0.0
 40
3.9999999999999951
 50
90.0
 51
269.9999999999992
  0
ARC
  5
44A
  8
0
 10
193.0422553091062
 20
202.4353754473473
 30
0.0
 40
3.9999999999999978
 50
269.9999999999992
 51
90.0
  0
LINE
  5
44B
  8
0
 10
229.16725530910659
 20
166.37287544735139
 30
0.0
 11
229.16725530910659
 21
166.12287544735139
 31
0.0
  0
LINE
  5
44C
  8
0
 10
237.16725530910659
 20
166.1228754473513
 30
0.0
 11
237.16725530910659
 21
166.3728754473513
 31
0.0
  0
LINE
  5
44D
  8
0
 10
207.91725530910659
 20
166.37287544735139
 30
0.0
 11
207.91725530910659
 21
166.12287544735139
 31
0.0
  0
LINE
  5
44E
  8
0
 10
210.91725530910659
 20
166.12287544735139
 30
0.0
 11
210.91725530910659
 21
166.37287544735139
 31
0.0
  0
LINE
  5
44F
  8
0
 10
208.41725530910659
 20
166.37287544735139
 30
0.0
 11
208.41725530910659
 21
166.12287544735139
 31
0.0
  0
LINE
  5
450
  8
0
 10
210.41725530910659
 20
166.12287544735139
 30
0.0
 11
210.41725530910659
 21
166.37287544735139
 31
0.0
  0
LINE
  5
451
  8
0
 10
237.16725530910659
 20
166.3728754473513
 30
0.0
 11
229.16725530910659
 21
166.37287544735139
 31
0.0
  0
LINE
  5
452
  8
0
 10
229.16725530910659
 20
166.37287544735139
 30
0.0
 11
237.16725530910659
 21
166.3728754473513
 31
0.0
  0
LINE
  5
453
  8
0
 10
210.91725530910659
 20
166.37287544735139
 30
0.0
 11
207.91725530910659
 21
166.37287544735139
 31
0.0
  0
LINE
  5
454
  8
0
 10
207.91725530910659
 20
166.37287544735139
 30
0.0
 11
210.91725530910659
 21
166.37287544735139
 31
0.0
  0
LINE
  5
455
  8
0
 10
210.41725530910659
 20
166.37287544735139
 30
0.0
 11
208.41725530910659
 21
166.37287544735139
 31
0.0
  0
LINE
  5
456
  8
0
 10
208.41725530910659
 20
166.37287544735139
 30
0.0
 11
210.41725530910659
 21
166.37287544735139
 31
0.0
  0
LINE
  5
457
  8
0
 10
237.16725530910659
 20
166.1228754473513
 30
0.0
 11
229.16725530910659
 21
166.12287544735139
 31
0.0
  0
LINE
  5
458
  8
0
 10
229.16725530910659
 20
166.12287544735139
 30
0.0
 11
237.16725530910659
 21
166.1228754473513
 31
0.0
  0
LINE
  5
459
  8
0
 10
210.91725530910659
 20
166.12287544735139
 30
0.0
 11
207.91725530910659
 21
166.12287544735139
 31
0.0
  0
LINE
  5
45A
  8
0
 10
207.91725530910659
 20
166.12287544735139
 30
0.0
 11
210.91725530910659
 21
166.12287544735139
 31
0.0
  0
LINE
  5
45B
  8
0
 10
210.41725530910659
 20
166.12287544735139
 30
0.0
 11
208.41725530910659
 21
166.12287544735139
 31
0.0
  0
LINE
  5
45C
  8
0
 10
208.41725530910659
 20
166.12287544735139
 30
0.0
 11
210.41725530910659
 21
166.12287544735139
 31
0.0
  0
INSERT
  5
472
  8
0
  6
CONTINUOUS
  2
*X5
 10
0.0
 20
0.0
 30
0.0
1001
GRADIENTCOLOR1ACI
1070
     5
1001
GRADIENTCOLOR2ACI
1070
     2
1001
ACAD
1000
HATCH
1002
{
1070
    19
1000
NET
1040
24.0
1040
0.0
1000
ASC_BOUNDS
1070
     1
1070
     1
1070
     4
1005
3DE
1005
3DD
1005
3DC
1005
3DB
1000
ASC_SEEDPOINT
1011
306.14336277641382
1021
0.0
1031
0.0
1021
96.620979938601749
1031
0.0
1000
R14_HATCH_DATA
1000
472
1011
1.0
1021
0.0
1031
0.0
1021
0.0
1031
0.0
1011
0.0
1021
0.0
1031
0.0
1021
1.0
1031
0.0
1011
0.0
1021
0.0
1031
0.0
1021
0.0
1031
1.0
1040
0.0
1010
0.0
1020
0.0
1030
1.0
1000
NET
1070
     0
1070
     1
1071
        1
1071
        7
1070
     0
1070
     1
1071
        4
1040
359.75547493395692
1040
113.9726656873504
1040
290.88047493395692
1040
113.9726656873504
1040
290.88047493395692
1040
37.472665687349952
1040
359.75547493395692
1040
37.472665687349952
1071
        4
1005
3DB
1005
3DC
1005
3DD
1005
3DE
1070
     1
1070
     1
1040
0.0
1040
24.0
1070
     0
1070
     2
1040
0.0
1040
0.0
1040
0.0
1040
0.0
1040
3.0
1070
     0
1040
1.5707963267948959
1040
0.0
1040
0.0
1040
-3.0
1040
0.0000000000000002
1070
     0
1040
0.1422322456209162
1071
        1
1040
306.14336277641382
1040
96.620979938601749
1040
0.0
1002
}
  0
INSERT
  5
47B
  8
0
  6
CONTINUOUS
  2
*X6
 10
0.0
 20
0.0
 30
0.0
1001
GRADIENTCOLOR1ACI
1070
     5
1001
GRADIENTCOLOR2ACI
1070
     2
1001
ACAD
1000
HATCH
1002
{
1070
    19
1000
ANSI31
1040
12.0
1040
0.7853981633974483
1000
ASC_BOUNDS
1070
     1
1070
     1
1070
     4
1005
3EB
1005
3EC
1005
3ED
1005
3E8
1000
ASC_SEEDPOINT
1011
52.330578108468217
1021
0.0
1031
0.0
1021
84.089963862840818
1031
0.0
1000
R14_HATCH_DATA
1000
47B
1011
1.0
1021
0.0
1031
0.0
1021
0.0
1031
0.0
1011
0.0
1021
0.0
1031
0.0
1021
1.0
1031
0.0
1011
0.0
1021
0.0
1031
0.0
1021
0.0
1031
1.0
1040
0.0
1010
0.0
1020
0.0
1030
1.0
1000
ANSI31
1070
     0
1070
     1
1071
        1
1071
        7
1070
     0
1070
     1
1071
        4
1040
103.4355313407146
1040
115.4726656873499
1040
34.560531340714647
1040
115.4726656873499
1040
34.560531340715762
1040
37.472665687351707
1040
103.4355313407157
1040
37.472665687352652
1071
        4
1005
3E8
1005
3ED
1005
3EC
1005
3EB
1070
     1
1070
     1
1040
0.7853981633974483
1040
12.0
1070
     0
1070
     1
1040
1.5707963267948959
1040
0.0
1040
0.0
1040
-1.5
1040
0.0000000000000002
1070
     0
1040
0.1464644928987699
1071
        1
1040
52.330578108468217
1040
84.089963862840818
1040
0.0
1002
}
  0
INSERT
  5
484
  8
0
  6
CONTINUOUS
  2
*X7
 10
0.0
 20
0.0
 30
0.0
1001
GRADIENTCOLOR1ACI
1070
     5
1001
GRADIENTCOLOR2ACI
1070
     2
1001
ACAD
1000
HATCH
1002
{
1070
    19
1000
ANSI31
1040
12.0
1040
2.3561944901923439
1000
ASC_BOUNDS
1070
     1
1070
     1
1070
     4
1005
422
1005
435
1005
437
1005
434
1000
ASC_SEEDPOINT
1011
167.27391207651269
1021
0.0
1031
0.0
1021
213.049913083533
1031
0.0
1000
R14_HATCH_DATA
1000
484
1011
1.0
1021
0.0
1031
0.0
1021
0.0
1031
0.0
1011
0.0
1021
0.0
1031
0.0
1021
1.0
1031
0.0
1011
0.0
1021
0.0
1031
0.0
1021
0.0
1031
1.0
1040
0.0
1010
0.0
1020
0.0
1030
1.0
1000
ANSI31
1070
     0
1070
     1
1071
        1
1071
        7
1070
     0
1070
     1
1071
        4
1040
171.29575980436709
1040
236.87287544735321
1040
157.54225530910679
1040
236.87287544735219
1040
157.54225530910651
1040
167.99787544735219
1040
171.2957598043667
1040
167.99787544735321
1071
        4
1005
434
1005
437
1005
435
1005
422
1070
     1
1070
     1
1040
2.3561944901923439
1040
12.0
1070
     0
1070
     1
1040
3.1415926535897931
1040
0.0
1040
0.0
1040
-0.0000000000000002
1040
-1.5
1070
     0
1040
0.0926565858075541
1071
        1
1040
167.27391207651269
1040
213.049913083533
1040
0.0
1002
}
  0
ENDSEC
  0
EOF
