  0
SECTION
  2
HEADER
  9
$ACADVER
  1
AC1015
  9
$ACADMAINTVER
 70
    20
  9
$DWGCODEPAGE
  3
ANSI_1252
  9
$INSBASE
 10
0.0
 20
0.0
 30
0.0
  9
$EXTMIN
 10
1638.528779587668
 20
-0.097835229539669
 30
-0.0000000349181948
  9
$EXTMAX
 10
2351.387666566734
 20
473.4983056184717
 30
0.0000000814935747
  9
$LIMMIN
 10
0.0
 20
0.0
  9
$LIMMAX
 10
12.0
 20
9.0
  9
$ORTHOMODE
 70
     1
  9
$REGENMODE
 70
     1
  9
$FILLMODE
 70
     1
  9
$QTEXTMODE
 70
     0
  9
$MIRRTEXT
 70
     0
  9
$LTSCALE
 40
1.0
  9
$ATTMODE
 70
     1
  9
$TEXTSIZE
 40
0.2
  9
$TRACEWID
 40
0.05
  9
$TEXTSTYLE
  7
Standard
  9
$CLAYER
  8
0
  9
$CELTYPE
  6
ByLayer
  9
$CECOLOR
 62
   256
  9
$CELTSCALE
 40
1.0
  9
$DISPSILH
 70
     0
  9
$DIMSCALE
 40
24.0
  9
$DIMASZ
 40
0.18
  9
$DIMEXO
 40
0.0625
  9
$DIMDLI
 40
0.38
  9
$DIMRND
 40
0.0
  9
$DIMDLE
 40
0.0
  9
$DIMEXE
 40
0.18
  9
$DIMTP
 40
0.0
  9
$DIMTM
 40
0.0
  9
$DIMTXT
 40
0.18
  9
$DIMCEN
 40
0.09
  9
$DIMTSZ
 40
0.0
  9
$DIMTOL
 70
     0
  9
$DIMLIM
 70
     0
  9
$DIMTIH
 70
     1
  9
$DIMTOH
 70
     1
  9
$DIMSE1
 70
     0
  9
$DIMSE2
 70
     0
  9
$DIMTAD
 70
     0
  9
$DIMZIN
 70
     0
  9
$DIMBLK
  1

  9
$DIMASO
 70
     1
  9
$DIMSHO
 70
     1
  9
$DIMPOST
  1

  9
$DIMAPOST
  1

  9
$DIMALT
 70
     0
  9
$DIMALTD
 70
     2
  9
$DIMALTF
 40
25.4
  9
$DIMLFAC
 40
1.0
  9
$DIMTOFL
 70
     0
  9
$DIMTVP
 40
0.0
  9
$DIMTIX
 70
     0
  9
$DIMSOXD
 70
     0
  9
$DIMSAH
 70
     0
  9
$DIMBLK1
  1

  9
$DIMBLK2
  1

  9
$DIMSTYLE
  2
Standard
  9
$DIMCLRD
 70
     0
  9
$DIMCLRE
 70
     0
  9
$DIMCLRT
 70
     0
  9
$DIMTFAC
 40
1.0
  9
$DIMGAP
 40
0.09
  9
$DIMJUST
 70
     0
  9
$DIMSD1
 70
     0
  9
$DIMSD2
 70
     0
  9
$DIMTOLJ
 70
     1
  9
$DIMTZIN
 70
     0
  9
$DIMALTZ
 70
     0
  9
$DIMALTTZ
 70
     0
  9
$DIMUPT
 70
     0
  9
$DIMDEC
 70
     3
  9
$DIMTDEC
 70
     3
  9
$DIMALTU
 70
     4
  9
$DIMALTTD
 70
     2
  9
$DIMTXSTY
  7
Standard
  9
$DIMAUNIT
 70
     0
  9
$DIMADEC
 70
     0
  9
$DIMALTRND
 40
0.0
  9
$DIMAZIN
 70
     0
  9
$DIMDSEP
 70
    46
  9
$DIMATFIT
 70
     3
  9
$DIMFRAC
 70
     1
  9
$DIMLDRBLK
  1

  9
$DIMLUNIT
 70
     5
  9
$DIMLWD
 70
    -2
  9
$DIMLWE
 70
    -2
  9
$DIMTMOVE
 70
     0
  9
$LUNITS
 70
     4
  9
$LUPREC
 70
     4
  9
$SKETCHINC
 40
0.1
  9
$FILLETRAD
 40
0.0
  9
$AUNITS
 70
     0
  9
$AUPREC
 70
     0
  9
$MENU
  1
.
  9
$ELEVATION
 40
0.0
  9
$PELEVATION
 40
0.0
  9
$THICKNESS
 40
0.0
  9
$LIMCHECK
 70
     0
  9
$CHAMFERA
 40
0.0
  9
$CHAMFERB
 40
0.0
  9
$CHAMFERC
 40
0.0
  9
$CHAMFERD
 40
0.0
  9
$SKPOLY
 70
     0
  9
$TDCREATE
 40
2457120.726337130
  9
$TDUCREATE
 40
2457120.893003796
  9
$TDUPDATE
 40
2457120.744904294
  9
$TDUUPDATE
 40
2457120.911570961
  9
$TDINDWG
 40
0.0156653125
  9
$TDUSRTIMER
 40
0.0156651968
  9
$USRTIMER
 70
     1
  9
$ANGBASE
 50
0.0
  9
$ANGDIR
 70
     0
  9
$PDMODE
 70
     0
  9
$PDSIZE
 40
0.0
  9
$PLINEWID
 40
0.0
  9
$SPLFRAME
 70
     0
  9
$SPLINETYPE
 70
     6
  9
$SPLINESEGS
 70
     8
  9
$HANDSEED
  5
A54
  9
$SURFTAB1
 70
     6
  9
$SURFTAB2
 70
     6
  9
$SURFTYPE
 70
     6
  9
$SURFU
 70
     6
  9
$SURFV
 70
     6
  9
$UCSBASE
  2

  9
$UCSNAME
  2

  9
$UCSORG
 10
0.0
 20
0.0
 30
0.0
  9
$UCSXDIR
 10
1.0
 20
0.0
 30
0.0
  9
$UCSYDIR
 10
0.0
 20
1.0
 30
0.0
  9
$UCSORTHOREF
  2

  9
$UCSORTHOVIEW
 70
     0
  9
$UCSORGTOP
 10
0.0
 20
0.0
 30
0.0
  9
$UCSORGBOTTOM
 10
0.0
 20
0.0
 30
0.0
  9
$UCSORGLEFT
 10
0.0
 20
0.0
 30
0.0
  9
$UCSORGRIGHT
 10
0.0
 20
0.0
 30
0.0
  9
$UCSORGFRONT
 10
0.0
 20
0.0
 30
0.0
  9
$UCSORGBACK
 10
0.0
 20
0.0
 30
0.0
  9
$PUCSBASE
  2

  9
$PUCSNAME
  2

  9
$PUCSORG
 10
0.0
 20
0.0
 30
0.0
  9
$PUCSXDIR
 10
1.0
 20
0.0
 30
0.0
  9
$PUCSYDIR
 10
0.0
 20
1.0
 30
0.0
  9
$PUCSORTHOREF
  2

  9
$PUCSORTHOVIEW
 70
     0
  9
$PUCSORGTOP
 10
0.0
 20
0.0
 30
0.0
  9
$PUCSORGBOTTOM
 10
0.0
 20
0.0
 30
0.0
  9
$PUCSORGLEFT
 10
0.0
 20
0.0
 30
0.0
  9
$PUCSORGRIGHT
 10
0.0
 20
0.0
 30
0.0
  9
$PUCSORGFRONT
 10
0.0
 20
0.0
 30
0.0
  9
$PUCSORGBACK
 10
0.0
 20
0.0
 30
0.0
  9
$USERI1
 70
     0
  9
$USERI2
 70
     0
  9
$USERI3
 70
     0
  9
$USERI4
 70
     0
  9
$USERI5
 70
     0
  9
$USERR1
 40
0.0
  9
$USERR2
 40
0.0
  9
$USERR3
 40
0.0
  9
$USERR4
 40
0.0
  9
$USERR5
 40
0.0
  9
$WORLDVIEW
 70
     1
  9
$SHADEDGE
 70
     3
  9
$SHADEDIF
 70
    70
  9
$TILEMODE
 70
     1
  9
$MAXACTVP
 70
    64
  9
$PINSBASE
 10
0.0
 20
0.0
 30
0.0
  9
$PLIMCHECK
 70
     0
  9
$PEXTMIN
 10
1.000000000000000E+20
 20
1.000000000000000E+20
 30
1.000000000000000E+20
  9
$PEXTMAX
 10
-1.000000000000000E+20
 20
-1.000000000000000E+20
 30
-1.000000000000000E+20
  9
$PLIMMIN
 10
-0.1979161059762549
 20
-0.2812499887361301
  9
$PLIMMAX
 10
10.80208365372785
 20
8.218749770967978
  9
$UNITMODE
 70
     0
  9
$VISRETAIN
 70
     1
  9
$PLINEGEN
 70
     0
  9
$PSLTSCALE
 70
     1
  9
$TREEDEPTH
 70
  3020
  9
$CMLSTYLE
  2
Standard
  9
$CMLJUST
 70
     0
  9
$CMLSCALE
 40
1.0
  9
$PROXYGRAPHICS
 70
     1
  9
$MEASUREMENT
 70
     0
  9
$CELWEIGHT
370
    -1
  9
$ENDCAPS
280
     0
  9
$JOINSTYLE
280
     0
  9
$LWDISPLAY
290
     0
  9
$INSUNITS
 70
     1
  9
$HYPERLINKBASE
  1

  9
$STYLESHEET
  1

  9
$XEDIT
290
     1
  9
$CEPSNTYPE
380
     0
  9
$PSTYLEMODE
290
     1
  9
$FINGERPRINTGUID
  2
{9F813B5B-BAD4-4031-ABFD-090B489CC400}
  9
$VERSIONGUID
  2
{2D65357A-9CE0-4528-99A3-7435B9A58AD6}
  9
$EXTNAMES
290
     1
  9
$PSVPSCALE
 40
0.0
  9
$OLESTARTUP
290
     0
  0
ENDSEC
  0
SECTION
  2
CLASSES
  0
CLASS
  1
ACDBDICTIONARYWDFLT
  2
AcDbDictionaryWithDefault
  3
ObjectDBX Classes
 90
        0
280
     0
281
     0
  0
CLASS
  1
MATERIAL
  2
AcDbMaterial
  3
ObjectDBX Classes
 90
     1153
280
     0
281
     0
  0
CLASS
  1
VISUALSTYLE
  2
AcDbVisualStyle
  3
ObjectDBX Classes
 90
     4095
280
     0
281
     0
  0
CLASS
  1
SCALE
  2
AcDbScale
  3
ObjectDBX Classes
 90
     1153
280
     0
281
     0
  0
CLASS
  1
TABLESTYLE
  2
AcDbTableStyle
  3
ObjectDBX Classes
 90
     4095
280
     0
281
     0
  0
CLASS
  1
MLEADERSTYLE
  2
AcDbMLeaderStyle
  3
ACDB_MLEADERSTYLE_CLASS
 90
     4095
280
     0
281
     0
  0
CLASS
  1
ACDBSECTIONVIEWSTYLE
  2
AcDbSectionViewStyle
  3
ObjectDBX Classes
 90
     1025
280
     0
281
     0
  0
CLASS
  1
ACDBDETAILVIEWSTYLE
  2
AcDbDetailViewStyle
  3
ObjectDBX Classes
 90
     1025
280
     0
281
     0
  0
CLASS
  1
RASTERVARIABLES
  2
AcDbRasterVariables
  3
ISM
 90
        0
280
     0
281
     0
  0
CLASS
  1
DICTIONARYVAR
  2
AcDbDictionaryVar
  3
ObjectDBX Classes
 90
        0
280
     0
281
     0
  0
CLASS
  1
CELLSTYLEMAP
  2
AcDbCellStyleMap
  3
ObjectDBX Classes
 90
     1152
280
     0
281
     0
  0
CLASS
  1
SORTENTSTABLE
  2
AcDbSortentsTable
  3
ObjectDBX Classes
 90
        0
280
     0
281
     0
  0
CLASS
  1
SUN
  2
AcDbSun
  3
SCENEOE
 90
    33921
280
     0
281
     0
  0
CLASS
  1
EXACXREFPANELOBJECT
  2
ExAcXREFPanelObject
  3
EXAC_ESW
 90
     1025
280
     0
281
     0
  0
CLASS
  1
NPOCOLLECTION
  2
AcDbImpNonPersistentObjectsCollection
  3
ObjectDBX Classes
 90
     1153
280
     0
281
     0
  0
CLASS
  1
DIMASSOC
  2
AcDbDimAssoc
  3
"AcDbDimAssoc|Product Desc:     AcDim ARX App For Dimension|Company:          Autodesk, Inc.|WEB Address:      www.autodesk.com"
 90
        0
280
     0
281
     0
  0
CLASS
  1
ACDBPLACEHOLDER
  2
AcDbPlaceHolder
  3
ObjectDBX Classes
 90
        0
280
     0
281
     0
  0
CLASS
  1
LAYOUT
  2
AcDbLayout
  3
ObjectDBX Classes
 90
        0
280
     0
281
     0
  0
ENDSEC
  0
SECTION
  2
TABLES
  0
TABLE
  2
VPORT
  5
8
330
0
100
AcDbSymbolTable
 70
     1
  0
VPORT
  5
57
330
8
100
AcDbSymbolTableRecord
100
AcDbViewportTableRecord
  2
*Active
 70
     0
 10
0.0
 20
0.0
 11
1.0
 21
1.0
 12
1994.958223077201
 22
236.700235194466
 13
0.0
 23
0.0
 14
1.0
 24
1.0
 15
0.0
 25
0.0
 16
0.0
 26
0.0
 36
1.0
 17
0.0
 27
0.0
 37
0.0
 40
477.2298708289423
 41
2.451984635083227
 42
50.0
 43
0.0
 44
0.0
 50
0.0
 51
0.0
 71
     0
 72
  1000
 73
     1
 74
     1
 75
     0
 76
     0
 77
     0
 78
     0
281
     0
 65
     1
110
0.0
120
0.0
130
0.0
111
1.0
121
0.0
131
0.0
112
0.0
122
1.0
132
0.0
 79
     0
146
0.0
1001
ACAD_NAV_VCDISPLAY
1070
     3
  0
ENDTAB
  0
TABLE
  2
LTYPE
  5
5
330
0
100
AcDbSymbolTable
 70
     2
  0
LTYPE
  5
5B
330
5
100
AcDbSymbolTableRecord
100
AcDbLinetypeTableRecord
  2
ByBlock
 70
     0
  3

 72
    65
 73
     0
 40
0.0
  0
LTYPE
  5
5C
330
5
100
AcDbSymbolTableRecord
100
AcDbLinetypeTableRecord
  2
ByLayer
 70
     0
  3

 72
    65
 73
     0
 40
0.0
  0
LTYPE
  5
5D
330
5
100
AcDbSymbolTableRecord
100
AcDbLinetypeTableRecord
  2
Continuous
 70
     0
  3
Solid line
 72
    65
 73
     0
 40
0.0
  0
LTYPE
  5
69
330
5
100
AcDbSymbolTableRecord
100
AcDbLinetypeTableRecord
  2
PHANTOM2
 70
     0
  3
___ _ _ ___ _ _ ___ _ _ ___ _ _
 72
    65
 73
     6
 40
1.25
 49
0.625
 74
     0
 49
-0.125
 74
     0
 49
0.125
 74
     0
 49
-0.125
 74
     0
 49
0.125
 74
     0
 49
-0.125
 74
     0
  0
ENDTAB
  0
TABLE
  2
LAYER
  5
2
102
{ACAD_XDICTIONARY
360
3E6
102
}
330
0
100
AcDbSymbolTable
 70
     2
  0
LAYER
  5
54
330
2
100
AcDbSymbolTableRecord
100
AcDbLayerTableRecord
  2
0
 70
     0
 62
     7
  6
Continuous
370
    -3
390
F
  0
LAYER
  5
305
330
2
100
AcDbSymbolTableRecord
100
AcDbLayerTableRecord
  2
Defpoints
 70
     0
 62
     7
  6
Continuous
290
     0
370
    -3
390
F
  0
ENDTAB
  0
TABLE
  2
STYLE
  5
3
330
0
100
AcDbSymbolTable
 70
     2
  0
STYLE
  5
55
330
3
100
AcDbSymbolTableRecord
100
AcDbTextStyleTableRecord
  2
Standard
 70
     0
 40
0.0
 41
1.0
 50
0.0
 71
     0
 42
0.2
  3
txt
  4

  0
STYLE
  5
2FA
330
3
100
AcDbSymbolTableRecord
100
AcDbTextStyleTableRecord
  2
Arial_1
 70
     0
 40
0.0922062125748503
 41
1.0
 50
0.0
 71
     0
 42
0.2
  3
arial.ttf
  4

1001
ACAD
1000
Arial
1071
       34
  0
ENDTAB
  0
TABLE
  2
VIEW
  5
6
330
0
100
AcDbSymbolTable
 70
     0
  0
ENDTAB
  0
TABLE
  2
UCS
  5
7
330
0
100
AcDbSymbolTable
 70
     0
  0
ENDTAB
  0
TABLE
  2
APPID
  5
9
330
0
100
AcDbSymbolTable
 70
    11
  0
APPID
  5
56
330
9
100
AcDbSymbolTableRecord
100
AcDbRegAppTableRecord
  2
ACAD
 70
     0
  0
APPID
  5
5E
330
9
100
AcDbSymbolTableRecord
100
AcDbRegAppTableRecord
  2
AcadAnnotative
 70
     0
  0
APPID
  5
79
330
9
100
AcDbSymbolTableRecord
100
AcDbRegAppTableRecord
  2
REVIT
 70
     0
  0
APPID
  5
3DF
330
9
100
AcDbSymbolTableRecord
100
AcDbRegAppTableRecord
  2
ACAD_PSEXT
 70
     0
  0
APPID
  5
411
330
9
100
AcDbSymbolTableRecord
100
AcDbRegAppTableRecord
  2
ACAD_NAV_VCDISPLAY
 70
     0
  0
APPID
  5
609
330
9
100
AcDbSymbolTableRecord
100
AcDbRegAppTableRecord
  2
ACAD_EXEMPT_FROM_CAD_STANDARDS
 70
     0
  0
APPID
  5
614
330
9
100
AcDbSymbolTableRecord
100
AcDbRegAppTableRecord
  2
ACAD_DSTYLE_DIMJAG
 70
     0
  0
APPID
  5
615
330
9
100
AcDbSymbolTableRecord
100
AcDbRegAppTableRecord
  2
ACAD_DSTYLE_DIMTALN
 70
     0
  0
APPID
  5
937
330
9
100
AcDbSymbolTableRecord
100
AcDbRegAppTableRecord
  2
ACAD_MLEADERVER
 70
     0
  0
APPID
  5
A10
330
9
100
AcDbSymbolTableRecord
100
AcDbRegAppTableRecord
  2
GradientColor1ACI
 70
     0
  0
APPID
  5
A11
330
9
100
AcDbSymbolTableRecord
100
AcDbRegAppTableRecord
  2
GradientColor2ACI
 70
     0
  0
ENDTAB
  0
TABLE
  2
DIMSTYLE
  5
A
330
0
100
AcDbSymbolTable
 70
     1
100
AcDbDimStyleTable
 71
     1
340
58
  0
DIMSTYLE
105
58
330
A
100
AcDbSymbolTableRecord
100
AcDbDimStyleTableRecord
  2
Standard
 70
     0
340
55
  0
ENDTAB
  0
TABLE
  2
BLOCK_RECORD
  5
1
330
0
100
AcDbSymbolTable
 70
     5
  0
BLOCK_RECORD
  5
71
102
{ACAD_XDICTIONARY
360
3CD
102
}
330
1
100
AcDbSymbolTableRecord
100
AcDbBlockTableRecord
  2
*Model_Space
340
74
  0
BLOCK_RECORD
  5
412
330
1
100
AcDbSymbolTableRecord
100
AcDbBlockTableRecord
  2
*Paper_Space
340
413
  0
BLOCK_RECORD
  5
2FF
330
1
100
AcDbSymbolTableRecord
100
AcDbBlockTableRecord
  2
_Oblique
340
0
102
{BLKREFS
331
456
331
457
102
}
  0
ENDTAB
  0
ENDSEC
  0
SECTION
  2
BLOCKS
  0
BLOCK
  5
72
330
71
100
AcDbEntity
  8
0
100
AcDbBlockBegin
  2
*Model_Space
 70
     0
 10
0.0
 20
0.0
 30
0.0
  3
*Model_Space
  1

  0
ENDBLK
  5
73
330
71
100
AcDbEntity
  8
0
100
AcDbBlockEnd
  0
BLOCK
  5
414
330
412
100
AcDbEntity
 67
     1
  8
0
100
AcDbBlockBegin
  2
*Paper_Space
 70
     0
 10
0.0
 20
0.0
 30
0.0
  3
*Paper_Space
  1

  0
ENDBLK
  5
415
330
412
100
AcDbEntity
 67
     1
  8
0
100
AcDbBlockEnd
  0
BLOCK
  5
301
330
2FF
100
AcDbEntity
  8
0
100
AcDbBlockBegin
  2
_Oblique
 70
     0
 10
0.0
 20
0.0
 30
0.0
  3
_Oblique
  1

  0
LINE
  5
300
330
2FF
100
AcDbEntity
  8
0
  6
ByBlock
 62
     0
370
    -2
100
AcDbLine
 10
-0.5
 20
-0.5
 30
0.0
 11
0.5
 21
0.5
 31
0.0
  0
ENDBLK
  5
302
330
2FF
100
AcDbEntity
  8
0
100
AcDbBlockEnd
  0
ENDSEC
  0
SECTION
  2
ENTITIES
  0
LINE
  5
452
330
71
100
AcDbEntity
  8
0
100
AcDbLine
 10
2351.146204708733
 20
0.0625
 30
0.0
 11
2351.146204708733
 21
0.09375
 31
0.0
  0
LINE
  5
453
330
71
100
AcDbEntity
  8
0
100
AcDbLine
 10
2351.146204708733
 20
0.0625
 30
0.0
 11
2351.146204708733
 21
0.09375
 31
0.0
  0
LINE
  5
454
330
71
100
AcDbEntity
  8
0
100
AcDbLine
 10
2351.146204708733
 20
0.0
 30
0.0
 11
2351.021204708734
 21
0.0
 31
0.0
  0
LINE
  5
455
330
71
100
AcDbEntity
  8
0
100
AcDbLine
 10
2351.146204708733
 20
0.0
 30
0.0
 11
2351.271204708734
 21
0.0
 31
0.0
  0
INSERT
  5
456
330
71
100
AcDbEntity
  8
0
100
AcDbBlockReference
  2
_Oblique
 10
2351.146204708733
 20
0.0
 30
0.0
 41
0.1250000000000004
 42
0.1250000000000004
 43
0.1250000000000004
  0
INSERT
  5
457
330
71
100
AcDbEntity
  8
0
100
AcDbBlockReference
  2
_Oblique
 10
2351.146204708733
 20
0.0
 30
0.0
 41
0.1250000000000004
 42
0.1250000000000004
 43
0.1250000000000004
 50
180.0
  0
MTEXT
  5
458
330
71
100
AcDbEntity
  8
0
100
AcDbMText
 10
2351.146204708733
 20
0.1095780014408412
 30
0.0
 40
0.0922062125748503
 41
0.0
 71
     5
 72
     1
  1
\A1;0
  7
Arial_1
 73
     1
 44
1.0
1001
ACAD
1000
MTEXTBEGIN
1070
    73
1070
     1
1070
    44
1040
1.0
1070
    74
1070
     0
1000
MTEXTEND
1000
ACAD_MTEXT_BBRT
1070
    91
1071
        3
1070
    46
1040
1.25
1070
    64
1071
-1027028792
1070
    65
1000

1070
    66
1000

1070
   442
1071
        0
1000
ACAD_MTEXT_BERT
  0
LINE
  5
465
330
71
100
AcDbEntity
  8
0
100
AcDbLine
 10
2067.175594180779
 20
399.9975440279018
 30
0.0
 11
2072.17559418078
 21
399.9975440279018
 31
0.0
  0
LINE
  5
466
330
71
100
AcDbEntity
  8
0
100
AcDbLine
 10
2072.17559418078
 20
404.9975440279017
 30
0.0
 11
2067.175594180779
 21
404.9975440279017
 31
0.0
  0
LWPOLYLINE
  5
467
330
71
100
AcDbEntity
  8
0
100
AcDbPolyline
 90
       41
 70
   128
 43
0.0
 10
2072.17559418078
 20
399.9975440279018
 10
2072.335551517527
 20
399.9975440279018
 10
2072.495252956657
 20
399.9975440279018
 10
2072.654443009936
 20
399.9975440279018
 10
2072.812867007237
 20
399.9975440279018
 10
2072.97027150396
 20
399.9975440279018
 10
2073.126404686489
 20
399.9975440279018
 10
2073.281016775037
 20
399.9975440279018
 10
2073.433860423245
 20
399.9975440279018
 10
2073.584691113881
 20
399.9975440279018
 10
2073.733267550015
 20
399.9975440279018
 10
2073.879352041045
 20
399.9975440279018
 10
2074.022710882946
 20
399.9975440279018
 10
2074.163114732155
 20
399.9975440279018
 10
2074.300338972464
 20
399.9975440279018
 10
2074.434164074361
 20
399.9975440279018
 10
2074.56437594623
 20
399.9975440279018
 10
2074.690766276855
 20
399.9975440279018
 10
2074.813132868666
 20
399.9975440279018
 10
2074.931279961223
 20
399.9975440279018
 10
2075.045018544379
 20
399.9975440279018
 10
2075.154166660664
 20
399.9975440279018
 10
2075.258549696377
 20
399.9975440279018
 10
2075.358000660926
 20
399.9975440279018
 10
2075.452360453985
 20
399.9975440279018
 10
2075.541478120012
 20
399.9975440279018
 10
2075.625211089754
 20
399.9975440279018
 10
2075.70342540832
 20
399.9975440279018
 10
2075.775995949487
 20
399.9975440279018
 10
2075.842806615868
 20
399.9975440279018
 10
2075.903750524649
 20
399.9975440279018
 10
2075.958730178578
 20
399.9975440279018
 10
2076.007657621937
 20
399.9975440279018
 10
2076.050454581254
 20
399.9975440279018
 10
2076.087052590521
 20
399.9975440279018
 10
2076.117393100734
 20
399.9975440279018
 10
2076.141427573547
 20
399.9975440279018
 10
2076.159117558931
 20
399.9975440279018
 10
2076.170434756683
 20
399.9975440279018
 10
2076.175361061701
 20
399.9975440279018
 10
2076.175594180781
 20
399.9975440279018
  0
LWPOLYLINE
  5
468
330
71
100
AcDbEntity
  8
0
100
AcDbPolyline
 90
       41
 70
   128
 43
0.0
 10
2076.175594180781
 20
404.997544027902
 10
2076.172394607425
 20
404.997544027902
 10
2076.162801005991
 20
404.997544027902
 10
2076.146828724196
 20
404.997544027902
 10
2076.124503314283
 20
404.997544027902
 10
2076.095860492146
 20
404.997544027902
 10
2076.060946080189
 20
404.997544027902
 10
2076.019815934023
 20
404.997544027902
 10
2075.972535853111
 20
404.997544027902
 10
2075.919181475493
 20
404.997544027902
 10
2075.859838156792
 20
404.997544027902
 10
2075.79460083366
 20
404.997544027902
 10
2075.723573871898
 20
404.997544027902
 10
2075.646870899491
 20
404.997544027902
 10
2075.564614624834
 20
404.997544027902
 10
2075.476936640419
 20
404.997544027902
 10
2075.383977212318
 20
404.997544027902
 10
2075.285885055784
 20
404.997544027902
 10
2075.182817097344
 20
404.997544027902
 10
2075.074938223744
 20
404.997544027902
 10
2074.962421018169
 20
404.997544027902
 10
2074.845445484146
 20
404.997544027902
 10
2074.724198757575
 20
404.997544027902
 10
2074.598874807354
 20
404.997544027902
 10
2074.46967412507
 20
404.997544027902
 10
2074.336803404253
 20
404.997544027902
 10
2074.200475209711
 20
404.997544027902
 10
2074.060907637475
 20
404.997544027902
 10
2073.918323965887
 20
404.997544027902
 10
2073.772952298405
 20
404.997544027902
 10
2073.625025198687
 20
404.997544027902
 10
2073.474779318535
 20
404.997544027902
 10
2073.322455019308
 20
404.9975440279017
 10
2073.16829598739
 20
404.9975440279017
 10
2073.012548844346
 20
404.9975440279017
 10
2072.855462752381
 20
404.9975440279017
 10
2072.697289015733
 20
404.9975440279017
 10
2072.538280678637
 20
404.9975440279017
 10
2072.378692120514
 20
404.9975440279017
 10
2072.218778649013
 20
404.9975440279017
 10
2072.17559418078
 20
404.9975440279017
  0
LINE
  5
469
330
71
100
AcDbEntity
  8
0
100
AcDbLine
 10
2087.17559418078
 20
379.147544027904
 30
0.0
 11
2082.17559418078
 21
379.147544027904
 31
0.0
  0
LINE
  5
46A
330
71
100
AcDbEntity
  8
0
100
AcDbLine
 10
2082.17559418078
 20
379.147544027904
 30
0.0
 11
2082.17559418078
 21
374.760353797194
 31
0.0
  0
LINE
  5
46B
330
71
100
AcDbEntity
  8
0
100
AcDbLine
 10
2087.17559418078
 20
374.760353797194
 30
0.0
 11
2087.17559418078
 21
379.147544027904
 31
0.0
  0
LINE
  5
46C
330
71
100
AcDbEntity
  8
0
100
AcDbLine
 10
2073.67559418078
 20
371.7475440279049
 30
0.0
 11
2067.175594180783
 21
371.7475440279049
 31
0.0
  0
LINE
  5
46D
330
71
100
AcDbEntity
  8
0
100
AcDbLine
 10
2078.67559418078
 20
365.3475440279027
 30
0.0
 11
2080.42559418078
 21
365.3475440279027
 31
0.0
  0
LINE
  5
46E
330
71
100
AcDbEntity
  8
0
100
AcDbLine
 10
2080.42559418078
 20
374.1475440279049
 30
0.0
 11
2078.67559418078
 21
374.1475440279049
 31
0.0
  0
LWPOLYLINE
  5
46F
330
71
100
AcDbEntity
  8
0
100
AcDbPolyline
 90
       41
 70
   128
 43
0.0
 10
2081.17559418078
 20
364.3475440279028
 10
2081.14560218014
 20
364.348143947907
 10
2081.115658160303
 20
364.349942748176
 10
2081.085810025313
 20
364.3529375510123
 10
2081.056105525819
 20
364.357123565371
 10
2081.026592182684
 20
364.3624940945219
 10
2080.99731721096
 20
364.3690405467637
 10
2080.968327444357
 20
364.3767524491698
 10
2080.939669260319
 20
364.3856174643409
 10
2080.911388505824
 20
364.3956214101444
 10
2080.883530424049
 20
364.4067482824007
 10
2080.856139581981
 20
364.4189802804878
 10
2080.829259799124
 20
364.4322978358184
 10
2080.802934077397
 20
364.4466796431446
 10
2080.777204532339
 20
364.4621026946428
 10
2080.752112325734
 20
364.4785423167207
 10
2080.727697599758
 20
364.4959722094896
 10
2080.703999412766
 20
364.5143644888396
 10
2080.681055676802
 20
364.5336897310472
 10
2080.658903096948
 20
364.5539170198471
 10
2080.637577112605
 20
364.5750139958924
 10
2080.617111840802
 20
364.5969469085218
 10
2080.597540021607
 20
364.619680669754
 10
2080.578892965753
 20
364.6431789104203
 10
2080.561200504554
 20
364.6674040383485
 10
2080.544490942174
 20
364.6923172985016
 10
2080.528791010348
 20
364.7178788349781
 10
2080.514125825617
 20
364.7440477547724
 10
2080.500518849148
 20
364.7707821931951
 10
2080.487991849201
 20
364.7980393808481
 10
2080.476564866305
 20
364.8257757120453
 10
2080.466256181193
 20
364.8539468145738
 10
2080.457082285563
 20
364.8825076206788
 10
2080.449057855692
 20
364.9114124391636
 10
2080.442195728954
 20
364.9406150284842
 10
2080.436506883289
 20
364.9700686707275
 10
2080.432000419637
 20
364.9997262463492
 10
2080.428683547377
 20
365.0295403095546
 10
2080.426561572798
 20
365.0594631642027
 10
2080.425637890607
 20
365.0894469401091
 10
2080.42559418078
 20
365.0975440279028
  0
LWPOLYLINE
  5
470
330
71
100
AcDbEntity
  8
0
100
AcDbPolyline
 90
       41
 70
   128
 43
0.0
 10
2080.42559418078
 20
369.7475440279038
 10
2080.42559418078
 20
369.5615936239359
 10
2080.42559418078
 20
369.3759407009471
 10
2080.42559418078
 20
369.1908822640103
 10
2080.42559418078
 20
369.0067143671474
 10
2080.42559418078
 20
368.8237316397066
 10
2080.42559418078
 20
368.6422268150173
 10
2080.42559418078
 20
368.4624902620803
 10
2080.42559418078
 20
368.2848095210387
 10
2080.42559418078
 20
368.1094688431742
 10
2080.42559418078
 20
367.9367487361683
 10
2080.42559418078
 20
367.7669255153464
 10
2080.42559418078
 20
367.6002708616355
 10
2080.42559418078
 20
367.43705138693
 10
2080.42559418078
 20
367.2775282075712
 10
2080.42559418078
 20
367.1219565266166
 10
2080.42559418078
 20
366.9705852255682
 10
2080.42559418078
 20
366.8236564662172
 10
2080.42559418078
 20
366.6814053032358
 10
2080.42559418078
 20
366.544059308139
 10
2080.42559418078
 20
366.4118382052202
 10
2080.42559418078
 20
366.2849535200386
 10
2080.42559418078
 20
366.1636082410228
 10
2080.42559418078
 20
366.047996494734
 10
2080.42559418078
 20
365.9383032353032
 10
2080.42559418078
 20
365.8347039485462
 10
2080.42559418078
 20
365.7373643712213
 10
2080.42559418078
 20
365.646440225888
 10
2080.42559418078
 20
365.5620769717822
 10
2080.42559418078
 20
365.4844095721141
 10
2080.42559418078
 20
365.4135622781553
 10
2080.42559418078
 20
365.3496484304627
 10
2080.42559418078
 20
365.2927702775579
 10
2080.42559418078
 20
365.2430188123529
 10
2080.42559418078
 20
365.2004736265786
 10
2080.42559418078
 20
365.1652027834563
 10
2080.42559418078
 20
365.1372627088115
 10
2080.42559418078
 20
365.1166981008028
 10
2080.42559418078
 20
365.1035418584164
 10
2080.42559418078
 20
365.0978150288336
 10
2080.42559418078
 20
365.0975440279028
  0
LWPOLYLINE
  5
471
330
71
100
AcDbEntity
  8
0
100
AcDbPolyline
 90
       10
 70
   128
 43
0.0
 10
2080.42559418078
 20
365.0975440279028
 10
2080.42559418078
 20
365.1012635319294
 10
2080.42559418078
 20
365.1124160935956
 10
2080.42559418078
 20
365.1309838711824
 10
2080.42559418078
 20
365.1569371602061
 10
2080.42559418078
 20
365.190234440941
 10
2080.42559418078
 20
365.2308224448408
 10
2080.42559418078
 20
365.2786362397578
 10
2080.42559418078
 20
365.3335993338197
 10
2080.42559418078
 20
365.3475440279027
  0
LWPOLYLINE
  5
472
330
71
100
AcDbEntity
  8
0
100
AcDbPolyline
 90
       41
 70
   128
 43
0.0
 10
2080.42559418078
 20
374.3975440279049
 10
2080.426194100784
 20
374.4275360285449
 10
2080.427992901053
 20
374.4574800483816
 10
2080.43098770389
 20
374.4873281833715
 10
2080.435173718248
 20
374.5170326828656
 10
2080.440544247399
 20
374.5465460260011
 10
2080.447090699641
 20
374.5758209977253
 10
2080.454802602047
 20
374.6048107643279
 10
2080.463667617219
 20
374.6334689483668
 10
2080.473671563022
 20
374.6617497028611
 10
2080.484798435279
 20
374.6896077846364
 10
2080.497030433365
 20
374.7169986267043
 10
2080.510347988695
 20
374.7438784095609
 10
2080.524729796022
 20
374.7702041312876
 10
2080.54015284752
 20
374.7959336763455
 10
2080.556592469598
 20
374.8210258829512
 10
2080.574022362367
 20
374.8454406089266
 10
2080.592414641717
 20
374.8691387959187
 10
2080.611739883924
 20
374.8920825318836
 10
2080.631967172724
 20
374.9142351117376
 10
2080.65306414877
 20
374.9355610960794
 10
2080.674997061399
 20
374.956026367883
 10
2080.697730822631
 20
374.9755981870789
 10
2080.721229063298
 20
374.9942452429321
 10
2080.745454191226
 20
375.0119377041307
 10
2080.770367451378
 20
375.0286472665107
 10
2080.795928987855
 20
375.0443471983373
 10
2080.822097907649
 20
375.0590123830686
 10
2080.848832346072
 20
375.0726193595371
 10
2080.876089533726
 20
375.0851463594837
 10
2080.903825864922
 20
375.0965733423802
 10
2080.931996967451
 20
375.106882027492
 10
2080.960557773556
 20
375.1160559231217
 10
2080.989462592041
 20
375.1240803529935
 10
2081.018665181362
 20
375.1309424797313
 10
2081.048118823605
 20
375.1366313253964
 10
2081.077776399226
 20
375.1411377890486
 10
2081.107590462432
 20
375.1444546613082
 10
2081.13751331708
 20
375.1465766358866
 10
2081.167497092987
 20
375.1475003180773
 10
2081.17559418078
 20
375.1475440279049
  0
LWPOLYLINE
  5
473
330
71
100
AcDbEntity
  8
0
100
AcDbPolyline
 90
       10
 70
   128
 43
0.0
 10
2080.42559418078
 20
374.1475440279049
 10
2080.42559418078
 20
374.2023177782497
 10
2080.42559418078
 20
374.2520692434546
 10
2080.42559418078
 20
374.2946144292289
 10
2080.42559418078
 20
374.3298852723512
 10
2080.42559418078
 20
374.3578253469962
 10
2080.42559418078
 20
374.3783899550049
 10
2080.42559418078
 20
374.3915461973913
 10
2080.42559418078
 20
374.3972730269742
 10
2080.42559418078
 20
374.3975440279049
  0
LWPOLYLINE
  5
474
330
71
100
AcDbEntity
  8
0
100
AcDbPolyline
 90
       41
 70
   128
 43
0.0
 10
2080.42559418078
 20
374.3975440279049
 10
2080.42559418078
 20
374.3938245238784
 10
2080.42559418078
 20
374.382671962212
 10
2080.42559418078
 20
374.3641041846253
 10
2080.42559418078
 20
374.3381508956014
 10
2080.42559418078
 20
374.3048536148667
 10
2080.42559418078
 20
374.2642656109666
 10
2080.42559418078
 20
374.2164518160499
 10
2080.42559418078
 20
374.1614887219881
 10
2080.42559418078
 20
374.0994642580072
 10
2080.42559418078
 20
374.0304776500182
 10
2080.42559418078
 20
373.9546392618775
 10
2080.42559418078
 20
373.8720704188285
 10
2080.42559418078
 20
373.7829032134059
 10
2080.42559418078
 20
373.687280294117
 10
2080.42559418078
 20
373.5853546372347
 10
2080.42559418078
 20
373.4772893020665
 10
2080.42559418078
 20
373.3632571700963
 10
2080.42559418078
 20
373.2434406684097
 10
2080.42559418078
 20
373.1180314778498
 10
2080.42559418078
 20
372.9872302263689
 10
2080.42559418078
 20
372.8512461680665
 10
2080.42559418078
 20
372.7102968484278
 10
2080.42559418078
 20
372.5646077562965
 10
2080.42559418078
 20
372.4144119631412
 10
2080.42559418078
 20
372.2599497501914
 10
2080.42559418078
 20
372.1014682240367
 10
2080.42559418078
 20
371.9392209213121
 10
2080.42559418078
 20
371.773467403091
 10
2080.42559418078
 20
371.6044728396434
 10
2080.42559418078
 20
371.4325075862208
 10
2080.42559418078
 20
371.2578467505445
 10
2080.42559418078
 20
371.0807697526927
 10
2080.42559418078
 20
370.9015598780876
 10
2080.42559418078
 20
370.7205038242993
 10
2080.42559418078
 20
370.53789124239
 10
2080.42559418078
 20
370.3540142735363
 10
2080.42559418078
 20
370.169167081663
 10
2080.42559418078
 20
369.9836453828452
 10
2080.42559418078
 20
369.7977459722248
 10
2080.42559418078
 20
369.7475440279038
  0
LINE
  5
475
330
71
100
AcDbEntity
  8
0
100
AcDbLine
 10
2081.17559418078
 20
364.3475440279028
 30
0.0
 11
2092.67559418078
 21
364.3475440279028
 31
0.0
  0
LINE
  5
476
330
71
100
AcDbEntity
  8
0
100
AcDbLine
 10
2092.67559418078
 20
375.1475440279049
 30
0.0
 11
2087.175594180779
 21
375.1475440279049
 31
0.0
  0
LINE
  5
477
330
71
100
AcDbEntity
  8
0
100
AcDbLine
 10
2082.17559418078
 20
375.1475440279049
 30
0.0
 11
2081.17559418078
 21
375.1475440279049
 31
0.0
  0
LWPOLYLINE
  5
478
330
71
100
AcDbEntity
  8
0
100
AcDbPolyline
 90
       41
 70
   128
 43
0.0
 10
2094.17559418078
 20
365.8475440279028
 10
2094.174394340772
 20
365.7875600266228
 10
2094.170796740234
 20
365.7276719869491
 10
2094.164807134561
 20
365.6679757169694
 10
2094.156435105844
 20
365.6085667179815
 10
2094.145694047542
 20
365.5495400317102
 10
2094.132601143058
 20
365.4909900882622
 10
2094.117177338246
 20
365.4330105550565
 10
2094.099447307904
 20
365.3756941869787
 10
2094.079439416297
 20
365.3191326779904
 10
2094.057185671784
 20
365.2634165144398
 10
2094.03272167561
 20
365.2086348303038
 10
2094.006086564949
 20
365.1548752645906
 10
2093.977322950297
 20
365.1022238211372
 10
2093.946476847301
 20
365.0507647310214
 10
2093.913597603144
 20
365.0005803178103
 10
2093.878737817607
 20
364.9517508658592
 10
2093.841953258907
 20
364.9043544918752
 10
2093.803302774492
 20
364.8584670199456
 10
2093.762848196892
 20
364.814161860237
 10
2093.720654244801
 20
364.7715098915535
 10
2093.676788419542
 20
364.7305793479465
 10
2093.631320897078
 20
364.6914357095544
 10
2093.584324415745
 20
364.6541415978483
 10
2093.535874159889
 20
364.6187566754513
 10
2093.486047639583
 20
364.585337550691
 10
2093.434924566629
 20
364.5539376870378
 10
2093.382586727041
 20
364.5246073175753
 10
2093.329117850195
 20
364.497393364638
 10
2093.27460347489
 20
364.4723393647451
 10
2093.219130812495
 20
364.4494853989521
 10
2093.162788607438
 20
364.4288680287285
 10
2093.105666995228
 20
364.4105202374691
 10
2093.047857358259
 20
364.3944713777254
 10
2092.989452179617
 20
364.3807471242499
 10
2092.93054489513
 20
364.3693694329201
 10
2092.871229743888
 20
364.3603565056151
 10
2092.811601617476
 20
364.3537227610963
 10
2092.75175590818
 20
364.3494788119394
 10
2092.691788356368
 20
364.3476314475579
 10
2092.67559418078
 20
364.3475440279028
  0
LWPOLYLINE
  5
479
330
71
100
AcDbEntity
  8
0
100
AcDbPolyline
 90
       41
 70
   128
 43
0.0
 10
2094.17559418078
 20
369.7475440279038
 10
2094.17559418078
 20
369.5915856245759
 10
2094.17559418078
 20
369.435876721424
 10
2094.17559418078
 20
369.280666419477
 10
2094.17559418078
 20
369.126203022108
 10
2094.17559418078
 20
368.9727336378029
 10
2094.17559418078
 20
368.8205037848377
 10
2094.17559418078
 20
368.6697569985037
 10
2094.17559418078
 20
368.5207344415006
 10
2094.17559418078
 20
368.3736745181307
 10
2094.17559418078
 20
368.2288124928997
 10
2094.17559418078
 20
368.086380114146
 10
2094.17559418078
 20
367.9466052432915
 10
2094.17559418078
 20
367.8097114903127
 10
2094.17559418078
 20
367.6759178560118
 10
2094.17559418078
 20
367.5454383816628
 10
2094.17559418078
 20
367.41848180659
 10
2094.17559418078
 20
367.2952512342312
 10
2094.17559418078
 20
367.1759438072144
 10
2094.17559418078
 20
367.060750391972
 10
2094.17559418078
 20
366.9498552733949
 10
2094.17559418078
 20
366.8434358600167
 10
2094.17559418078
 20
366.741662400197
 10
2094.17559418078
 20
366.6446977097612
 10
2094.17559418078
 20
366.552696911529
 10
2094.17559418078
 20
366.4658071871522
 10
2094.17559418078
 20
366.3841675416538
 10
2094.17559418078
 20
366.3079085810517
 10
2094.17559418078
 20
366.2371523034145
 10
2094.17559418078
 20
366.172011903693
 10
2094.17559418078
 20
366.1125915926306
 10
2094.17559418078
 20
366.0589864300497
 10
2094.17559418078
 20
366.0112821727748
 10
2094.17559418078
 20
365.9695551374416
 10
2094.17559418078
 20
365.9338720784051
 10
2094.17559418078
 20
365.9042900809479
 10
2094.17559418078
 20
365.8808564699552
 10
2094.17559418078
 20
365.8636087342062
 10
2094.17559418078
 20
365.8525744663982
 10
2094.17559418078
 20
365.8477713190059
 10
2094.17559418078
 20
365.8475440279028
  0
LWPOLYLINE
  5
47A
330
71
100
AcDbEntity
  8
0
100
AcDbPolyline
 90
       41
 70
   128
 43
0.0
 10
2094.17559418078
 20
365.8475440279028
 10
2094.17559418078
 20
365.8506636119249
 10
2094.17559418078
 20
365.8600173733227
 10
2094.17559418078
 20
365.8755903480728
 10
2094.17559418078
 20
365.8973576227378
 10
2094.17559418078
 20
365.925284374322
 10
2094.17559418078
 20
365.9593259259799
 10
2094.17559418078
 20
365.9994278184909
 10
2094.17559418078
 20
366.0455258973815
 10
2094.17559418078
 20
366.0975464155588
 10
2094.17559418078
 20
366.1554061512916
 10
2094.17559418078
 20
366.219012541345
 10
2094.17559418078
 20
366.2882638290637
 10
2094.17559418078
 20
366.3630492271601
 10
2094.17559418078
 20
366.4432490949507
 10
2094.17559418078
 20
366.5287351297553
 10
2094.17559418078
 20
366.6193705721544
 10
2094.17559418078
 20
366.7150104247744
 10
2094.17559418078
 20
366.8155016842535
 10
2094.17559418078
 20
366.9206835860135
 10
2094.17559418078
 20
367.0303878614492
 10
2094.17559418078
 20
367.1444390071222
 10
2094.17559418078
 20
367.2626545655287
 10
2094.17559418078
 20
367.3848454169936
 10
2094.17559418078
 20
367.5108160822207
 10
2094.17559418078
 20
367.6403650350176
 10
2094.17559418078
 20
367.7732850246954
 10
2094.17559418078
 20
367.9093634076257
 10
2094.17559418078
 20
368.0483824874242
 10
2094.17559418078
 20
368.1901198632189
 10
2094.17559418078
 20
368.3343487854444
 10
2094.17559418078
 20
368.4808385185923
 10
2094.17559418078
 20
368.6293547103391
 10
2094.17559418078
 20
368.7796597664594
 10
2094.17559418078
 20
368.9315132309271
 10
2094.17559418078
 20
369.0846721705928
 10
2094.17559418078
 20
369.2388915638249
 10
2094.17559418078
 20
369.3939246924929
 10
2094.17559418078
 20
369.5495235366627
 10
2094.17559418078
 20
369.7054391713765
 10
2094.17559418078
 20
369.7475440279038
  0
LWPOLYLINE
  5
47B
330
71
100
AcDbEntity
  8
0
100
AcDbPolyline
 90
       41
 70
   128
 43
0.0
 10
2092.67559418078
 20
375.1475440279049
 10
2092.73557818206
 20
375.1463441878962
 10
2092.795466221734
 20
375.1427465873587
 10
2092.855162491714
 20
375.1367569816857
 10
2092.914571490701
 20
375.1283849529682
 10
2092.973598176973
 20
375.1176438946667
 10
2093.032148120421
 20
375.1045509901828
 10
2093.090127653626
 20
375.089127185371
 10
2093.147444021704
 20
375.0713971550283
 10
2093.204005530693
 20
375.0513892634218
 10
2093.259721694243
 20
375.0291355189091
 10
2093.314503378379
 20
375.0046715227349
 10
2093.368262944093
 20
374.9780364120737
 10
2093.420914387546
 20
374.9492727974212
 10
2093.472373477661
 20
374.9184266944248
 10
2093.522557890873
 20
374.8855474502694
 10
2093.571387342823
 20
374.8506876647312
 10
2093.618783716808
 20
374.8139031060313
 10
2093.664671188737
 20
374.7752526216162
 10
2093.708976348446
 20
374.7347980440162
 10
2093.75162831713
 20
374.6926040919254
 10
2093.792558860736
 20
374.6487382666669
 10
2093.831702499128
 20
374.6032707442028
 10
2093.868996610835
 20
374.55627426287
 10
2093.904381533231
 20
374.5078240070137
 10
2093.937800657992
 20
374.457997486707
 10
2093.969200521645
 20
374.4068744137539
 10
2093.998530891107
 20
374.3545365741653
 10
2094.025744844045
 20
374.3010676973198
 10
2094.050798843937
 20
374.2465533220143
 10
2094.073652809731
 20
374.1910806596199
 10
2094.094270179954
 20
374.134738454563
 10
2094.112617971214
 20
374.0776168423528
 10
2094.128666830957
 20
374.0198072053835
 10
2094.142391084433
 20
373.9614020267419
 10
2094.153768775763
 20
373.9024947422552
 10
2094.162781703067
 20
373.8431795910121
 10
2094.169415447586
 20
373.7835514646014
 10
2094.173659396743
 20
373.7237057553052
 10
2094.175506761125
 20
373.6637382034922
 10
2094.17559418078
 20
373.6475440279046
  0
LWPOLYLINE
  5
47C
330
71
100
AcDbEntity
  8
0
100
AcDbPolyline
 90
       41
 70
   128
 43
0.0
 10
2094.17559418078
 20
369.7475440279038
 10
2094.17559418078
 20
369.9035024312319
 10
2094.17559418078
 20
370.0592113343837
 10
2094.17559418078
 20
370.2144216363307
 10
2094.17559418078
 20
370.3688850336996
 10
2094.17559418078
 20
370.5223544180047
 10
2094.17559418078
 20
370.6745842709698
 10
2094.17559418078
 20
370.8253310573041
 10
2094.17559418078
 20
370.974353614307
 10
2094.17559418078
 20
371.121413537677
 10
2094.17559418078
 20
371.266275562908
 10
2094.17559418078
 20
371.4087079416615
 10
2094.17559418078
 20
371.5484828125162
 10
2094.17559418078
 20
371.685376565495
 10
2094.17559418078
 20
371.8191701997958
 10
2094.17559418078
 20
371.949649674145
 10
2094.17559418078
 20
372.0766062492178
 10
2094.17559418078
 20
372.1998368215766
 10
2094.17559418078
 20
372.3191442485933
 10
2094.17559418078
 20
372.4343376638358
 10
2094.17559418078
 20
372.5452327824128
 10
2094.17559418078
 20
372.651652195791
 10
2094.17559418078
 20
372.7534256556105
 10
2094.17559418078
 20
372.8503903460465
 10
2094.17559418078
 20
372.9423911442785
 10
2094.17559418078
 20
373.0292808686554
 10
2094.17559418078
 20
373.1109205141538
 10
2094.17559418078
 20
373.187179474756
 10
2094.17559418078
 20
373.2579357523931
 10
2094.17559418078
 20
373.3230761521147
 10
2094.17559418078
 20
373.3824964631769
 10
2094.17559418078
 20
373.4361016257579
 10
2094.17559418078
 20
373.4838058830328
 10
2094.17559418078
 20
373.525532918366
 10
2094.17559418078
 20
373.5612159774025
 10
2094.17559418078
 20
373.5907979748599
 10
2094.17559418078
 20
373.6142315858525
 10
2094.17559418078
 20
373.6314793216017
 10
2094.17559418078
 20
373.6425135894096
 10
2094.17559418078
 20
373.6473167368016
 10
2094.17559418078
 20
373.6475440279046
  0
LWPOLYLINE
  5
47D
330
71
100
AcDbEntity
  8
0
100
AcDbPolyline
 90
       41
 70
   128
 43
0.0
 10
2094.17559418078
 20
373.6475440279046
 10
2094.17559418078
 20
373.6444244438826
 10
2094.17559418078
 20
373.6350706824851
 10
2094.17559418078
 20
373.6194977077349
 10
2094.17559418078
 20
373.5977304330697
 10
2094.17559418078
 20
373.5698036814856
 10
2094.17559418078
 20
373.5357621298277
 10
2094.17559418078
 20
373.4956602373167
 10
2094.17559418078
 20
373.4495621584263
 10
2094.17559418078
 20
373.3975416402487
 10
2094.17559418078
 20
373.339681904516
 10
2094.17559418078
 20
373.2760755144627
 10
2094.17559418078
 20
373.2068242267438
 10
2094.17559418078
 20
373.1320388286475
 10
2094.17559418078
 20
373.0518389608568
 10
2094.17559418078
 20
372.9663529260523
 10
2094.17559418078
 20
372.8757174836534
 10
2094.17559418078
 20
372.7800776310332
 10
2094.17559418078
 20
372.679586371554
 10
2094.17559418078
 20
372.5744044697941
 10
2094.17559418078
 20
372.4647001943584
 10
2094.17559418078
 20
372.3506490486856
 10
2094.17559418078
 20
372.2324334902789
 10
2094.17559418078
 20
372.1102426388139
 10
2094.17559418078
 20
371.9842719735869
 10
2094.17559418078
 20
371.8547230207901
 10
2094.17559418078
 20
371.7218030311121
 10
2094.17559418078
 20
371.5857246481818
 10
2094.17559418078
 20
371.4467055683833
 10
2094.17559418078
 20
371.3049681925887
 10
2094.17559418078
 20
371.1607392703631
 10
2094.17559418078
 20
371.0142495372153
 10
2094.17559418078
 20
370.8657333454687
 10
2094.17559418078
 20
370.7154282893482
 10
2094.17559418078
 20
370.5635748248805
 10
2094.17559418078
 20
370.4104158852148
 10
2094.17559418078
 20
370.2561964919827
 10
2094.17559418078
 20
370.1011633633147
 10
2094.17559418078
 20
369.9455645191448
 10
2094.17559418078
 20
369.789648884431
 10
2094.17559418078
 20
369.7475440279038
  0
LWPOLYLINE
  5
47E
330
71
100
AcDbEntity
  8
0
100
AcDbPolyline
 90
        4
 70
   128
 43
0.0
 10
2078.67559418078
 20
364.0975440279041
 10
2078.673594447432
 20
363.9975706924484
 10
2078.667598446537
 20
363.897757292992
 10
2078.665835048979
 20
363.8801821365591
  0
LWPOLYLINE
  5
47F
330
71
100
AcDbEntity
  8
0
100
AcDbPolyline
 90
        4
 70
   128
 43
0.0
 10
2078.665782125899
 20
363.8796546710348
 10
2078.657615770415
 20
363.7982635096928
 10
2078.643662389219
 20
363.6992485113793
 10
2078.641675358376
 20
363.6883289313046
  0
LWPOLYLINE
  5
480
330
71
100
AcDbEntity
  8
0
100
AcDbPolyline
 90
       69
 70
   128
 43
0.0
 10
2078.637143344008
 20
363.6634235837367
 10
2078.625760625383
 20
363.6008707009273
 10
2078.60393911791
 20
363.5032874618472
 10
2078.578232776557
 20
363.4066549065047
 10
2078.548682725986
 20
363.3111276263747
 10
2078.515336239975
 20
363.2168584447273
 10
2078.478246665787
 20
363.1239981721434
 10
2078.43747333883
 20
363.03269536525
 10
2078.393081487728
 20
362.9430960890613
 10
2078.345142129974
 20
362.8553436833056
 10
2078.293731958313
 20
362.7695785331129
 10
2078.238933218055
 20
362.6859378444273
 10
2078.180833575491
 20
362.6045554245091
 10
2078.119525977657
 20
362.5255614678688
 10
2078.055108503632
 20
362.4490823479863
 10
2077.987684207633
 20
362.3752404151387
 10
2077.917360954148
 20
362.3041538006662
 10
2077.844251245384
 20
362.2359362279878
 10
2077.768472041276
 20
362.1706968306678
 10
2077.690144572389
 20
362.1085399778241
 10
2077.609394145961
 20
362.0495651071626
 10
2077.526349945451
 20
361.9938665658953
 10
2077.441144823862
 20
361.9415334598066
 10
2077.353915091214
 20
361.8926495107027
 10
2077.264800296472
 20
361.8472929224739
 10
2077.173943004296
 20
361.8055362559857
 10
2077.081488566972
 20
361.767446312997
 10
2076.987584891877
 20
361.7330840292912
 10
2076.89238220486
 20
361.7025043771919
 10
2076.796032809911
 20
361.6757562776194
 10
2076.698690845509
 20
361.6528825218267
 10
2076.600512038031
 20
361.6339197029439
 10
2076.501653452625
 20
361.6188981574357
 10
2076.402273241941
 20
361.6078419165709
 10
2076.302530393114
 20
361.600768667976
 10
2076.202584473426
 20
361.59768972734
 10
2076.102595375027
 20
361.5986100203113
 10
2076.002723059145
 20
361.603528074617
 10
2075.90312730018
 20
361.6124360224199
 10
2075.803967430102
 20
361.6253196129031
 10
2075.705402083547
 20
361.642158235071
 10
2075.607588944047
 20
361.6629249507196
 10
2075.510684491758
 20
361.6875865375339
 10
2075.41484375313
 20
361.716103542236
 10
2075.320220052903
 20
361.7484303437018
 10
2075.226964768809
 20
361.7845152259446
 10
2075.135227089413
 20
361.8243004608509
 10
2075.045153775428
 20
361.8677224005316
 10
2074.956888924944
 20
361.9147115791462
 10
2074.870573742893
 20
361.9651928240328
 10
2074.786346315153
 20
362.0190853759684
 10
2074.704341387642
 20
362.0763030183659
 10
2074.624690150749
 20
362.1367542152042
 10
2074.547520029461
 20
362.2003422574626
 10
2074.472954479512
 20
362.2669654178393
 10
2074.401112789875
 20
362.3365171134896
 10
2074.332109891927
 20
362.4088860765371
 10
2074.266056175586
 20
362.4839565320792
 10
2074.203057312706
 20
362.5616083834008
 10
2074.143214088031
 20
362.6417174041048
 10
2074.086622237951
 20
362.7241554368471
 10
2074.033372297357
 20
362.8087905983614
 10
2073.983549454794
 20
362.8954874904434
 10
2073.937233416181
 20
362.9841074165604
 10
2073.8944982773
 20
363.074508603735
 10
2073.855412405257
 20
363.1665464293523
 10
2073.820038329109
 20
363.2600736525253
 10
2073.788432639831
 20
363.354940649648
 10
2073.760645899785
 20
363.4509956537622
  0
LWPOLYLINE
  5
481
330
71
100
AcDbEntity
  8
0
100
AcDbPolyline
 90
        4
 70
   128
 43
0.0
 10
2073.757842431315
 20
363.4623731176453
 10
2073.736722561827
 20
363.5480849973524
 10
2073.716700898195
 20
363.6460533581794
 10
2073.713869308006
 20
363.6634235837367
  0
LWPOLYLINE
  5
482
330
71
100
AcDbEntity
  8
0
100
AcDbPolyline
 90
        6
 70
   128
 43
0.0
 10
2073.712292046591
 20
363.6730992022795
 10
2073.700612939279
 20
363.7447440077654
 10
2073.688484422381
 20
363.8439990621234
 10
2073.680334750543
 20
363.9436597343404
 10
2073.676176961498
 20
364.0435665885997
 10
2073.67559418078
 20
364.0975440279041
  0
LWPOLYLINE
  5
483
330
71
100
AcDbEntity
  8
0
100
AcDbPolyline
 90
        6
 70
   128
 43
0.0
 10
2073.67559418078
 20
365.238558416559
 10
2073.67559418078
 20
365.1191116670123
 10
2073.67559418078
 20
364.9932329637487
 10
2073.67559418078
 20
364.8749601439886
 10
2073.67559418078
 20
364.7644824190138
 10
2073.67559418078
 20
364.7199805751971
  0
LWPOLYLINE
  5
484
330
71
100
AcDbEntity
  8
0
100
AcDbPolyline
 90
        6
 70
   128
 43
0.0
 10
2073.67559418078
 20
364.5425396124774
 10
2073.67559418078
 20
364.4815231921993
 10
2073.67559418078
 20
364.4038644310246
 10
2073.67559418078
 20
364.3347544172804
 10
2073.67559418078
 20
364.2743037122467
 10
2073.67559418078
 20
364.2363841638356
  0
LWPOLYLINE
  5
485
330
71
100
AcDbEntity
  8
0
100
AcDbPolyline
 90
        6
 70
   128
 43
0.0
 10
2073.67559418078
 20
364.2363841638356
 10
2073.67559418078
 20
364.2594844700008
 10
2073.67559418078
 20
364.3175808014587
 10
2073.67559418078
 20
364.3843639157486
 10
2073.67559418078
 20
364.4597269741339
 10
2073.67559418078
 20
364.5425396124774
  0
LWPOLYLINE
  5
486
330
71
100
AcDbEntity
  8
0
100
AcDbPolyline
 90
        7
 70
   128
 43
0.0
 10
2073.67559418078
 20
364.7199805751971
 10
2073.67559418078
 20
364.7360227142109
 10
2073.67559418078
 20
364.8443656627348
 10
2073.67559418078
 20
364.9605526506875
 10
2073.67559418078
 20
365.0843978036734
 10
2073.67559418078
 20
365.2157029958666
 10
2073.67559418078
 20
365.238558416559
  0
LWPOLYLINE
  5
487
330
71
100
AcDbEntity
  8
0
100
AcDbPolyline
 90
        5
 70
   128
 43
0.0
 10
2078.67559418078
 20
365.075505968544
 10
2078.67559418078
 20
364.9932329637487
 10
2078.67559418078
 20
364.8749601439886
 10
2078.67559418078
 20
364.7644824190138
 10
2078.67559418078
 20
364.7533339295681
  0
LINE
  5
488
330
71
100
AcDbEntity
  8
0
100
AcDbLine
 10
2078.67559418078
 20
364.4815231921993
 30
0.0
 11
2078.67559418078
 21
364.4804609090886
 31
0.0
  0
LWPOLYLINE
  5
489
330
71
100
AcDbEntity
  8
0
100
AcDbPolyline
 90
        8
 70
   128
 43
0.0
 10
2078.67559418078
 20
364.3478442841106
 10
2078.67559418078
 20
364.3347544172804
 10
2078.67559418078
 20
364.2743037122467
 10
2078.67559418078
 20
364.2226090241554
 10
2078.67559418078
 20
364.17975305348
 10
2078.67559418078
 20
364.1458043606318
 10
2078.67559418078
 20
364.1208172562774
 10
2078.67559418078
 20
364.1177606261785
  0
LWPOLYLINE
  5
48A
330
71
100
AcDbEntity
  8
0
100
AcDbPolyline
 90
        7
 70
   128
 43
0.0
 10
2078.67559418078
 20
364.1177606261785
 10
2078.67559418078
 20
364.1381752353407
 10
2078.67559418078
 20
364.1697098768426
 10
2078.67559418078
 20
364.2101678631117
 10
2078.67559418078
 20
364.2594844700008
 10
2078.67559418078
 20
364.3175808014587
 10
2078.67559418078
 20
364.3478442841106
  0
LWPOLYLINE
  5
48B
330
71
100
AcDbEntity
  8
0
100
AcDbPolyline
 90
        4
 70
   128
 43
0.0
 10
2078.67559418078
 20
364.7533339295681
 10
2078.67559418078
 20
364.8443656627348
 10
2078.67559418078
 20
364.9605526506875
 10
2078.67559418078
 20
365.075505968544
  0
LWPOLYLINE
  5
48C
330
71
100
AcDbEntity
  8
0
100
AcDbPolyline
 90
        5
 70
   128
 43
0.0
 10
2078.67559418078
 20
365.6105161094424
 10
2078.67559418078
 20
365.6522205672259
 10
2078.67559418078
 20
365.8111511201001
 10
2078.67559418078
 20
365.9763790619081
 10
2078.67559418078
 20
366.0428558571749
  0
LWPOLYLINE
  5
48D
330
71
100
AcDbEntity
  8
0
100
AcDbPolyline
 90
        7
 70
   128
 43
0.0
 10
2078.67559418078
 20
366.4678426229794
 10
2078.67559418078
 20
366.5071561066008
 10
2078.67559418078
 20
366.6948359997548
 10
2078.67559418078
 20
366.8873995745443
 10
2078.67559418078
 20
367.0845387703274
 10
2078.67559418078
 20
367.2859382064453
 10
2078.67559418078
 20
367.3387726261578
  0
LWPOLYLINE
  5
48E
330
71
100
AcDbEntity
  8
0
100
AcDbPolyline
 90
       41
 70
   128
 43
0.0
 10
2078.67559418078
 20
364.0975440279041
 10
2078.67559418078
 20
364.1007436012603
 10
2078.67559418078
 20
364.1103372026937
 10
2078.67559418078
 20
364.1263094844886
 10
2078.67559418078
 20
364.1486348944017
 10
2078.67559418078
 20
364.177277716539
 10
2078.67559418078
 20
364.2121921284961
 10
2078.67559418078
 20
364.2533222746609
 10
2078.67559418078
 20
364.3006023555742
 10
2078.67559418078
 20
364.3539567331924
 10
2078.67559418078
 20
364.4133000518924
 10
2078.67559418078
 20
364.4785373750242
 10
2078.67559418078
 20
364.549564336787
 10
2078.67559418078
 20
364.6262673091933
 10
2078.67559418078
 20
364.7085235838503
 10
2078.67559418078
 20
364.7962015682653
 10
2078.67559418078
 20
364.8891609963669
 10
2078.67559418078
 20
364.9872531529004
 10
2078.67559418078
 20
365.0903211113405
 10
2078.67559418078
 20
365.1981999849403
 10
2078.67559418078
 20
365.3107171905153
 10
2078.67559418078
 20
365.4276927245388
 10
2078.67559418078
 20
365.5489394511097
 10
2078.67559418078
 20
365.6742634013302
 10
2078.67559418078
 20
365.8034640836143
 10
2078.67559418078
 20
365.9363348044315
 10
2078.67559418078
 20
366.0726629989729
 10
2078.67559418078
 20
366.212230571209
 10
2078.67559418078
 20
366.3548142427972
 10
2078.67559418078
 20
366.5001859102789
 10
2078.67559418078
 20
366.6481130099974
 10
2078.67559418078
 20
366.798358890149
 10
2078.67559418078
 20
366.9506831893763
 10
2078.67559418078
 20
367.1048422212946
 10
2078.67559418078
 20
367.2605893643382
 10
2078.67559418078
 20
367.4176754563031
 10
2078.67559418078
 20
367.5758491929515
 10
2078.67559418078
 20
367.7348575300468
 10
2078.67559418078
 20
367.8944460881697
 10
2078.67559418078
 20
368.054359559671
 10
2078.67559418078
 20
368.097544027904
  0
LWPOLYLINE
  5
48F
330
71
100
AcDbEntity
  8
0
100
AcDbPolyline
 90
       29
 70
   128
 43
0.0
 10
2073.67559418078
 20
366.1225440279039
 10
2073.67559418078
 20
366.1100234765291
 10
2073.67559418078
 20
365.9727992362205
 10
2073.67559418078
 20
365.8389741343238
 10
2073.67559418078
 20
365.7087622624545
 10
2073.67559418078
 20
365.5823719318302
 10
2073.67559418078
 20
365.4600053400181
 10
2073.67559418078
 20
365.3418582474618
 10
2073.67559418078
 20
365.2281196643059
 10
2073.67559418078
 20
365.1189715480206
 10
2073.67559418078
 20
365.0145885123081
 10
2073.67559418078
 20
364.9151375477587
 10
2073.67559418078
 20
364.8207777547
 10
2073.67559418078
 20
364.7316600886725
 10
2073.67559418078
 20
364.6479271189307
 10
2073.67559418078
 20
364.5697128003641
 10
2073.67559418078
 20
364.497142259198
 10
2073.67559418078
 20
364.4303315928171
 10
2073.67559418078
 20
364.3693876840351
 10
2073.67559418078
 20
364.3144080301058
 10
2073.67559418078
 20
364.2654805867471
 10
2073.67559418078
 20
364.222683627431
 10
2073.67559418078
 20
364.1860856181629
 10
2073.67559418078
 20
364.1557451079501
 10
2073.67559418078
 20
364.1317106351374
 10
2073.67559418078
 20
364.1140206497536
 10
2073.67559418078
 20
364.1027034520017
 10
2073.67559418078
 20
364.0977771469842
 10
2073.67559418078
 20
364.0975440279041
  0
LINE
  5
490
330
71
100
AcDbEntity
  8
0
100
AcDbLine
 10
2078.67559418078
 20
368.097544027904
 30
0.0
 11
2078.67559418078
 21
398.4975440279039
 31
0.0
  0
LINE
  5
491
330
71
100
AcDbEntity
  8
0
100
AcDbLine
 10
2073.67559418078
 20
398.4975440279039
 30
0.0
 11
2073.67559418078
 21
370.122544027904
 31
0.0
  0
LWPOLYLINE
  5
496
330
71
100
AcDbEntity
  8
0
100
AcDbPolyline
 90
       41
 70
   128
 43
0.0
 10
2078.67559418078
 20
402.4975440279039
 10
2078.67559418078
 20
402.4943444545478
 10
2078.67559418078
 20
402.4847508531141
 10
2078.67559418078
 20
402.4687785713194
 10
2078.67559418078
 20
402.4464531614063
 10
2078.67559418078
 20
402.4178103392688
 10
2078.67559418078
 20
402.3828959273117
 10
2078.67559418078
 20
402.3417657811468
 10
2078.67559418078
 20
402.2944857002333
 10
2078.67559418078
 20
402.2411313226155
 10
2078.67559418078
 20
402.1817880039153
 10
2078.67559418078
 20
402.1165506807837
 10
2078.67559418078
 20
402.0455237190208
 10
2078.67559418078
 20
401.9688207466144
 10
2078.67559418078
 20
401.8865644719574
 10
2078.67559418078
 20
401.7988864875423
 10
2078.67559418078
 20
401.7059270594408
 10
2078.67559418078
 20
401.6078349029075
 10
2078.67559418078
 20
401.5047669444673
 10
2078.67559418078
 20
401.3968880708675
 10
2078.67559418078
 20
401.2843708652924
 10
2078.67559418078
 20
401.1673953312691
 10
2078.67559418078
 20
401.046148604698
 10
2078.67559418078
 20
400.9208246544777
 10
2078.67559418078
 20
400.7916239721935
 10
2078.67559418078
 20
400.6587532513763
 10
2078.67559418078
 20
400.5224250568349
 10
2078.67559418078
 20
400.3828574845988
 10
2078.67559418078
 20
400.2402738130108
 10
2078.67559418078
 20
400.0949021455288
 10
2078.67559418078
 20
399.9469750458104
 10
2078.67559418078
 20
399.7967291656588
 10
2078.67559418078
 20
399.6444048664317
 10
2078.67559418078
 20
399.4902458345134
 10
2078.67559418078
 20
399.3344986914697
 10
2078.67559418078
 20
399.1774125995047
 10
2078.67559418078
 20
399.0192388628565
 10
2078.67559418078
 20
398.8602305257612
 10
2078.67559418078
 20
398.7006419676383
 10
2078.67559418078
 20
398.5407284961368
 10
2078.67559418078
 20
398.4975440279039
  0
LWPOLYLINE
  5
497
330
71
100
AcDbEntity
  8
0
100
AcDbPolyline
 90
       11
 70
   128
 43
0.0
 10
2073.67559418078
 20
398.4975440279039
 10
2073.67559418078
 20
398.6575013646503
 10
2073.67559418078
 20
398.8172028037806
 10
2073.67559418078
 20
398.9763928570596
 10
2073.67559418078
 20
399.1348168543609
 10
2073.67559418078
 20
399.2922213510841
 10
2073.67559418078
 20
399.4483545336125
 10
2073.67559418078
 20
399.6029666221602
 10
2073.67559418078
 20
399.7558102703683
 10
2073.67559418078
 20
399.9066409610042
 10
2073.67559418078
 20
399.9987518677007
  0
LINE
  5
498
330
71
100
AcDbEntity
  8
0
100
AcDbLine
 10
2067.175594180762
 20
331.4975440279389
 30
0.0
 11
2067.175594180762
 21
473.4975440279388
 31
0.0
  0
LINE
  5
499
330
71
100
AcDbEntity
  8
0
100
AcDbLine
 10
2067.175594180762
 20
473.4975440279388
 30
0.0
 11
1923.425594180762
 21
473.4975440279388
 31
0.0
  0
LINE
  5
49A
330
71
100
AcDbEntity
  8
0
100
AcDbLine
 10
1923.425594180762
 20
473.4975440279388
 30
0.0
 11
1923.425594180762
 21
331.4975440279389
 31
0.0
  0
LINE
  5
49B
330
71
100
AcDbEntity
  8
0
100
AcDbLine
 10
1923.425594180762
 20
331.4975440279389
 30
0.0
 11
2067.175594180762
 21
331.4975440279389
 31
0.0
  0
ARC
  5
49C
330
71
100
AcDbEntity
  8
0
100
AcDbCircle
 10
1995.30059418078
 20
402.4975440279003
 30
0.0
 40
57.74999999999991
100
AcDbArc
 50
0.0
 51
180.0
  0
ARC
  5
49D
330
71
100
AcDbEntity
  8
0
100
AcDbCircle
 10
1995.30059418078
 20
402.4975440279003
 30
0.0
 40
57.74999999999991
100
AcDbArc
 50
180.0
 51
0.0
  0
ARC
  5
49E
330
71
100
AcDbEntity
  8
0
100
AcDbCircle
 10
1995.30059418078
 20
402.4975440279003
 30
0.0
 40
56.24999999999991
100
AcDbArc
 50
0.0
 51
180.0
  0
ARC
  5
49F
330
71
100
AcDbEntity
  8
0
100
AcDbCircle
 10
1995.30059418078
 20
402.4975440279003
 30
0.0
 40
56.24999999999991
100
AcDbArc
 50
180.0
 51
0.0
  0
ARC
  5
4A0
330
71
100
AcDbEntity
  8
0
100
AcDbCircle
 10
1995.30059418078
 20
402.4975440279002
 30
0.0
 40
2.999999999999993
100
AcDbArc
 50
0.0
 51
180.0
  0
ARC
  5
4A1
330
71
100
AcDbEntity
  8
0
100
AcDbCircle
 10
1995.30059418078
 20
402.4975440279002
 30
0.0
 40
3.0
100
AcDbArc
 50
180.0
 51
0.0
  0
LINE
  5
4A2
330
71
100
AcDbEntity
  8
0
100
AcDbLine
 10
2067.42559418078
 20
416.1225440279036
 30
0.0
 11
2067.175594180783
 21
416.1225440279036
 31
0.0
  0
LINE
  5
4A3
330
71
100
AcDbEntity
  8
0
100
AcDbLine
 10
2067.175594180783
 20
413.1225440279036
 30
0.0
 11
2067.42559418078
 21
413.1225440279036
 31
0.0
  0
LINE
  5
4A4
330
71
100
AcDbEntity
  8
0
100
AcDbLine
 10
2067.42559418078
 20
340.7475440279037
 30
0.0
 11
2067.175594180783
 21
340.7475440279037
 31
0.0
  0
LINE
  5
4A5
330
71
100
AcDbEntity
  8
0
100
AcDbLine
 10
2067.175594180783
 20
338.7475440279037
 30
0.0
 11
2067.42559418078
 21
338.7475440279037
 31
0.0
  0
LINE
  5
4A6
330
71
100
AcDbEntity
  8
0
100
AcDbLine
 10
2067.42559418078
 20
463.7475440279038
 30
0.0
 11
2067.175594180783
 21
463.7475440279038
 31
0.0
  0
LINE
  5
4A7
330
71
100
AcDbEntity
  8
0
100
AcDbLine
 10
2067.175594180783
 20
462.2475440279038
 30
0.0
 11
2067.42559418078
 21
462.2475440279038
 31
0.0
  0
LINE
  5
4A8
330
71
100
AcDbEntity
  8
0
100
AcDbLine
 10
2067.42559418078
 20
416.1225440279036
 30
0.0
 11
2067.42559418078
 21
413.1225440279036
 31
0.0
  0
LINE
  5
4A9
330
71
100
AcDbEntity
  8
0
100
AcDbLine
 10
2067.42559418078
 20
340.7475440279037
 30
0.0
 11
2067.42559418078
 21
338.7475440279037
 31
0.0
  0
LINE
  5
4AA
330
71
100
AcDbEntity
  8
0
100
AcDbLine
 10
2067.42559418078
 20
463.7475440279035
 30
0.0
 11
2067.42559418078
 21
462.2475440279036
 31
0.0
  0
LINE
  5
4AB
330
71
100
AcDbEntity
  8
0
100
AcDbLine
 10
2076.17559418078
 20
370.122544027904
 30
0.0
 11
2067.175594180779
 21
370.122544027904
 31
0.0
  0
LINE
  5
4AC
330
71
100
AcDbEntity
  8
0
100
AcDbLine
 10
2067.175594180779
 20
366.1225440279039
 30
0.0
 11
2076.17559418078
 21
366.1225440279039
 31
0.0
  0
LINE
  5
4AD
330
71
100
AcDbEntity
  8
0
100
AcDbLine
 10
2076.17559418078
 20
438.8725440279038
 30
0.0
 11
2067.175594180779
 21
438.8725440279038
 31
0.0
  0
LINE
  5
4AE
330
71
100
AcDbEntity
  8
0
100
AcDbLine
 10
2067.175594180779
 20
434.8725440279038
 30
0.0
 11
2076.17559418078
 21
434.8725440279038
 31
0.0
  0
LINE
  5
4AF
330
71
100
AcDbEntity
  8
0
100
AcDbLine
 10
2076.17559418078
 20
370.1225440279038
 30
0.0
 11
2076.17559418078
 21
366.1225440279038
 31
0.0
  0
LINE
  5
4B0
330
71
100
AcDbEntity
  8
0
100
AcDbLine
 10
2076.17559418078
 20
438.8725440279038
 30
0.0
 11
2076.17559418078
 21
434.8725440279038
 31
0.0
  0
LINE
  5
4B1
330
71
100
AcDbEntity
  8
0
100
AcDbLine
 10
1638.650630891121
 20
202.7499999999972
 30
0.0
 11
1780.650630891121
 21
202.7499999999976
 31
0.0
  0
LINE
  5
4B2
330
71
100
AcDbEntity
  8
0
100
AcDbLine
 10
1780.650630891121
 20
161.9950353879072
 30
0.0
 11
1638.650630891121
 21
161.9950353879067
 31
0.0
  0
LINE
  5
4B3
330
71
100
AcDbEntity
  8
0
100
AcDbLine
 10
1638.650630891121
 20
161.9950353879067
 30
0.0
 11
1638.650630891121
 21
202.7499999999972
 31
0.0
  0
LINE
  5
4B4
330
71
100
AcDbEntity
  8
0
100
AcDbLine
 10
1780.650630891121
 20
161.9950353879072
 30
0.0
 11
1780.650630891121
 21
202.7499999999976
 31
0.0
  0
LWPOLYLINE
  5
4B5
330
71
100
AcDbEntity
  8
0
100
AcDbPolyline
 90
       41
 70
   128
 43
0.0
 10
1651.900630891159
 20
202.7500000000011
 10
1652.020598893719
 20
202.7523996800182
 10
1652.140374973067
 20
202.7595948810932
 10
1652.259767513026
 20
202.7715740924397
 10
1652.378585511002
 20
202.7883181498743
 10
1652.496638883544
 20
202.8098002664774
 10
1652.61373877044
 20
202.835986075445
 10
1652.729697836852
 20
202.8668336850688
 10
1652.844330573008
 20
202.9022937457536
 10
1652.957453590985
 20
202.9423095289673
 10
1653.068885918085
 20
202.9868170179925
 10
1653.178449286357
 20
203.0357450103413
 10
1653.285968417784
 20
203.0890152316632
 10
1653.39127130469
 20
203.1465424609681
 10
1653.494189484922
 20
203.2082346669609
 10
1653.594558311344
 20
203.2739931552721
 10
1653.692217215246
 20
203.3437127263483
 10
1653.787009963215
 20
203.4172818437482
 10
1653.878784907074
 20
203.4945828125783
 10
1653.967395226491
 20
203.5754919677784
 10
1654.052699163858
 20
203.6598798719596
 10
1654.134560251072
 20
203.7476115224771
 10
1654.212847527856
 20
203.8385465674055
 10
1654.287435751268
 20
203.9325395300707
 10
1654.358205596062
 20
204.0294400417836
 10
1654.425043845583
 20
204.1290930823967
 10
1654.487843572889
 20
204.2313392283026
 10
1654.546504311814
 20
204.3360149074798
 10
1654.600932217689
 20
204.442952661171
 10
1654.651040217474
 20
204.5519814117822
 10
1654.696748149061
 20
204.6629267365711
 10
1654.737982889508
 20
204.7756111466846
 10
1654.774678472027
 20
204.8898543711052
 10
1654.806776191514
 20
205.0054736450439
 10
1654.834224698465
 20
205.1222840023269
 10
1654.856980081125
 20
205.2400985713003
 10
1654.875005935734
 20
205.3587288737867
 10
1654.888273424772
 20
205.4779851266081
 10
1654.896761323086
 20
205.5976765452003
 10
1654.900456051849
 20
205.7176116488263
 10
1654.900630891159
 20
205.7500000000011
  0
LWPOLYLINE
  5
4B6
330
71
100
AcDbEntity
  8
0
100
AcDbPolyline
 90
       41
 70
   128
 43
0.0
 10
1764.400630891159
 20
205.7499999999997
 10
1764.403030571176
 20
205.6300319974396
 10
1764.410225772252
 20
205.5102559180921
 10
1764.422204983597
 20
205.3908633781328
 10
1764.438949041032
 20
205.2720453801567
 10
1764.460431157635
 20
205.1539920076141
 10
1764.486616966603
 20
205.0368921207181
 10
1764.517464576227
 20
204.9209330543072
 10
1764.552924636912
 20
204.8063003181513
 10
1764.592940420126
 20
204.6931773001743
 10
1764.637447909151
 20
204.5817449730736
 10
1764.686375901499
 20
204.4721816048016
 10
1764.739646122821
 20
204.3646624733751
 10
1764.797173352127
 20
204.2593595864684
 10
1764.858865558119
 20
204.1564414062368
 10
1764.92462404643
 20
204.0560725798144
 10
1764.994343617506
 20
203.9584136759123
 10
1765.067912734906
 20
203.8636209279441
 10
1765.145213703737
 20
203.771845984085
 10
1765.226122858936
 20
203.6832356646677
 10
1765.310510763118
 20
203.5979317273011
 10
1765.398242413635
 20
203.5160706400869
 10
1765.489177458563
 20
203.4377833633027
 10
1765.583170421229
 20
203.3631951398904
 10
1765.680070932942
 20
203.2924252950964
 10
1765.779723973555
 20
203.2255870455758
 10
1765.881970119461
 20
203.1627873182696
 10
1765.986645798638
 20
203.1041265793447
 10
1766.093583552329
 20
203.0496986734699
 10
1766.20261230294
 20
202.9995906736842
 10
1766.313557627729
 20
202.9538827420978
 10
1766.426242037843
 20
202.9126480016508
 10
1766.540485262263
 20
202.8759524191319
 10
1766.656104536202
 20
202.8438546996447
 10
1766.772914893485
 20
202.8164061926934
 10
1766.890729462459
 20
202.7936508100341
 10
1767.009359764945
 20
202.7756249554244
 10
1767.128616017766
 20
202.7623574663865
 10
1767.248307436358
 20
202.7538695680728
 10
1767.368242539984
 20
202.7501748393097
 10
1767.400630891159
 20
202.7499999999994
  0
LINE
  5
4B7
330
71
100
AcDbEntity
  8
0
100
AcDbLine
 10
1654.900630891159
 20
215.375000000001
 30
0.0
 11
1654.900630891159
 21
205.7500000000011
 31
0.0
  0
LINE
  5
4B8
330
71
100
AcDbEntity
  8
0
100
AcDbLine
 10
1764.400630891159
 20
205.7499999999994
 30
0.0
 11
1764.400630891159
 21
215.3749999999993
 31
0.0
  0
LINE
  5
4B9
330
71
100
AcDbEntity
  8
0
100
AcDbLine
 10
1653.400630891159
 20
215.625000000001
 30
0.0
 11
1653.400630891159
 21
215.375000000001
 31
0.0
  0
LINE
  5
4BA
330
71
100
AcDbEntity
  8
0
100
AcDbLine
 10
1765.90063089116
 20
215.3749999999993
 30
0.0
 11
1765.90063089116
 21
215.6249999999993
 31
0.0
  0
LINE
  5
4BB
330
71
100
AcDbEntity
  8
0
100
AcDbLine
 10
1706.650630891159
 20
224.1250000000002
 30
0.0
 11
1653.400630891159
 21
215.625000000001
 31
0.0
  0
LINE
  5
4BC
330
71
100
AcDbEntity
  8
0
100
AcDbLine
 10
1765.90063089116
 20
215.6249999999993
 30
0.0
 11
1712.650630891159
 21
224.1250000000002
 31
0.0
  0
LINE
  5
4BD
330
71
100
AcDbEntity
  8
0
100
AcDbLine
 10
1709.65063089116
 20
215.3749999999999
 30
0.0
 11
1653.40063089116
 21
215.3750000000006
 31
0.0
  0
LINE
  5
4BE
330
71
100
AcDbEntity
  8
0
100
AcDbLine
 10
1765.90063089116
 20
215.3749999999991
 30
0.0
 11
1709.65063089116
 21
215.3749999999999
 31
0.0
  0
LINE
  5
4BF
330
71
100
AcDbEntity
  8
0
100
AcDbLine
 10
1709.65063089116
 20
215.6249999999998
 30
0.0
 11
1653.40063089116
 21
215.6250000000006
 31
0.0
  0
LINE
  5
4C0
330
71
100
AcDbEntity
  8
0
100
AcDbLine
 10
1765.90063089116
 20
215.6249999999991
 30
0.0
 11
1709.65063089116
 21
215.6249999999998
 31
0.0
  0
LINE
  5
4C1
330
71
100
AcDbEntity
  8
0
100
AcDbLine
 10
1709.65063089116
 20
224.1249999999999
 30
0.0
 11
1706.65063089116
 21
224.125
 31
0.0
  0
LINE
  5
4C2
330
71
100
AcDbEntity
  8
0
100
AcDbLine
 10
1712.650630891159
 20
224.1249999999999
 30
0.0
 11
1709.65063089116
 21
224.1249999999999
 31
0.0
  0
LINE
  5
4C3
330
71
100
AcDbEntity
  8
0
100
AcDbLine
 10
1638.650630891156
 20
161.75
 30
0.0
 11
1780.650630891156
 21
161.75
 31
0.0
  0
LINE
  5
4C4
330
71
100
AcDbEntity
  8
0
100
AcDbLine
 10
1780.650630891156
 20
58.37499999999998
 30
0.0
 11
1638.650630891156
 21
58.37499999999998
 31
0.0
  0
LINE
  5
4C5
330
71
100
AcDbEntity
  8
0
100
AcDbLine
 10
1638.650630891156
 20
58.37499999999998
 30
0.0
 11
1638.650630891156
 21
161.75
 31
0.0
  0
LINE
  5
4C6
330
71
100
AcDbEntity
  8
0
100
AcDbLine
 10
1780.650630891156
 20
58.37499999999998
 30
0.0
 11
1780.650630891156
 21
161.75
 31
0.0
  0
LINE
  5
4CA
330
71
100
AcDbEntity
  8
0
100
AcDbLine
 10
1638.650630891155
 20
58.375
 30
0.0
 11
1780.650630891156
 21
58.375
 31
0.0
  0
LINE
  5
4CB
330
71
100
AcDbEntity
  8
0
100
AcDbLine
 10
1780.650630891156
 20
0.0
 30
0.0
 11
1638.650630891155
 21
0.0
 31
0.0
  0
LINE
  5
4CC
330
71
100
AcDbEntity
  8
0
100
AcDbLine
 10
1638.650630891155
 20
52.5000000000001
 30
0.0
 11
1638.650630891155
 21
58.375
 31
0.0
  0
LINE
  5
4CD
102
{ACAD_REACTORS
330
A12
102
}
330
71
100
AcDbEntity
  8
0
100
AcDbLine
 10
1638.650630891155
 20
52.5000000000001
 30
0.0
 11
1780.650630891156
 21
52.5000000000001
 31
0.0
  0
LINE
  5
4CE
102
{ACAD_REACTORS
330
A12
102
}
330
71
100
AcDbEntity
  8
0
100
AcDbLine
 10
1780.650630891156
 20
16.50000000000011
 30
0.0
 11
1638.650630891155
 21
16.50000000000011
 31
0.0
  0
LINE
  5
4CF
330
71
100
AcDbEntity
  8
0
100
AcDbLine
 10
1638.650630891155
 20
0.0
 30
0.0
 11
1638.650630891155
 21
16.50000000000011
 31
0.0
  0
LINE
  5
4D0
330
71
100
AcDbEntity
  8
0
100
AcDbLine
 10
1780.650630891156
 20
52.5000000000001
 30
0.0
 11
1780.650630891156
 21
58.375
 31
0.0
  0
LINE
  5
4D1
330
71
100
AcDbEntity
  8
0
100
AcDbLine
 10
1780.650630891156
 20
0.0
 30
0.0
 11
1780.650630891156
 21
16.50000000000011
 31
0.0
  0
LINE
  5
4D2
330
71
100
AcDbEntity
  8
0
100
AcDbLine
 10
1779.650630891156
 20
52.5000000000001
 30
0.0
 11
1779.650630891156
 21
16.50000000000009
 31
0.0
  0
LINE
  5
4D3
330
71
100
AcDbEntity
  8
0
100
AcDbLine
 10
1778.275630891156
 20
52.5000000000001
 30
0.0
 11
1778.275630891156
 21
16.5000000000001
 31
0.0
  0
LINE
  5
4D4
102
{ACAD_REACTORS
330
A12
102
}
330
71
100
AcDbEntity
  8
0
100
AcDbLine
 10
1774.900630891156
 20
52.5000000000001
 30
0.0
 11
1774.900630891156
 21
16.5000000000001
 31
0.0
  0
LINE
  5
4D5
102
{ACAD_REACTORS
330
A12
102
}
330
71
100
AcDbEntity
  8
0
100
AcDbLine
 10
1711.400630891156
 20
52.5000000000001
 30
0.0
 11
1711.400630891156
 21
16.5000000000001
 31
0.0
  0
LINE
  5
4D6
102
{ACAD_REACTORS
330
A12
102
}
330
71
100
AcDbEntity
  8
0
100
AcDbLine
 10
1707.900630891156
 20
16.5000000000001
 30
0.0
 11
1707.900630891156
 21
52.5000000000001
 31
0.0
  0
LINE
  5
4D7
102
{ACAD_REACTORS
330
A12
102
}
330
71
100
AcDbEntity
  8
0
100
AcDbLine
 10
1644.400630891156
 20
52.5000000000001
 30
0.0
 11
1644.400630891156
 21
16.5000000000001
 31
0.0
  0
LINE
  5
4D8
330
71
100
AcDbEntity
  8
0
100
AcDbLine
 10
1641.025630891155
 20
52.5000000000001
 30
0.0
 11
1641.025630891155
 21
16.5000000000001
 31
0.0
  0
LINE
  5
4D9
330
71
100
AcDbEntity
  8
0
100
AcDbLine
 10
1639.650630891156
 20
52.5000000000001
 30
0.0
 11
1639.650630891156
 21
16.50000000000009
 31
0.0
  0
LINE
  5
4DA
330
71
100
AcDbEntity
  8
0
100
AcDbLine
 10
2072.175594180781
 20
154.6250000000032
 30
0.0
 11
2067.17559418078
 21
154.6250000000032
 31
0.0
  0
LINE
  5
4DB
330
71
100
AcDbEntity
  8
0
100
AcDbLine
 10
2067.17559418078
 20
149.6250000000034
 30
0.0
 11
2072.175594180781
 21
149.6250000000034
 31
0.0
  0
LWPOLYLINE
  5
4DC
330
71
100
AcDbEntity
  8
0
100
AcDbPolyline
 90
       41
 70
   128
 43
0.0
 10
2078.675594180781
 20
148.125000000003
 10
2078.670394874079
 20
148.384930672216
 10
2078.654805271748
 20
148.6444455108026
 10
2078.628850313831
 20
148.9031293473809
 10
2078.592571522722
 20
149.1605683429956
 10
2078.546026936749
 20
149.416350650171
 10
2078.489291017319
 20
149.6700670717795
 10
2078.422454529802
 20
149.9213117156699
 10
2078.345624398317
 20
150.1696826440079
 10
2078.258923534688
 20
150.4147825162912
 10
2078.162490641799
 20
150.6562192250094
 10
2078.05647999171
 20
150.8936065229321
 10
2077.941061178846
 20
151.1265646410228
 10
2077.816418848686
 20
151.3547208959876
 10
2077.682752402368
 20
151.577710286489
 10
2077.540275677693
 20
151.7951760770709
 10
2077.389216607029
 20
152.006770368859
 10
2077.229816852662
 20
152.2121546561234
 10
2077.062331420196
 20
152.4110003678179
 10
2076.887028250597
 20
152.6029893932219
 10
2076.704187791537
 20
152.7878145908502
 10
2076.514102548749
 20
152.9651802798139
 10
2076.317076618071
 20
153.1348027128466
 10
2076.113425198963
 20
153.2964105302398
 10
2075.903474090252
 20
153.4497451939599
 10
2075.687559168924
 20
153.5945614012546
 10
2075.466025852794
 20
153.7306274770851
 10
2075.23922854791
 20
153.8577257447554
 10
2075.007530081579
 20
153.9756528741507
 10
2074.771301121921
 20
154.0842202070199
 10
2074.530919584879
 20
154.1832540587904
 10
2074.286770029633
 20
154.2725959964254
 10
2074.039243043388
 20
154.3521030918835
 10
2073.788734616521
 20
154.4216481507721
 10
2073.535645509075
 20
154.481119915833
 10
2073.280380609632
 20
154.5304232449286
 10
2073.023348287578
 20
154.5694792632493
 10
2072.764959739799
 20
154.5982254894981
 10
2072.505628332848
 20
154.6166159358448
 10
2072.245768941659
 20
154.6246211814982
 10
2072.175594180781
 20
154.6250000000036
  0
LWPOLYLINE
  5
4DD
330
71
100
AcDbEntity
  8
0
100
AcDbPolyline
 90
       41
 70
   128
 43
0.0
 10
2072.175594180781
 20
149.6250000000034
 10
2072.23557818206
 20
149.6238001599948
 10
2072.295466221734
 20
149.6202025594572
 10
2072.355162491714
 20
149.6142129537842
 10
2072.414571490702
 20
149.6058409250669
 10
2072.473598176973
 20
149.5950998667653
 10
2072.532148120421
 20
149.5820069622815
 10
2072.590127653627
 20
149.5665831574696
 10
2072.647444021705
 20
149.5488531271269
 10
2072.704005530693
 20
149.5288452355202
 10
2072.759721694243
 20
149.5065914910076
 10
2072.81450337838
 20
149.4821274948335
 10
2072.868262944093
 20
149.4554923841723
 10
2072.920914387546
 20
149.4267287695199
 10
2072.972373477663
 20
149.3958826665235
 10
2073.022557890873
 20
149.3630034223678
 10
2073.071387342825
 20
149.3281436368299
 10
2073.118783716809
 20
149.2913590781297
 10
2073.164671188738
 20
149.2527085937145
 10
2073.208976348446
 20
149.2122540161145
 10
2073.25162831713
 20
149.1700600640239
 10
2073.292558860737
 20
149.1261942387652
 10
2073.33170249913
 20
149.0807267163011
 10
2073.368996610835
 20
149.0337302349685
 10
2073.404381533233
 20
148.9852799791119
 10
2073.437800657993
 20
148.9354534588055
 10
2073.469200521646
 20
148.8843303858523
 10
2073.498530891108
 20
148.8319925462639
 10
2073.525744844046
 20
148.7785236694181
 10
2073.550798843939
 20
148.7240092941124
 10
2073.573652809733
 20
148.668536631718
 10
2073.594270179956
 20
148.6121944266614
 10
2073.612617971215
 20
148.555072814451
 10
2073.628666830958
 20
148.4972631774816
 10
2073.642391084434
 20
148.4388579988401
 10
2073.653768775764
 20
148.3799507143535
 10
2073.662781703069
 20
148.3206355631101
 10
2073.669415447588
 20
148.2610074366994
 10
2073.673659396744
 20
148.201161727403
 10
2073.675506761126
 20
148.1411941755902
 10
2073.675594180781
 20
148.125000000003
  0
LINE
  5
4DE
330
71
100
AcDbEntity
  8
0
100
AcDbLine
 10
2078.675594180781
 20
140.1250000000028
 30
0.0
 11
2078.675594180781
 21
148.1250000000029
 31
0.0
  0
LINE
  5
4DF
330
71
100
AcDbEntity
  8
0
100
AcDbLine
 10
2073.675594180781
 20
148.1250000000029
 30
0.0
 11
2073.675594180781
 21
145.5000000000003
 31
0.0
  0
LINE
  5
4E0
330
71
100
AcDbEntity
  8
0
100
AcDbLine
 10
2073.675594180781
 20
141.5
 30
0.0
 11
2073.675594180781
 21
140.1250000000028
 31
0.0
  0
LINE
  5
4E2
330
71
100
AcDbEntity
  8
0
100
AcDbLine
 10
2067.175594180783
 20
6.249999999998236
 30
0.0
 11
2073.67559418078
 21
6.249999999998236
 31
0.0
  0
LINE
  5
4E3
330
71
100
AcDbEntity
  8
0
100
AcDbLine
 10
2073.67559418078
 20
10.25000000000039
 30
0.0
 11
2067.175594180783
 21
10.25000000000039
 31
0.0
  0
LINE
  5
4E4
330
71
100
AcDbEntity
  8
0
100
AcDbLine
 10
2078.675594180781
 20
3.849999999998201
 30
0.0
 11
2080.42559418078
 21
3.849999999998201
 31
0.0
  0
LINE
  5
4E5
330
71
100
AcDbEntity
  8
0
100
AcDbLine
 10
2080.42559418078
 20
12.65000000000043
 30
0.0
 11
2078.675594180781
 21
12.65000000000043
 31
0.0
  0
LWPOLYLINE
  5
4E6
330
71
100
AcDbEntity
  8
0
100
AcDbPolyline
 90
       80
 70
   128
 43
0.0
 10
2080.42559418078
 20
12.90000000000037
 10
2080.42559418078
 20
12.89628049597382
 10
2080.42559418078
 20
12.88512793430737
 10
2080.42559418078
 20
12.86656015672076
 10
2080.42559418078
 20
12.84060686769692
 10
2080.42559418078
 20
12.80730958696216
 10
2080.42559418078
 20
12.76672158306229
 10
2080.42559418078
 20
12.71890778814537
 10
2080.42559418078
 20
12.66394469408356
 10
2080.42559418078
 20
12.60192023010267
 10
2080.42559418078
 20
12.5329336221136
 10
2080.42559418078
 20
12.45709523397306
 10
2080.42559418078
 20
12.37452639092373
 10
2080.42559418078
 20
12.2853591855013
 10
2080.42559418078
 20
12.18973626621254
 10
2080.42559418078
 20
12.08781060933017
 10
2080.42559418078
 20
11.97974527416198
 10
2080.42559418078
 20
11.86571314219173
 10
2080.42559418078
 20
11.74589664050518
 10
2080.42559418078
 20
11.62048744994524
 10
2080.42559418078
 20
11.48968619846419
 10
2080.42559418078
 20
11.353702140162
 10
2080.42559418078
 20
11.21275282052329
 10
2080.42559418078
 20
11.0670637283921
 10
2080.42559418078
 20
10.91686793523672
 10
2080.42559418078
 20
10.76240572228653
 10
2080.42559418078
 20
10.60392419613219
 10
2080.42559418078
 20
10.44167689340758
 10
2080.42559418078
 20
10.27592337518643
 10
2080.42559418078
 20
10.10692881173895
 10
2080.42559418078
 20
9.934963558316152
 10
2080.42559418078
 20
9.760302722639773
 10
2080.42559418078
 20
9.583225724788064
 10
2080.42559418078
 20
9.404015850183096
 10
2080.42559418078
 20
9.222959796394716
 10
2080.42559418078
 20
9.040347214485562
 10
2080.42559418078
 20
8.856470245631781
 10
2080.42559418078
 20
8.671623053758423
 10
2080.42559418078
 20
8.486101354940556
 10
2080.42559418078
 20
8.30020194432029
 10
2080.42559418078
 20
8.114222221298346
 10
2080.42559418078
 20
7.928459713757717
 10
2080.42559418078
 20
7.743211602083702
 10
2080.42559418078
 20
7.558774243737331
 10
2080.42559418078
 20
7.375442699147298
 10
2080.42559418078
 20
7.193510259676088
 10
2080.42559418078
 20
7.013267978417217
 10
2080.42559418078
 20
6.835004204570735
 10
2080.42559418078
 20
6.659004122147107
 10
2080.42559418078
 20
6.48554929373398
 10
2080.42559418078
 20
6.314917210054657
 10
2080.42559418078
 20
6.147380846043572
 10
2080.42559418078
 20
5.983208224144047
 10
2080.42559418078
 20
5.822661985529404
 10
2080.42559418078
 20
5.665998969933297
 10
2080.42559418078
 20
5.513469804761313
 10
2080.42559418078
 20
5.365318504139735
 10
2080.42559418078
 20
5.221782078545515
 10
2080.42559418078
 20
5.083090155640261
 10
2080.42559418078
 20
4.949464612914821
 10
2080.42559418078
 20
4.821119222731737
 10
2080.42559418078
 20
4.698259310336879
 10
2080.42559418078
 20
4.581081425381168
 10
2080.42559418078
 20
4.469773027484108
 10
2080.42559418078
 20
4.364512186337377
 10
2080.42559418078
 20
4.265467296832695
 10
2080.42559418078
 20
4.172796809664927
 10
2080.42559418078
 20
4.086648977844673
 10
2080.42559418078
 20
4.007161619525616
 10
2080.42559418078
 20
3.934461897524783
 10
2080.42559418078
 20
3.86866611588897
 10
2080.42559418078
 20
3.809879533832938
 10
2080.42559418078
 20
3.758196197347615
 10
2080.42559418078
 20
3.713698788746169
 10
2080.42559418078
 20
3.67645849439003
 10
2080.42559418078
 20
3.646534890806206
 10
2080.42559418078
 20
3.623975849376732
 10
2080.42559418078
 20
3.608817459755754
 10
2080.42559418078
 20
3.601083972133096
 10
2080.42559418078
 20
3.599999999998258
  0
LWPOLYLINE
  5
4E7
330
71
100
AcDbEntity
  8
0
100
AcDbPolyline
 90
       41
 70
   128
 43
0.0
 10
2080.42559418078
 20
12.90000000000037
 10
2080.426194100784
 20
12.92999200064019
 10
2080.427992901053
 20
12.95993602047724
 10
2080.43098770389
 20
12.98978415546696
 10
2080.435173718249
 20
13.01948865496103
 10
2080.4405442474
 20
13.04900199809657
 10
2080.447090699641
 20
13.07827696982053
 10
2080.454802602048
 20
13.10726673642324
 10
2080.463667617219
 20
13.13592492046251
 10
2080.473671563022
 20
13.16420567495646
 10
2080.484798435279
 20
13.19206375673178
 10
2080.497030433366
 20
13.2194545987997
 10
2080.510347988696
 20
13.24633438165653
 10
2080.524729796022
 20
13.27266010338308
 10
2080.54015284752
 20
13.29838964844094
 10
2080.556592469598
 20
13.32348185504662
 10
2080.574022362367
 20
13.34789658102198
 10
2080.592414641717
 20
13.37159476801406
 10
2080.611739883925
 20
13.39453850397888
 10
2080.631967172725
 20
13.41669108383325
 10
2080.65306414877
 20
13.43801706817487
 10
2080.674997061399
 20
13.45848233997844
 10
2080.697730822631
 20
13.47805415917446
 10
2080.721229063298
 20
13.49670121502754
 10
2080.745454191226
 20
13.51439367622595
 10
2080.770367451379
 20
13.53110323860619
 10
2080.795928987855
 20
13.54680317043289
 10
2080.82209790765
 20
13.56146835516403
 10
2080.848832346073
 20
13.57507533163266
 10
2080.876089533726
 20
13.5876023315792
 10
2080.903825864923
 20
13.59902931447567
 10
2080.931996967451
 20
13.60933799958752
 10
2080.960557773556
 20
13.61851189521706
 10
2080.989462592041
 20
13.62653632508892
 10
2081.018665181362
 20
13.63339845182673
 10
2081.048118823605
 20
13.63908729749153
 10
2081.077776399226
 20
13.6435937611439
 10
2081.107590462432
 20
13.64691063340359
 10
2081.13751331708
 20
13.64903260798206
 10
2081.167497092987
 20
13.64995629017272
 10
2081.175594180781
 20
13.65000000000037
  0
LWPOLYLINE
  5
4E8
330
71
100
AcDbEntity
  8
0
100
AcDbPolyline
 90
       41
 70
   128
 43
0.0
 10
2081.175594180781
 20
2.849999999998258
 10
2081.14560218014
 20
2.850599920002536
 10
2081.115658160304
 20
2.852398720271251
 10
2081.085810025314
 20
2.855393523107693
 10
2081.056105525819
 20
2.859579537466515
 10
2081.026592182684
 20
2.864950066617381
 10
2080.99731721096
 20
2.871496518859201
 10
2080.968327444358
 20
2.879208421265218
 10
2080.939669260319
 20
2.888073436436399
 10
2080.911388505824
 20
2.898077382239648
 10
2080.883530424049
 20
2.909204254496159
 10
2080.856139581981
 20
2.921436252583303
 10
2080.829259799124
 20
2.934753807913862
 10
2080.802934077397
 20
2.949135615239923
 10
2080.77720453234
 20
2.964558666738126
 10
2080.752112325734
 20
2.980998288816067
 10
2080.727697599758
 20
2.998428181584926
 10
2080.703999412766
 20
3.016820460935093
 10
2080.681055676802
 20
3.036145703142608
 10
2080.658903096948
 20
3.05637299194268
 10
2080.637577112605
 20
3.077469967987723
 10
2080.617111840802
 20
3.099402880617274
 10
2080.597540021607
 20
3.122136641849237
 10
2080.578892965753
 20
3.145634882515705
 10
2080.561200504555
 20
3.169860010443982
 10
2080.544490942175
 20
3.194773270597123
 10
2080.528791010348
 20
3.220334807073811
 10
2080.514125825617
 20
3.246503726868068
 10
2080.500518849148
 20
3.273238165290647
 10
2080.487991849202
 20
3.300495352943413
 10
2080.476564866305
 20
3.328231684140857
 10
2080.466256181193
 20
3.356402786669263
 10
2080.457082285564
 20
3.384963592774338
 10
2080.449057855692
 20
3.413868411259043
 10
2080.442195728954
 20
3.443071000579662
 10
2080.436506883289
 20
3.472524642823031
 10
2080.432000419637
 20
3.502182218444656
 10
2080.428683547377
 20
3.531996281649923
 10
2080.426561572799
 20
3.561919136298115
 10
2080.425637890607
 20
3.591902912204488
 10
2080.42559418078
 20
3.599999999998258
  0
LWPOLYLINE
  5
4E9
330
71
100
AcDbEntity
  8
0
100
AcDbPolyline
 90
        4
 70
   128
 43
0.0
 10
2080.42559418078
 20
3.599999999998258
 10
2080.42559418078
 20
3.603719504024636
 10
2080.42559418078
 20
3.614872065690916
 10
2080.42559418078
 20
3.622553189619906
  0
LWPOLYLINE
  5
4EA
330
71
100
AcDbEntity
  8
0
100
AcDbPolyline
 90
        4
 70
   128
 43
0.0
 10
2080.42559418078
 20
12.8780501898309
 10
2080.42559418078
 20
12.89118254024271
 10
2080.42559418078
 20
12.89891602786537
 10
2080.42559418078
 20
12.90000000000037
  0
LINE
  5
4EB
330
71
100
AcDbEntity
  8
0
100
AcDbLine
 10
2081.175594180781
 20
2.849999999998258
 30
0.0
 11
2092.67559418078
 21
2.849999999998258
 31
0.0
  0
LINE
  5
4EC
330
71
100
AcDbEntity
  8
0
100
AcDbLine
 10
2092.67559418078
 20
13.65000000000037
 30
0.0
 11
2081.175594180781
 21
13.65000000000037
 31
0.0
  0
LWPOLYLINE
  5
4ED
330
71
100
AcDbEntity
  8
0
100
AcDbPolyline
 90
       80
 70
   128
 43
0.0
 10
2094.17559418078
 20
4.349999999998257
 10
2094.17559418078
 20
4.353119584020361
 10
2094.17559418078
 20
4.362473345417924
 10
2094.17559418078
 20
4.378046320168095
 10
2094.17559418078
 20
4.399813594833288
 10
2094.17559418078
 20
4.427740346417348
 10
2094.17559418078
 20
4.4617818980754
 10
2094.17559418078
 20
4.501883790586131
 10
2094.17559418078
 20
4.547981869476754
 10
2094.17559418078
 20
4.600002387654398
 10
2094.17559418078
 20
4.657862123387131
 10
2094.17559418078
 20
4.721468513440526
 10
2094.17559418078
 20
4.790719801159296
 10
2094.17559418078
 20
4.865505199255664
 10
2094.17559418078
 20
4.945705067046048
 10
2094.17559418078
 20
5.031191101850651
 10
2094.17559418078
 20
5.121826544249642
 10
2094.17559418078
 20
5.217466396869893
 10
2094.17559418078
 20
5.317957656348936
 10
2094.17559418078
 20
5.423139558108968
 10
2094.17559418078
 20
5.532843833544631
 10
2094.17559418078
 20
5.646894979217617
 10
2094.17559418078
 20
5.765110537624022
 10
2094.17559418078
 20
5.887301389089257
 10
2094.17559418078
 20
6.013272054316186
 10
2094.17559418078
 20
6.142821007112899
 10
2094.17559418078
 20
6.275740996790887
 10
2094.17559418078
 20
6.411819379721236
 10
2094.17559418078
 20
6.550838459519806
 10
2094.17559418078
 20
6.692575835314527
 10
2094.17559418078
 20
6.836804757539877
 10
2094.17559418078
 20
6.983294490687852
 10
2094.17559418078
 20
7.13181068243449
 10
2094.17559418078
 20
7.282115738554749
 10
2094.17559418078
 20
7.433969203022511
 10
2094.17559418078
 20
7.587128142688299
 10
2094.17559418078
 20
7.741347535920282
 10
2094.17559418078
 20
7.896380664588376
 10
2094.17559418078
 20
8.051979508758218
 10
2094.17559418078
 20
8.207895143472113
 10
2094.17559418078
 20
8.363878136974332
 10
2094.17559418078
 20
8.519678949750071
 10
2094.17559418078
 20
8.675048333735047
 10
2094.17559418078
 20
8.829737731057717
 10
2094.17559418078
 20
8.983499671681725
 10
2094.17559418078
 20
9.136088169302636
 10
2094.17559418078
 20
9.287259114874473
 10
2094.17559418078
 20
9.436770667133027
 10
2094.17559418078
 20
9.584383639488118
 10
2094.17559418078
 20
9.7298618826735
 10
2094.17559418078
 20
9.872972662533641
 10
2094.17559418078
 20
10.01348703234941
 10
2094.17559418078
 20
10.15118019910369
 10
2094.17559418078
 20
10.28583188310335
 10
2094.17559418078
 20
10.4172266703772
 10
2094.17559418078
 20
10.54515435729575
 10
2094.17559418078
 20
10.66941028684942
 10
2094.17559418078
 20
10.78979567605739
 10
2094.17559418078
 20
10.90611793397789
 10
2094.17559418078
 20
11.01819096981239
 10
2094.17559418078
 20
11.12583549061082
 10
2094.17559418078
 20
11.22887928810331
 10
2094.17559418078
 20
11.32715751419522
 10
2094.17559418078
 20
11.42051294468962
 10
2094.17559418078
 20
11.5087962308126
 10
2094.17559418078
 20
11.59186613813898
 10
2094.17559418078
 20
11.66958977253784
 10
2094.17559418078
 20
11.74184279277403
 10
2094.17559418078
 20
11.80850960942876
 10
2094.17559418078
 20
11.86948356981668
 10
2094.17559418078
 20
11.924667128608
 10
2094.17559418078
 20
11.97397200388064
 10
2094.17559418078
 20
12.01731931835229
 10
2094.17559418078
 20
12.05463972556651
 10
2094.17559418078
 20
12.08587352083276
 10
2094.17559418078
 20
12.11097073674187
 10
2094.17559418078
 20
12.12989122310216
 10
2094.17559418078
 20
12.14260471117148
 10
2094.17559418078
 20
12.14909086208069
 10
2094.17559418078
 20
12.15000000000037
  0
LWPOLYLINE
  5
4EE
330
71
100
AcDbEntity
  8
0
100
AcDbPolyline
 90
       41
 70
   128
 43
0.0
 10
2092.67559418078
 20
13.65000000000037
 10
2092.73557818206
 20
13.64880015999165
 10
2092.795466221735
 20
13.64520255945422
 10
2092.855162491714
 20
13.63921295378117
 10
2092.914571490702
 20
13.63084092506369
 10
2092.973598176973
 20
13.62009986676213
 10
2093.032148120421
 20
13.60700696227832
 10
2093.090127653626
 20
13.59158315746628
 10
2093.147444021704
 20
13.57385312712392
 10
2093.204005530693
 20
13.55384523551725
 10
2093.259721694243
 20
13.53159149100457
 10
2093.31450337838
 20
13.50712749483028
 10
2093.368262944093
 20
13.48049238416916
 10
2093.420914387546
 20
13.4517287695167
 10
2093.472373477662
 20
13.42088266652029
 10
2093.522557890873
 20
13.38800342236476
 10
2093.571387342824
 20
13.3531436368267
 10
2093.618783716808
 20
13.3163590781267
 10
2093.664671188737
 20
13.27770859371151
 10
2093.708976348446
 20
13.2372540161117
 10
2093.75162831713
 20
13.1950600640211
 10
2093.792558860737
 20
13.15119423876217
 10
2093.831702499129
 20
13.10572671629825
 10
2093.868996610835
 20
13.05873023496531
 10
2093.904381533231
 20
13.01027997910893
 10
2093.937800657992
 20
12.96045345880264
 10
2093.969200521645
 20
12.90933038584944
 10
2093.998530891107
 20
12.85699254626092
 10
2094.025744844045
 20
12.80352366941542
 10
2094.050798843938
 20
12.74900929410972
 10
2094.073652809731
 20
12.69353663171534
 10
2094.094270179954
 20
12.63719442665854
 10
2094.112617971214
 20
12.58007281444804
 10
2094.128666830957
 20
12.5222631774788
 10
2094.142391084433
 20
12.46385799883739
 10
2094.153768775763
 20
12.40495071435049
 10
2094.162781703068
 20
12.3456355631074
 10
2094.169415447587
 20
12.2860074366967
 10
2094.173659396743
 20
12.22616172740049
 10
2094.175506761125
 20
12.16619417558757
 10
2094.17559418078
 20
12.15000000000037
  0
LWPOLYLINE
  5
4EF
330
71
100
AcDbEntity
  8
0
100
AcDbPolyline
 90
       41
 70
   128
 43
0.0
 10
2094.17559418078
 20
4.349999999998257
 10
2094.174394340772
 20
4.290015998718271
 10
2094.170796740234
 20
4.230127959044522
 10
2094.164807134561
 20
4.17043168906491
 10
2094.156435105844
 20
4.111022690076935
 10
2094.145694047542
 20
4.051996003805697
 10
2094.132601143058
 20
3.993446060357598
 10
2094.117177338246
 20
3.935466527152186
 10
2094.099447307904
 20
3.878150159073981
 10
2094.079439416297
 20
3.821588650085743
 10
2094.057185671785
 20
3.765872486535271
 10
2094.03272167561
 20
3.711090802399268
 10
2094.006086564949
 20
3.657331236685931
 10
2093.977322950297
 20
3.604679793232662
 10
2093.946476847301
 20
3.553220703116946
 10
2093.913597603145
 20
3.503036289905763
 10
2093.878737817607
 20
3.454206837954698
 10
2093.841953258907
 20
3.406810463970542
 10
2093.803302774492
 20
3.360922992041081
 10
2093.762848196892
 20
3.316617832332496
 10
2093.720654244801
 20
3.273965863648923
 10
2093.676788419543
 20
3.233035320041948
 10
2093.631320897078
 20
3.193891681649744
 10
2093.584324415745
 20
3.156597569943584
 10
2093.535874159889
 20
3.121212647546598
 10
2093.486047639583
 20
3.087793522786283
 10
2093.434924566629
 20
3.05639365913322
 10
2093.382586727041
 20
3.027063289670761
 10
2093.329117850196
 20
2.999849336733518
 10
2093.27460347489
 20
2.974795336840598
 10
2093.219130812495
 20
2.951941371047325
 10
2093.162788607438
 20
2.931324000823962
 10
2093.105666995228
 20
2.912976209564531
 10
2093.047857358259
 20
2.896927349820825
 10
2092.989452179617
 20
2.883203096345198
 10
2092.93054489513
 20
2.871825405015611
 10
2092.871229743888
 20
2.862812477710859
 10
2092.811601617477
 20
2.856178733191825
 10
2092.751755908182
 20
2.851934784034881
 10
2092.691788356368
 20
2.850087419653219
 10
2092.67559418078
 20
2.849999999998258
  0
LWPOLYLINE
  5
4F0
330
71
100
AcDbEntity
  8
0
100
AcDbPolyline
 90
        5
 70
   128
 43
0.0
 10
2094.17559418078
 20
12.15000000000037
 10
2094.17559418078
 20
12.1468804159781
 10
2094.17559418078
 20
12.13752665458037
 10
2094.17559418078
 20
12.12195367983019
 10
2094.17559418078
 20
12.11966692624895
  0
LWPOLYLINE
  5
4F1
330
71
100
AcDbEntity
  8
0
100
AcDbPolyline
 90
        5
 70
   128
 43
0.0
 10
2094.17559418078
 20
4.38125048933591
 10
2094.17559418078
 20
4.370108776896471
 10
2094.17559418078
 20
4.357395288827148
 10
2094.17559418078
 20
4.350909137917765
 10
2094.17559418078
 20
4.349999999998257
  0
LWPOLYLINE
  5
4F2
330
71
100
AcDbEntity
  8
0
100
AcDbPolyline
 90
       47
 70
   128
 43
0.0
 10
2073.67559418078
 20
9.552997946562411
 10
2073.67559418078
 20
9.432198462283507
 10
2073.67559418078
 20
9.210314357383706
 10
2073.67559418078
 20
8.986893954368325
 10
2073.67559418078
 20
8.762294678221561
 10
2073.67559418078
 20
8.536875839873571
 10
2073.67559418078
 20
8.310998061378425
 10
2073.67559418078
 20
8.085022698997475
 10
2073.67559418078
 20
7.859311265104677
 10
2073.67559418078
 20
7.634224849845337
 10
2073.67559418078
 20
7.410123543467761
 10
2073.67559418078
 20
7.187365860256702
 10
2073.67559418078
 20
6.966308164985717
 10
2073.67559418078
 20
6.747304102811652
 10
2073.67559418078
 20
6.530704033514607
 10
2073.67559418078
 20
6.316854471000622
 10
2073.67559418078
 20
6.10609752895044
 10
2073.67559418078
 20
5.898770373512717
 10
2073.67559418078
 20
5.695204683908115
 10
2073.67559418078
 20
5.495726121815718
 10
2073.67559418078
 20
5.300653810380933
 10
2073.67559418078
 20
5.1102998236895
 10
2073.67559418078
 20
4.924968687513056
 10
2073.67559418078
 20
4.744956892134552
 10
2073.67559418078
 20
4.570552418025839
 10
2073.67559418078
 20
4.402034275141601
 10
2073.67559418078
 20
4.239672056561174
 10
2073.67559418078
 20
4.083725507199457
 10
2073.67559418078
 20
3.934444108268507
 10
2073.67559418078
 20
3.792066678161346
 10
2073.67559418078
 20
3.656820990393951
 10
2073.67559418078
 20
3.52892340921619
 10
2073.67559418078
 20
3.408578543474276
 10
2073.67559418078
 20
3.295978919281366
 10
2073.67559418078
 20
3.191304672016201
 10
2073.67559418078
 20
3.094723258144881
 10
2073.67559418078
 20
3.006389187326873
 10
2073.67559418078
 20
2.926443775231916
 10
2073.67559418078
 20
2.855014917465153
 10
2073.67559418078
 20
2.79221688496153
 10
2073.67559418078
 20
2.738150141177015
 10
2073.67559418078
 20
2.692901181368084
 10
2073.67559418078
 20
2.656542394217864
 10
2073.67559418078
 20
2.629131946029358
 10
2073.67559418078
 20
2.610713687672896
 10
2073.67559418078
 20
2.601317084432365
 10
2073.67559418078
 20
2.600000000010423
  0
LWPOLYLINE
  5
4F3
330
71
100
AcDbEntity
  8
0
100
AcDbPolyline
 90
       47
 70
   128
 43
0.0
 10
2078.675594180781
 20
2.600000000010423
 10
2078.675594180781
 20
2.604519397375951
 10
2078.675594180781
 20
2.61807035940063
 10
2078.675594180781
 20
2.640631207436001
 10
2078.675594180781
 20
2.672165848938106
 10
2078.675594180781
 20
2.71262383520718
 10
2078.675594180781
 20
2.761940442096033
 10
2078.675594180781
 20
2.820036773554133
 10
2078.675594180781
 20
2.886819887844069
 10
2078.675594180781
 20
2.962182946229573
 10
2078.675594180781
 20
3.046005383893258
 10
2078.675594180781
 20
3.138153102816544
 10
2078.675594180781
 20
3.238478686306221
 10
2078.675594180781
 20
3.346821634830291
 10
2078.675594180781
 20
3.463008622782977
 10
2078.675594180781
 20
3.586853775768986
 10
2078.675594180781
 20
3.718158967961867
 10
2078.675594180781
 20
3.856714139065216
 10
2078.675594180781
 20
4.002297630361622
 10
2078.675594180781
 20
4.154676539321141
 10
2078.675594180781
 20
4.313607092195751
 10
2078.675594180781
 20
4.478835034003281
 10
2078.675594180781
 20
4.650096035284374
 10
2078.675594180781
 20
4.827116114970634
 10
2078.675594180781
 20
5.009612078696306
 10
2078.675594180781
 20
5.197291971850289
 10
2078.675594180781
 20
5.38985554663992
 10
2078.675594180781
 20
5.586994742423027
 10
2078.675594180781
 20
5.788394178540726
 10
2078.675594180781
 20
5.993731658858449
 10
2078.675594180781
 20
6.202678687210205
 10
2078.675594180781
 20
6.414900992923889
 10
2078.675594180781
 20
6.630059065581972
 10
2078.675594180781
 20
6.847808698166202
 10
2078.675594180781
 20
7.067801537715125
 10
2078.675594180781
 20
7.289685642614926
 10
2078.675594180781
 20
7.513106045630307
 10
2078.675594180781
 20
7.737705321776897
 10
2078.675594180781
 20
7.963124160125061
 10
2078.675594180781
 20
8.189001938620206
 10
2078.675594180781
 20
8.414977301001156
 10
2078.675594180781
 20
8.640688734893954
 10
2078.675594180781
 20
8.865775150153295
 10
2078.675594180781
 20
9.089876456530872
 10
2078.675594180781
 20
9.312634139741927
 10
2078.675594180781
 20
9.533691835012572
 10
2078.675594180781
 20
9.556042231901127
  0
LINE
  5
4F4
330
71
100
AcDbEntity
  8
0
100
AcDbLine
 10
2078.675594180781
 20
13.89562789803801
 30
0.0
 11
2078.675594180781
 21
13.8986829155661
 31
0.0
  0
LWPOLYLINE
  5
4F5
330
71
100
AcDbEntity
  8
0
100
AcDbPolyline
 90
       80
 70
   128
 43
0.0
 10
2078.675594180781
 20
2.600000000010423
 10
2078.673594447433
 20
2.500026664543836
 10
2078.667598446537
 20
2.400213265087415
 10
2078.657615770415
 20
2.300719481788064
 10
2078.643662389219
 20
2.201704483474768
 10
2078.625760625383
 20
2.10332667302282
 10
2078.60393911791
 20
2.005743433942595
 10
2078.578232776557
 20
1.909110878600015
 10
2078.548682725986
 20
1.813583598470015
 10
2078.515336239975
 20
1.719314416822839
 10
2078.478246665788
 20
1.626454144238889
 10
2078.43747333883
 20
1.535151337345268
 10
2078.393081487729
 20
1.445552061156774
 10
2078.345142129974
 20
1.357799655401038
 10
2078.293731958314
 20
1.272034505208352
 10
2078.238933218055
 20
1.188393816522817
 10
2078.180833575491
 20
1.107011396604489
 10
2078.119525977657
 20
1.028017439964285
 10
2078.055108503632
 20
0.9515383200817378
 10
2077.987684207633
 20
0.8776963872342092
 10
2077.917360954148
 20
0.80660977276176
 10
2077.844251245384
 20
0.7383922000832967
 10
2077.768472041277
 20
0.6731528027629567
 10
2077.690144572389
 20
0.6109959499193564
 10
2077.609394145961
 20
0.5520210792580543
 10
2077.526349945451
 20
0.496322537990693
 10
2077.441144823862
 20
0.4439894319020822
 10
2077.353915091214
 20
0.3951054827981579
 10
2077.264800296472
 20
0.3497488945691316
 10
2077.173943004296
 20
0.3079922280811615
 10
2077.081488566972
 20
0.2699022850924848
 10
2076.987584891877
 20
0.2355400013867097
 10
2076.89238220486
 20
0.2049603492873188
 10
2076.796032809911
 20
0.1782122497148748
 10
2076.698690845509
 20
0.1553384939221587
 10
2076.600512038031
 20
0.1363756750394031
 10
2076.501653452627
 20
0.1213541295310847
 10
2076.402273241941
 20
0.1102978886662526
 10
2076.302530393114
 20
0.1032246400716303
 10
2076.202584473426
 20
0.1001456994356999
 10
2076.102595375027
 20
0.1010659924067454
 10
2076.002723059145
 20
0.1059840467124786
 10
2075.903127300181
 20
0.1148919945152329
 10
2075.803967430102
 20
0.1277755849988011
 10
2075.705402083548
 20
0.1446142071662848
 10
2075.607588944048
 20
0.165380922815018
 10
2075.510684491758
 20
0.1900425096293929
 10
2075.41484375313
 20
0.2185595143313889
 10
2075.320220052903
 20
0.2508863157970608
 10
2075.22696476881
 20
0.2869711980400779
 10
2075.135227089413
 20
0.3267564329463539
 10
2075.045153775428
 20
0.3701783726269241
 10
2074.956888924945
 20
0.4171675512417325
 10
2074.870573742893
 20
0.4676487961282306
 10
2074.786346315154
 20
0.5215413480637494
 10
2074.704341387642
 20
0.5787589904614378
 10
2074.624690150749
 20
0.6392101872993976
 10
2074.547520029462
 20
0.7027982295582546
 10
2074.472954479512
 20
0.7694213899349051
 10
2074.401112789875
 20
0.8389730855849959
 10
2074.332109891928
 20
0.9113420486327184
 10
2074.266056175586
 20
0.9864125041745522
 10
2074.203057312706
 20
1.06406435549627
 10
2074.143214088031
 20
1.144173376200342
 10
2074.086622237952
 20
1.226611408942744
 10
2074.033372297359
 20
1.311246570456886
 10
2073.983549454794
 20
1.397943462538932
 10
2073.937233416182
 20
1.486563388655838
 10
2073.894498277301
 20
1.576964575830458
 10
2073.855412405257
 20
1.669002401447811
 10
2073.820038329109
 20
1.76252962462081
 10
2073.788432639831
 20
1.85739662174336
 10
2073.760645899785
 20
1.953451625857894
 10
2073.736722561828
 20
2.050540969447808
 10
2073.716700898195
 20
2.148509330274916
 10
2073.700612939279
 20
2.247199979860794
 10
2073.688484422382
 20
2.346455034218933
 10
2073.680334750543
 20
2.446115706435818
 10
2073.676176961498
 20
2.546022560695175
 10
2073.67559418078
 20
2.600000000010423
  0
LWPOLYLINE
  5
4F6
330
71
100
AcDbEntity
  8
0
100
AcDbPolyline
 90
        4
 70
   128
 43
0.0
 10
2073.67559418078
 20
2.600000000010423
 10
2073.67559418078
 20
2.604519397375951
 10
2073.67559418078
 20
2.61807035940063
 10
2073.67559418078
 20
2.640631207436001
  0
LINE
  5
4F7
330
71
100
AcDbEntity
  8
0
100
AcDbLine
 10
2073.67559418078
 20
13.89640678802715
 30
0.0
 11
2073.67559418078
 21
13.8986829155661
 31
0.0
  0
LWPOLYLINE
  5
4F8
330
71
100
AcDbEntity
  8
0
100
AcDbPolyline
 90
        5
 70
   128
 43
0.0
 10
2078.675594180781
 20
2.640140031116628
 10
2078.675594180781
 20
2.629131946029358
 10
2078.675594180781
 20
2.610713687672896
 10
2078.675594180781
 20
2.601317084432365
 10
2078.675594180781
 20
2.600000000010423
  0
LINE
  5
4F9
330
71
100
AcDbEntity
  8
0
100
AcDbLine
 10
2078.67559418078
 20
15.70000000000311
 30
0.0
 11
2078.67559418078
 21
28.25000000000006
 31
0.0
  0
LINE
  5
4FA
330
71
100
AcDbEntity
  8
0
100
AcDbLine
 10
2073.67559418078
 20
28.25000000000006
 30
0.0
 11
2073.67559418078
 21
15.70000000000311
 31
0.0
  0
LWPOLYLINE
  5
4FB
330
71
100
AcDbEntity
  8
0
100
AcDbPolyline
 90
       41
 70
   128
 43
0.0
 10
2078.67559418078
 20
28.25000000000006
 10
2078.67559418078
 20
28.40995733674663
 10
2078.67559418078
 20
28.5696587758768
 10
2078.67559418078
 20
28.72884882915576
 10
2078.67559418078
 20
28.88727282645703
 10
2078.67559418078
 20
29.04467732318022
 10
2078.67559418078
 20
29.20081050570854
 10
2078.67559418078
 20
29.35542259425654
 10
2078.67559418078
 20
29.50826624246457
 10
2078.67559418078
 20
29.6590969331005
 10
2078.67559418078
 20
29.80767336923458
 10
2078.67559418078
 20
29.95375786026403
 10
2078.67559418078
 20
30.09711670216603
 10
2078.67559418078
 20
30.23752055137504
 10
2078.67559418078
 20
30.37474479168361
 10
2078.67559418078
 20
30.50856989358015
 10
2078.67559418078
 20
30.63878176544955
 10
2078.67559418078
 20
30.76517209607391
 10
2078.67559418078
 20
30.88753868788592
 10
2078.67559418078
 20
31.0056857804422
 10
2078.67559418078
 20
31.11942436359806
 10
2078.67559418078
 20
31.2285724798835
 10
2078.67559418078
 20
31.33295551559604
 10
2078.67559418078
 20
31.43240648014546
 10
2078.67559418078
 20
31.52676627320408
 10
2078.67559418078
 20
31.61588393923177
 10
2078.67559418078
 20
31.69961690897344
 10
2078.67559418078
 20
31.77783122753982
 10
2078.67559418078
 20
31.85040176870609
 10
2078.67559418078
 20
31.91721243508715
 10
2078.67559418078
 20
31.97815634386893
 10
2078.67559418078
 20
32.03313599779824
 10
2078.67559418078
 20
32.08206344115688
 10
2078.67559418078
 20
32.1248604004732
 10
2078.67559418078
 20
32.16145840974138
 10
2078.67559418078
 20
32.19179891995389
 10
2078.67559418078
 20
32.21583339276679
 10
2078.67559418078
 20
32.23352337815066
 10
2078.67559418078
 20
32.2448405759024
 10
2078.67559418078
 20
32.24976688091981
 10
2078.67559418078
 20
32.25
  0
LWPOLYLINE
  5
4FC
330
71
100
AcDbEntity
  8
0
100
AcDbPolyline
 90
       41
 70
   128
 43
0.0
 10
2073.67559418078
 20
32.25
 10
2073.67559418078
 20
32.24680042664391
 10
2073.67559418078
 20
32.23720682521064
 10
2073.67559418078
 20
32.22123454341561
 10
2073.67559418078
 20
32.19890913350258
 10
2073.67559418078
 20
32.17026631136512
 10
2073.67559418078
 20
32.13535189940819
 10
2073.67559418078
 20
32.09422175324311
 10
2073.67559418078
 20
32.04694167232992
 10
2073.67559418078
 20
31.9935872947118
 10
2073.67559418078
 20
31.93424397601149
 10
2073.67559418078
 20
31.86900665287998
 10
2073.67559418078
 20
31.79797969111723
 10
2073.67559418078
 20
31.72127671871067
 10
2073.67559418078
 20
31.63902044405358
 10
2073.67559418078
 20
31.55134245963887
 10
2073.67559418078
 20
31.45838303153738
 10
2073.67559418078
 20
31.36029087500378
 10
2073.67559418078
 20
31.2572229165637
 10
2073.67559418078
 20
31.14934404296366
 10
2073.67559418078
 20
31.03682683738873
 10
2073.67559418078
 20
30.91985130336536
 10
2073.67559418078
 20
30.79860457679445
 10
2073.67559418078
 20
30.67328062657401
 10
2073.67559418078
 20
30.54407994428993
 10
2073.67559418078
 20
30.41120922347256
 10
2073.67559418078
 20
30.2748810289312
 10
2073.67559418078
 20
30.13531345669514
 10
2073.67559418078
 20
29.99272978510692
 10
2073.67559418078
 20
29.8473581176251
 10
2073.67559418078
 20
29.6994310179067
 10
2073.67559418078
 20
29.54918513775527
 10
2073.67559418078
 20
29.39686083852791
 10
2073.67559418078
 20
29.24270180660966
 10
2073.67559418078
 20
29.08695466356562
 10
2073.67559418078
 20
28.92986857160099
 10
2073.67559418078
 20
28.77169483495254
 10
2073.67559418078
 20
28.61268649785722
 10
2073.67559418078
 20
28.45309793973433
 10
2073.67559418078
 20
28.29318446823311
 10
2073.67559418078
 20
28.25000000000006
  0
LINE
  5
4FD
330
71
100
AcDbEntity
  8
0
100
AcDbLine
 10
2078.67525539064
 20
32.2330627516651
 30
0.0
 11
2078.673594447433
 21
32.15002666453358
 31
0.0
  0
LWPOLYLINE
  5
4FE
330
71
100
AcDbEntity
  8
0
100
AcDbPolyline
 90
       37
 70
   128
 43
0.0
 10
2078.67559418078
 20
36.24999999999994
 10
2078.67559418078
 20
36.09004266325336
 10
2078.67559418078
 20
35.93034122412336
 10
2078.67559418078
 20
35.7711511708444
 10
2078.67559418078
 20
35.61272717354297
 10
2078.67559418078
 20
35.45532267681994
 10
2078.67559418078
 20
35.29918949429145
 10
2078.67559418078
 20
35.14457740574363
 10
2078.67559418078
 20
34.99173375753577
 10
2078.67559418078
 20
34.84090306689984
 10
2078.67559418078
 20
34.69232663076541
 10
2078.67559418078
 20
34.54624213973613
 10
2078.67559418078
 20
34.4028832978343
 10
2078.67559418078
 20
34.26247944862512
 10
2078.67559418078
 20
34.12525520831656
 10
2078.67559418078
 20
33.99143010641984
 10
2078.67559418078
 20
33.86121823455044
 10
2078.67559418078
 20
33.73482790392607
 10
2078.67559418078
 20
33.61246131211407
 10
2078.67559418078
 20
33.49431421955797
 10
2078.67559418078
 20
33.38057563640194
 10
2078.67559418078
 20
33.2714275201165
 10
2078.67559418078
 20
33.16704448440412
 10
2078.67559418078
 20
33.06759351985454
 10
2078.67559418078
 20
32.97323372679591
 10
2078.67559418078
 20
32.8841160607684
 10
2078.67559418078
 20
32.80038309102656
 10
2078.67559418078
 20
32.72216877246017
 10
2078.67559418078
 20
32.6495982312939
 10
2078.67559418078
 20
32.58278756491301
 10
2078.67559418078
 20
32.52184365613106
 10
2078.67559418078
 20
32.46686400220192
 10
2078.67559418078
 20
32.4179365588431
 10
2078.67559418078
 20
32.37513959952713
 10
2078.67559418078
 20
32.33854159025895
 10
2078.67559418078
 20
32.30820108004611
 10
2078.67559418078
 20
32.2873859762239
  0
LWPOLYLINE
  5
4FF
330
71
100
AcDbEntity
  8
0
100
AcDbPolyline
 90
       41
 70
   128
 43
0.0
 10
2073.67559418078
 20
32.25
 10
2073.67559418078
 20
32.25319957335608
 10
2073.67559418078
 20
32.26279317478969
 10
2073.67559418078
 20
32.27876545658455
 10
2073.67559418078
 20
32.30109086649758
 10
2073.67559418078
 20
32.3297336886352
 10
2073.67559418078
 20
32.36464810059197
 10
2073.67559418078
 20
32.40577824675688
 10
2073.67559418078
 20
32.45305832767041
 10
2073.67559418078
 20
32.50641270528837
 10
2073.67559418078
 20
32.56575602398851
 10
2073.67559418078
 20
32.63099334712018
 10
2073.67559418078
 20
32.7020203088831
 10
2073.67559418078
 20
32.7787232812895
 10
2073.67559418078
 20
32.86097955594641
 10
2073.67559418078
 20
32.94865754036146
 10
2073.67559418078
 20
33.04161696846295
 10
2073.67559418078
 20
33.13970912499638
 10
2073.67559418078
 20
33.24277708343646
 10
2073.67559418078
 20
33.3506559570365
 10
2073.67559418078
 20
33.4631731626116
 10
2073.67559418078
 20
33.58014869663497
 10
2073.67559418078
 20
33.70139542320572
 10
2073.67559418078
 20
33.82671937342632
 10
2073.67559418078
 20
33.95592005571023
 10
2073.67559418078
 20
34.08879077652745
 10
2073.67559418078
 20
34.22511897106897
 10
2073.67559418078
 20
34.36468654330519
 10
2073.67559418078
 20
34.50727021489325
 10
2073.67559418078
 20
34.65264188237506
 10
2073.67559418078
 20
34.80056898209329
 10
2073.67559418078
 20
34.95081486224506
 10
2073.67559418078
 20
35.10313916147225
 10
2073.67559418078
 20
35.25729819339068
 10
2073.67559418078
 20
35.41304533643437
 10
2073.67559418078
 20
35.57013142839917
 10
2073.67559418078
 20
35.72830516504745
 10
2073.67559418078
 20
35.88731350214278
 10
2073.67559418078
 20
36.04690206026566
 10
2073.67559418078
 20
36.20681553176706
 10
2073.67559418078
 20
36.24999999999994
  0
LINE
  5
500
330
71
100
AcDbEntity
  8
0
100
AcDbLine
 10
2078.67559418078
 20
36.24999999999994
 30
0.0
 11
2078.67559418078
 21
140.1250000000006
 31
0.0
  0
LINE
  5
501
330
71
100
AcDbEntity
  8
0
100
AcDbLine
 10
2073.67559418078
 20
140.1250000000006
 30
0.0
 11
2073.67559418078
 21
74.37500000000004
 31
0.0
  0
LINE
  5
502
330
71
100
AcDbEntity
  8
0
100
AcDbLine
 10
2073.67559418078
 20
70.3750000000001
 30
0.0
 11
2073.67559418078
 21
36.24999999999994
 31
0.0
  0
LINE
  5
507
330
71
100
AcDbEntity
  8
0
100
AcDbLine
 10
2078.67559418078
 20
8.249999999999657
 30
0.0
 11
2078.67559418078
 21
15.6999999999997
 31
0.0
  0
LINE
  5
508
330
71
100
AcDbEntity
  8
0
100
AcDbLine
 10
2073.67559418078
 20
15.6999999999997
 30
0.0
 11
2073.67559418078
 21
8.249999999999657
 31
0.0
  0
LINE
  5
518
330
71
100
AcDbEntity
  8
0
100
AcDbLine
 10
1923.425594180762
 20
202.7499999999976
 30
0.0
 11
2067.175594180762
 21
202.7499999999976
 31
0.0
  0
LINE
  5
519
330
71
100
AcDbEntity
  8
0
100
AcDbLine
 10
2067.175594180762
 20
161.9950353879072
 30
0.0
 11
1923.425594180762
 21
161.9950353879072
 31
0.0
  0
LINE
  5
51A
330
71
100
AcDbEntity
  8
0
100
AcDbLine
 10
2067.175594180762
 20
202.7499999999976
 30
0.0
 11
2067.175594180762
 21
161.9950353879072
 31
0.0
  0
LINE
  5
51B
330
71
100
AcDbEntity
  8
0
100
AcDbLine
 10
1923.425594180762
 20
161.9950353879072
 30
0.0
 11
1923.425594180762
 21
202.7499999999976
 31
0.0
  0
LWPOLYLINE
  5
51C
330
71
100
AcDbEntity
  8
0
100
AcDbPolyline
 90
       41
 70
   128
 43
0.0
 10
1937.55059418078
 20
202.7500000000002
 10
1937.67056218334
 20
202.7523996800173
 10
1937.790338262688
 20
202.7595948810924
 10
1937.909730802647
 20
202.7715740924388
 10
1938.028548800623
 20
202.7883181498734
 10
1938.146602173166
 20
202.8098002664766
 10
1938.263702060062
 20
202.8359860754442
 10
1938.379661126473
 20
202.8668336850681
 10
1938.494293862629
 20
202.902293745753
 10
1938.607416880605
 20
202.9423095289666
 10
1938.718849207706
 20
202.9868170179917
 10
1938.828412575978
 20
203.0357450103404
 10
1938.935931707405
 20
203.0890152316625
 10
1939.041234594312
 20
203.1465424609674
 10
1939.144152774543
 20
203.20823466696
 10
1939.244521600966
 20
203.2739931552713
 10
1939.342180504868
 20
203.3437127263474
 10
1939.436973252836
 20
203.4172818437474
 10
1939.528748196695
 20
203.4945828125774
 10
1939.617358516112
 20
203.5754919677776
 10
1939.702662453479
 20
203.6598798719588
 10
1939.784523540693
 20
203.7476115224765
 10
1939.862810817477
 20
203.8385465674047
 10
1939.93739904089
 20
203.93253953007
 10
1940.008168885684
 20
204.029440041783
 10
1940.075007135204
 20
204.1290930823958
 10
1940.137806862511
 20
204.2313392283019
 10
1940.196467601435
 20
204.336014907479
 10
1940.25089550731
 20
204.44295266117
 10
1940.301003507096
 20
204.5519814117815
 10
1940.346711438682
 20
204.6629267365703
 10
1940.387946179129
 20
204.7756111466841
 10
1940.424641761648
 20
204.8898543711045
 10
1940.456739481135
 20
205.0054736450432
 10
1940.484187988086
 20
205.122284002326
 10
1940.506943370746
 20
205.2400985712997
 10
1940.524969225355
 20
205.3587288737858
 10
1940.538236714393
 20
205.4779851266074
 10
1940.546724612707
 20
205.5976765451995
 10
1940.550419341471
 20
205.7176116488255
 10
1940.550594180781
 20
205.7500000000002
  0
LWPOLYLINE
  5
51D
330
71
100
AcDbEntity
  8
0
100
AcDbPolyline
 90
       41
 70
   128
 43
0.0
 10
2050.050594180781
 20
205.7500000000002
 10
2050.052993860798
 20
205.6300319974404
 10
2050.060189061873
 20
205.5102559180929
 10
2050.072168273219
 20
205.3908633781335
 10
2050.088912330654
 20
205.2720453801576
 10
2050.110394447257
 20
205.1539920076151
 10
2050.136580256225
 20
205.0368921207189
 10
2050.167427865849
 20
204.9209330543079
 10
2050.202887926533
 20
204.8063003181518
 10
2050.242903709747
 20
204.6931773001752
 10
2050.287411198772
 20
204.5817449730743
 10
2050.336339191121
 20
204.4721816048023
 10
2050.389609412443
 20
204.3646624733759
 10
2050.447136641747
 20
204.2593595864691
 10
2050.508828847741
 20
204.1564414062376
 10
2050.574587336052
 20
204.0560725798152
 10
2050.644306907128
 20
203.9584136759131
 10
2050.717876024528
 20
203.8636209279448
 10
2050.795176993358
 20
203.7718459840859
 10
2050.876086148558
 20
203.6832356646685
 10
2050.96047405274
 20
203.5979317273016
 10
2051.048205703257
 20
203.5160706400878
 10
2051.139140748185
 20
203.4377833633035
 10
2051.23313371085
 20
203.3631951398912
 10
2051.330034222563
 20
203.2924252950972
 10
2051.429687263176
 20
203.2255870455766
 10
2051.531933409082
 20
203.1627873182702
 10
2051.63660908826
 20
203.1041265793454
 10
2051.74354684195
 20
203.0496986734707
 10
2051.852575592562
 20
202.9995906736851
 10
2051.96352091735
 20
202.9538827420987
 10
2052.076205327464
 20
202.9126480016516
 10
2052.190448551885
 20
202.8759524191328
 10
2052.306067825824
 20
202.8438546996455
 10
2052.422878183106
 20
202.8164061926943
 10
2052.54069275208
 20
202.7936508100349
 10
2052.659323054566
 20
202.7756249554253
 10
2052.778579307388
 20
202.7623574663874
 10
2052.898270725981
 20
202.7538695680737
 10
2053.018205829606
 20
202.7501748393105
 10
2053.050594180781
 20
202.7500000000002
  0
LINE
  5
51E
330
71
100
AcDbEntity
  8
0
100
AcDbLine
 10
2050.050594180781
 20
205.7500000000002
 30
0.0
 11
2050.050594180781
 21
215.375
 31
0.0
  0
LINE
  5
51F
330
71
100
AcDbEntity
  8
0
100
AcDbLine
 10
1940.550594180781
 20
215.375
 30
0.0
 11
1940.550594180781
 21
205.7500000000002
 31
0.0
  0
LINE
  5
520
330
71
100
AcDbEntity
  8
0
100
AcDbLine
 10
2051.550594180781
 20
215.3750000000002
 30
0.0
 11
2051.550594180781
 21
215.6250000000001
 31
0.0
  0
LINE
  5
521
330
71
100
AcDbEntity
  8
0
100
AcDbLine
 10
1939.05059418078
 20
215.6250000000001
 30
0.0
 11
1939.05059418078
 21
215.3750000000002
 31
0.0
  0
LINE
  5
522
330
71
100
AcDbEntity
  8
0
100
AcDbLine
 10
2051.550594180781
 20
215.6250000000001
 30
0.0
 11
1998.300594180781
 21
224.1250000000002
 31
0.0
  0
LINE
  5
523
330
71
100
AcDbEntity
  8
0
100
AcDbLine
 10
1992.30059418078
 20
224.1250000000002
 30
0.0
 11
1939.05059418078
 21
215.6250000000001
 31
0.0
  0
LINE
  5
524
330
71
100
AcDbEntity
  8
0
100
AcDbLine
 10
2051.550594180781
 20
215.3749999999999
 30
0.0
 11
1939.05059418078
 21
215.3749999999999
 31
0.0
  0
LINE
  5
525
330
71
100
AcDbEntity
  8
0
100
AcDbLine
 10
2051.550594180781
 20
215.6249999999998
 30
0.0
 11
1939.05059418078
 21
215.6249999999998
 31
0.0
  0
LINE
  5
526
330
71
100
AcDbEntity
  8
0
100
AcDbLine
 10
1998.300594180781
 20
224.1249999999999
 30
0.0
 11
1992.30059418078
 21
224.1249999999999
 31
0.0
  0
LINE
  5
527
330
71
100
AcDbEntity
  8
0
100
AcDbLine
 10
1923.42559418078
 20
161.75
 30
0.0
 11
2067.175594180779
 21
161.75
 31
0.0
  0
LINE
  5
528
330
71
100
AcDbEntity
  8
0
100
AcDbLine
 10
2067.175594180779
 20
58.37499999999998
 30
0.0
 11
1923.42559418078
 21
58.37499999999998
 31
0.0
  0
LINE
  5
529
330
71
100
AcDbEntity
  8
0
100
AcDbLine
 10
1923.42559418078
 20
58.37499999999998
 30
0.0
 11
1923.42559418078
 21
161.75
 31
0.0
  0
LINE
  5
52A
330
71
100
AcDbEntity
  8
0
100
AcDbLine
 10
2006.61309418078
 20
139.1250000000027
 30
0.0
 11
2041.11309418078
 21
139.1250000000027
 31
0.0
  0
LINE
  5
52B
330
71
100
AcDbEntity
  8
0
100
AcDbLine
 10
2041.11309418078
 20
139.1250000000027
 30
0.0
 11
2041.11309418078
 21
79.12500000000235
 31
0.0
  0
LINE
  5
52C
330
71
100
AcDbEntity
  8
0
100
AcDbLine
 10
2041.11309418078
 20
79.12500000000235
 30
0.0
 11
2006.61309418078
 21
79.12500000000235
 31
0.0
  0
LINE
  5
52D
330
71
100
AcDbEntity
  8
0
100
AcDbLine
 10
2006.61309418078
 20
79.12500000000235
 30
0.0
 11
2006.61309418078
 21
139.1250000000028
 31
0.0
  0
LINE
  5
52E
330
71
100
AcDbEntity
  8
0
100
AcDbLine
 10
1949.48809418078
 20
79.12500000000235
 30
0.0
 11
1949.48809418078
 21
139.1250000000027
 31
0.0
  0
LINE
  5
52F
330
71
100
AcDbEntity
  8
0
100
AcDbLine
 10
1949.48809418078
 20
139.1250000000027
 30
0.0
 11
1983.98809418078
 21
139.1250000000027
 31
0.0
  0
LINE
  5
530
330
71
100
AcDbEntity
  8
0
100
AcDbLine
 10
1983.98809418078
 20
139.1250000000027
 30
0.0
 11
1983.98809418078
 21
79.12500000000235
 31
0.0
  0
LINE
  5
531
330
71
100
AcDbEntity
  8
0
100
AcDbLine
 10
1983.98809418078
 20
79.12500000000235
 30
0.0
 11
1949.48809418078
 21
79.12500000000235
 31
0.0
  0
LINE
  5
532
330
71
100
AcDbEntity
  8
0
100
AcDbLine
 10
2067.175594180779
 20
58.37499999999998
 30
0.0
 11
2067.175594180779
 21
161.75
 31
0.0
  0
LINE
  5
536
330
71
100
AcDbEntity
  8
0
100
AcDbLine
 10
1923.425594180782
 20
58.375
 30
0.0
 11
2067.175594180783
 21
58.375
 31
0.0
  0
LINE
  5
537
330
71
100
AcDbEntity
  8
0
100
AcDbLine
 10
2067.175594180783
 20
0.0
 30
0.0
 11
1923.425594180782
 21
0.0
 31
0.0
  0
LINE
  5
538
330
71
100
AcDbEntity
  8
0
100
AcDbLine
 10
2067.175594180783
 20
58.375
 30
0.0
 11
2067.175594180783
 21
52.49999999999964
 31
0.0
  0
LINE
  5
539
330
71
100
AcDbEntity
  8
0
100
AcDbLine
 10
2067.175594180783
 20
16.49999999999964
 30
0.0
 11
2067.175594180783
 21
0.0
 31
0.0
  0
LINE
  5
53A
330
71
100
AcDbEntity
  8
0
100
AcDbLine
 10
1923.425594180782
 20
52.5000000000001
 30
0.0
 11
1923.425594180782
 21
58.375
 31
0.0
  0
LINE
  5
53B
102
{ACAD_REACTORS
330
A12
102
}
330
71
100
AcDbEntity
  8
0
100
AcDbLine
 10
1923.425594180782
 20
52.5000000000001
 30
0.0
 11
2067.175594180783
 21
52.49999999999966
 31
0.0
  0
LINE
  5
53C
102
{ACAD_REACTORS
330
A12
102
}
330
71
100
AcDbEntity
  8
0
100
AcDbLine
 10
2067.175594180783
 20
16.49999999999964
 30
0.0
 11
1923.425594180782
 21
16.50000000000011
 31
0.0
  0
LINE
  5
53D
330
71
100
AcDbEntity
  8
0
100
AcDbLine
 10
1923.425594180782
 20
0.0
 30
0.0
 11
1923.425594180782
 21
16.50000000000011
 31
0.0
  0
LINE
  5
53E
330
71
100
AcDbEntity
  8
0
100
AcDbLine
 10
2066.175594180782
 20
52.49999999999966
 30
0.0
 11
2066.175594180782
 21
16.49999999999964
 31
0.0
  0
LINE
  5
53F
330
71
100
AcDbEntity
  8
0
100
AcDbLine
 10
2064.800594180782
 20
52.49999999999966
 30
0.0
 11
2064.800594180782
 21
16.49999999999965
 31
0.0
  0
LINE
  5
540
102
{ACAD_REACTORS
330
A12
102
}
330
71
100
AcDbEntity
  8
0
100
AcDbLine
 10
2061.425594180782
 20
52.49999999999968
 30
0.0
 11
2061.425594180782
 21
16.49999999999966
 31
0.0
  0
LINE
  5
542
102
{ACAD_REACTORS
330
A12
102
}
330
71
100
AcDbEntity
  8
0
100
AcDbLine
 10
1997.050594180783
 20
52.49999999999985
 30
0.0
 11
1997.050594180783
 21
16.49999999999987
 31
0.0
  0
LINE
  5
544
102
{ACAD_REACTORS
330
A12
102
}
330
71
100
AcDbEntity
  8
0
100
AcDbLine
 10
1993.550594180783
 20
16.49999999999988
 30
0.0
 11
1993.550594180783
 21
52.49999999999989
 31
0.0
  0
LINE
  5
547
102
{ACAD_REACTORS
330
A12
102
}
330
71
100
AcDbEntity
  8
0
100
AcDbLine
 10
1929.175594180781
 20
52.5000000000001
 30
0.0
 11
1929.175594180781
 21
16.50000000000009
 31
0.0
  0
LINE
  5
548
330
71
100
AcDbEntity
  8
0
100
AcDbLine
 10
1925.800594180783
 20
52.5000000000001
 30
0.0
 11
1925.800594180783
 21
16.5000000000001
 31
0.0
  0
LINE
  5
549
330
71
100
AcDbEntity
  8
0
100
AcDbLine
 10
1924.425594180782
 20
52.5000000000001
 30
0.0
 11
1924.425594180782
 21
16.5000000000001
 31
0.0
  0
ARC
  5
54A
330
71
100
AcDbEntity
  8
0
100
AcDbCircle
 10
2043.175594180779
 20
182.2500000000011
 30
0.0
 40
8.250000000000012
100
AcDbArc
 50
179.9999999999997
 51
359.9999999999986
  0
ARC
  5
54B
330
71
100
AcDbEntity
  8
0
100
AcDbCircle
 10
2043.175594180779
 20
182.2500000000011
 30
0.0
 40
8.249999999999971
100
AcDbArc
 50
359.9999999999994
 51
179.9999999999998
  0
ARC
  5
54C
330
71
100
AcDbEntity
  8
0
100
AcDbCircle
 10
2043.175594180779
 20
182.2500000000011
 30
0.0
 40
7.687500000000002
100
AcDbArc
 50
0.0000000000006107
 51
180.0000000000002
  0
ARC
  5
54D
330
71
100
AcDbEntity
  8
0
100
AcDbCircle
 10
2043.175594180779
 20
182.2500000000011
 30
0.0
 40
7.687499999999981
100
AcDbArc
 50
180.0000000000003
 51
359.9999999999996
  0
LINE
  5
54E
330
71
100
AcDbEntity
  8
0
100
AcDbLine
 10
2048.298094954768
 20
179.8081441512037
 30
0.0
 11
2048.103154478577
 21
179.359235421045
 31
0.0
  0
LINE
  5
54F
330
71
100
AcDbEntity
  8
0
100
AcDbLine
 10
2048.103154478577
 20
179.359235421045
 30
0.0
 11
2047.652261621434
 21
179.2019933575529
 31
0.0
  0
LINE
  5
550
330
71
100
AcDbEntity
  8
0
100
AcDbLine
 10
2047.652261621434
 20
179.2019933575529
 30
0.0
 11
2047.327732851593
 21
179.266229468664
 31
0.0
  0
LINE
  5
551
330
71
100
AcDbEntity
  8
0
100
AcDbLine
 10
2047.327732851593
 20
179.266229468664
 30
0.0
 11
2047.092241780164
 21
179.4589378019974
 31
0.0
  0
LINE
  5
552
330
71
100
AcDbEntity
  8
0
100
AcDbLine
 10
2047.092241780164
 20
179.4589378019974
 30
0.0
 11
2046.901269557942
 21
180.2168743099339
 31
0.0
  0
LINE
  5
553
330
71
100
AcDbEntity
  8
0
100
AcDbLine
 10
2046.901269557942
 20
180.2168743099339
 30
0.0
 11
2047.08529733572
 21
180.9807631988228
 31
0.0
  0
LINE
  5
554
330
71
100
AcDbEntity
  8
0
100
AcDbLine
 10
2047.08529733572
 20
180.9807631988228
 30
0.0
 11
2047.315084042069
 21
181.1704953416799
 31
0.0
  0
LINE
  5
555
330
71
100
AcDbEntity
  8
0
100
AcDbLine
 10
2047.315084042069
 20
181.1704953416799
 30
0.0
 11
2047.636388605561
 21
181.233739389299
 31
0.0
  0
LINE
  5
556
330
71
100
AcDbEntity
  8
0
100
AcDbLine
 10
2047.636388605561
 20
181.233739389299
 30
0.0
 11
2048.104642573815
 21
181.0903862146958
 31
0.0
  0
LINE
  5
557
330
71
100
AcDbEntity
  8
0
100
AcDbLine
 10
2048.104642573815
 20
181.0903862146958
 30
0.0
 11
2048.298094954768
 21
180.6652870083466
 31
0.0
  0
LINE
  5
558
330
71
100
AcDbEntity
  8
0
100
AcDbLine
 10
2048.298094954768
 20
180.6652870083466
 30
0.0
 11
2049.440952097625
 21
180.6652870083466
 31
0.0
  0
LINE
  5
559
330
71
100
AcDbEntity
  8
0
100
AcDbLine
 10
2049.440952097625
 20
180.6652870083466
 30
0.0
 11
2049.280733843656
 21
181.3129804607275
 31
0.0
  0
LINE
  5
55A
330
71
100
AcDbEntity
  8
0
100
AcDbLine
 10
2049.280733843656
 20
181.3129804607275
 30
0.0
 11
2048.913174319848
 21
181.7917751035847
 31
0.0
  0
LINE
  5
55B
330
71
100
AcDbEntity
  8
0
100
AcDbLine
 10
2048.913174319848
 20
181.7917751035847
 30
0.0
 11
2048.354146542069
 21
182.0875340321561
 31
0.0
  0
LINE
  5
55C
330
71
100
AcDbEntity
  8
0
100
AcDbLine
 10
2048.354146542069
 20
182.0875340321561
 30
0.0
 11
2047.619523526196
 21
182.1861203416799
 31
0.0
  0
LINE
  5
55D
330
71
100
AcDbEntity
  8
0
100
AcDbLine
 10
2047.619523526196
 20
182.1861203416799
 30
0.0
 11
2046.821532454767
 21
182.0541758972355
 31
0.0
  0
LINE
  5
55E
330
71
100
AcDbEntity
  8
0
100
AcDbLine
 10
2046.821532454767
 20
182.0541758972355
 30
0.0
 11
2046.211289399212
 21
181.6583425639021
 31
0.0
  0
LINE
  5
55F
330
71
100
AcDbEntity
  8
0
100
AcDbLine
 10
2046.211289399212
 20
181.6583425639021
 30
0.0
 11
2045.824012613497
 21
181.0343346273942
 31
0.0
  0
LINE
  5
560
330
71
100
AcDbEntity
  8
0
100
AcDbLine
 10
2045.824012613497
 20
181.0343346273942
 30
0.0
 11
2045.694920351593
 21
180.2178663734259
 31
0.0
  0
LINE
  5
561
330
71
100
AcDbEntity
  8
0
100
AcDbLine
 10
2045.694920351593
 20
180.2178663734259
 30
0.0
 11
2045.82463265318
 21
179.3995380004101
 31
0.0
  0
LINE
  5
562
330
71
100
AcDbEntity
  8
0
100
AcDbLine
 10
2045.82463265318
 20
179.3995380004101
 30
0.0
 11
2046.213769557942
 21
178.7759020877117
 31
0.0
  0
LINE
  5
563
330
71
100
AcDbEntity
  8
0
100
AcDbLine
 10
2046.213769557942
 20
178.7759020877117
 30
0.0
 11
2046.829096938894
 21
178.3811848258069
 31
0.0
  0
LINE
  5
564
330
71
100
AcDbEntity
  8
0
100
AcDbLine
 10
2046.829096938894
 20
178.3811848258069
 30
0.0
 11
2047.637380669053
 21
178.249612405172
 31
0.0
  0
LINE
  5
565
330
71
100
AcDbEntity
  8
0
100
AcDbLine
 10
2047.637380669053
 20
178.249612405172
 30
0.0
 11
2048.360470946831
 21
178.3517949448545
 31
0.0
  0
LINE
  5
566
330
71
100
AcDbEntity
  8
0
100
AcDbLine
 10
2048.360470946831
 20
178.3517949448545
 30
0.0
 11
2048.916646542069
 21
178.6583425639021
 31
0.0
  0
LINE
  5
567
330
71
100
AcDbEntity
  8
0
100
AcDbLine
 10
2048.916646542069
 20
178.6583425639021
 30
0.0
 11
2049.284082057942
 21
179.1501580400925
 31
0.0
  0
LINE
  5
568
330
71
100
AcDbEntity
  8
0
100
AcDbLine
 10
2049.284082057942
 20
179.1501580400925
 30
0.0
 11
2049.440952097625
 21
179.8081441512037
 31
0.0
  0
LINE
  5
569
330
71
100
AcDbEntity
  8
0
100
AcDbLine
 10
2049.440952097625
 20
179.8081441512037
 30
0.0
 11
2048.298094954768
 21
179.8081441512037
 31
0.0
  0
LINE
  5
56A
330
71
100
AcDbEntity
  8
0
100
AcDbLine
 10
2041.076367577
 20
180.5822183401269
 30
0.0
 11
2042.253946942079
 21
180.5822183401269
 31
0.0
  0
LINE
  5
56B
330
71
100
AcDbEntity
  8
0
100
AcDbLine
 10
2042.253946942079
 20
180.5822183401269
 30
0.0
 11
2042.400772338905
 21
181.0901548480634
 31
0.0
  0
LINE
  5
56C
330
71
100
AcDbEntity
  8
0
100
AcDbLine
 10
2042.400772338905
 20
181.0901548480634
 30
0.0
 11
2043.604145354777
 21
181.0901548480634
 31
0.0
  0
LINE
  5
56D
330
71
100
AcDbEntity
  8
0
100
AcDbLine
 10
2043.604145354777
 20
181.0901548480634
 30
0.0
 11
2043.746010434142
 21
180.5822183401269
 31
0.0
  0
LINE
  5
56E
330
71
100
AcDbEntity
  8
0
100
AcDbLine
 10
2043.746010434142
 20
180.5822183401269
 30
0.0
 11
2044.949383450016
 21
180.5822183401269
 31
0.0
  0
LINE
  5
56F
330
71
100
AcDbEntity
  8
0
100
AcDbLine
 10
2044.949383450016
 20
180.5822183401269
 30
0.0
 11
2043.620018370651
 21
184.3917421496508
 31
0.0
  0
LINE
  5
570
330
71
100
AcDbEntity
  8
0
100
AcDbLine
 10
2043.620018370651
 20
184.3917421496508
 30
0.0
 11
2042.390851703984
 21
184.3917421496508
 31
0.0
  0
LINE
  5
571
330
71
100
AcDbEntity
  8
0
100
AcDbLine
 10
2042.390851703984
 20
184.3917421496508
 30
0.0
 11
2041.076367577
 21
180.5822183401269
 31
0.0
  0
LINE
  5
572
330
71
100
AcDbEntity
  8
0
100
AcDbLine
 10
2042.621010434142
 20
181.9155516734602
 30
0.0
 11
2043.006923132555
 21
183.2191231020316
 31
0.0
  0
LINE
  5
573
330
71
100
AcDbEntity
  8
0
100
AcDbLine
 10
2043.006923132555
 20
183.2191231020316
 30
0.0
 11
2043.383907259539
 21
181.9155516734602
 31
0.0
  0
LINE
  5
574
330
71
100
AcDbEntity
  8
0
100
AcDbLine
 10
2043.383907259539
 20
181.9155516734602
 30
0.0
 11
2042.621010434142
 21
181.9155516734602
 31
0.0
  0
LINE
  5
575
330
71
100
AcDbEntity
  8
0
100
AcDbLine
 10
2037.315636386738
 20
182.3226066493072
 30
0.0
 11
2039.015041148643
 21
182.3226066493072
 31
0.0
  0
LINE
  5
576
330
71
100
AcDbEntity
  8
0
100
AcDbLine
 10
2039.015041148643
 20
182.3226066493072
 30
0.0
 11
2039.7828982915
 21
182.3612971254977
 31
0.0
  0
LINE
  5
577
330
71
100
AcDbEntity
  8
0
100
AcDbLine
 10
2039.7828982915
 20
182.3612971254977
 30
0.0
 11
2040.195596704199
 21
182.4932415699421
 31
0.0
  0
LINE
  5
578
330
71
100
AcDbEntity
  8
0
100
AcDbLine
 10
2040.195596704199
 20
182.4932415699421
 30
0.0
 11
2040.603830831183
 21
182.8761780778786
 31
0.0
  0
LINE
  5
579
330
71
100
AcDbEntity
  8
0
100
AcDbLine
 10
2040.603830831183
 20
182.8761780778786
 30
0.0
 11
2040.744207815309
 21
183.4634796651802
 31
0.0
  0
LINE
  5
57A
330
71
100
AcDbEntity
  8
0
100
AcDbLine
 10
2040.744207815309
 20
183.4634796651802
 30
0.0
 11
2040.600358608961
 21
184.0264756969262
 31
0.0
  0
LINE
  5
57B
330
71
100
AcDbEntity
  8
0
100
AcDbLine
 10
2040.600358608961
 20
184.0264756969262
 30
0.0
 11
2040.156906228008
 21
184.351376490577
 31
0.0
  0
LINE
  5
57C
330
71
100
AcDbEntity
  8
0
100
AcDbLine
 10
2040.156906228008
 20
184.351376490577
 30
0.0
 11
2040.502144323246
 21
184.6688368080374
 31
0.0
  0
LINE
  5
57D
330
71
100
AcDbEntity
  8
0
100
AcDbLine
 10
2040.502144323246
 20
184.6688368080374
 30
0.0
 11
2040.617223688326
 21
185.1212177604183
 31
0.0
  0
LINE
  5
57E
330
71
100
AcDbEntity
  8
0
100
AcDbLine
 10
2040.617223688326
 20
185.1212177604183
 30
0.0
 11
2040.463453847056
 21
185.6812376016881
 31
0.0
  0
LINE
  5
57F
330
71
100
AcDbEntity
  8
0
100
AcDbLine
 10
2040.463453847056
 20
185.6812376016881
 30
0.0
 11
2040.020993529596
 21
186.0210193477199
 31
0.0
  0
LINE
  5
580
330
71
100
AcDbEntity
  8
0
100
AcDbLine
 10
2040.020993529596
 20
186.0210193477199
 30
0.0
 11
2039.625656228008
 21
186.1063368080374
 31
0.0
  0
LINE
  5
581
330
71
100
AcDbEntity
  8
0
100
AcDbLine
 10
2039.625656228008
 20
186.1063368080374
 30
0.0
 11
2038.892025275627
 21
186.132130458831
 31
0.0
  0
LINE
  5
582
330
71
100
AcDbEntity
  8
0
100
AcDbLine
 10
2038.892025275627
 20
186.132130458831
 30
0.0
 11
2037.315636386738
 21
186.132130458831
 31
0.0
  0
LINE
  5
583
330
71
100
AcDbEntity
  8
0
100
AcDbLine
 10
2037.315636386738
 20
186.132130458831
 30
0.0
 11
2037.315636386738
 21
182.3226066493072
 31
0.0
  0
LINE
  5
584
330
71
100
AcDbEntity
  8
0
100
AcDbLine
 10
2038.521985593087
 20
183.2114955381961
 30
0.0
 11
2038.521985593087
 21
183.9099082366088
 31
0.0
  0
LINE
  5
585
330
71
100
AcDbEntity
  8
0
100
AcDbLine
 10
2038.521985593087
 20
183.9099082366088
 30
0.0
 11
2039.070596704199
 21
183.9099082366088
 31
0.0
  0
LINE
  5
586
330
71
100
AcDbEntity
  8
0
100
AcDbLine
 10
2039.070596704199
 20
183.9099082366088
 30
0.0
 11
2039.479822894675
 21
183.8305431572435
 31
0.0
  0
LINE
  5
587
330
71
100
AcDbEntity
  8
0
100
AcDbLine
 10
2039.479822894675
 20
183.8305431572435
 30
0.0
 11
2039.601350672453
 21
183.5636780778786
 31
0.0
  0
LINE
  5
588
330
71
100
AcDbEntity
  8
0
100
AcDbLine
 10
2039.601350672453
 20
183.5636780778786
 30
0.0
 11
2039.482303053405
 21
183.2938368080374
 31
0.0
  0
LINE
  5
589
330
71
100
AcDbEntity
  8
0
100
AcDbLine
 10
2039.482303053405
 20
183.2938368080374
 30
0.0
 11
2039.081509402612
 21
183.2114955381961
 31
0.0
  0
LINE
  5
58A
330
71
100
AcDbEntity
  8
0
100
AcDbLine
 10
2039.081509402612
 20
183.2114955381961
 30
0.0
 11
2038.521985593087
 21
183.2114955381961
 31
0.0
  0
LINE
  5
58B
330
71
100
AcDbEntity
  8
0
100
AcDbLine
 10
2038.521985593087
 20
184.6083209350214
 30
0.0
 11
2038.521985593087
 21
185.2432415699421
 31
0.0
  0
LINE
  5
58C
330
71
100
AcDbEntity
  8
0
100
AcDbLine
 10
2038.521985593087
 20
185.2432415699421
 30
0.0
 11
2038.856310989913
 21
185.2432415699421
 31
0.0
  0
LINE
  5
58D
330
71
100
AcDbEntity
  8
0
100
AcDbLine
 10
2038.856310989913
 20
185.2432415699421
 30
0.0
 11
2039.364743529596
 21
185.1757812524818
 31
0.0
  0
LINE
  5
58E
330
71
100
AcDbEntity
  8
0
100
AcDbLine
 10
2039.364743529596
 20
185.1757812524818
 30
0.0
 11
2039.474366545468
 21
184.9257812524818
 31
0.0
  0
LINE
  5
58F
330
71
100
AcDbEntity
  8
0
100
AcDbLine
 10
2039.474366545468
 20
184.9257812524818
 30
0.0
 11
2039.372184005786
 21
184.6807415699421
 31
0.0
  0
LINE
  5
590
330
71
100
AcDbEntity
  8
0
100
AcDbLine
 10
2039.372184005786
 20
184.6807415699421
 30
0.0
 11
2039.020001466103
 21
184.6083209350214
 31
0.0
  0
LINE
  5
591
330
71
100
AcDbEntity
  8
0
100
AcDbLine
 10
2039.020001466103
 20
184.6083209350214
 30
0.0
 11
2038.521985593087
 21
184.6083209350214
 31
0.0
  0
ARC
  5
592
330
71
100
AcDbEntity
  8
0
100
AcDbCircle
 10
2043.175594180779
 20
182.2500000000018
 30
0.0
 40
9.000000000000021
100
AcDbArc
 50
179.9999999999997
 51
359.9999999999986
  0
ARC
  5
593
330
71
100
AcDbEntity
  8
0
100
AcDbCircle
 10
2043.175594180779
 20
182.2500000000018
 30
0.0
 40
8.999999999999991
100
AcDbArc
 50
359.9999999999994
 51
179.9999999999998
  0
LINE
  5
594
330
71
100
AcDbEntity
  8
0
100
AcDbLine
 10
2067.175594180783
 20
11.50000000000011
 30
0.0
 11
2067.42559418078
 21
11.50000000000011
 31
0.0
  0
LINE
  5
595
330
71
100
AcDbEntity
  8
0
100
AcDbLine
 10
2067.42559418078
 20
14.50000000000011
 30
0.0
 11
2067.175594180783
 21
14.50000000000011
 31
0.0
  0
LINE
  5
596
330
71
100
AcDbEntity
  8
0
100
AcDbLine
 10
2067.175594180783
 20
2.12499999999994
 30
0.0
 11
2067.42559418078
 21
2.12499999999994
 31
0.0
  0
LINE
  5
597
330
71
100
AcDbEntity
  8
0
100
AcDbLine
 10
2067.42559418078
 20
4.124999999999999
 30
0.0
 11
2067.175594180783
 21
4.124999999999999
 31
0.0
  0
LINE
  5
598
330
71
100
AcDbEntity
  8
0
100
AcDbLine
 10
2066.175594180782
 20
21.24999999999994
 30
0.0
 11
2067.42559418078
 21
21.24999999999994
 31
0.0
  0
LINE
  5
599
330
71
100
AcDbEntity
  8
0
100
AcDbLine
 10
2067.42559418078
 20
22.75000000000011
 30
0.0
 11
2066.175594180782
 21
22.75000000000011
 31
0.0
  0
LINE
  5
59C
330
71
100
AcDbEntity
  8
0
100
AcDbLine
 10
2067.42559418078
 20
14.5
 30
0.0
 11
2067.42559418078
 21
13.0
 31
0.0
  0
LINE
  5
59D
330
71
100
AcDbEntity
  8
0
100
AcDbLine
 10
2067.42559418078
 20
12.99999999999999
 30
0.0
 11
2067.42559418078
 21
11.5
 31
0.0
  0
LINE
  5
59E
330
71
100
AcDbEntity
  8
0
100
AcDbLine
 10
2067.42559418078
 20
4.125
 30
0.0
 11
2067.42559418078
 21
3.125000000000006
 31
0.0
  0
LINE
  5
59F
330
71
100
AcDbEntity
  8
0
100
AcDbLine
 10
2067.42559418078
 20
3.124999999999995
 30
0.0
 11
2067.42559418078
 21
2.125
 31
0.0
  0
LINE
  5
5A0
330
71
100
AcDbEntity
  8
0
100
AcDbLine
 10
2067.42559418078
 20
22.75
 30
0.0
 11
2067.42559418078
 21
22.00000000000001
 31
0.0
  0
LINE
  5
5A1
330
71
100
AcDbEntity
  8
0
100
AcDbLine
 10
2067.42559418078
 20
21.99999999999999
 30
0.0
 11
2067.42559418078
 21
21.25
 31
0.0
  0
LINE
  5
5A2
330
71
100
AcDbEntity
  8
0
100
AcDbLine
 10
2067.17559418078
 20
141.5
 30
0.0
 11
2076.17559418078
 21
141.5
 31
0.0
  0
LINE
  5
5A3
330
71
100
AcDbEntity
  8
0
100
AcDbLine
 10
2076.17559418078
 20
145.5000000000003
 30
0.0
 11
2067.17559418078
 21
145.5000000000003
 31
0.0
  0
LINE
  5
5A4
330
71
100
AcDbEntity
  8
0
100
AcDbLine
 10
2067.17559418078
 20
70.3750000000001
 30
0.0
 11
2076.17559418078
 21
70.3750000000001
 31
0.0
  0
LINE
  5
5A5
330
71
100
AcDbEntity
  8
0
100
AcDbLine
 10
2076.17559418078
 20
74.37500000000004
 30
0.0
 11
2067.17559418078
 21
74.37500000000004
 31
0.0
  0
LINE
  5
5A6
330
71
100
AcDbEntity
  8
0
100
AcDbLine
 10
2076.17559418078
 20
145.5
 30
0.0
 11
2076.17559418078
 21
143.5
 31
0.0
  0
LINE
  5
5A7
330
71
100
AcDbEntity
  8
0
100
AcDbLine
 10
2076.17559418078
 20
143.5
 30
0.0
 11
2076.17559418078
 21
141.5
 31
0.0
  0
LINE
  5
5A8
330
71
100
AcDbEntity
  8
0
100
AcDbLine
 10
2076.17559418078
 20
74.37500000000001
 30
0.0
 11
2076.17559418078
 21
72.37500000000001
 31
0.0
  0
LINE
  5
5A9
330
71
100
AcDbEntity
  8
0
100
AcDbLine
 10
2076.17559418078
 20
72.375
 30
0.0
 11
2076.17559418078
 21
70.37500000000001
 31
0.0
  0
LWPOLYLINE
  5
5AA
330
71
100
AcDbEntity
  8
0
100
AcDbPolyline
 90
       41
 70
   128
 43
0.0
 10
2277.646204708731
 20
152.1250000000033
 10
2277.646204708731
 20
152.1218004266471
 10
2277.646204708731
 20
152.1122068252139
 10
2277.646204708731
 20
152.0962345434189
 10
2277.646204708731
 20
152.0739091335059
 10
2277.646204708731
 20
152.0452663113684
 10
2277.646204708731
 20
152.0103518994113
 10
2277.646204708731
 20
151.9692217532464
 10
2277.646204708731
 20
151.9219416723332
 10
2277.646204708731
 20
151.8685872947151
 10
2277.646204708731
 20
151.8092439760148
 10
2277.646204708731
 20
151.7440066528831
 10
2277.646204708731
 20
151.6729796911204
 10
2277.646204708731
 20
151.5962767187138
 10
2277.646204708731
 20
151.514020444057
 10
2277.646204708731
 20
151.426342459642
 10
2277.646204708731
 20
151.3333830315403
 10
2277.646204708731
 20
151.2352908750071
 10
2277.646204708731
 20
151.1322229165667
 10
2277.646204708731
 20
151.024344042967
 10
2277.646204708731
 20
150.9118268373919
 10
2277.646204708731
 20
150.7948513033685
 10
2277.646204708731
 20
150.6736045767976
 10
2277.646204708731
 20
150.5482806265771
 10
2277.646204708731
 20
150.4190799442929
 10
2277.646204708731
 20
150.2862092234757
 10
2277.646204708731
 20
150.1498810289342
 10
2277.646204708731
 20
150.0103134566979
 10
2277.646204708731
 20
149.8677297851099
 10
2277.646204708731
 20
149.7223581176282
 10
2277.646204708731
 20
149.5744310179096
 10
2277.646204708731
 20
149.4241851377581
 10
2277.646204708731
 20
149.2718608385309
 10
2277.646204708731
 20
149.1177018066125
 10
2277.646204708731
 20
148.9619546635686
 10
2277.646204708731
 20
148.8048685716037
 10
2277.646204708731
 20
148.6466948349555
 10
2277.646204708731
 20
148.4876864978602
 10
2277.646204708731
 20
148.3280979397371
 10
2277.646204708731
 20
148.1681844682359
 10
2277.646204708731
 20
148.1250000000029
  0
LWPOLYLINE
  5
5AB
330
71
100
AcDbEntity
  8
0
100
AcDbPolyline
 90
       41
 70
   128
 43
0.0
 10
2282.646204708731
 20
148.125000000003
 10
2282.646204708731
 20
148.2849573367496
 10
2282.646204708731
 20
148.4446587758796
 10
2282.646204708731
 20
148.6038488291586
 10
2282.646204708731
 20
148.76227282646
 10
2282.646204708731
 20
148.9196773231834
 10
2282.646204708731
 20
149.0758105057115
 10
2282.646204708731
 20
149.2304225942597
 10
2282.646204708731
 20
149.3832662424675
 10
2282.646204708731
 20
149.5340969331035
 10
2282.646204708731
 20
149.6826733692377
 10
2282.646204708731
 20
149.828757860267
 10
2282.646204708731
 20
149.9721167021692
 10
2282.646204708731
 20
150.1125205513782
 10
2282.646204708731
 20
150.2497447916866
 10
2282.646204708731
 20
150.3835698935833
 10
2282.646204708731
 20
150.5137817654526
 10
2282.646204708731
 20
150.640172096077
 10
2282.646204708731
 20
150.7625386878892
 10
2282.646204708731
 20
150.8806857804455
 10
2282.646204708731
 20
150.9944243636014
 10
2282.646204708731
 20
151.1035724798866
 10
2282.646204708731
 20
151.2079555155993
 10
2282.646204708731
 20
151.3074064801488
 10
2282.646204708731
 20
151.4017662732074
 10
2282.646204708731
 20
151.4908839392351
 10
2282.646204708731
 20
151.5746169089767
 10
2282.646204708731
 20
151.6528312275431
 10
2282.646204708731
 20
151.7254017687094
 10
2282.646204708731
 20
151.7922124350905
 10
2282.646204708731
 20
151.8531563438721
 10
2282.646204708731
 20
151.9081359978015
 10
2282.646204708731
 20
151.9570634411602
 10
2282.646204708731
 20
151.9998604004765
 10
2282.646204708731
 20
152.0364584097447
 10
2282.646204708731
 20
152.0667989199572
 10
2282.646204708731
 20
152.0908333927701
 10
2282.646204708731
 20
152.108523378154
 10
2282.646204708731
 20
152.1198405759057
 10
2282.646204708731
 20
152.1247668809235
 10
2282.646204708731
 20
152.1250000000035
  0
LINE
  5
5AC
330
71
100
AcDbEntity
  8
0
100
AcDbLine
 10
2277.646204708731
 20
148.1250000000029
 30
0.0
 11
2277.646204708731
 21
140.1250000000028
 31
0.0
  0
LINE
  5
5AD
330
71
100
AcDbEntity
  8
0
100
AcDbLine
 10
2282.646204708731
 20
140.1250000000028
 30
0.0
 11
2282.646204708731
 21
148.125000000003
 31
0.0
  0
LINE
  5
5B0
330
71
100
AcDbEntity
  8
0
100
AcDbLine
 10
2252.409014478023
 20
10.24989559934311
 30
0.0
 11
2256.796204708733
 21
10.24989559934311
 31
0.0
  0
LINE
  5
5B1
330
71
100
AcDbEntity
  8
0
100
AcDbLine
 10
2256.796204708733
 20
6.250104400656031
 30
0.0
 11
2252.409014478024
 21
6.250104400656031
 31
0.0
  0
LINE
  5
5B2
330
71
100
AcDbEntity
  8
0
100
AcDbLine
 10
2256.796204708733
 20
10.24989559934311
 30
0.0
 11
2256.796204708733
 21
6.250104400656031
 31
0.0
  0
LWPOLYLINE
  5
5B3
330
71
100
AcDbEntity
  8
0
100
AcDbPolyline
 90
       80
 70
   128
 43
0.0
 10
2247.396204708733
 20
13.65000000000037
 10
2247.180262304125
 20
13.64568057596955
 10
2246.9646653613
 20
13.63272921403438
 10
2246.749758789373
 20
13.61116663361116
 10
2246.535886393016
 20
13.58102733022866
 10
2246.323390322439
 20
13.54235952034304
 10
2246.112610526026
 20
13.49522506420135
 10
2245.903884206486
 20
13.43969936687841
 10
2245.697545281405
 20
13.37587125764543
 10
2245.493923849047
 20
13.30384284786094
 10
2245.293345660266
 20
13.2237293676157
 10
2245.096131597376
 20
13.13565898138802
 10
2244.902597160808
 20
13.0397725830083
 10
2244.713051964376
 20
12.93622357025947
 10
2244.527799239961
 20
12.82517759947251
 10
2244.347135352399
 20
12.70681232051237
 10
2244.171349325375
 20
12.58131709257531
 10
2244.000722379033
 20
12.44889268125524
 10
2243.835527480086
 20
12.30975093736083
 10
2243.676028905135
 20
12.16411445800099
 10
2243.522481817875
 20
12.01221623047473
 10
2243.37513186089
 20
11.85429925954298
 10
2243.234214762678
 20
11.69061617867213
 10
2243.099955960536
 20
11.52142884587465
 10
2242.972570239907
 20
11.34700792479117
 10
2242.852261390769
 20
11.16763245168766
 10
2242.739221881618
 20
10.98358938905664
 10
2242.633632551553
 20
10.79517316653777
 10
2242.535662320979
 20
10.60268520989387
 10
2242.445467921365
 20
10.40643345879345
 10
2242.363193644509
 20
10.20673187417372
 10
2242.288971111705
 20
10.00389993596894
 10
2242.22291906317
 20
9.798262132012157
 10
2242.165143168094
 20
9.590147438922311
 10
2242.115735855581
 20
9.379888795813144
 10
2242.074776166794
 20
9.167822571660787
 10
2242.042329628497
 20
8.954288027185382
 10
2242.018448148229
 20
8.739626772106589
 10
2242.003169931264
 20
8.524182218640532
 10
2241.99651941949
 20
8.308299032114064
 10
2241.998507252308
 20
8.092322579572396
 10
2242.009130249609
 20
7.876598377267383
 10
2242.028371416862
 20
7.661471537903992
 10
2242.056199972307
 20
7.447286218533747
 10
2242.092571396189
 20
7.234385069977689
 10
2242.13742750199
 20
7.023108688656349
 10
2242.190696529509
 20
6.813795071710611
 10
2242.252293259666
 20
6.606779076275699
 10
2242.322119150832
 20
6.402391883784217
 10
2242.400062496476
 20
6.20096047014283
 10
2242.485998603874
 20
6.002807082644152
 10
2242.579789993584
 20
5.80824872443776
 10
2242.681286619391
 20
5.617596647393327
 10
2242.790326108346
 20
5.431155854163362
 10
2242.906734020527
 20
5.249224610245335
 10
2243.030324128106
 20
5.072093966819919
 10
2243.160898713276
 20
4.900047295130092
 10
2243.298248884555
 20
4.733359833149961
 10
2243.442154910969
 20
4.572298245259958
 10
2243.592386573574
 20
4.417120195643065
 10
2243.748703533757
 20
4.268073936075666
 10
2243.910855717726
 20
4.125397908778609
 10
2244.078583716582
 20
3.989320364959098
 10
2244.251619201302
 20
3.860058999659031
 10
2244.429685352026
 20
3.737820603488728
 10
2244.612497300896
 20
3.62280073180608
 10
2244.799762587794
 20
3.515183391869243
 10
2244.991181628206
 20
3.415140748465091
 10
2245.186448192503
 20
3.322832848481708
 10
2245.385249895837
 20
3.238407364867953
 10
2245.587268697891
 20
3.161999360387653
 10
2245.792181411676
 20
3.093731071548233
 10
2245.999660220563
 20
3.033711713049228
 10
2246.209373202717
 20
2.982037303060565
 10
2246.420984862104
 20
2.938790509614533
 10
2246.634156665209
 20
2.904040518355826
 10
2246.848547582624
 20
2.877842921857165
 10
2247.063814634612
 20
2.860239630684361
 10
2247.279613439812
 20
2.851258806348424
 10
2247.396204708733
 20
2.849999999998259
  0
LWPOLYLINE
  5
5B4
330
71
100
AcDbEntity
  8
0
100
AcDbPolyline
 90
       80
 70
   128
 43
0.0
 10
2247.396204708733
 20
2.849999999998259
 10
2247.612147113341
 20
2.854319424029085
 10
2247.827744056166
 20
2.867270785964251
 10
2248.042650628093
 20
2.888833366387301
 10
2248.25652302445
 20
2.918972669769799
 10
2248.469019095026
 20
2.957640479655593
 10
2248.67979889144
 20
3.004774935797286
 10
2248.88852521098
 20
3.06030063312022
 10
2249.09486413606
 20
3.124128742353036
 10
2249.298485568418
 20
3.196157152137344
 10
2249.4990637572
 20
3.276270632382761
 10
2249.69627782009
 20
3.364341018610616
 10
2249.889812256657
 20
3.460227416990163
 10
2250.07935745309
 20
3.563776429738993
 10
2250.264610177506
 20
3.674822400525953
 10
2250.445274065068
 20
3.793187679486266
 10
2250.621060092091
 20
3.918682907423317
 10
2250.791687038434
 20
4.051107318743389
 10
2250.956881937379
 20
4.190249062637633
 10
2251.116380512331
 20
4.335885541997639
 10
2251.269927599591
 20
4.4877837695239
 10
2251.417277556576
 20
4.645700740455481
 10
2251.558194654788
 20
4.809383821326321
 10
2251.69245345693
 20
4.978571154123983
 10
2251.819839177559
 20
5.152992075207464
 10
2251.940148026696
 20
5.332367548310627
 10
2252.053187535848
 20
5.516410610941646
 10
2252.158776865913
 20
5.704826833460514
 10
2252.256747096487
 20
5.897314790104588
 10
2252.346941496101
 20
6.093566541205007
 10
2252.429215772957
 20
6.293268125824909
 10
2252.503438305762
 20
6.496100064029517
 10
2252.569490354296
 20
6.701737867986479
 10
2252.627266249373
 20
6.909852561076146
 10
2252.676673561885
 20
7.120111204185319
 10
2252.717633250671
 20
7.332177428337842
 10
2252.750079788969
 20
7.545711972813251
 10
2252.773961269237
 20
7.760373227891875
 10
2252.789239486202
 20
7.975817781357758
 10
2252.795889997976
 20
8.191700967884568
 10
2252.793902165159
 20
8.407677420426239
 10
2252.783279167857
 20
8.62340162273125
 10
2252.764038000603
 20
8.83852846209464
 10
2252.736209445159
 20
9.052713781464886
 10
2252.699838021277
 20
9.265614930020943
 10
2252.654981915476
 20
9.476891311342113
 10
2252.601712887956
 20
9.686204928288015
 10
2252.540116157801
 20
9.893220923722591
 10
2252.470290266635
 20
10.09760811621441
 10
2252.39234692099
 20
10.29903952985563
 10
2252.306410813593
 20
10.49719291735414
 10
2252.212619423882
 20
10.69175127556053
 10
2252.111122798075
 20
10.8824033526053
 10
2252.00208330912
 20
11.06884414583527
 10
2251.885675396938
 20
11.2507753897533
 10
2251.76208528936
 20
11.42790603317871
 10
2251.63151070419
 20
11.59995270486837
 10
2251.494160532911
 20
11.76664016684866
 10
2251.350254506497
 20
11.92770175473867
 10
2251.200022843892
 20
12.0828798043554
 10
2251.04370588371
 20
12.23192606392262
 10
2250.881553699739
 20
12.37460209122002
 10
2250.713825700885
 20
12.51067963503953
 10
2250.540790216164
 20
12.6399410003396
 10
2250.36272406544
 20
12.76217939650956
 10
2250.179912116569
 20
12.87719926819255
 10
2249.992646829672
 20
12.98481660812922
 10
2249.80122778926
 20
13.08485925153337
 10
2249.605961224963
 20
13.17716715151675
 10
2249.407159521629
 20
13.26159263513068
 10
2249.205140719576
 20
13.33800063961098
 10
2249.00022800579
 20
13.40626892845023
 10
2248.792749196903
 20
13.4662882869494
 10
2248.583036214749
 20
13.51796269693807
 10
2248.371424555362
 20
13.56120949038393
 10
2248.158252752257
 20
13.59595948164263
 10
2247.943861834843
 20
13.6221570781413
 10
2247.728594782854
 20
13.6397603693141
 10
2247.512795977653
 20
13.64874119365021
 10
2247.396204708733
 20
13.65000000000037
  0
LWPOLYLINE
  5
5B5
330
71
100
AcDbEntity
  8
0
100
AcDbPolyline
 90
       11
 70
   128
 43
0.0
 10
2247.396204708733
 20
16.39999999998815
 10
2247.070291635113
 20
16.39348086927492
 10
2246.744899952885
 20
16.3739339063544
 10
2246.42055021933
 20
16.34139038219723
 10
2246.097761324829
 20
16.29590235949973
 10
2245.777049662756
 20
16.23754260939442
 10
2245.458928303355
 20
16.16640449503245
 10
2245.143906172939
 20
16.0826018222213
 10
2244.832487239715
 20
15.98626865736054
 10
2244.525169707545
 20
15.87755911296409
 10
2244.239687004293
 20
15.7635336895305
  0
LWPOLYLINE
  5
5B6
330
71
100
AcDbEntity
  8
0
100
AcDbPolyline
 90
       42
 70
   128
 43
0.0
 10
2239.252722413173
 20
8.534142067037349
 10
2239.24667968887
 20
8.337988354023933
 10
2239.249679843956
 20
8.012023893244016
 10
2239.265712700993
 20
7.686440143469267
 10
2239.29475261083
 20
7.361757969245503
 10
2239.336753115805
 20
7.038496792789317
 10
2239.391647024072
 20
6.717173763024503
 10
2239.459346517087
 20
6.398302928253143
 10
2239.539743290102
 20
6.082394413788961
 10
2239.63270872543
 20
5.769953605864996
 10
2239.738094098209
 20
5.461480343123241
 10
2239.85573081432
 20
5.157468116979997
 10
2239.985430680114
 20
4.85840328214482
 10
2240.126986203473
 20
4.564764278555911
 10
2240.280170925757
 20
4.277020865979636
 10
2240.444739784087
 20
3.995633372494238
 10
2240.620429503396
 20
3.721051958062957
 10
2240.806959017612
 20
3.453715894374681
 10
2241.004029919304
 20
3.194052862102751
 10
2241.211326937067
 20
2.942478266707041
 10
2241.428518439894
 20
2.699394573873461
 10
2241.655256967714
 20
2.465190665655994
 10
2241.891179787249
 20
2.24024121834651
 10
2242.135909472315
 20
2.024906103073873
 10
2242.389054507623
 20
1.819529810087486
 10
2242.650209915118
 20
1.624440897644261
 10
2242.918957901858
 20
1.439951466387468
 10
2243.194868528394
 20
1.266356660051882
 10
2243.477500396581
 20
1.103934193295684
 10
2243.766401355721
 20
0.9529439074173067
 10
2244.06110922591
 20
0.8136273546650727
 10
2244.361152537423
 20
0.6862074118035367
 10
2244.666051284966
 20
0.5708879235602922
 10
2244.975317695586
 20
0.4678533765160183
 10
2245.288457008998
 20
0.37726860396657
 10
2245.604968269101
 20
0.2992785222245402
 10
2245.924345125397
 20
0.2340078987832044
 10
2246.246076643047
 20
0.1815611527166538
 10
2246.569648120253
 20
0.1420221876309142
 10
2246.89454191168
 20
0.1154542574349762
 10
2247.220238256566
 20
0.1018998651501874
 10
2247.396204708733
 20
0.1000000000104819
  0
LWPOLYLINE
  5
5B7
330
71
100
AcDbEntity
  8
0
100
AcDbPolyline
 90
       35
 70
   128
 43
0.0
 10
2247.396204708733
 20
0.1000000000104819
 10
2247.722117782354
 20
0.1065191307233704
 10
2248.047509464581
 20
0.1260660936442264
 10
2248.371859198136
 20
0.1586096178014031
 10
2248.694648092637
 20
0.204097640498901
 10
2249.015359754711
 20
0.2624573906040268
 10
2249.333481114112
 20
0.3335955049661834
 10
2249.648503244527
 20
0.4173981777771587
 10
2249.959922177751
 20
0.5137313426380957
 10
2250.267239709921
 20
0.6224408870345429
 10
2250.569964198544
 20
0.7433528988860303
 10
2250.867611349016
 20
0.8762739447665238
 10
2251.159704989391
 20
1.020991379358007
 10
2251.445777832154
 20
1.177273685636179
 10
2251.725372221782
 20
1.344870845249373
 10
2251.998040866896
 20
1.523514738494553
 10
2252.26334755583
 20
1.712919573251383
 10
2252.520867854476
 20
1.912782342187824
 10
2252.770189785293
 20
2.122783307509449
 10
2253.010914486376
 20
2.34258651246904
 10
2253.242656849556
 20
2.571840318827469
 10
2253.465046136487
 20
2.810177969400115
 10
2253.677726571751
 20
3.057218174787863
 10
2253.880357912021
 20
3.312565723361614
 10
2254.072615990377
 20
3.575812113515154
 10
2254.254193234908
 20
3.846536207179893
 10
2254.424799160756
 20
4.124304903557856
 10
2254.584160834836
 20
4.408673831988494
 10
2254.732023312461
 20
4.699188062849088
 10
2254.868150045213
 20
4.995382835342581
 10
2254.992323259356
 20
5.296784301018361
 10
2255.104344304236
 20
5.602910281826837
 10
2255.204033970079
 20
5.913271041502127
 10
2255.291232774686
 20
6.227370069035202
 10
2255.29657496757
 20
6.250104400656254
  0
LWPOLYLINE
  5
5B8
330
71
100
AcDbEntity
  8
0
100
AcDbPolyline
 90
       35
 70
   128
 43
0.0
 10
2255.295347287033
 20
10.24989559934323
 10
2255.252666127365
 20
10.41760558620933
 10
2255.159700692036
 20
10.73004639413346
 10
2255.054315319258
 20
11.03851965687522
 10
2254.936678603147
 20
11.34253188301846
 10
2254.806978737352
 20
11.64159671785381
 10
2254.665423213993
 20
11.93523572144255
 10
2254.51223849171
 20
12.22297913401882
 10
2254.347669633379
 20
12.50436662750422
 10
2254.17197991407
 20
12.7789480419355
 10
2253.985450399854
 20
13.04628410562361
 10
2253.788379498162
 20
13.30594713789553
 10
2253.581082480399
 20
13.55752173329142
 10
2253.363890977571
 20
13.80060542612483
 10
2253.137152449752
 20
14.03480933434264
 10
2252.901229630217
 20
14.25975878165212
 10
2252.656499945151
 20
14.47509389692459
 10
2252.403354909843
 20
14.68047018991114
 10
2252.142199502348
 20
14.8755591023542
 10
2251.873451515608
 20
15.06004853361082
 10
2251.597540889072
 20
15.23364333994658
 10
2251.314909020885
 20
15.39606580670295
 10
2251.026008061744
 20
15.54705609258098
 10
2250.731300191556
 20
15.68637264533356
 10
2250.431256880043
 20
15.8137925881951
 10
2250.1263581325
 20
15.92911207643833
 10
2249.81709172188
 20
16.03214662348261
 10
2249.503952408468
 20
16.12273139603189
 10
2249.187441148365
 20
16.20072147777409
 10
2248.868064292069
 20
16.26599210121543
 10
2248.546332774419
 20
16.31843884728198
 10
2248.222761297212
 20
16.35797781236772
 10
2247.897867505786
 20
16.38454574256348
 10
2247.5721711609
 20
16.39810013484844
 10
2247.396204708733
 20
16.39999999998815
  0
LINE
  5
5B9
102
{ACAD_REACTORS
330
A12
102
}
330
71
100
AcDbEntity
  8
0
100
AcDbLine
 10
2239.246204708733
 20
28.25000000000006
 30
0.0
 11
2239.246204708733
 21
15.70000000000311
 31
0.0
  0
LINE
  5
5BA
102
{ACAD_REACTORS
330
A12
102
}
330
71
100
AcDbEntity
  8
0
100
AcDbLine
 10
2244.246204708733
 20
15.75607111739202
 30
0.0
 11
2244.246204708733
 21
28.25000000000006
 31
0.0
  0
LWPOLYLINE
  5
5BB
102
{ACAD_REACTORS
330
A12
102
}
330
71
100
AcDbEntity
  8
0
100
AcDbPolyline
 90
       41
 70
   128
 43
0.0
 10
2245.746204708733
 20
34.74999999999994
 10
2245.48627403652
 20
34.74480069329632
 10
2245.226759197934
 20
34.72921109096705
 10
2244.968075361355
 20
34.70325613305021
 10
2244.71063636574
 20
34.66697734194161
 10
2244.454854058565
 20
34.62043275596812
 10
2244.201137636957
 20
34.56369683653822
 10
2243.949892993066
 20
34.49686034902009
 10
2243.701522064728
 20
34.42003021753589
 10
2243.456422192446
 20
34.33332935390666
 10
2243.214985483727
 20
34.23689646101871
 10
2242.977598185804
 20
34.13088581092984
 10
2242.744640067714
 20
34.01546699806544
 10
2242.516483812749
 20
33.89082466790477
 10
2242.293494422248
 20
33.75715822158718
 10
2242.076028631665
 20
33.61468149691296
 10
2241.864434339878
 20
33.46362242624786
 10
2241.659050052613
 20
33.304222671881
 10
2241.460204340919
 20
33.13673723941587
 10
2241.268215315515
 20
32.96143406981593
 10
2241.083390117886
 20
32.77859361075666
 10
2240.906024428923
 20
32.58850836796869
 10
2240.73640199589
 20
32.39148243729078
 10
2240.574794178497
 20
32.18783101818269
 10
2240.421459514777
 20
31.97787990947108
 10
2240.276643307482
 20
31.76196498814312
 10
2240.140577231652
 20
31.54043167201308
 10
2240.013478963981
 20
31.31363436712934
 10
2239.895551834586
 20
31.08193590079871
 10
2239.786984501717
 20
30.84570694114097
 10
2239.687950649946
 20
30.60532540409855
 10
2239.598608712311
 20
30.36117584885215
 10
2239.519101616853
 20
30.11364886260793
 10
2239.449556557965
 20
29.86314043574049
 10
2239.390084792904
 20
29.61005132829433
 10
2239.340781463808
 20
29.35478642885163
 10
2239.301725445487
 20
29.09775410679817
 10
2239.272979219239
 20
28.83936555901806
 10
2239.254588772892
 20
28.58003415206832
 10
2239.246583527238
 20
28.32017476087895
 10
2239.246204708733
 20
28.25000000000006
  0
LWPOLYLINE
  5
5BC
102
{ACAD_REACTORS
330
A12
102
}
330
71
100
AcDbEntity
  8
0
100
AcDbPolyline
 90
       41
 70
   128
 43
0.0
 10
2244.246204708733
 20
28.25000000000006
 10
2244.247404548742
 20
28.30998400127987
 10
2244.25100214928
 20
28.36987204095379
 10
2244.256991754953
 20
28.4295683109334
 10
2244.26536378367
 20
28.48897730992138
 10
2244.276104841972
 20
28.54800399619263
 10
2244.289197746455
 20
28.60655393964071
 10
2244.304621551267
 20
28.66453347284613
 10
2244.322351581609
 20
28.72184984092433
 10
2244.342359473217
 20
28.77841134991274
 10
2244.364613217729
 20
28.83412751346304
 10
2244.389077213904
 20
28.88890919759905
 10
2244.415712324564
 20
28.94266876331238
 10
2244.444475939217
 20
28.99532020676565
 10
2244.475322042213
 20
29.04677929688137
 10
2244.508201286369
 20
29.09696371009255
 10
2244.543061071907
 20
29.14579316204362
 10
2244.579845630607
 20
29.19318953602778
 10
2244.618496115022
 20
29.23907700795723
 10
2244.658950692622
 20
29.28338216766599
 10
2244.701144644713
 20
29.32603413634939
 10
2244.745010469971
 20
29.36696467995636
 10
2244.790477992436
 20
29.40610831834857
 10
2244.837474473768
 20
29.44340243005473
 10
2244.885924729624
 20
29.47878735245155
 10
2244.935751249931
 20
29.51220647721203
 10
2244.986874322884
 20
29.54360634086508
 10
2245.039212162473
 20
29.57293671032756
 10
2245.092681039318
 20
29.6001506632648
 10
2245.147195414624
 20
29.62520466315771
 10
2245.202668077018
 20
29.64805862895099
 10
2245.259010282075
 20
29.66867599917435
 10
2245.316131894286
 20
29.68702379043396
 10
2245.373941531255
 20
29.70307265017732
 10
2245.432346709896
 20
29.71679690365295
 10
2245.491253994383
 20
29.72817459498271
 10
2245.550569145626
 20
29.73718752228745
 10
2245.610197272037
 20
29.74382126680649
 10
2245.670042981333
 20
29.74806521596343
 10
2245.730010533145
 20
29.7499125803451
 10
2245.746204708733
 20
29.75000000000006
  0
LINE
  5
5BD
102
{ACAD_REACTORS
330
A12
102
}
330
71
100
AcDbEntity
  8
0
100
AcDbLine
 10
2276.146204708733
 20
34.74999999999994
 30
0.0
 11
2245.746204708733
 21
34.74999999999994
 31
0.0
  0
LINE
  5
5BE
102
{ACAD_REACTORS
330
A12
102
}
330
71
100
AcDbEntity
  8
0
100
AcDbLine
 10
2245.746204708733
 20
29.75000000000006
 30
0.0
 11
2276.146204708733
 21
29.75000000000006
 31
0.0
  0
LWPOLYLINE
  5
5BF
102
{ACAD_REACTORS
330
A12
102
}
330
71
100
AcDbEntity
  8
0
100
AcDbPolyline
 90
       41
 70
   128
 43
0.0
 10
2276.146204708733
 20
29.75000000000006
 10
2276.406135380947
 20
29.75519930670368
 10
2276.665650219533
 20
29.77078890903295
 10
2276.924334056111
 20
29.79674386694978
 10
2277.181773051726
 20
29.83302265805856
 10
2277.437555358901
 20
29.87956724403188
 10
2277.69127178051
 20
29.93630316346195
 10
2277.9425164244
 20
30.00313965098007
 10
2278.190887352738
 20
30.0799697824641
 10
2278.435987225021
 20
30.16667064609351
 10
2278.677423933739
 20
30.26310353898129
 10
2278.914811231662
 20
30.36911418907033
 10
2279.147769349753
 20
30.48453300193472
 10
2279.375925604718
 20
30.60917533209539
 10
2279.598914995219
 20
30.74284177841281
 10
2279.816380785801
 20
30.88531850308703
 10
2280.027975077588
 20
31.03637757375213
 10
2280.233359364853
 20
31.19577732811899
 10
2280.432205076548
 20
31.36326276058429
 10
2280.624194101952
 20
31.53856593018407
 10
2280.80901929958
 20
31.72140638924333
 10
2280.986384988544
 20
31.91149163203164
 10
2281.156007421576
 20
32.1085175627092
 10
2281.31761523897
 20
32.31216898181764
 10
2281.470949902689
 20
32.52212009052925
 10
2281.615766109984
 20
32.73803501185721
 10
2281.751832185815
 20
32.95956832798691
 10
2281.878930453485
 20
33.18636563287066
 10
2281.99685758288
 20
33.41806409920161
 10
2282.10542491575
 20
33.65429305885936
 10
2282.20445876752
 20
33.89467459590179
 10
2282.293800705155
 20
34.13882415114802
 10
2282.373307800613
 20
34.3863511373924
 10
2282.442852859502
 20
34.63685956425968
 10
2282.502324624563
 20
34.88994867170583
 10
2282.551627953658
 20
35.14521357114853
 10
2282.590683971979
 20
35.40224589320217
 10
2282.619430198228
 20
35.6606344409821
 10
2282.637820644574
 20
35.91996584793184
 10
2282.645825890227
 20
36.17982523912139
 10
2282.646204708733
 20
36.24999999999994
  0
LWPOLYLINE
  5
5C0
102
{ACAD_REACTORS
330
A12
102
}
330
71
100
AcDbEntity
  8
0
100
AcDbPolyline
 90
       41
 70
   128
 43
0.0
 10
2277.646204708733
 20
36.25000000000011
 10
2277.645004868725
 20
36.19001599872011
 10
2277.641407268187
 20
36.1301279590462
 10
2277.635417662514
 20
36.0704316890666
 10
2277.627045633797
 20
36.01102269007861
 10
2277.616304575495
 20
35.95199600380738
 10
2277.603211671011
 20
35.89344606035928
 10
2277.587787866199
 20
35.83546652715386
 10
2277.570057835856
 20
35.778150159076
 10
2277.55004994425
 20
35.72158865008743
 10
2277.527796199737
 20
35.66587248653712
 10
2277.503332203563
 20
35.61109080240111
 10
2277.476697092902
 20
35.55733123668795
 10
2277.447933478249
 20
35.50467979323451
 10
2277.417087375253
 20
35.45322070311863
 10
2277.384208131098
 20
35.40303628990744
 10
2277.349348345561
 20
35.35420683795639
 10
2277.312563786859
 20
35.30681046397239
 10
2277.273913302444
 20
35.26092299204276
 10
2277.233458724845
 20
35.21661783233418
 10
2277.191264772754
 20
35.17396586365094
 10
2277.147398947495
 20
35.13303532004381
 10
2277.101931425031
 20
35.09389168165176
 10
2277.054934943699
 20
35.0565975699456
 10
2277.006484687842
 20
35.02121264754862
 10
2276.956658167535
 20
34.9877935227883
 10
2276.905535094583
 20
34.95639365913524
 10
2276.853197254994
 20
34.92706328967278
 10
2276.799728378148
 20
34.89984933673536
 10
2276.745214002843
 20
34.87479533684246
 10
2276.689741340447
 20
34.85194137104934
 10
2276.633399135391
 20
34.83132400082564
 10
2276.576277523181
 20
34.81297620956621
 10
2276.518467886212
 20
34.79692734982267
 10
2276.46006270757
 20
34.78320309634705
 10
2276.401155423084
 20
34.77182540501746
 10
2276.34184027184
 20
34.76281247771254
 10
2276.28221214543
 20
34.7561787331935
 10
2276.222366436133
 20
34.75193478403673
 10
2276.16239888432
 20
34.75008741965524
 10
2276.146204708733
 20
34.74999999999994
  0
LINE
  5
5C1
102
{ACAD_REACTORS
330
A12
102
}
330
71
100
AcDbEntity
  8
0
100
AcDbLine
 10
2277.646204708733
 20
140.1250000000006
 30
0.0
 11
2277.646204708733
 21
36.24999999999994
 31
0.0
  0
LINE
  5
5C2
102
{ACAD_REACTORS
330
A12
102
}
330
71
100
AcDbEntity
  8
0
100
AcDbLine
 10
2282.646204708733
 20
36.24999999999994
 30
0.0
 11
2282.646204708733
 21
140.1250000000006
 31
0.0
  0
LINE
  5
5C5
330
71
100
AcDbEntity
  8
0
100
AcDbLine
 10
2239.246204708733
 20
15.6999999999997
 30
0.0
 11
2239.246204708733
 21
8.249999999999657
 31
0.0
  0
LINE
  5
5CE
330
71
100
AcDbEntity
  8
0
100
AcDbLine
 10
2209.146204708768
 20
202.7499999999976
 30
0.0
 11
2351.146204708768
 21
202.7499999999972
 31
0.0
  0
LINE
  5
5CF
330
71
100
AcDbEntity
  8
0
100
AcDbLine
 10
2351.146204708768
 20
161.9950353879067
 30
0.0
 11
2209.146204708768
 21
161.9950353879072
 31
0.0
  0
LINE
  5
5D0
330
71
100
AcDbEntity
  8
0
100
AcDbLine
 10
2209.146204708768
 20
202.7499999999976
 30
0.0
 11
2209.146204708768
 21
161.9950353879072
 31
0.0
  0
LINE
  5
5D1
330
71
100
AcDbEntity
  8
0
100
AcDbLine
 10
2351.146204708768
 20
161.9950353879067
 30
0.0
 11
2351.146204708768
 21
202.7499999999972
 31
0.0
  0
LWPOLYLINE
  5
5D2
330
71
100
AcDbEntity
  8
0
100
AcDbPolyline
 90
       41
 70
   128
 43
0.0
 10
2334.89620470873
 20
205.7500000000011
 10
2334.898604388747
 20
205.6300319974411
 10
2334.905799589822
 20
205.5102559180934
 10
2334.917778801168
 20
205.3908633781342
 10
2334.934522858603
 20
205.2720453801583
 10
2334.956004975206
 20
205.1539920076158
 10
2334.982190784173
 20
205.0368921207196
 10
2335.013038393797
 20
204.9209330543088
 10
2335.048498454483
 20
204.8063003181527
 10
2335.088514237696
 20
204.6931773001757
 10
2335.133021726721
 20
204.5817449730751
 10
2335.18194971907
 20
204.4721816048031
 10
2335.235219940392
 20
204.3646624733766
 10
2335.292747169697
 20
204.2593595864699
 10
2335.354439375689
 20
204.1564414062385
 10
2335.420197864001
 20
204.0560725798159
 10
2335.489917435077
 20
203.9584136759138
 10
2335.563486552477
 20
203.8636209279456
 10
2335.640787521307
 20
203.7718459840867
 10
2335.721696676507
 20
203.6832356646694
 10
2335.806084580688
 20
203.5979317273024
 10
2335.893816231206
 20
203.5160706400885
 10
2335.984751276134
 20
203.4377833633041
 10
2336.078744238799
 20
203.3631951398919
 10
2336.175644750512
 20
203.2924252950981
 10
2336.275297791125
 20
203.2255870455773
 10
2336.377543937032
 20
203.162787318271
 10
2336.482219616209
 20
203.1041265793463
 10
2336.5891573699
 20
203.0496986734716
 10
2336.698186120511
 20
202.9995906736858
 10
2336.8091314453
 20
202.9538827420994
 10
2336.921815855414
 20
202.9126480016525
 10
2337.036059079834
 20
202.8759524191333
 10
2337.151678353773
 20
202.8438546996464
 10
2337.268488711055
 20
202.816406192695
 10
2337.386303280029
 20
202.7936508100358
 10
2337.504933582515
 20
202.7756249554261
 10
2337.624189835337
 20
202.7623574663882
 10
2337.743881253929
 20
202.7538695680743
 10
2337.863816357555
 20
202.7501748393114
 10
2337.89620470873
 20
202.7500000000011
  0
LWPOLYLINE
  5
5D3
330
71
100
AcDbEntity
  8
0
100
AcDbPolyline
 90
       41
 70
   128
 43
0.0
 10
2222.39620470873
 20
202.7499999999994
 10
2222.516172711289
 20
202.7523996800165
 10
2222.635948790637
 20
202.7595948810915
 10
2222.755341330596
 20
202.771574092438
 10
2222.874159328573
 20
202.7883181498726
 10
2222.992212701115
 20
202.8098002664757
 10
2223.109312588011
 20
202.8359860754433
 10
2223.225271654422
 20
202.8668336850672
 10
2223.339904390578
 20
202.9022937457521
 10
2223.453027408555
 20
202.9423095289658
 10
2223.564459735657
 20
202.9868170179908
 10
2223.674023103928
 20
203.0357450103396
 10
2223.781542235354
 20
203.0890152316616
 10
2223.886845122261
 20
203.1465424609666
 10
2223.989763302492
 20
203.2082346669592
 10
2224.090132128916
 20
203.2739931552704
 10
2224.187791032817
 20
203.3437127263466
 10
2224.282583780785
 20
203.4172818437469
 10
2224.374358724644
 20
203.4945828125769
 10
2224.462969044061
 20
203.5754919677769
 10
2224.548272981428
 20
203.6598798719579
 10
2224.630134068642
 20
203.7476115224756
 10
2224.708421345427
 20
203.8385465674038
 10
2224.783009568839
 20
203.9325395300692
 10
2224.853779413632
 20
204.0294400417821
 10
2224.920617663153
 20
204.1290930823952
 10
2224.983417390459
 20
204.2313392283011
 10
2225.042078129385
 20
204.3360149074783
 10
2225.096506035259
 20
204.4429526611694
 10
2225.146614035045
 20
204.5519814117807
 10
2225.192321966631
 20
204.6629267365696
 10
2225.233556707078
 20
204.7756111466832
 10
2225.270252289598
 20
204.8898543711037
 10
2225.302350009084
 20
205.0054736450423
 10
2225.329798516036
 20
205.1222840023251
 10
2225.352553898695
 20
205.2400985712988
 10
2225.370579753306
 20
205.3587288737852
 10
2225.383847242343
 20
205.4779851266067
 10
2225.392335140657
 20
205.5976765451988
 10
2225.396029869419
 20
205.7176116488248
 10
2225.396204708729
 20
205.7499999999997
  0
LINE
  5
5D4
330
71
100
AcDbEntity
  8
0
100
AcDbLine
 10
2334.89620470873
 20
205.7500000000011
 30
0.0
 11
2334.89620470873
 21
215.375000000001
 31
0.0
  0
LINE
  5
5D5
330
71
100
AcDbEntity
  8
0
100
AcDbLine
 10
2225.396204708729
 20
215.3749999999993
 30
0.0
 11
2225.396204708729
 21
205.7499999999994
 31
0.0
  0
LINE
  5
5D6
330
71
100
AcDbEntity
  8
0
100
AcDbLine
 10
2336.39620470873
 20
215.375000000001
 30
0.0
 11
2336.39620470873
 21
215.625000000001
 31
0.0
  0
LINE
  5
5D7
330
71
100
AcDbEntity
  8
0
100
AcDbLine
 10
2223.896204708729
 20
215.6249999999993
 30
0.0
 11
2223.896204708729
 21
215.3749999999993
 31
0.0
  0
LINE
  5
5D8
330
71
100
AcDbEntity
  8
0
100
AcDbLine
 10
2336.39620470873
 20
215.625000000001
 30
0.0
 11
2283.146204708729
 21
224.1250000000002
 31
0.0
  0
LINE
  5
5D9
330
71
100
AcDbEntity
  8
0
100
AcDbLine
 10
2277.14620470873
 20
224.1250000000002
 30
0.0
 11
2223.896204708729
 21
215.6249999999993
 31
0.0
  0
LINE
  5
5DA
330
71
100
AcDbEntity
  8
0
100
AcDbLine
 10
2336.39620470873
 20
215.3750000000006
 30
0.0
 11
2280.14620470873
 21
215.3749999999999
 31
0.0
  0
LINE
  5
5DB
330
71
100
AcDbEntity
  8
0
100
AcDbLine
 10
2280.146204708729
 20
215.3749999999999
 30
0.0
 11
2223.896204708729
 21
215.3749999999991
 31
0.0
  0
LINE
  5
5DC
330
71
100
AcDbEntity
  8
0
100
AcDbLine
 10
2336.39620470873
 20
215.6250000000006
 30
0.0
 11
2280.14620470873
 21
215.6249999999998
 31
0.0
  0
LINE
  5
5DD
330
71
100
AcDbEntity
  8
0
100
AcDbLine
 10
2280.146204708729
 20
215.6249999999998
 30
0.0
 11
2223.896204708729
 21
215.6249999999991
 31
0.0
  0
LINE
  5
5DE
330
71
100
AcDbEntity
  8
0
100
AcDbLine
 10
2283.146204708729
 20
224.125
 30
0.0
 11
2280.14620470873
 21
224.1249999999999
 31
0.0
  0
LINE
  5
5DF
330
71
100
AcDbEntity
  8
0
100
AcDbLine
 10
2280.14620470873
 20
224.1249999999999
 30
0.0
 11
2277.14620470873
 21
224.1249999999999
 31
0.0
  0
LINE
  5
5E0
330
71
100
AcDbEntity
  8
0
100
AcDbLine
 10
2209.146204708733
 20
161.75
 30
0.0
 11
2351.146204708733
 21
161.75
 31
0.0
  0
LINE
  5
5E1
330
71
100
AcDbEntity
  8
0
100
AcDbLine
 10
2351.146204708733
 20
58.37499999999997
 30
0.0
 11
2282.646204708733
 21
58.37499999999997
 31
0.0
  0
LINE
  5
5E2
330
71
100
AcDbEntity
  8
0
100
AcDbLine
 10
2277.646204708733
 20
58.37499999999997
 30
0.0
 11
2209.146204708733
 21
58.37499999999997
 31
0.0
  0
LINE
  5
5E3
330
71
100
AcDbEntity
  8
0
100
AcDbLine
 10
2351.146204708733
 20
161.75
 30
0.0
 11
2351.146204708733
 21
58.37499999999997
 31
0.0
  0
LINE
  5
5E4
330
71
100
AcDbEntity
  8
0
100
AcDbLine
 10
2209.146204708733
 20
58.37499999999997
 30
0.0
 11
2209.146204708733
 21
161.75
 31
0.0
  0
LINE
  5
5E8
330
71
100
AcDbEntity
  8
0
100
AcDbLine
 10
2209.146204708734
 20
58.375
 30
0.0
 11
2277.646204708733
 21
58.375
 31
0.0
  0
LINE
  5
5E9
330
71
100
AcDbEntity
  8
0
100
AcDbLine
 10
2282.646204708733
 20
58.375
 30
0.0
 11
2351.146204708733
 21
58.375
 31
0.0
  0
LINE
  5
5EA
330
71
100
AcDbEntity
  8
0
100
AcDbLine
 10
2351.146204708733
 20
0.0
 30
0.0
 11
2209.146204708734
 21
0.0
 31
0.0
  0
LINE
  5
5EB
330
71
100
AcDbEntity
  8
0
100
AcDbLine
 10
2209.146204708734
 20
58.375
 30
0.0
 11
2209.146204708734
 21
52.49999999999964
 31
0.0
  0
LINE
  5
5EC
102
{ACAD_REACTORS
330
A12
102
}
330
71
100
AcDbEntity
  8
0
100
AcDbLine
 10
2209.146204708734
 20
52.49999999999966
 30
0.0
 11
2277.646204708733
 21
52.49999999999966
 31
0.0
  0
LINE
  5
5ED
102
{ACAD_REACTORS
330
A12
102
}
330
71
100
AcDbEntity
  8
0
100
AcDbLine
 10
2282.646204708733
 20
52.49999999999966
 30
0.0
 11
2351.146204708733
 21
52.49999999999966
 31
0.0
  0
LINE
  5
5EE
102
{ACAD_REACTORS
330
A12
102
}
330
71
100
AcDbEntity
  8
0
100
AcDbLine
 10
2351.146204708733
 20
16.49999999999964
 30
0.0
 11
2244.246204708733
 21
16.49999999999964
 31
0.0
  0
LINE
  5
5EF
102
{ACAD_REACTORS
330
A12
102
}
330
71
100
AcDbEntity
  8
0
100
AcDbLine
 10
2239.246204708733
 20
16.49999999999964
 30
0.0
 11
2209.146204708734
 21
16.49999999999964
 31
0.0
  0
LINE
  5
5F0
330
71
100
AcDbEntity
  8
0
100
AcDbLine
 10
2209.146204708734
 20
16.49999999999964
 30
0.0
 11
2209.146204708734
 21
0.0
 31
0.0
  0
LINE
  5
5F1
330
71
100
AcDbEntity
  8
0
100
AcDbLine
 10
2351.146204708733
 20
52.49999999999964
 30
0.0
 11
2351.146204708733
 21
58.375
 31
0.0
  0
LINE
  5
5F2
330
71
100
AcDbEntity
  8
0
100
AcDbLine
 10
2351.146204708733
 20
0.0
 30
0.0
 11
2351.146204708733
 21
16.49999999999964
 31
0.0
  0
LINE
  5
5F3
330
71
100
AcDbEntity
  8
0
100
AcDbLine
 10
2350.146204708734
 20
16.49999999999966
 30
0.0
 11
2350.146204708734
 21
52.49999999999968
 31
0.0
  0
LINE
  5
5F4
330
71
100
AcDbEntity
  8
0
100
AcDbLine
 10
2348.771204708734
 20
52.49999999999966
 30
0.0
 11
2348.771204708734
 21
16.49999999999964
 31
0.0
  0
LINE
  5
5F5
102
{ACAD_REACTORS
330
A12
102
}
330
71
100
AcDbEntity
  8
0
100
AcDbLine
 10
2345.396204708734
 20
52.49999999999966
 30
0.0
 11
2345.396204708734
 21
16.49999999999964
 31
0.0
  0
LINE
  5
5F6
102
{ACAD_REACTORS
330
A12
102
}
330
71
100
AcDbEntity
  8
0
100
AcDbLine
 10
2281.896204708733
 20
33.23212163596048
 30
0.0
 11
2281.896204708733
 21
16.49999999999964
 31
0.0
  0
LINE
  5
5F7
102
{ACAD_REACTORS
330
A12
102
}
330
71
100
AcDbEntity
  8
0
100
AcDbLine
 10
2278.396204708733
 20
16.49999999999964
 30
0.0
 11
2278.396204708733
 21
30.15312749742427
 31
0.0
  0
LINE
  5
5F8
102
{ACAD_REACTORS
330
A12
102
}
330
71
100
AcDbEntity
  8
0
100
AcDbLine
 10
2214.896204708733
 20
52.49999999999966
 30
0.0
 11
2214.896204708733
 21
16.49999999999964
 31
0.0
  0
LINE
  5
5F9
330
71
100
AcDbEntity
  8
0
100
AcDbLine
 10
2211.521204708734
 20
52.49999999999966
 30
0.0
 11
2211.521204708734
 21
16.49999999999964
 31
0.0
  0
LINE
  5
5FA
330
71
100
AcDbEntity
  8
0
100
AcDbLine
 10
2210.146204708733
 20
52.49999999999968
 30
0.0
 11
2210.146204708733
 21
16.49999999999966
 31
0.0
  0
ARC
  5
5FB
330
71
100
AcDbEntity
  8
0
100
AcDbCircle
 10
2292.271204708733
 20
13.0
 30
0.0
 40
1.499999999999995
100
AcDbArc
 50
359.9999999999996
 51
179.9999999999996
  0
ARC
  5
5FC
330
71
100
AcDbEntity
  8
0
100
AcDbCircle
 10
2292.271204708733
 20
13.0
 30
0.0
 40
1.5
100
AcDbArc
 50
180.0
 51
359.9999999999992
  0
ARC
  5
5FD
330
71
100
AcDbEntity
  8
0
100
AcDbCircle
 10
2217.396204708733
 20
3.125
 30
0.0
 40
1.000000000000021
100
AcDbArc
 50
359.9999999999988
 51
179.9999999999988
  0
ARC
  5
5FE
330
71
100
AcDbEntity
  8
0
100
AcDbCircle
 10
2217.396204708733
 20
3.125
 30
0.0
 40
1.000000000000001
100
AcDbArc
 50
180.0
 51
359.9999999999992
  0
ARC
  5
5FF
102
{ACAD_REACTORS
330
A12
102
}
330
71
100
AcDbEntity
  8
0
100
AcDbCircle
 10
2340.646204708733
 20
22.0
 30
0.0
 40
0.7499999999999984
100
AcDbArc
 50
359.9999999999994
 51
179.9999999999998
  0
ARC
  5
600
102
{ACAD_REACTORS
330
A12
102
}
330
71
100
AcDbEntity
  8
0
100
AcDbCircle
 10
2340.646204708733
 20
22.0
 30
0.0
 40
0.7500000000000036
100
AcDbArc
 50
180.0000000000002
 51
359.9999999999992
  0
ARC
  5
601
330
71
100
AcDbEntity
  8
0
100
AcDbCircle
 10
2245.771204708733
 20
143.5
 30
0.0
 40
2.000000000000026
100
AcDbArc
 50
359.9999999999988
 51
179.9999999999996
  0
ARC
  5
602
330
71
100
AcDbEntity
  8
0
100
AcDbCircle
 10
2245.771204708733
 20
143.5
 30
0.0
 40
2.0
100
AcDbArc
 50
180.0000000000004
 51
359.9999999999988
  0
ARC
  5
603
330
71
100
AcDbEntity
  8
0
100
AcDbCircle
 10
2245.771204708733
 20
72.37500000000001
 30
0.0
 40
2.000000000000026
100
AcDbArc
 50
0.0
 51
180.0
  0
ARC
  5
604
330
71
100
AcDbEntity
  8
0
100
AcDbCircle
 10
2245.771204708733
 20
72.37500000000001
 30
0.0
 40
2.000000000000005
100
AcDbArc
 50
180.0000000000002
 51
359.9999999999994
  0
ARC
  5
605
330
71
100
AcDbEntity
  8
0
100
AcDbCircle
 10
2314.521204708733
 20
143.5
 30
0.0
 40
2.0
100
AcDbArc
 50
359.9999999999988
 51
179.9999999999996
  0
ARC
  5
606
330
71
100
AcDbEntity
  8
0
100
AcDbCircle
 10
2314.521204708733
 20
143.5
 30
0.0
 40
1.999999999999971
100
AcDbArc
 50
180.0000000000004
 51
359.9999999999988
  0
ARC
  5
607
330
71
100
AcDbEntity
  8
0
100
AcDbCircle
 10
2314.521204708733
 20
72.37500000000001
 30
0.0
 40
2.000000000000006
100
AcDbArc
 50
359.9999999999992
 51
179.9999999999996
  0
ARC
  5
608
330
71
100
AcDbEntity
  8
0
100
AcDbCircle
 10
2314.521204708733
 20
72.37500000000001
 30
0.0
 40
1.999999999999968
100
AcDbArc
 50
180.0000000000006
 51
0.0000000000002036
  0
ARC
  5
610
330
71
100
AcDbEntity
  8
0
100
AcDbCircle
 10
2280.146204708731
 20
152.1250000000035
 30
0.0
 40
2.500000000000454
100
AcDbArc
 50
0.0
 51
180.0000000000065
  0
ARC
  5
613
330
71
100
AcDbEntity
  8
0
100
AcDbCircle
 10
2076.175361061701
 20
402.4975440333363
 30
0.0
 40
2.500000005434515
100
AcDbArc
 50
270.0
 51
89.9946573042431
  0
HATCH
  5
A12
330
71
100
AcDbEntity
  8
0
100
AcDbHatch
 10
0.0
 20
0.0
 30
0.0
210
0.0
220
0.0
230
1.0
  2
HONEY
 70
     0
 71
     1
 91
        8
 92
        7
 72
     0
 73
     1
 93
        4
 10
1707.900630891156
 20
52.50000000000014
 10
1644.400630891156
 20
52.50000000000011
 10
1644.400630891156
 20
16.50000000000011
 10
1707.900630891156
 20
16.50000000000011
 97
        4
330
4CD
330
4D7
330
4CE
330
4D6
 92
        7
 72
     0
 73
     1
 93
        4
 10
1774.900630891156
 20
52.50000000000011
 10
1711.400630891156
 20
52.50000000000008
 10
1711.400630891156
 20
16.50000000000017
 10
1774.900630891156
 20
16.50000000000014
 97
        4
330
4CD
330
4D5
330
4CE
330
4D4
 92
        7
 72
     0
 73
     1
 93
        4
 10
1993.550594180783
 20
52.49999999999989
 10
1929.175594180781
 20
52.50000000000006
 10
1929.175594180781
 20
16.50000000000011
 10
1993.550594180783
 20
16.49999999999988
 97
        4
330
53B
330
547
330
53C
330
544
 92
        7
 72
     0
 73
     1
 93
        4
 10
2061.425594180782
 20
52.49999999999968
 10
1997.050594180783
 20
52.49999999999992
 10
1997.050594180783
 20
16.49999999999988
 10
2061.425594180782
 20
16.49999999999971
 97
        4
330
53B
330
542
330
53C
330
540
 92
        7
 72
     0
 73
     1
 93
       85
 10
2277.646204708733
 20
52.49999999999966
 10
2214.896204708733
 20
52.49999999999966
 10
2214.896204708733
 20
16.49999999999966
 10
2239.246204708733
 20
16.4999999999996
 10
2239.246204708733
 20
28.30787788076984
 10
2239.254588772892
 20
28.58003415206764
 10
2239.272979219239
 20
28.83936555901778
 10
2239.301725445487
 20
29.09775410679868
 10
2239.340781463808
 20
29.35478642885164
 10
2239.390084792904
 20
29.61005132829274
 10
2239.449556557965
 20
29.86314043574106
 10
2239.519101616853
 20
30.1136488626091
 10
2239.598608712311
 20
30.36117584885213
 10
2239.687950649945
 20
30.60532540409844
 10
2239.786984501718
 20
30.84570694114282
 10
2239.895551834587
 20
31.08193590079995
 10
2240.013478963982
 20
31.31363436713056
 10
2240.140577231653
 20
31.54043167201394
 10
2240.276643307482
 20
31.76196498814281
 10
2240.421459514778
 20
31.9778799094704
 10
2240.574794178499
 20
32.18783101818284
 10
2240.736401995889
 20
32.39148243729076
 10
2240.906024428923
 20
32.58850836796777
 10
2241.083390117887
 20
32.77859361075826
 10
2241.268215315515
 20
32.96143406981688
 10
2241.460204340921
 20
33.13673723941733
 10
2241.659050052615
 20
33.30422267188271
 10
2241.864434339879
 20
33.4636224262481
 10
2242.076028631664
 20
33.6146814969124
 10
2242.293494422249
 20
33.75715822158793
 10
2242.516483812749
 20
33.89082466790521
 10
2242.744640067716
 20
34.01546699806607
 10
2242.977598185804
 20
34.13088581093024
 10
2243.214985483728
 20
34.23689646101909
 10
2243.456422192446
 20
34.33332935390763
 10
2243.701522064729
 20
34.42003021753587
 10
2243.949892993066
 20
34.49686034902015
 10
2244.201137636956
 20
34.56369683653802
 10
2244.454854058565
 20
34.6204327559681
 10
2244.710636365742
 20
34.66697734194168
 10
2244.968075361356
 20
34.70325613305025
 10
2245.226759197934
 20
34.72921109096712
 10
2245.486274036521
 20
34.74480069329636
 10
2245.746204708734
 20
34.74999999999997
 10
2276.146204708735
 20
34.74999999999992
 10
2276.162398884321
 20
34.75008741965528
 10
2276.222366436134
 20
34.75193478403671
 10
2276.28221214543
 20
34.75617873319342
 10
2276.34184027184
 20
34.76281247771252
 10
2276.401155423084
 20
34.77182540501764
 10
2276.460062707569
 20
34.78320309634685
 10
2276.51846788621
 20
34.79692734982257
 10
2276.576277523181
 20
34.81297620956639
 10
2276.633399135392
 20
34.8313240008255
 10
2276.689741340447
 20
34.85194137104887
 10
2276.745214002843
 20
34.87479533684214
 10
2276.799728378148
 20
34.89984933673543
 10
2276.853197254995
 20
34.92706328967319
 10
2276.905535094583
 20
34.95639365913539
 10
2276.956658167537
 20
34.98779352278888
 10
2277.006484687841
 20
35.02121264754865
 10
2277.054934943697
 20
35.05659756994473
 10
2277.101931425032
 20
35.09389168165296
 10
2277.147398947496
 20
35.13303532004383
 10
2277.191264772755
 20
35.17396586365197
 10
2277.233458724846
 20
35.21661783233503
 10
2277.273913302445
 20
35.26092299204197
 10
2277.312563786859
 20
35.30681046397257
 10
2277.349348345561
 20
35.35420683795746
 10
2277.384208131099
 20
35.40303628990722
 10
2277.417087375251
 20
35.4532207031159
 10
2277.447933478249
 20
35.50467979323412
 10
2277.476697092902
 20
35.55733123668918
 10
2277.503332203563
 20
35.61109080240118
 10
2277.527796199737
 20
35.66587248653886
 10
2277.55004994425
 20
35.72158865008672
 10
2277.570057835855
 20
35.77815015907515
 10
2277.587787866199
 20
35.83546652715546
 10
2277.603211671011
 20
35.8934460603594
 10
2277.616304575494
 20
35.95199600380408
 10
2277.627045633797
 20
36.01102269007981
 10
2277.635417662514
 20
36.07043168906657
 10
2277.641407268187
 20
36.13012795904726
 10
2277.645004868725
 20
36.19001599872002
 10
2277.646204708733
 20
36.24999999999588
 97
        8
330
5EC
330
5F8
330
5EF
330
5B9
330
5BB
330
5BD
330
5C0
330
5C1
 92
        7
 72
     0
 73
     1
 93
       53
 10
2278.396204708733
 20
30.15259810298116
 10
2278.190887352737
 20
30.0799697824641
 10
2277.942516424399
 20
30.00313965098039
 10
2277.691271780511
 20
29.93630316346204
 10
2277.4375553589
 20
29.87956724403168
 10
2277.181773051725
 20
29.83302265805867
 10
2276.924334056112
 20
29.79674386694995
 10
2276.665650219535
 20
29.77078890903289
 10
2276.406135380947
 20
29.75519930670365
 10
2276.146204708732
 20
29.75000000000006
 10
2245.746204708735
 20
29.75000000000006
 10
2245.730010533145
 20
29.7499125803451
 10
2245.670042981334
 20
29.74806521596341
 10
2245.610197272037
 20
29.74382126680647
 10
2245.550569145628
 20
29.73718752228768
 10
2245.491253994381
 20
29.72817459498239
 10
2245.432346709897
 20
29.71679690365292
 10
2245.373941531255
 20
29.70307265017735
 10
2245.316131894284
 20
29.68702379043353
 10
2245.259010282075
 20
29.66867599917453
 10
2245.202668077018
 20
29.64805862895074
 10
2245.147195414625
 20
29.625204663158
 10
2245.092681039319
 20
29.60015066326477
 10
2245.039212162471
 20
29.57293671032659
 10
2244.986874322884
 20
29.54360634086496
 10
2244.93575124993
 20
29.51220647721169
 10
2244.885924729624
 20
29.47878735245104
 10
2244.837474473769
 20
29.44340243005484
 10
2244.790477992435
 20
29.406108318349
 10
2244.745010469971
 20
29.36696467995719
 10
2244.701144644714
 20
29.32603413634865
 10
2244.658950692621
 20
29.28338216766631
 10
2244.618496115023
 20
29.23907700795743
 10
2244.579845630606
 20
29.19318953602769
 10
2244.543061071907
 20
29.14579316204387
 10
2244.50820128637
 20
29.09696371009281
 10
2244.475322042212
 20
29.04677929688034
 10
2244.444475939217
 20
28.99532020676549
 10
2244.415712324564
 20
28.94266876331321
 10
2244.389077213905
 20
28.88890919760155
 10
2244.364613217728
 20
28.83412751346401
 10
2244.342359473217
 20
28.77841134991204
 10
2244.322351581609
 20
28.72184984092522
 10
2244.304621551267
 20
28.66453347284647
 10
2244.289197746455
 20
28.60655393963952
 10
2244.276104841972
 20
28.54800399619234
 10
2244.26536378367
 20
28.48897730992016
 10
2244.256991754953
 20
28.42956831093272
 10
2244.25100214928
 20
28.36987204095326
 10
2244.247404548742
 20
28.3099840012809
 10
2244.246204708733
 20
28.24999999999864
 10
2244.246204708733
 20
16.49999999999969
 10
2278.396204708733
 20
16.49999999999963
 97
        6
330
5BF
330
5BE
330
5BC
330
5BA
330
5EE
330
5F7
 92
        7
 72
     0
 73
     1
 93
       17
 10
2345.396204708734
 20
52.49999999999963
 10
2282.646204708733
 20
52.49999999999963
 10
2282.646204708733
 20
36.19212211926381
 10
2282.637820644574
 20
35.91996584793069
 10
2282.619430198228
 20
35.66063444098257
 10
2282.590683971979
 20
35.40224589320187
 10
2282.551627953658
 20
35.14521357114819
 10
2282.502324624563
 20
34.88994867170467
 10
2282.442852859501
 20
34.63685956425857
 10
2282.373307800613
 20
34.38635113739341
 10
2282.293800705155
 20
34.13882415114921
 10
2282.204458767521
 20
33.89467459590461
 10
2282.105424915749
 20
33.6542930588588
 10
2281.99685758288
 20
33.41806409920028
 10
2281.896204708733
 20
33.22030539269028
 10
2281.896204708733
 20
16.49999999999966
 10
2345.396204708734
 20
16.49999999999963
 97
        6
330
5ED
330
5C2
330
5BF
330
5F6
330
5EE
330
5F5
 92
       22
 72
     1
 73
     1
 93
        2
 10
2341.396204708733
 20
22.0
 42
-1.0
 10
2339.896204708733
 20
22.0
 42
-1.0
 97
        2
330
600
330
5FF
 75
     1
 76
     1
 52
0.0
 41
8.0
 77
     0
 78
     3
 53
0.0
 43
0.0
 44
0.0
 45
1.5
 46
0.8660254037844385
 79
     2
 49
1.0
 49
-2.0
 53
120.0
 43
0.0
 44
0.0
 45
-1.499999999999999
 46
0.8660254037844389
 79
     2
 49
0.9999999999999998
 49
-1.999999999999999
 53
60.0
 43
0.0
 44
0.0
 45
0.0000000000000003
 46
1.732050807568877
 79
     2
 49
-2.0
 49
1.0
 47
0.0938510283639867
 98
        8
 10
1691.803103477776
 20
30.71532109098041
 10
1729.465885632183
 20
32.78004448802403
 10
1964.733420322799
 20
31.37348023957861
 10
2054.31734575208
 20
33.53950308337767
 10
2250.798118002807
 20
45.18279875288499
 10
2263.007996858723
 20
23.59706222916793
 10
2300.295091690521
 20
26.78799646882237
 10
2300.295091690521
 20
26.78799646882237
1001
GradientColor1ACI
1070
     5
1001
GradientColor2ACI
1070
     2
1001
ACAD
1010
0.0
1020
0.0
1030
0.0
  0
VIEWPORT
  5
419
102
{ACAD_XDICTIONARY
360
41A
102
}
330
412
100
AcDbEntity
 67
     1
  8
0
100
AcDbViewport
 10
5.302083773875799
 20
3.968749891115924
 30
0.0
 40
21.00178084590334
 41
8.565217149164755
 68
     1
 69
     1
 12
5.302083773875799
 22
3.968749891115924
 13
0.0
 23
0.0
 14
0.5
 24
0.5
 15
0.5
 25
0.5
 16
0.0
 26
0.0
 36
1.0
 17
0.0
 27
0.0
 37
0.0
 42
50.0
 43
0.0
 44
0.0
 45
8.565217149164755
 50
0.0
 51
0.0
 72
   100
 90
   819232
  1

281
     0
 71
     1
 74
     0
110
0.0
120
0.0
130
0.0
111
1.0
121
0.0
131
0.0
112
0.0
122
1.0
132
0.0
 79
     0
146
0.0
  0
ENDSEC
  0
SECTION
  2
OBJECTS
  0
DICTIONARY
  5
C
330
0
100
AcDbDictionary
281
     1
  3
ACAD_CIP_PREVIOUS_PRODUCT_INFO
350
7A
  3
ACAD_COLOR
350
63
  3
ACAD_DETAILVIEWSTYLE
350
6B
  3
ACAD_GROUP
350
D
  3
ACAD_IMAGE_VARS
350
7B
  3
ACAD_LAYOUT
350
62
  3
ACAD_MATERIAL
350
10
  3
ACAD_MLEADERSTYLE
350
66
  3
ACAD_MLINESTYLE
350
5F
  3
ACAD_PLOTSETTINGS
350
61
  3
ACAD_PLOTSTYLENAME
350
E
  3
ACAD_SCALELIST
350
42
  3
ACAD_SECTIONVIEWSTYLE
350
68
  3
ACAD_TABLESTYLE
350
64
  3
ACAD_VISUALSTYLE
350
29
  3
ACDB_RECOMPOSE_DATA
350
A1A
  3
AcDbVariableDictionary
350
7C
  3
DWGPROPS
350
A1B
  3
REVIT_DICTIONARY
350
3C9
  0
DICTIONARY
  5
3E6
330
2
100
AcDbDictionary
280
     1
281
     1
  3
ACAD_LAYERSTATES
360
3E7
  0
DICTIONARY
  5
3CD
330
71
100
AcDbDictionary
280
     1
281
     1
  3
ACAD_SORTENTS
360
3CE
  0
DICTIONARY
  5
41A
330
419
100
AcDbDictionary
280
     1
281
     1
  3
ACAD_XREC_ROUNDTRIP
360
A53
  3
ASDK_XREC_ANNOTATION_SCALE_INFO
360
41B
  0
XRECORD
  5
7A
102
{ACAD_REACTORS
330
C
102
}
330
C
100
AcDbXrecord
280
     1
300
ACD
300
2013
300
85946BDSPRM_2013_0F
  0
DICTIONARY
  5
63
102
{ACAD_REACTORS
330
C
102
}
330
C
100
AcDbDictionary
281
     1
  0
DICTIONARY
  5
6B
102
{ACAD_REACTORS
330
C
102
}
330
C
100
AcDbDictionary
281
     1
  3
Imperial24
350
6C
  0
DICTIONARY
  5
D
102
{ACAD_REACTORS
330
C
102
}
330
C
100
AcDbDictionary
281
     1
  0
RASTERVARIABLES
  5
7B
102
{ACAD_REACTORS
330
C
102
}
330
C
100
AcDbRasterVariables
 90
        0
 70
     0
 71
     1
 72
     5
  0
DICTIONARY
  5
62
102
{ACAD_REACTORS
330
C
102
}
330
C
100
AcDbDictionary
281
     1
  3
Layout1
350
413
  3
Model
350
74
  0
DICTIONARY
  5
10
102
{ACAD_REACTORS
330
C
102
}
330
C
100
AcDbDictionary
281
     1
  3
ByBlock
350
19
  3
ByLayer
350
11
  3
Global
350
21
  0
DICTIONARY
  5
66
102
{ACAD_REACTORS
330
C
102
}
330
C
100
AcDbDictionary
281
     1
  3
Standard
350
67
  0
DICTIONARY
  5
5F
102
{ACAD_REACTORS
330
C
102
}
330
C
100
AcDbDictionary
281
     1
  3
Standard
350
60
  0
DICTIONARY
  5
61
102
{ACAD_REACTORS
330
C
102
}
330
C
100
AcDbDictionary
281
     1
  0
ACDBDICTIONARYWDFLT
  5
E
102
{ACAD_REACTORS
330
C
102
}
330
C
100
AcDbDictionary
281
     1
  3
Normal
350
F
100
AcDbDictionaryWithDefault
340
F
  0
DICTIONARY
  5
42
102
{ACAD_REACTORS
330
C
102
}
330
C
100
AcDbDictionary
281
     1
  3
A0
350
43
  3
A1
350
44
  3
A2
350
45
  3
A3
350
46
  3
A4
350
47
  3
A5
350
48
  3
A6
350
49
  3
A7
350
4A
  3
A8
350
4B
  3
A9
350
4C
  3
B0
350
4D
  3
B1
350
4E
  3
B2
350
4F
  3
B3
350
50
  3
B4
350
51
  3
B5
350
52
  3
B6
350
53
  0
DICTIONARY
  5
68
102
{ACAD_REACTORS
330
C
102
}
330
C
100
AcDbDictionary
281
     1
  3
Imperial24
350
6A
  0
DICTIONARY
  5
64
102
{ACAD_REACTORS
330
C
102
}
330
C
100
AcDbDictionary
281
     1
  3
Standard
350
65
  0
DICTIONARY
  5
29
102
{ACAD_REACTORS
330
C
102
}
330
C
100
AcDbDictionary
281
     1
  3
2dWireframe
350
2F
  3
Basic
350
2E
  3
Brighten
350
35
  3
ColorChange
350
39
  3
Conceptual
350
32
  3
Dim
350
34
  3
EdgeColorOff
350
41
  3
Facepattern
350
38
  3
Flat
350
2A
  3
FlatWithEdges
350
2B
  3
Gouraud
350
2C
  3
GouraudWithEdges
350
2D
  3
Hidden
350
31
  3
JitterOff
350
3F
  3
Linepattern
350
37
  3
OverhangOff
350
40
  3
Realistic
350
33
  3
Shaded
350
3E
  3
Shaded with edges
350
3D
  3
Shades of Gray
350
3A
  3
Sketchy
350
3B
  3
Thicken
350
36
  3
Wireframe
350
30
  3
X-Ray
350
3C
  0
XRECORD
  5
A1A
102
{ACAD_REACTORS
330
C
102
}
330
C
100
AcDbXrecord
280
     1
 90
        1
330
65
  0
DICTIONARY
  5
7C
102
{ACAD_REACTORS
330
C
102
}
330
C
100
AcDbDictionary
281
     1
  3
CANNOSCALE
350
81
  3
CMLEADERSTYLE
350
7E
  3
CTABLESTYLE
350
7D
  3
CVIEWDETAILSTYLE
350
7F
  3
CVIEWSECTIONSTYLE
350
80
  3
DIMASSOC
350
687
  3
HIDETEXT
350
686
  3
INDEXCTL
350
685
  3
LATITUDE
350
A15
  3
LAYEREVAL
350
682
  3
LAYERNOTIFY
350
683
  3
LIGHTINGUNITS
350
681
  3
LOFTANG1
350
A13
  3
LOFTANG2
350
A14
  3
LONGITUDE
350
A16
  3
MSLTSCALE
350
680
  3
SORTENTS
350
684
  3
TIMEZONE
350
A17
  3
XCLIPFRAME
350
A18
  0
XRECORD
  5
A1B
102
{ACAD_REACTORS
330
C
102
}
330
C
100
AcDbXrecord
280
     1
  1
DWGPROPS COOKIE
  2

  3

  4

  6

  7

  8
jcl
  9

300
=
301
=
302
=
303
=
304
=
305
=
306
=
307
=
308
=
309
=
 40
0.0156638425925926
 41
2457120.72633713
 42
2457120.744904294
  1

 90
        0
  0
DICTIONARY
  5
3C9
102
{ACAD_REACTORS
330
C
102
}
330
C
100
AcDbDictionary
281
     1
  3
REVIT_CATEGORY_MAPPING
350
3CB
  3
REVIT_SUB_CATEGORY_MAPPING
350
3CC
  3
REVIT_TYPE_MAPPING
350
3CA
  0
DICTIONARY
  5
3E7
102
{ACAD_REACTORS
330
3E6
102
}
330
3E6
100
AcDbDictionary
281
     1
  0
SORTENTSTABLE
  5
3CE
102
{ACAD_REACTORS
330
3CD
102
}
330
3CD
100
AcDbSortentsTable
330
71
331
466
  5
5AA
331
59F
  5
573
331
597
  5
56D
331
5D6
  5
47A
331
593
  5
567
331
5D2
  5
476
331
4A7
  5
5EB
331
4A3
  5
5E7
331
525
  5
4F9
331
49F
  5
5E3
331
4DE
  5
4B3
331
521
  5
4F5
331
49B
  5
5DF
331
4DA
  5
4AE
331
55C
  5
530
331
51D
  5
4F1
331
558
  5
52C
331
519
  5
4ED
331
457
  5
957
331
453
  5
602
331
58F
  5
563
331
5CE
  5
472
331
58B
  5
55F
331
605
  5
4AA
331
587
  5
55B
331
601
  5
4A6
331
583
  5
557
331
5C2
  5
470
331
5FD
  5
4A1
331
5F9
  5
49D
331
497
  5
5DB
331
4D6
  5
5A5
331
4D2
  5
5A1
331
554
  5
528
331
48F
  5
5D7
331
4CE
  5
59D
331
550
  5
524
331
48B
  5
5CF
331
4CA
  5
598
331
54C
  5
520
331
548
  5
51C
331
501
  5
4D9
331
57F
  5
553
331
5BE
  5
462
331
57B
  5
54F
331
5BA
  5
45E
331
5F5
  5
499
331
577
  5
54B
331
5F1
  5
495
331
5B6
  5
459
331
573
  5
547
331
5ED
  5
491
331
5B2
  5
454
331
5E9
  5
48D
331
487
  5
5CB
331
4C6
  5
596
331
483
  5
5C7
331
4C2
  5
58F
331
544
  5
51A
331
4FD
  5
4D1
331
47F
  5
5C3
331
4BE
  5
58B
331
540
  5
518
331
4F9
  5
4CD
331
47B
  5
5BF
331
4BA
  5
587
331
53C
  5
510
331
4F5
  5
4C9
331
538
  5
50C
331
4F1
  5
4C5
331
610
  5
95B
331
56F
  5
543
331
56B
  5
53F
331
5AA
  5
44C
331
5A6
  5
57A
331
567
  5
53B
331
5E1
  5
485
331
5A2
  5
576
331
563
  5
537
331
5DD
  5
481
331
5D9
  5
47D
331
477
  5
5BB
331
4B6
  5
583
331
473
  5
5B7
331
4B2
  5
57F
331
4ED
  5
4C1
331
4AE
  5
5FE
331
46F
  5
5B3
331
530
  5
507
331
4E9
  5
4BD
331
4AA
  5
5EE
331
46B
  5
5AF
331
52C
  5
500
331
4E5
  5
4B9
331
528
  5
4FC
331
465
  5
5A9
331
608
  5
4AD
331
59E
  5
572
331
596
  5
56A
331
5D5
  5
479
331
592
  5
566
331
5D1
  5
475
331
4A6
  5
5EA
331
4A2
  5
5E6
331
524
  5
4F8
331
49E
  5
5E2
331
4DD
  5
4B1
331
55F
  5
533
331
520
  5
4F4
331
49A
  5
5DE
331
4D9
  5
5A8
331
55B
  5
52F
331
51C
  5
4F0
331
518
  5
4EC
331
456
  5
953
331
452
  5
601
331
58E
  5
562
331
58A
  5
55E
331
604
  5
4A9
331
586
  5
55A
331
5C5
  5
471
331
600
  5
4A5
331
582
  5
556
331
5C1
  5
467
331
5FC
  5
4A0
331
5F8
  5
49C
331
496
  5
5DA
331
4D5
  5
5A4
331
557
  5
52B
331
4D1
  5
5A0
331
553
  5
527
331
48E
  5
5D6
331
4CD
  5
59C
331
54F
  5
523
331
508
  5
4EB
331
48A
  5
5CE
331
54B
  5
51F
331
500
  5
4D8
331
57E
  5
552
331
5BD
  5
461
331
57A
  5
54E
331
5B9
  5
45D
331
5F4
  5
498
331
576
  5
54A
331
5F0
  5
494
331
5B5
  5
458
331
572
  5
546
331
5EC
  5
490
331
5B1
  5
453
331
5E8
  5
48C
331
486
  5
5CA
331
4C5
  5
595
331
547
  5
51B
331
482
  5
5C6
331
4C1
  5
58E
331
4FC
  5
4D0
331
47E
  5
5C2
331
4BD
  5
58A
331
53F
  5
515
331
4F8
  5
4CC
331
47A
  5
5BE
331
4B9
  5
586
331
53B
  5
50F
331
4F4
  5
4C8
331
4F0
  5
4C4
331
613
  5
95C
331
56E
  5
542
331
5AD
  5
44F
331
5A9
  5
57D
331
56A
  5
53E
331
5E4
  5
48B
331
5A5
  5
579
331
566
  5
53A
331
5E0
  5
484
331
5A1
  5
575
331
562
  5
536
331
5DC
  5
480
331
5D8
  5
47C
331
476
  5
5BA
331
4B5
  5
582
331
537
  5
50B
331
472
  5
5B6
331
4B1
  5
57E
331
4EC
  5
4C0
331
4AD
  5
5FD
331
46E
  5
5B2
331
52F
  5
503
331
4E8
  5
4BC
331
4A9
  5
5ED
331
46A
  5
5AE
331
52B
  5
4FF
331
4E4
  5
4B8
331
4E0
  5
4B5
331
59D
  5
571
331
599
  5
56F
331
595
  5
569
331
5D4
  5
478
331
591
  5
565
331
5D0
  5
474
331
4A5
  5
5E9
331
527
  5
4FB
331
4A1
  5
5E5
331
523
  5
4F7
331
49D
  5
5E1
331
4DC
  5
4B0
331
55E
  5
532
331
51F
  5
4F3
331
499
  5
5DD
331
4D8
  5
5A7
331
55A
  5
52E
331
51B
  5
4EF
331
458
  5
958
331
455
  5
613
331
58D
  5
561
331
607
  5
4AC
331
589
  5
55D
331
603
  5
4A8
331
585
  5
559
331
5FF
  5
4A4
331
581
  5
555
331
5C0
  5
464
331
5FB
  5
49F
331
4D4
  5
5A3
331
556
  5
52A
331
491
  5
5D9
331
4D0
  5
59F
331
552
  5
526
331
48D
  5
5D5
331
4CC
  5
59B
331
54E
  5
522
331
507
  5
4EA
331
489
  5
5CD
331
54A
  5
51E
331
57D
  5
551
331
5BC
  5
460
331
5F7
  5
49B
331
579
  5
54D
331
5F3
  5
497
331
A12
  5
45C
331
5B8
  5
45B
331
575
  5
549
331
5EF
  5
493
331
5B4
  5
456
331
571
  5
545
331
5EB
  5
48F
331
5B0
  5
452
331
485
  5
5C9
331
4C4
  5
594
331
4FF
  5
4D3
331
481
  5
5C5
331
4C0
  5
58D
331
542
  5
519
331
4FB
  5
4CF
331
47D
  5
5C1
331
4BC
  5
589
331
53E
  5
513
331
4F7
  5
4CB
331
479
  5
5BD
331
4B8
  5
585
331
53A
  5
50E
331
4F3
  5
4C7
331
56D
  5
541
331
5AC
  5
44E
331
5A8
  5
57C
331
569
  5
53D
331
5E3
  5
48A
331
5A4
  5
578
331
565
  5
539
331
5DF
  5
483
331
5A0
  5
574
331
561
  5
535
331
5DB
  5
47F
331
475
  5
5B9
331
4B4
  5
581
331
536
  5
50A
331
4EF
  5
4C3
331
4B0
  5
600
331
471
  5
5B5
331
532
  5
509
331
4EB
  5
4BF
331
4AC
  5
5FC
331
46D
  5
5B1
331
52E
  5
502
331
4E7
  5
4BB
331
4A8
  5
5EC
331
469
  5
5AD
331
52A
  5
4FE
331
4E3
  5
4B7
331
467
  5
5AB
331
59C
  5
570
331
598
  5
56E
331
5D7
  5
47B
331
594
  5
568
331
5D3
  5
477
331
590
  5
564
331
4A4
  5
5E8
331
526
  5
4FA
331
4A0
  5
5E4
331
4DF
  5
4B4
331
522
  5
4F6
331
49C
  5
5E0
331
4DB
  5
4AF
331
55D
  5
531
331
51E
  5
4F2
331
498
  5
5DC
331
559
  5
52D
331
51A
  5
4EE
331
454
  5
610
331
5CF
  5
473
331
58C
  5
560
331
606
  5
4AB
331
588
  5
55C
331
602
  5
4A7
331
584
  5
558
331
5FE
  5
4A3
331
580
  5
554
331
5FA
  5
49E
331
4D7
  5
5A6
331
4D3
  5
5A2
331
555
  5
529
331
490
  5
5D8
331
4CF
  5
59E
331
551
  5
525
331
48C
  5
5D0
331
4CB
  5
59A
331
54D
  5
521
331
488
  5
5CC
331
549
  5
51D
331
502
  5
4E9
331
5BF
  5
463
331
57C
  5
550
331
5BB
  5
45F
331
5F6
  5
49A
331
578
  5
54C
331
5F2
  5
496
331
5B7
  5
45A
331
574
  5
548
331
5EE
  5
492
331
5B3
  5
455
331
570
  5
544
331
5EA
  5
48E
331
484
  5
5C8
331
4C3
  5
590
331
4FE
  5
4D2
331
480
  5
5C4
331
4BF
  5
58C
331
4FA
  5
4CE
331
47C
  5
5C0
331
4BB
  5
588
331
53D
  5
511
331
4F6
  5
4CA
331
478
  5
5BC
331
539
  5
50D
331
4F2
  5
4C6
331
56C
  5
540
331
5AB
  5
44D
331
5A7
  5
57B
331
568
  5
53C
331
5E2
  5
486
331
5A3
  5
577
331
564
  5
538
331
5DE
  5
482
331
560
  5
534
331
5DA
  5
47E
331
4B7
  5
584
331
474
  5
5B8
331
4B3
  5
580
331
4EE
  5
4C2
331
4AF
  5
5FF
331
470
  5
5B4
331
531
  5
508
331
4EA
  5
4BE
331
4AB
  5
5EF
331
46C
  5
5B0
331
52D
  5
501
331
4E6
  5
4BA
331
468
  5
5AC
331
529
  5
4FD
331
4E2
  5
4B6
  0
XRECORD
  5
A53
102
{ACAD_REACTORS
330
41A
102
}
330
41A
100
AcDbXrecord
280
     1
102
SHADEPLOT
 70
     0
  0
XRECORD
  5
41B
102
{ACAD_REACTORS
330
41A
102
}
330
41A
100
AcDbXrecord
280
     1
 90
        1
340
43
  0
ACDBDETAILVIEWSTYLE
  5
6C
102
{ACAD_REACTORS
330
6B
102
}
330
6B
100
AcDbModelDocViewStyle
 70
     0
  3
Imperial24
290
     0
100
AcDbDetailViewStyle
 70
     0
 71
     0
 90
        3
 71
     1
340
55
 40
0.24
340
0
 40
0.24
300

 40
0.36
280
     3
 71
     2
340
5D
 90
       25
 71
     3
340
55
 40
0.24
 90
        1
 40
0.75
 90
        1
300
%<\AcVar ViewType \f "%tc1">% %<\AcVar ViewDetailId>%\PSCALE %<\AcVar ViewScale \f "%sn">%
 71
     4
340
5D
 90
       25
340
5D
 90
       25
280
     0
  0
LAYOUT
  5
413
102
{ACAD_XDICTIONARY
360
A51
102
}
102
{ACAD_REACTORS
330
62
102
}
330
62
100
AcDbPlotSettings
  1

  2
\\USJESR-FS01\MD_ENGR_Copier
  4
Letter
  6

 40
7.143749713897705
 41
5.027099609375
 42
7.14373779296875
 43
5.027069091796875
 44
215.8999938964844
 45
279.3999938964844
 46
0.0
 47
0.0
 48
0.0
 49
0.0
140
0.0
141
0.0
142
1.0
143
1.0
 70
   688
 72
     0
 73
     1
 74
     5
  7

 75
    16
147
1.0
148
0.0
149
0.0
100
AcDbLayout
  1
Layout1
 70
     1
 71
     1
 10
-0.1979161059762549
 20
-0.2812499887361301
 11
10.80208365372785
 21
8.218749770967978
 12
0.0
 22
0.0
 32
0.0
 14
1.000000000000000E+20
 24
1.000000000000000E+20
 34
1.000000000000000E+20
 15
-1.000000000000000E+20
 25
-1.000000000000000E+20
 35
-1.000000000000000E+20
146
0.0
 13
0.0
 23
0.0
 33
0.0
 16
1.0
 26
0.0
 36
0.0
 17
0.0
 27
1.0
 37
0.0
 76
     0
330
412
331
419
1001
ACAD_PSEXT
1000
\\USJESR-FS01\MD_ENGR_Copier
1000
SAVIN C6055 PCL 5c
1000
2nd Floor Left Rear - near room 230
1000

1070
     0
  0
LAYOUT
  5
74
102
{ACAD_XDICTIONARY
360
A4F
102
}
102
{ACAD_REACTORS
330
62
102
}
330
62
100
AcDbPlotSettings
  1

  2

  4

  6

 40
0.0
 41
0.0
 42
0.0
 43
0.0
 44
0.0
 45
0.0
 46
0.0
 47
0.0
 48
0.0
 49
0.0
140
0.0
141
0.0
142
1.0
143
1.0
 70
  1712
 72
     0
 73
     0
 74
     0
  7

 75
     0
147
1.0
148
0.0
149
0.0
100
AcDbLayout
  1
Model
 70
     1
 71
     0
 10
0.0
 20
0.0
 11
12.0
 21
9.0
 12
0.0
 22
0.0
 32
0.0
 14
0.0
 24
0.0
 34
0.0
 15
0.0
 25
0.0
 35
0.0
146
0.0
 13
0.0
 23
0.0
 33
0.0
 16
1.0
 26
0.0
 36
0.0
 17
0.0
 27
1.0
 37
0.0
 76
     0
330
71
331
57
  0
MATERIAL
  5
19
102
{ACAD_XDICTIONARY
360
1A
102
}
102
{ACAD_REACTORS
330
10
102
}
330
10
100
AcDbMaterial
  1
ByBlock
 72
     0
 43
0.0208333333333333
 43
0.0
 43
0.0
 43
0.0
 43
0.0
 43
0.0208333333333333
 43
0.0
 43
0.0
 43
0.0
 43
0.0
 43
1.0
 43
0.0
 43
0.0
 43
0.0
 43
0.0
 43
1.0
 77
     0
 47
0.0208333333333333
 47
0.0
 47
0.0
 47
0.0
 47
0.0
 47
0.0208333333333333
 47
0.0
 47
0.0
 47
0.0
 47
0.0
 47
1.0
 47
0.0
 47
0.0
 47
0.0
 47
0.0
 47
1.0
171
     0
 49
0.0208333333333333
 49
0.0
 49
0.0
 49
0.0
 49
0.0
 49
0.0208333333333333
 49
0.0
 49
0.0
 49
0.0
 49
0.0
 49
1.0
 49
0.0
 49
0.0
 49
0.0
 49
0.0
 49
1.0
175
     0
142
0.0208333333333333
142
0.0
142
0.0
142
0.0
142
0.0
142
0.0208333333333333
142
0.0
142
0.0
142
0.0
142
0.0
142
1.0
142
0.0
142
0.0
142
0.0
142
0.0
142
1.0
179
     0
144
0.0208333333333333
144
0.0
144
0.0
144
0.0
144
0.0
144
0.0208333333333333
144
0.0
144
0.0
144
0.0
144
0.0
144
1.0
144
0.0
144
0.0
144
0.0
144
0.0
144
1.0
147
0.0208333333333333
147
0.0
147
0.0
147
0.0
147
0.0
147
0.0208333333333333
147
0.0
147
0.0
147
0.0
147
0.0
147
1.0
147
0.0
147
0.0
147
0.0
147
0.0
147
1.0
  0
MATERIAL
  5
11
102
{ACAD_XDICTIONARY
360
12
102
}
102
{ACAD_REACTORS
330
10
102
}
330
10
100
AcDbMaterial
  1
ByLayer
 72
     0
 43
0.0208333333333333
 43
0.0
 43
0.0
 43
0.0
 43
0.0
 43
0.0208333333333333
 43
0.0
 43
0.0
 43
0.0
 43
0.0
 43
1.0
 43
0.0
 43
0.0
 43
0.0
 43
0.0
 43
1.0
 77
     0
 47
0.0208333333333333
 47
0.0
 47
0.0
 47
0.0
 47
0.0
 47
0.0208333333333333
 47
0.0
 47
0.0
 47
0.0
 47
0.0
 47
1.0
 47
0.0
 47
0.0
 47
0.0
 47
0.0
 47
1.0
171
     0
 49
0.0208333333333333
 49
0.0
 49
0.0
 49
0.0
 49
0.0
 49
0.0208333333333333
 49
0.0
 49
0.0
 49
0.0
 49
0.0
 49
1.0
 49
0.0
 49
0.0
 49
0.0
 49
0.0
 49
1.0
175
     0
142
0.0208333333333333
142
0.0
142
0.0
142
0.0
142
0.0
142
0.0208333333333333
142
0.0
142
0.0
142
0.0
142
0.0
142
1.0
142
0.0
142
0.0
142
0.0
142
0.0
142
1.0
179
     0
144
0.0208333333333333
144
0.0
144
0.0
144
0.0
144
0.0
144
0.0208333333333333
144
0.0
144
0.0
144
0.0
144
0.0
144
1.0
144
0.0
144
0.0
144
0.0
144
0.0
144
1.0
147
0.0208333333333333
147
0.0
147
0.0
147
0.0
147
0.0
147
0.0208333333333333
147
0.0
147
0.0
147
0.0
147
0.0
147
1.0
147
0.0
147
0.0
147
0.0
147
0.0
147
1.0
  0
MATERIAL
  5
21
102
{ACAD_XDICTIONARY
360
22
102
}
102
{ACAD_REACTORS
330
10
102
}
330
10
100
AcDbMaterial
  1
Global
 72
     0
 43
0.0208333333333333
 43
0.0
 43
0.0
 43
0.0
 43
0.0
 43
0.0208333333333333
 43
0.0
 43
0.0
 43
0.0
 43
0.0
 43
1.0
 43
0.0
 43
0.0
 43
0.0
 43
0.0
 43
1.0
 77
     0
 47
0.0208333333333333
 47
0.0
 47
0.0
 47
0.0
 47
0.0
 47
0.0208333333333333
 47
0.0
 47
0.0
 47
0.0
 47
0.0
 47
1.0
 47
0.0
 47
0.0
 47
0.0
 47
0.0
 47
1.0
171
     0
 49
0.0208333333333333
 49
0.0
 49
0.0
 49
0.0
 49
0.0
 49
0.0208333333333333
 49
0.0
 49
0.0
 49
0.0
 49
0.0
 49
1.0
 49
0.0
 49
0.0
 49
0.0
 49
0.0
 49
1.0
175
     0
142
0.0208333333333333
142
0.0
142
0.0
142
0.0
142
0.0
142
0.0208333333333333
142
0.0
142
0.0
142
0.0
142
0.0
142
1.0
142
0.0
142
0.0
142
0.0
142
0.0
142
1.0
179
     0
144
0.0208333333333333
144
0.0
144
0.0
144
0.0
144
0.0
144
0.0208333333333333
144
0.0
144
0.0
144
0.0
144
0.0
144
1.0
144
0.0
144
0.0
144
0.0
144
0.0
144
1.0
147
0.0208333333333333
147
0.0
147
0.0
147
0.0
147
0.0
147
0.0208333333333333
147
0.0
147
0.0
147
0.0
147
0.0
147
1.0
147
0.0
147
0.0
147
0.0
147
0.0
147
1.0
  0
MLEADERSTYLE
  5
67
102
{ACAD_XDICTIONARY
360
A4D
102
}
102
{ACAD_REACTORS
330
66
102
}
330
66
100
AcDbMLeaderStyle
170
     2
171
     1
172
     0
 90
        2
 40
0.0
 41
0.0
173
     1
 91
-1056964608
340
5B
 92
       -2
290
     1
 42
0.09
291
     1
 43
0.36
  3
Standard
 44
0.18
300

342
55
174
     1
178
     6
175
     1
176
     0
 93
-1056964608
 45
0.18
292
     0
297
     0
 46
0.18
 94
-1056964608
 47
1.0
 49
1.0
140
1.0
293
     1
141
0.0
294
     1
177
     0
142
1.0
295
     0
296
     0
143
0.125
1001
ACAD_MLEADERVER
1070
     2
  0
MLINESTYLE
  5
60
102
{ACAD_REACTORS
330
5F
102
}
330
5F
100
AcDbMlineStyle
  2
STANDARD
 70
     0
  3

 62
   256
 51
90.0
 52
90.0
 71
     2
 49
0.5
 62
   256
  6
BYLAYER
 49
-0.5
 62
   256
  6
BYLAYER
  0
ACDBPLACEHOLDER
  5
F
102
{ACAD_REACTORS
330
E
102
}
330
E
  0
SCALE
  5
43
102
{ACAD_REACTORS
330
42
102
}
330
42
100
AcDbScale
 70
     0
300
1:1
140
1.0
141
1.0
290
     1
  0
SCALE
  5
44
102
{ACAD_REACTORS
330
42
102
}
330
42
100
AcDbScale
 70
     0
300
1/128" = 1'-0"
140
0.0078125
141
12.0
290
     0
  0
SCALE
  5
45
102
{ACAD_REACTORS
330
42
102
}
330
42
100
AcDbScale
 70
     0
300
1/64" = 1'-0"
140
0.015625
141
12.0
290
     0
  0
SCALE
  5
46
102
{ACAD_REACTORS
330
42
102
}
330
42
100
AcDbScale
 70
     0
300
1/32" = 1'-0"
140
0.03125
141
12.0
290
     0
  0
SCALE
  5
47
102
{ACAD_REACTORS
330
42
102
}
330
42
100
AcDbScale
 70
     0
300
1/16" = 1'-0"
140
0.0625
141
12.0
290
     0
  0
SCALE
  5
48
102
{ACAD_REACTORS
330
42
102
}
330
42
100
AcDbScale
 70
     0
300
3/32" = 1'-0"
140
0.09375
141
12.0
290
     0
  0
SCALE
  5
49
102
{ACAD_REACTORS
330
42
102
}
330
42
100
AcDbScale
 70
     0
300
1/8" = 1'-0"
140
0.125
141
12.0
290
     0
  0
SCALE
  5
4A
102
{ACAD_REACTORS
330
42
102
}
330
42
100
AcDbScale
 70
     0
300
3/16" = 1'-0"
140
0.1875
141
12.0
290
     0
  0
SCALE
  5
4B
102
{ACAD_REACTORS
330
42
102
}
330
42
100
AcDbScale
 70
     0
300
1/4" = 1'-0"
140
0.25
141
12.0
290
     0
  0
SCALE
  5
4C
102
{ACAD_REACTORS
330
42
102
}
330
42
100
AcDbScale
 70
     0
300
3/8" = 1'-0"
140
0.375
141
12.0
290
     0
  0
SCALE
  5
4D
102
{ACAD_REACTORS
330
42
102
}
330
42
100
AcDbScale
 70
     0
300
1/2" = 1'-0"
140
0.5
141
12.0
290
     0
  0
SCALE
  5
4E
102
{ACAD_REACTORS
330
42
102
}
330
42
100
AcDbScale
 70
     0
300
3/4" = 1'-0"
140
0.75
141
12.0
290
     0
  0
SCALE
  5
4F
102
{ACAD_REACTORS
330
42
102
}
330
42
100
AcDbScale
 70
     0
300
1" = 1'-0"
140
1.0
141
12.0
290
     0
  0
SCALE
  5
50
102
{ACAD_REACTORS
330
42
102
}
330
42
100
AcDbScale
 70
     0
300
1-1/2" = 1'-0"
140
1.5
141
12.0
290
     0
  0
SCALE
  5
51
102
{ACAD_REACTORS
330
42
102
}
330
42
100
AcDbScale
 70
     0
300
3" = 1'-0"
140
3.0
141
12.0
290
     0
  0
SCALE
  5
52
102
{ACAD_REACTORS
330
42
102
}
330
42
100
AcDbScale
 70
     0
300
6" = 1'-0"
140
6.0
141
12.0
290
     0
  0
SCALE
  5
53
102
{ACAD_REACTORS
330
42
102
}
330
42
100
AcDbScale
 70
     0
300
1'-0" = 1'-0"
140
12.0
141
12.0
290
     0
  0
ACDBSECTIONVIEWSTYLE
  5
6A
102
{ACAD_REACTORS
330
68
102
}
330
68
100
AcDbModelDocViewStyle
 70
     0
  3
Imperial24
290
     0
100
AcDbSectionViewStyle
 70
     0
 71
     0
 90
       78
 71
     1
340
55
 40
0.24
340
0
340
0
 40
0.24
300
I, O, Q, S, X, Z
 40
0.48
 90
        3
 40
0.18
 90
        1
 71
     2
340
69
 90
       25
340
5D
 90
       50
 40
0.24
 40
0.0
 40
0.24
 71
     3
340
55
 40
0.24
 90
        1
 40
0.75
 90
        1
300
%<\AcVar ViewType \f "%tc1">% %<\AcVar ViewSectionStartId>%-%<\AcVar ViewSectionEndId>%\PSCALE %<\AcVar ViewScale \f "%sn">%
 71
     4
300
ANSI31
 40
1.0
 90
        0
290
     0
290
     0
 90
        6
 40
0.0
 40
1.570796326794896
 40
0.2617993877991494
 40
1.308996938995747
 40
-0.2617993877991494
 40
1.832595714594044
  0
TABLESTYLE
  5
65
102
{ACAD_XDICTIONARY
360
3D0
102
}
102
{ACAD_REACTORS
330
64
102
}
330
64
100
AcDbTableStyle
  3
Standard
 70
     0
 71
     0
 40
0.06
 41
0.06
280
     0
281
     0
  7
Standard
140
0.18
170
     2
 62
     0
 63
     7
283
     0
274
    -2
284
     1
 64
     0
275
    -2
285
     1
 65
     0
276
    -2
286
     1
 66
     0
277
    -2
287
     1
 67
     0
278
    -2
288
     1
 68
     0
279
    -2
289
     1
 69
     0
  7
Standard
140
0.25
170
     5
 62
     0
 63
     7
283
     0
274
    -2
284
     1
 64
     0
275
    -2
285
     1
 65
     0
276
    -2
286
     1
 66
     0
277
    -2
287
     1
 67
     0
278
    -2
288
     1
 68
     0
279
    -2
289
     1
 69
     0
  7
Standard
140
0.18
170
     5
 62
     0
 63
     7
283
     0
274
    -2
284
     1
 64
     0
275
    -2
285
     1
 65
     0
276
    -2
286
     1
 66
     0
277
    -2
287
     1
 67
     0
278
    -2
288
     1
 68
     0
279
    -2
289
     1
 69
     0
  0
VISUALSTYLE
  5
2F
102
{ACAD_XDICTIONARY
360
A26
102
}
102
{ACAD_REACTORS
330
29
102
}
330
29
100
AcDbVisualStyle
  2

 70
     4
 71
     0
 72
     2
 73
     0
 90
        0
 40
-0.6
 41
-30.0
 62
     5
 63
     7
 74
     1
 91
        4
 64
     7
 65
   257
 75
     1
175
     1
 42
1.0
 92
        0
 66
   257
 43
1.0
 76
     1
 77
     6
 78
     2
 67
     7
 79
     5
170
     0
171
     0
290
     0
174
     0
 93
        1
 44
0.0
173
     0
291
     0
 45
0.0
1001
ACAD
1000
AcDbSavedByObjectVersion
1070
     0
  0
VISUALSTYLE
  5
2E
102
{ACAD_XDICTIONARY
360
A24
102
}
102
{ACAD_REACTORS
330
29
102
}
330
29
100
AcDbVisualStyle
  2

 70
     7
 71
     1
 72
     0
 73
     1
 90
        0
 40
-0.6
 41
-30.0
 62
     5
 63
     7
 74
     0
 91
        4
 64
     7
 65
   257
 75
     1
175
     1
 42
1.0
 92
        8
 66
     7
 43
1.0
 76
     1
 77
     6
 78
     2
 67
     7
 79
     5
170
     0
171
     0
290
     0
174
     0
 93
        1
 44
0.0
173
     0
291
     1
 45
0.0
1001
ACAD
1000
AcDbSavedByObjectVersion
1070
     0
  0
VISUALSTYLE
  5
35
102
{ACAD_XDICTIONARY
360
A32
102
}
102
{ACAD_REACTORS
330
29
102
}
330
29
100
AcDbVisualStyle
  2

 70
    12
 71
     2
 72
     2
 73
     0
 90
        0
 40
-0.6
 41
-30.0
 62
     5
 63
     7
 74
     1
 91
        4
 64
     7
 65
   257
 75
     1
175
     1
 42
1.0
 92
        8
 66
     7
 43
1.0
 76
     1
 77
     6
 78
     2
 67
     7
 79
     5
170
     0
171
     0
290
     0
174
     0
 93
        1
 44
50.0
173
     0
291
     1
 45
0.0
1001
ACAD
1000
AcDbSavedByObjectVersion
1070
     0
  0
VISUALSTYLE
  5
39
102
{ACAD_XDICTIONARY
360
A3A
102
}
102
{ACAD_REACTORS
330
29
102
}
330
29
100
AcDbVisualStyle
  2

 70
    16
 71
     2
 72
     2
 73
     3
 90
        0
 40
-0.6
 41
-30.0
 62
     5
 63
     8
 74
     1
 91
        4
 64
     7
 65
   257
 75
     1
175
     1
 42
1.0
 92
        8
 66
     8
 43
1.0
 76
     1
 77
     6
 78
     2
 67
     7
 79
     5
170
     0
171
     0
290
     0
174
     0
 93
        1
 44
0.0
173
     0
291
     1
 45
0.0
1001
ACAD
1000
AcDbSavedByObjectVersion
1070
     0
  0
VISUALSTYLE
  5
32
102
{ACAD_XDICTIONARY
360
A2C
102
}
102
{ACAD_REACTORS
330
29
102
}
330
29
100
AcDbVisualStyle
  2

 70
     9
 71
     3
 72
     2
 73
     0
 90
        0
 40
-0.6
 41
-30.0
 62
     5
 63
     7
 74
     2
 91
        2
 64
     7
 65
   257
 75
     1
175
     1
 42
179.0
 92
        8
 66
     7
 43
1.0
 76
     1
 77
     6
 78
     2
 67
     7
 79
     3
170
     0
171
     0
290
     0
174
     0
 93
        1
 44
0.0
173
     0
291
     0
 45
0.0
1001
ACAD
1000
AcDbSavedByObjectVersion
1070
     0
  0
VISUALSTYLE
  5
34
102
{ACAD_XDICTIONARY
360
A30
102
}
102
{ACAD_REACTORS
330
29
102
}
330
29
100
AcDbVisualStyle
  2

 70
    11
 71
     2
 72
     2
 73
     0
 90
        0
 40
-0.6
 41
-30.0
 62
     5
 63
     7
 74
     1
 91
        4
 64
     7
 65
   257
 75
     1
175
     1
 42
1.0
 92
        8
 66
     7
 43
1.0
 76
     1
 77
     6
 78
     2
 67
     7
 79
     5
170
     0
171
     0
290
     0
174
     0
 93
        1
 44
-50.0
173
     0
291
     1
 45
0.0
1001
ACAD
1000
AcDbSavedByObjectVersion
1070
     0
  0
VISUALSTYLE
  5
41
102
{ACAD_XDICTIONARY
360
A4A
102
}
102
{ACAD_REACTORS
330
29
102
}
330
29
100
AcDbVisualStyle
  2

 70
    22
 71
     2
 72
     2
 73
     0
 90
        0
 40
-0.6
 41
-30.0
 62
     5
 63
     7
 74
     1
 91
        4
 64
     7
 65
   257
 75
     1
175
     1
 42
1.0
 92
        8
 66
     7
 43
1.0
 76
     1
 77
     6
 78
     2
 67
     7
 79
     5
170
     0
171
     0
290
     0
174
     0
 93
        1
 44
0.0
173
     0
291
     1
 45
0.0
1001
ACAD
1000
AcDbSavedByObjectVersion
1070
     0
  0
VISUALSTYLE
  5
38
102
{ACAD_XDICTIONARY
360
A38
102
}
102
{ACAD_REACTORS
330
29
102
}
330
29
100
AcDbVisualStyle
  2

 70
    15
 71
     2
 72
     2
 73
     0
 90
        0
 40
-0.6
 41
-30.0
 62
     5
 63
     7
 74
     1
 91
        4
 64
     7
 65
   257
 75
     1
175
     1
 42
1.0
 92
        8
 66
     7
 43
1.0
 76
     1
 77
     6
 78
     2
 67
     7
 79
     5
170
     0
171
     0
290
     0
174
     0
 93
        1
 44
0.0
173
     0
291
     1
 45
0.0
1001
ACAD
1000
AcDbSavedByObjectVersion
1070
     0
  0
VISUALSTYLE
  5
2A
102
{ACAD_XDICTIONARY
360
A1C
102
}
102
{ACAD_REACTORS
330
29
102
}
330
29
100
AcDbVisualStyle
  2

 70
     0
 71
     2
 72
     1
 73
     1
 90
        2
 40
-0.6
 41
30.0
 62
     5
 63
     7
 74
     0
 91
        0
 64
     7
 65
   257
 75
     1
175
     1
 42
1.0
 92
        8
 66
     7
 43
1.0
 76
     1
 77
     6
 78
     2
 67
     7
 79
     5
170
     0
171
     0
290
     0
174
     0
 93
       13
 44
0.0
173
     0
291
     1
 45
0.0
1001
ACAD
1000
AcDbSavedByObjectVersion
1070
     0
  0
VISUALSTYLE
  5
2B
102
{ACAD_XDICTIONARY
360
A1E
102
}
102
{ACAD_REACTORS
330
29
102
}
330
29
100
AcDbVisualStyle
  2

 70
     1
 71
     2
 72
     1
 73
     1
 90
        2
 40
-0.6
 41
30.0
 62
     5
 63
     7
 74
     1
 91
        0
 64
     7
 65
   257
 75
     1
175
     1
 42
1.0
 92
        0
 66
   257
 43
1.0
 76
     1
 77
     6
 78
     2
 67
     7
 79
     5
170
     0
171
     0
290
     0
174
     0
 93
       13
 44
0.0
173
     0
291
     1
 45
0.0
1001
ACAD
1000
AcDbSavedByObjectVersion
1070
     0
  0
VISUALSTYLE
  5
2C
102
{ACAD_XDICTIONARY
360
A20
102
}
102
{ACAD_REACTORS
330
29
102
}
330
29
100
AcDbVisualStyle
  2

 70
     2
 71
     2
 72
     2
 73
     1
 90
        2
 40
-0.6
 41
30.0
 62
     5
 63
     7
 74
     0
 91
        0
 64
     7
 65
   257
 75
     1
175
     1
 42
1.0
 92
        0
 66
     7
 43
1.0
 76
     1
 77
     6
 78
     2
 67
     7
 79
     5
170
     0
171
     0
290
     0
174
     0
 93
       13
 44
0.0
173
     0
291
     1
 45
0.0
1001
ACAD
1000
AcDbSavedByObjectVersion
1070
     0
  0
VISUALSTYLE
  5
2D
102
{ACAD_XDICTIONARY
360
A22
102
}
102
{ACAD_REACTORS
330
29
102
}
330
29
100
AcDbVisualStyle
  2

 70
     3
 71
     2
 72
     2
 73
     1
 90
        2
 40
-0.6
 41
30.0
 62
     5
 63
     7
 74
     1
 91
        0
 64
     7
 65
   257
 75
     1
175
     1
 42
1.0
 92
        0
 66
   257
 43
1.0
 76
     1
 77
     6
 78
     2
 67
     7
 79
     5
170
     0
171
     0
290
     0
174
     0
 93
       13
 44
0.0
173
     0
291
     1
 45
0.0
1001
ACAD
1000
AcDbSavedByObjectVersion
1070
     0
  0
VISUALSTYLE
  5
31
102
{ACAD_XDICTIONARY
360
A2A
102
}
102
{ACAD_REACTORS
330
29
102
}
330
29
100
AcDbVisualStyle
  2

 70
     6
 71
     1
 72
     2
 73
     2
 90
        0
 40
-0.6
 41
-30.0
 62
     5
 63
     7
 74
     2
 91
        2
 64
     7
 65
   257
 75
     2
175
     1
 42
40.0
 92
        0
 66
   257
 43
1.0
 76
     1
 77
     6
 78
     2
 67
     7
 79
     3
170
     0
171
     0
290
     0
174
     0
 93
        1
 44
0.0
173
     0
291
     0
 45
0.0
1001
ACAD
1000
AcDbSavedByObjectVersion
1070
     0
  0
VISUALSTYLE
  5
3F
102
{ACAD_XDICTIONARY
360
A46
102
}
102
{ACAD_REACTORS
330
29
102
}
330
29
100
AcDbVisualStyle
  2

 70
    20
 71
     2
 72
     2
 73
     0
 90
        0
 40
-0.6
 41
-30.0
 62
     5
 63
     7
 74
     1
 91
        4
 64
     7
 65
   257
 75
     1
175
     1
 42
1.0
 92
       10
 66
     7
 43
1.0
 76
     1
 77
     6
 78
     2
 67
     7
 79
     5
170
     0
171
     0
290
     0
174
     0
 93
        1
 44
0.0
173
     0
291
     1
 45
0.0
1001
ACAD
1000
AcDbSavedByObjectVersion
1070
     0
  0
VISUALSTYLE
  5
37
102
{ACAD_XDICTIONARY
360
A36
102
}
102
{ACAD_REACTORS
330
29
102
}
330
29
100
AcDbVisualStyle
  2

 70
    14
 71
     2
 72
     2
 73
     0
 90
        0
 40
-0.6
 41
-30.0
 62
     5
 63
     7
 74
     1
 91
        4
 64
     7
 65
   257
 75
     7
175
     7
 42
1.0
 92
        8
 66
     7
 43
1.0
 76
     1
 77
     6
 78
     2
 67
     7
 79
     5
170
     0
171
     0
290
     0
174
     0
 93
        1
 44
0.0
173
     0
291
     1
 45
0.0
1001
ACAD
1000
AcDbSavedByObjectVersion
1070
     0
  0
VISUALSTYLE
  5
40
102
{ACAD_XDICTIONARY
360
A48
102
}
102
{ACAD_REACTORS
330
29
102
}
330
29
100
AcDbVisualStyle
  2

 70
    21
 71
     2
 72
     2
 73
     0
 90
        0
 40
-0.6
 41
-30.0
 62
     5
 63
     7
 74
     1
 91
        4
 64
     7
 65
   257
 75
     1
175
     1
 42
1.0
 92
        9
 66
     7
 43
1.0
 76
     1
 77
     6
 78
     2
 67
     7
 79
     5
170
     0
171
     0
290
     0
174
     0
 93
        1
 44
0.0
173
     0
291
     1
 45
0.0
1001
ACAD
1000
AcDbSavedByObjectVersion
1070
     0
  0
VISUALSTYLE
  5
33
102
{ACAD_XDICTIONARY
360
A2E
102
}
102
{ACAD_REACTORS
330
29
102
}
330
29
100
AcDbVisualStyle
  2

 70
     8
 71
     2
 72
     3
 73
     0
 90
        2
 40
-0.6
 41
30.0
 62
     5
 63
     7
 74
     0
 91
        0
 64
     7
 65
   257
 75
     1
175
     1
 42
1.0
 92
        8
 66
   257
 43
1.0
 76
     1
 77
     6
 78
     2
 67
     7
 79
     3
170
     0
171
     0
290
     0
174
     0
 93
       13
 44
0.0
173
     0
291
     0
 45
0.0
1001
ACAD
1000
AcDbSavedByObjectVersion
1070
     0
  0
VISUALSTYLE
  5
3E
102
{ACAD_XDICTIONARY
360
A44
102
}
102
{ACAD_REACTORS
330
29
102
}
330
29
100
AcDbVisualStyle
  2

 70
    27
 71
     2
 72
     2
 73
     1
 90
        2
 40
-0.6
 41
30.0
 62
     5
 63
     7
 74
     0
 91
        4
 64
     7
 65
   257
 75
     1
175
     1
 42
1.0
 92
        8
 66
   257
 43
1.0
 76
     1
 77
     6
 78
     2
 67
     8
 79
     3
170
     0
171
     0
290
     0
174
     0
 93
        5
 44
0.0
173
     0
291
     0
 45
0.0
1001
ACAD
1000
AcDbSavedByObjectVersion
1070
     0
  0
VISUALSTYLE
  5
3D
102
{ACAD_XDICTIONARY
360
A42
102
}
102
{ACAD_REACTORS
330
29
102
}
330
29
100
AcDbVisualStyle
  2

 70
    26
 71
     2
 72
     2
 73
     1
 90
        2
 40
-0.6
 41
30.0
 62
     5
 63
     7
 74
     1
 91
       10
 64
     7
 65
   257
 75
     2
175
     1
 42
1.0
 92
        8
 66
   257
 43
1.0
 76
     1
 77
     6
 78
     2
 67
     7
 79
     3
170
     0
171
     0
290
     0
174
     0
 93
        5
 44
0.0
173
     0
291
     0
 45
0.0
1001
ACAD
1000
AcDbSavedByObjectVersion
1070
     0
  0
VISUALSTYLE
  5
3A
102
{ACAD_XDICTIONARY
360
A3C
102
}
102
{ACAD_REACTORS
330
29
102
}
330
29
100
AcDbVisualStyle
  2

 70
    23
 71
     2
 72
     2
 73
     3
 90
        0
 40
-0.6
 41
-30.0
 62
     5
 63
     7
 74
     2
 91
        2
 64
     7
 65
     7
 75
     1
175
     1
 42
40.0
 92
        8
 66
     7
 43
1.0
 76
     1
 77
     6
 78
     2
 67
     7
 79
     3
170
     0
171
     0
290
     0
174
     0
 93
        1
 44
0.0
173
     0
291
     0
 45
0.0
1001
ACAD
1000
AcDbSavedByObjectVersion
1070
     0
  0
VISUALSTYLE
  5
3B
102
{ACAD_XDICTIONARY
360
A3E
102
}
102
{ACAD_REACTORS
330
29
102
}
330
29
100
AcDbVisualStyle
  2

 70
    24
 71
     1
 72
     2
 73
     2
 90
        0
 40
-0.6
 41
-30.0
 62
     5
 63
     7
 74
     2
 91
        2
 64
     7
 65
     7
 75
     1
175
     1
 42
40.0
 92
       11
 66
     7
 43
1.0
 76
     1
 77
     6
 78
     2
 67
     7
 79
     6
170
     0
171
     0
290
     0
174
     0
 93
        1
 44
0.0
173
     0
291
     0
 45
0.0
1001
ACAD
1000
AcDbSavedByObjectVersion
1070
     0
  0
VISUALSTYLE
  5
36
102
{ACAD_XDICTIONARY
360
A34
102
}
102
{ACAD_REACTORS
330
29
102
}
330
29
100
AcDbVisualStyle
  2

 70
    13
 71
     2
 72
     2
 73
     0
 90
        0
 40
-0.6
 41
-30.0
 62
     5
 63
     7
 74
     1
 91
        4
 64
     7
 65
   257
 75
     1
175
     1
 42
1.0
 92
       12
 66
     7
 43
1.0
 76
     1
 77
     6
 78
     2
 67
     7
 79
     5
170
     0
171
     0
290
     0
174
     0
 93
        1
 44
0.0
173
     0
291
     1
 45
0.0
1001
ACAD
1000
AcDbSavedByObjectVersion
1070
     0
  0
VISUALSTYLE
  5
30
102
{ACAD_XDICTIONARY
360
A28
102
}
102
{ACAD_REACTORS
330
29
102
}
330
29
100
AcDbVisualStyle
  2

 70
     5
 71
     0
 72
     2
 73
     0
 90
        0
 40
-0.6
 41
-30.0
 62
     5
 63
     7
 74
     1
 91
        4
 64
     7
 65
   257
 75
     1
175
     1
 42
1.0
 92
        0
 66
   257
 43
1.0
 76
     1
 77
     6
 78
     2
 67
     7
 79
     3
170
     0
171
     0
290
     0
174
     0
 93
        1
 44
0.0
173
     0
291
     0
 45
0.0
1001
ACAD
1000
AcDbSavedByObjectVersion
1070
     0
  0
VISUALSTYLE
  5
3C
102
{ACAD_XDICTIONARY
360
A40
102
}
102
{ACAD_REACTORS
330
29
102
}
330
29
100
AcDbVisualStyle
  2

 70
    25
 71
     2
 72
     2
 73
     1
 90
        1
 40
0.5
 41
-30.0
 62
     5
 63
     7
 74
     1
 91
        0
 64
     7
 65
   257
 75
     1
175
     1
 42
1.0
 92
        8
 66
     7
 43
1.0
 76
     1
 77
     6
 78
     2
 67
     7
 79
     3
170
     0
171
     0
290
     0
174
     0
 93
       13
 44
0.0
173
     0
291
     0
 45
0.0
1001
ACAD
1000
AcDbSavedByObjectVersion
1070
     0
  0
DICTIONARYVAR
  5
81
102
{ACAD_REACTORS
330
7C
102
}
330
7C
100
DictionaryVariables
280
     0
  1
1:1
  0
DICTIONARYVAR
  5
7E
102
{ACAD_REACTORS
330
7C
102
}
330
7C
100
DictionaryVariables
280
     0
  1
STANDARD
  0
DICTIONARYVAR
  5
7D
102
{ACAD_REACTORS
330
7C
102
}
330
7C
100
DictionaryVariables
280
     0
  1
STANDARD
  0
DICTIONARYVAR
  5
7F
102
{ACAD_REACTORS
330
7C
102
}
330
7C
100
DictionaryVariables
280
     0
  1
Imperial24
  0
DICTIONARYVAR
  5
80
102
{ACAD_REACTORS
330
7C
102
}
330
7C
100
DictionaryVariables
280
     0
  1
Imperial24
  0
DICTIONARYVAR
  5
687
102
{ACAD_REACTORS
330
7C
102
}
330
7C
100
DictionaryVariables
280
     0
  1
2
  0
DICTIONARYVAR
  5
686
102
{ACAD_REACTORS
330
7C
102
}
330
7C
100
DictionaryVariables
280
     0
  1
1
  0
DICTIONARYVAR
  5
685
102
{ACAD_REACTORS
330
7C
102
}
330
7C
100
DictionaryVariables
280
     0
  1
0
  0
DICTIONARYVAR
  5
A15
102
{ACAD_REACTORS
330
7C
102
}
330
7C
100
DictionaryVariables
280
     0
  1
0.000000
  0
DICTIONARYVAR
  5
682
102
{ACAD_REACTORS
330
7C
102
}
330
7C
100
DictionaryVariables
280
     0
  1
0
  0
DICTIONARYVAR
  5
683
102
{ACAD_REACTORS
330
7C
102
}
330
7C
100
DictionaryVariables
280
     0
  1
0
  0
DICTIONARYVAR
  5
681
102
{ACAD_REACTORS
330
7C
102
}
330
7C
100
DictionaryVariables
280
     0
  1
2
  0
DICTIONARYVAR
  5
A13
102
{ACAD_REACTORS
330
7C
102
}
330
7C
100
DictionaryVariables
280
     0
  1
1.570796
  0
DICTIONARYVAR
  5
A14
102
{ACAD_REACTORS
330
7C
102
}
330
7C
100
DictionaryVariables
280
     0
  1
1.570796
  0
DICTIONARYVAR
  5
A16
102
{ACAD_REACTORS
330
7C
102
}
330
7C
100
DictionaryVariables
280
     0
  1
0.000000
  0
DICTIONARYVAR
  5
680
102
{ACAD_REACTORS
330
7C
102
}
330
7C
100
DictionaryVariables
280
     0
  1
1
  0
DICTIONARYVAR
  5
684
102
{ACAD_REACTORS
330
7C
102
}
330
7C
100
DictionaryVariables
280
     0
  1
127
  0
DICTIONARYVAR
  5
A17
102
{ACAD_REACTORS
330
7C
102
}
330
7C
100
DictionaryVariables
280
     0
  1
0
  0
DICTIONARYVAR
  5
A18
102
{ACAD_REACTORS
330
7C
102
}
330
7C
100
DictionaryVariables
280
     0
  1
2
  0
XRECORD
  5
3CB
102
{ACAD_REACTORS
330
3C9
102
}
330
3C9
100
AcDbXrecord
280
     1
  1
-2000051
  1
Lines
  1
-2000240
  1
Levels
  1
-2000260
  1
Dimensions
  1
-2000510
  1
Viewports
  1
-2000515
  1
View Titles
  1
-2000535
  1
Elevations
  1
-2001140
  1
Mechanical Equipment
  1
-2006020
  1
Level Heads
  0
XRECORD
  5
3CC
102
{ACAD_REACTORS
330
3C9
102
}
330
3C9
100
AcDbXrecord
280
     1
  1
161512
  1
MEP Hidden
  0
XRECORD
  5
3CA
102
{ACAD_REACTORS
330
3C9
102
}
330
3C9
100
AcDbXrecord
280
     1
  1
16
  1
Linear Dimension Style : Linear - 3/32" Arial
  1
27
  1
Level : 1/4" Head
  1
661127
  1
CCCT_-_BAC_-_PFI_-_1_Cell_-_S-Double_Connection_-_RH : PFI-1212N-2D4DS-K1
  1
75910
  1
Elevation : Building Elevation
  1
9835
  1
Viewport : Viewport 1
  0
DICTIONARY
  5
A51
330
413
100
AcDbDictionary
280
     1
281
     1
  3
ACAD_XREC_ROUNDTRIP
360
A52
  0
DICTIONARY
  5
A4F
330
74
100
AcDbDictionary
280
     1
281
     1
  3
ACAD_XREC_ROUNDTRIP
360
A50
  0
DICTIONARY
  5
1A
330
19
100
AcDbDictionary
280
     1
281
     1
  3
ACAD_XREC_ROUNDTRIP
360
904
  3
BUMPTILE
360
1C
  3
DIFFUSETILE
360
1B
  3
OPACITYTILE
360
1F
  3
REFLECTIONTILE
360
1E
  3
REFRACTIONTILE
360
20
  3
SPECULARTILE
360
1D
  0
DICTIONARY
  5
12
330
11
100
AcDbDictionary
280
     1
281
     1
  3
ACAD_XREC_ROUNDTRIP
360
903
  3
BUMPTILE
360
14
  3
DIFFUSETILE
360
13
  3
OPACITYTILE
360
17
  3
REFLECTIONTILE
360
16
  3
REFRACTIONTILE
360
18
  3
SPECULARTILE
360
15
  0
DICTIONARY
  5
22
330
21
100
AcDbDictionary
280
     1
281
     1
  3
ACAD_XREC_ROUNDTRIP
360
905
  3
BUMPTILE
360
24
  3
DIFFUSETILE
360
23
  3
OPACITYTILE
360
27
  3
REFLECTIONTILE
360
26
  3
REFRACTIONTILE
360
28
  3
SPECULARTILE
360
25
  0
DICTIONARY
  5
A4D
330
67
100
AcDbDictionary
280
     1
281
     1
  3
ACAD_XREC_ROUNDTRIP
360
A4E
  0
DICTIONARY
  5
3D0
330
65
100
AcDbDictionary
280
     1
281
     1
  3
ACAD_ROUNDTRIP_2008_TABLESTYLE_CELLSTYLEMAP
360
A19
  3
ACAD_XREC_ROUNDTRIP
360
A4C
  0
DICTIONARY
  5
A26
330
2F
100
AcDbDictionary
280
     1
281
     1
  3
ACAD_XREC_ROUNDTRIP
360
A27
  0
DICTIONARY
  5
A24
330
2E
100
AcDbDictionary
280
     1
281
     1
  3
ACAD_XREC_ROUNDTRIP
360
A25
  0
DICTIONARY
  5
A32
330
35
100
AcDbDictionary
280
     1
281
     1
  3
ACAD_XREC_ROUNDTRIP
360
A33
  0
DICTIONARY
  5
A3A
330
39
100
AcDbDictionary
280
     1
281
     1
  3
ACAD_XREC_ROUNDTRIP
360
A3B
  0
DICTIONARY
  5
A2C
330
32
100
AcDbDictionary
280
     1
281
     1
  3
ACAD_XREC_ROUNDTRIP
360
A2D
  0
DICTIONARY
  5
A30
330
34
100
AcDbDictionary
280
     1
281
     1
  3
ACAD_XREC_ROUNDTRIP
360
A31
  0
DICTIONARY
  5
A4A
330
41
100
AcDbDictionary
280
     1
281
     1
  3
ACAD_XREC_ROUNDTRIP
360
A4B
  0
DICTIONARY
  5
A38
330
38
100
AcDbDictionary
280
     1
281
     1
  3
ACAD_XREC_ROUNDTRIP
360
A39
  0
DICTIONARY
  5
A1C
330
2A
100
AcDbDictionary
280
     1
281
     1
  3
ACAD_XREC_ROUNDTRIP
360
A1D
  0
DICTIONARY
  5
A1E
330
2B
100
AcDbDictionary
280
     1
281
     1
  3
ACAD_XREC_ROUNDTRIP
360
A1F
  0
DICTIONARY
  5
A20
330
2C
100
AcDbDictionary
280
     1
281
     1
  3
ACAD_XREC_ROUNDTRIP
360
A21
  0
DICTIONARY
  5
A22
330
2D
100
AcDbDictionary
280
     1
281
     1
  3
ACAD_XREC_ROUNDTRIP
360
A23
  0
DICTIONARY
  5
A2A
330
31
100
AcDbDictionary
280
     1
281
     1
  3
ACAD_XREC_ROUNDTRIP
360
A2B
  0
DICTIONARY
  5
A46
330
3F
100
AcDbDictionary
280
     1
281
     1
  3
ACAD_XREC_ROUNDTRIP
360
A47
  0
DICTIONARY
  5
A36
330
37
100
AcDbDictionary
280
     1
281
     1
  3
ACAD_XREC_ROUNDTRIP
360
A37
  0
DICTIONARY
  5
A48
330
40
100
AcDbDictionary
280
     1
281
     1
  3
ACAD_XREC_ROUNDTRIP
360
A49
  0
DICTIONARY
  5
A2E
330
33
100
AcDbDictionary
280
     1
281
     1
  3
ACAD_XREC_ROUNDTRIP
360
A2F
  0
DICTIONARY
  5
A44
330
3E
100
AcDbDictionary
280
     1
281
     1
  3
ACAD_XREC_ROUNDTRIP
360
A45
  0
DICTIONARY
  5
A42
330
3D
100
AcDbDictionary
280
     1
281
     1
  3
ACAD_XREC_ROUNDTRIP
360
A43
  0
DICTIONARY
  5
A3C
330
3A
100
AcDbDictionary
280
     1
281
     1
  3
ACAD_XREC_ROUNDTRIP
360
A3D
  0
DICTIONARY
  5
A3E
330
3B
100
AcDbDictionary
280
     1
281
     1
  3
ACAD_XREC_ROUNDTRIP
360
A3F
  0
DICTIONARY
  5
A34
330
36
100
AcDbDictionary
280
     1
281
     1
  3
ACAD_XREC_ROUNDTRIP
360
A35
  0
DICTIONARY
  5
A28
330
30
100
AcDbDictionary
280
     1
281
     1
  3
ACAD_XREC_ROUNDTRIP
360
A29
  0
DICTIONARY
  5
A40
330
3C
100
AcDbDictionary
280
     1
281
     1
  3
ACAD_XREC_ROUNDTRIP
360
A41
  0
XRECORD
  5
A52
102
{ACAD_REACTORS
330
A51
102
}
330
A51
100
AcDbXrecord
280
     1
102
SHADEPLOT
 70
     0
102
SHADEPLOTRESLEVEL
 70
     2
102
SHADEPLOTCUSTOMDPI
 70
   300
  0
XRECORD
  5
A50
102
{ACAD_REACTORS
330
A4F
102
}
330
A4F
100
AcDbXrecord
280
     1
102
SHADEPLOT
 70
     0
102
SHADEPLOTRESLEVEL
 70
     2
102
SHADEPLOTCUSTOMDPI
 70
   300
  0
XRECORD
  5
904
102
{ACAD_REACTORS
330
1A
102
}
330
1A
100
AcDbXrecord
280
     1
102
MATERIAL
148
0.0
149
0.0
149
0.0
 93
        0
 94
      127
282
     0
 72
     0
 77
     0
171
     0
175
     0
179
     0
273
     0
  0
XRECORD
  5
1C
102
{ACAD_REACTORS
330
1A
102
}
330
1A
100
AcDbXrecord
280
     1
270
     1
271
     1
  0
XRECORD
  5
1B
102
{ACAD_REACTORS
330
1A
102
}
330
1A
100
AcDbXrecord
280
     1
270
     1
271
     1
  0
XRECORD
  5
1F
102
{ACAD_REACTORS
330
1A
102
}
330
1A
100
AcDbXrecord
280
     1
270
     1
271
     1
  0
XRECORD
  5
1E
102
{ACAD_REACTORS
330
1A
102
}
330
1A
100
AcDbXrecord
280
     1
270
     1
271
     1
  0
XRECORD
  5
20
102
{ACAD_REACTORS
330
1A
102
}
330
1A
100
AcDbXrecord
280
     1
270
     1
271
     1
  0
XRECORD
  5
1D
102
{ACAD_REACTORS
330
1A
102
}
330
1A
100
AcDbXrecord
280
     1
270
     1
271
     1
  0
XRECORD
  5
903
102
{ACAD_REACTORS
330
12
102
}
330
12
100
AcDbXrecord
280
     1
102
MATERIAL
148
0.0
149
0.0
149
0.0
 93
        0
 94
      127
282
     0
 72
     0
 77
     0
171
     0
175
     0
179
     0
273
     0
  0
XRECORD
  5
14
102
{ACAD_REACTORS
330
12
102
}
330
12
100
AcDbXrecord
280
     1
270
     1
271
     1
  0
XRECORD
  5
13
102
{ACAD_REACTORS
330
12
102
}
330
12
100
AcDbXrecord
280
     1
270
     1
271
     1
  0
XRECORD
  5
17
102
{ACAD_REACTORS
330
12
102
}
330
12
100
AcDbXrecord
280
     1
270
     1
271
     1
  0
XRECORD
  5
16
102
{ACAD_REACTORS
330
12
102
}
330
12
100
AcDbXrecord
280
     1
270
     1
271
     1
  0
XRECORD
  5
18
102
{ACAD_REACTORS
330
12
102
}
330
12
100
AcDbXrecord
280
     1
270
     1
271
     1
  0
XRECORD
  5
15
102
{ACAD_REACTORS
330
12
102
}
330
12
100
AcDbXrecord
280
     1
270
     1
271
     1
  0
XRECORD
  5
905
102
{ACAD_REACTORS
330
22
102
}
330
22
100
AcDbXrecord
280
     1
102
MATERIAL
148
0.0
149
0.0
149
0.0
 93
        0
 94
      127
282
     0
 72
     0
 77
     0
171
     0
175
     0
179
     0
273
     0
  0
XRECORD
  5
24
102
{ACAD_REACTORS
330
22
102
}
330
22
100
AcDbXrecord
280
     1
270
     1
271
     1
  0
XRECORD
  5
23
102
{ACAD_REACTORS
330
22
102
}
330
22
100
AcDbXrecord
280
     1
270
     1
271
     1
  0
XRECORD
  5
27
102
{ACAD_REACTORS
330
22
102
}
330
22
100
AcDbXrecord
280
     1
270
     1
271
     1
  0
XRECORD
  5
26
102
{ACAD_REACTORS
330
22
102
}
330
22
100
AcDbXrecord
280
     1
270
     1
271
     1
  0
XRECORD
  5
28
102
{ACAD_REACTORS
330
22
102
}
330
22
100
AcDbXrecord
280
     1
270
     1
271
     1
  0
XRECORD
  5
25
102
{ACAD_REACTORS
330
22
102
}
330
22
100
AcDbXrecord
280
     1
270
     1
271
     1
  0
XRECORD
  5
A4E
102
{ACAD_REACTORS
330
A4D
102
}
330
A4D
100
AcDbXrecord
280
     1
102
ACAD_ROUNDTRIP_2012_MLEADER_STYLE
298
     1
  0
CELLSTYLEMAP
  5
A19
102
{ACAD_REACTORS
330
3D0
102
}
330
3D0
100
AcDbCellStyleMap
 90
        3
300
CELLSTYLE
  1
TABLEFORMAT_BEGIN
 90
        5
170
     1
 91
        0
 92
    32768
 62
   257
 93
        1
300
CONTENTFORMAT
  1
CONTENTFORMAT_BEGIN
 90
        0
 91
        0
 92
      512
 93
        0
300

 40
0.0
140
1.0
 94
        5
 62
     0
340
55
144
0.25
309
CONTENTFORMAT_END
171
     1
301
MARGIN
  1
CELLMARGIN_BEGIN
 40
0.06
 40
0.06
 40
0.06
 40
0.06
 40
0.18
 40
0.18
309
CELLMARGIN_END
 94
        6
 95
        1
302
GRIDFORMAT
  1
GRIDFORMAT_BEGIN
 90
        0
 91
        1
 62
     0
 92
       -2
340
0
 93
        0
 40
0.045
309
GRIDFORMAT_END
 95
        2
302
GRIDFORMAT
  1
GRIDFORMAT_BEGIN
 90
        0
 91
        1
 62
     0
 92
       -2
340
0
 93
        0
 40
0.045
309
GRIDFORMAT_END
 95
        4
302
GRIDFORMAT
  1
GRIDFORMAT_BEGIN
 90
        0
 91
        1
 62
     0
 92
       -2
340
0
 93
        0
 40
0.045
309
GRIDFORMAT_END
 95
        8
302
GRIDFORMAT
  1
GRIDFORMAT_BEGIN
 90
        0
 91
        1
 62
     0
 92
       -2
340
0
 93
        0
 40
0.045
309
GRIDFORMAT_END
 95
       16
302
GRIDFORMAT
  1
GRIDFORMAT_BEGIN
 90
        0
 91
        1
 62
     0
 92
       -2
340
0
 93
        0
 40
0.045
309
GRIDFORMAT_END
 95
       32
302
GRIDFORMAT
  1
GRIDFORMAT_BEGIN
 90
        0
 91
        1
 62
     0
 92
       -2
340
0
 93
        0
 40
0.045
309
GRIDFORMAT_END
309
TABLEFORMAT_END
  1
CELLSTYLE_BEGIN
 90
        1
 91
        1
300
_TITLE
309
CELLSTYLE_END
300
CELLSTYLE
  1
TABLEFORMAT_BEGIN
 90
        5
170
     1
 91
        0
 92
        0
 62
   257
 93
        1
300
CONTENTFORMAT
  1
CONTENTFORMAT_BEGIN
 90
        0
 91
        0
 92
      512
 93
        0
300

 40
0.0
140
1.0
 94
        5
 62
     0
340
55
144
0.18
309
CONTENTFORMAT_END
171
     1
301
MARGIN
  1
CELLMARGIN_BEGIN
 40
0.06
 40
0.06
 40
0.06
 40
0.06
 40
0.18
 40
0.18
309
CELLMARGIN_END
 94
        6
 95
        1
302
GRIDFORMAT
  1
GRIDFORMAT_BEGIN
 90
        0
 91
        1
 62
     0
 92
       -2
340
0
 93
        0
 40
0.045
309
GRIDFORMAT_END
 95
        2
302
GRIDFORMAT
  1
GRIDFORMAT_BEGIN
 90
        0
 91
        1
 62
     0
 92
       -2
340
0
 93
        0
 40
0.045
309
GRIDFORMAT_END
 95
        4
302
GRIDFORMAT
  1
GRIDFORMAT_BEGIN
 90
        0
 91
        1
 62
     0
 92
       -2
340
0
 93
        0
 40
0.045
309
GRIDFORMAT_END
 95
        8
302
GRIDFORMAT
  1
GRIDFORMAT_BEGIN
 90
        0
 91
        1
 62
     0
 92
       -2
340
0
 93
        0
 40
0.045
309
GRIDFORMAT_END
 95
       16
302
GRIDFORMAT
  1
GRIDFORMAT_BEGIN
 90
        0
 91
        1
 62
     0
 92
       -2
340
0
 93
        0
 40
0.045
309
GRIDFORMAT_END
 95
       32
302
GRIDFORMAT
  1
GRIDFORMAT_BEGIN
 90
        0
 91
        1
 62
     0
 92
       -2
340
0
 93
        0
 40
0.045
309
GRIDFORMAT_END
309
TABLEFORMAT_END
  1
CELLSTYLE_BEGIN
 90
        2
 91
        1
300
_HEADER
309
CELLSTYLE_END
300
CELLSTYLE
  1
TABLEFORMAT_BEGIN
 90
        5
170
     1
 91
        0
 92
        0
 62
   257
 93
        1
300
CONTENTFORMAT
  1
CONTENTFORMAT_BEGIN
 90
        0
 91
        0
 92
      512
 93
        0
300

 40
0.0
140
1.0
 94
        2
 62
     0
340
55
144
0.18
309
CONTENTFORMAT_END
171
     1
301
MARGIN
  1
CELLMARGIN_BEGIN
 40
0.06
 40
0.06
 40
0.06
 40
0.06
 40
0.18
 40
0.18
309
CELLMARGIN_END
 94
        6
 95
        1
302
GRIDFORMAT
  1
GRIDFORMAT_BEGIN
 90
        0
 91
        1
 62
     0
 92
       -2
340
0
 93
        0
 40
0.045
309
GRIDFORMAT_END
 95
        2
302
GRIDFORMAT
  1
GRIDFORMAT_BEGIN
 90
        0
 91
        1
 62
     0
 92
       -2
340
0
 93
        0
 40
0.045
309
GRIDFORMAT_END
 95
        4
302
GRIDFORMAT
  1
GRIDFORMAT_BEGIN
 90
        0
 91
        1
 62
     0
 92
       -2
340
0
 93
        0
 40
0.045
309
GRIDFORMAT_END
 95
        8
302
GRIDFORMAT
  1
GRIDFORMAT_BEGIN
 90
        0
 91
        1
 62
     0
 92
       -2
340
0
 93
        0
 40
0.045
309
GRIDFORMAT_END
 95
       16
302
GRIDFORMAT
  1
GRIDFORMAT_BEGIN
 90
        0
 91
        1
 62
     0
 92
       -2
340
0
 93
        0
 40
0.045
309
GRIDFORMAT_END
 95
       32
302
GRIDFORMAT
  1
GRIDFORMAT_BEGIN
 90
        0
 91
        1
 62
     0
 92
       -2
340
0
 93
        0
 40
0.045
309
GRIDFORMAT_END
309
TABLEFORMAT_END
  1
CELLSTYLE_BEGIN
 90
        3
 91
        2
300
_DATA
309
CELLSTYLE_END
  0
XRECORD
  5
A4C
102
{ACAD_REACTORS
330
3D0
102
}
330
3D0
100
AcDbXrecord
280
     1
102
ACAD_ROUNDTRIP_PRE2007_TABLESTYLE
 90
      512
 91
        0
  1

 92
      512
 93
        0
  2

 94
      512
 95
        0
  3

  0
XRECORD
  5
A27
102
{ACAD_REACTORS
330
A26
102
}
330
A26
100
AcDbXrecord
280
     1
102
RTVSPost2010Prop28
280
     1
102
RTVSPost2010PropOp28
 70
     1
102
RTVSPost2010Prop29
280
     1
102
RTVSPost2010PropOp29
 70
     1
102
RTVSPost2010Prop30
280
     0
102
RTVSPost2010PropOp30
 70
     1
102
RTVSPost2010Prop31
280
     0
102
RTVSPost2010PropOp31
 70
     1
102
RTVSPost2010Prop32
280
     0
102
RTVSPost2010PropOp32
 70
     1
102
RTVSPost2010Prop33
280
     0
102
RTVSPost2010PropOp33
 70
     1
102
RTVSPost2010Prop34
280
     0
102
RTVSPost2010PropOp34
 70
     1
102
RTVSPost2010Prop35
280
     0
102
RTVSPost2010PropOp35
 70
     1
102
RTVSPost2010Prop36
280
     0
102
RTVSPost2010PropOp36
 70
     1
102
RTVSPost2010Prop37
 90
       50
102
RTVSPost2010PropOp37
 70
     1
102
RTVSPost2010Prop38
140
0.0
102
RTVSPost2010PropOp38
 70
     1
102
RTVSPost2010Prop39
140
1.0
102
RTVSPost2010PropOp39
 70
     1
102
RTVSPost2010Prop40
 90
        0
102
RTVSPost2010PropOp40
 70
     1
102
RTVSPost2010Prop41ColorIndex
 90
       18
102
RTVSPost2010Prop41ColorRGB
 90
-16777216
102
RTVSPost2010PropOp41
 70
     1
102
RTVSPost2010Prop42
 90
       50
102
RTVSPost2010PropOp42
 70
     1
102
RTVSPost2010Prop43
 90
        3
102
RTVSPost2010PropOp43
 70
     1
102
RTVSPost2010Prop44ColorIndex
 90
        5
102
RTVSPost2010Prop44ColorRGB
 90
      255
102
RTVSPost2010PropOp44
 70
     1
102
RTVSPost2010Prop45
280
     0
102
RTVSPost2010PropOp45
 70
     1
102
RTVSPost2010Prop46
 90
       50
102
RTVSPost2010PropOp46
 70
     1
102
RTVSPost2010Prop47
 90
       50
102
RTVSPost2010PropOp47
 70
     1
102
RTVSPost2010Prop48
 90
       50
102
RTVSPost2010PropOp48
 70
     1
102
RTVSPost2010Prop49
280
     0
102
RTVSPost2010PropOp49
 70
     1
102
RTVSPost2010Prop50
 90
       50
102
RTVSPost2010PropOp50
 70
     1
102
RTVSPost2010Prop51ColorIndex
 90
      256
102
RTVSPost2010Prop51ColorRGB
 90
-16777216
102
RTVSPost2010PropOp51
 70
     0
102
RTVSPost2010Prop52
140
1.0
102
RTVSPost2010PropOp52
 70
     0
102
RTVSPost2010Prop53
 90
        2
102
RTVSPost2010PropOp53
 70
     1
102
RTVSPost2010Prop54
  1
strokes_ogs.tif
102
RTVSPost2010PropOp54
 70
     1
102
RTVSPost2010Prop55
280
     0
102
RTVSPost2010PropOp55
 70
     1
102
RTVSPost2010Prop56
140
1.0
102
RTVSPost2010PropOp56
 70
     1
102
RTVSPost2010Prop57
140
1.0
102
RTVSPost2010PropOp57
 70
     1
102
RTVSPropertyOp0
 70
     1
102
RTVSPropertyOp1
 70
     1
102
RTVSPropertyOp2
 70
     1
102
RTVSPropertyOp3
 70
     1
102
RTVSPropertyOp4
 70
     1
102
RTVSPropertyOp5
 70
     1
102
RTVSPropertyOp6
 70
     1
102
RTVSPropertyOp7
 70
     1
102
RTVSPropertyOp8
 70
     1
102
RTVSPropertyOp9
 70
     1
102
RTVSPropertyOp10
 70
     1
102
RTVSPropertyOp11
 70
     1
102
RTVSPropertyOp12
 70
     1
102
RTVSPropertyOp13
 70
     1
102
RTVSPropertyOp14
 70
     1
102
RTVSPropertyOp15
 70
     1
102
RTVSPropertyOp16
 70
     1
102
RTVSPropertyOp17
 70
     1
102
RTVSPropertyOp18
 70
     1
102
RTVSPropertyOp19
 70
     1
102
RTVSPropertyOp20
 70
     1
102
RTVSPropertyOp21
 70
     1
102
RTVSPropertyOp22
 70
     1
102
RTVSPropertyOp23
 70
     1
102
RTVSPropertyOp24
 70
     1
102
RTVSPropertyOp25
 70
     1
102
RTVSPropertyOp26
 70
     1
102
RTVSPropertyOp27
 70
     1
102
RTVSPropertyOp28
 70
     1
102
RTVSPropertyOp29
 70
     1
102
RTVSPropertyOp30
 70
     1
102
RTVSPropertyOp31
 70
     1
102
RTVSPropertyOp32
 70
     1
102
RTVSPropertyOp33
 70
     1
102
RTVSPropertyOp34
 70
     1
102
RTVSPropertyOp35
 70
     1
102
RTVSPropertyOp36
 70
     1
102
RTVSPropertyOp37
 70
     1
102
RTVSPropertyOp38
 70
     1
102
RTVSPropertyOp39
 70
     1
102
RTVSPropertyOp40
 70
     1
102
RTVSPropertyOp41
 70
     1
102
RTVSPropertyOp42
 70
     1
102
RTVSPropertyOp43
 70
     1
102
RTVSPropertyOp44
 70
     1
102
RTVSPropertyOp45
 70
     1
102
RTVSPropertyOp46
 70
     1
102
RTVSPropertyOp47
 70
     1
102
RTVSPropertyOp48
 70
     1
102
RTVSPropertyOp49
 70
     1
102
RTVSPropertyOp50
 70
     1
102
RTVSPropertyOp51
 70
     0
102
RTVSPropertyOp52
 70
     0
102
RTVSPropertyOp53
 70
     1
102
RTVSPropertyOp54
 70
     1
102
RTVSPropertyOp55
 70
     1
102
RTVSPropertyOp56
 70
     1
102
RTVSPropertyOp57
 70
     1
102
RTVSPropertyOp58
 70
     1
102
RTVSPropertyOp59
 70
     1
102
RTVSPropertyOp60
 70
     1
102
RTVSPropertyOp61
 70
     1
102
RTVSPropertyOp62
 70
     1
  0
XRECORD
  5
A25
102
{ACAD_REACTORS
330
A24
102
}
330
A24
100
AcDbXrecord
280
     1
102
RTVSPost2010Prop28
280
     0
102
RTVSPost2010PropOp28
 70
     1
102
RTVSPost2010Prop29
280
     1
102
RTVSPost2010PropOp29
 70
     1
102
RTVSPost2010Prop30
280
     1
102
RTVSPost2010PropOp30
 70
     1
102
RTVSPost2010Prop31
280
     0
102
RTVSPost2010PropOp31
 70
     1
102
RTVSPost2010Prop32
280
     0
102
RTVSPost2010PropOp32
 70
     1
102
RTVSPost2010Prop33
280
     0
102
RTVSPost2010PropOp33
 70
     1
102
RTVSPost2010Prop34
280
     0
102
RTVSPost2010PropOp34
 70
     1
102
RTVSPost2010Prop35
280
     0
102
RTVSPost2010PropOp35
 70
     1
102
RTVSPost2010Prop36
280
     0
102
RTVSPost2010PropOp36
 70
     1
102
RTVSPost2010Prop37
 90
       50
102
RTVSPost2010PropOp37
 70
     1
102
RTVSPost2010Prop38
140
0.0
102
RTVSPost2010PropOp38
 70
     1
102
RTVSPost2010Prop39
140
1.0
102
RTVSPost2010PropOp39
 70
     1
102
RTVSPost2010Prop40
 90
        0
102
RTVSPost2010PropOp40
 70
     1
102
RTVSPost2010Prop41ColorIndex
 90
       18
102
RTVSPost2010Prop41ColorRGB
 90
-16777216
102
RTVSPost2010PropOp41
 70
     1
102
RTVSPost2010Prop42
 90
       50
102
RTVSPost2010PropOp42
 70
     1
102
RTVSPost2010Prop43
 90
        3
102
RTVSPost2010PropOp43
 70
     1
102
RTVSPost2010Prop44ColorIndex
 90
        5
102
RTVSPost2010Prop44ColorRGB
 90
      255
102
RTVSPost2010PropOp44
 70
     1
102
RTVSPost2010Prop45
280
     0
102
RTVSPost2010PropOp45
 70
     1
102
RTVSPost2010Prop46
 90
       50
102
RTVSPost2010PropOp46
 70
     1
102
RTVSPost2010Prop47
 90
       50
102
RTVSPost2010PropOp47
 70
     1
102
RTVSPost2010Prop48
 90
       50
102
RTVSPost2010PropOp48
 70
     1
102
RTVSPost2010Prop49
280
     0
102
RTVSPost2010PropOp49
 70
     1
102
RTVSPost2010Prop50
 90
       50
102
RTVSPost2010PropOp50
 70
     1
102
RTVSPost2010Prop51ColorIndex
 90
      256
102
RTVSPost2010Prop51ColorRGB
 90
-16777216
102
RTVSPost2010PropOp51
 70
     0
102
RTVSPost2010Prop52
140
1.0
102
RTVSPost2010PropOp52
 70
     0
102
RTVSPost2010Prop53
 90
        2
102
RTVSPost2010PropOp53
 70
     1
102
RTVSPost2010Prop54
  1
strokes_ogs.tif
102
RTVSPost2010PropOp54
 70
     1
102
RTVSPost2010Prop55
280
     0
102
RTVSPost2010PropOp55
 70
     1
102
RTVSPost2010Prop56
140
1.0
102
RTVSPost2010PropOp56
 70
     1
102
RTVSPost2010Prop57
140
1.0
102
RTVSPost2010PropOp57
 70
     1
102
RTVSPropertyOp0
 70
     1
102
RTVSPropertyOp1
 70
     1
102
RTVSPropertyOp2
 70
     1
102
RTVSPropertyOp3
 70
     1
102
RTVSPropertyOp4
 70
     1
102
RTVSPropertyOp5
 70
     1
102
RTVSPropertyOp6
 70
     1
102
RTVSPropertyOp7
 70
     1
102
RTVSPropertyOp8
 70
     1
102
RTVSPropertyOp9
 70
     1
102
RTVSPropertyOp10
 70
     1
102
RTVSPropertyOp11
 70
     1
102
RTVSPropertyOp12
 70
     1
102
RTVSPropertyOp13
 70
     1
102
RTVSPropertyOp14
 70
     1
102
RTVSPropertyOp15
 70
     1
102
RTVSPropertyOp16
 70
     1
102
RTVSPropertyOp17
 70
     1
102
RTVSPropertyOp18
 70
     1
102
RTVSPropertyOp19
 70
     1
102
RTVSPropertyOp20
 70
     1
102
RTVSPropertyOp21
 70
     1
102
RTVSPropertyOp22
 70
     1
102
RTVSPropertyOp23
 70
     1
102
RTVSPropertyOp24
 70
     1
102
RTVSPropertyOp25
 70
     1
102
RTVSPropertyOp26
 70
     1
102
RTVSPropertyOp27
 70
     1
102
RTVSPropertyOp28
 70
     1
102
RTVSPropertyOp29
 70
     1
102
RTVSPropertyOp30
 70
     1
102
RTVSPropertyOp31
 70
     1
102
RTVSPropertyOp32
 70
     1
102
RTVSPropertyOp33
 70
     1
102
RTVSPropertyOp34
 70
     1
102
RTVSPropertyOp35
 70
     1
102
RTVSPropertyOp36
 70
     1
102
RTVSPropertyOp37
 70
     1
102
RTVSPropertyOp38
 70
     1
102
RTVSPropertyOp39
 70
     1
102
RTVSPropertyOp40
 70
     1
102
RTVSPropertyOp41
 70
     1
102
RTVSPropertyOp42
 70
     1
102
RTVSPropertyOp43
 70
     1
102
RTVSPropertyOp44
 70
     1
102
RTVSPropertyOp45
 70
     1
102
RTVSPropertyOp46
 70
     1
102
RTVSPropertyOp47
 70
     1
102
RTVSPropertyOp48
 70
     1
102
RTVSPropertyOp49
 70
     1
102
RTVSPropertyOp50
 70
     1
102
RTVSPropertyOp51
 70
     0
102
RTVSPropertyOp52
 70
     0
102
RTVSPropertyOp53
 70
     1
102
RTVSPropertyOp54
 70
     1
102
RTVSPropertyOp55
 70
     1
102
RTVSPropertyOp56
 70
     1
102
RTVSPropertyOp57
 70
     1
102
RTVSPropertyOp58
 70
     1
102
RTVSPropertyOp59
 70
     1
102
RTVSPropertyOp60
 70
     1
102
RTVSPropertyOp61
 70
     1
102
RTVSPropertyOp62
 70
     1
  0
XRECORD
  5
A33
102
{ACAD_REACTORS
330
A32
102
}
330
A32
100
AcDbXrecord
280
     1
102
RTVSPost2010Prop28
280
     0
102
RTVSPost2010PropOp28
 70
     1
102
RTVSPost2010Prop29
280
     1
102
RTVSPost2010PropOp29
 70
     1
102
RTVSPost2010Prop30
280
     1
102
RTVSPost2010PropOp30
 70
     1
102
RTVSPost2010Prop31
280
     0
102
RTVSPost2010PropOp31
 70
     1
102
RTVSPost2010Prop32
280
     0
102
RTVSPost2010PropOp32
 70
     1
102
RTVSPost2010Prop33
280
     0
102
RTVSPost2010PropOp33
 70
     1
102
RTVSPost2010Prop34
280
     0
102
RTVSPost2010PropOp34
 70
     1
102
RTVSPost2010Prop35
280
     0
102
RTVSPost2010PropOp35
 70
     1
102
RTVSPost2010Prop36
280
     0
102
RTVSPost2010PropOp36
 70
     1
102
RTVSPost2010Prop37
 90
       50
102
RTVSPost2010PropOp37
 70
     1
102
RTVSPost2010Prop38
140
0.0
102
RTVSPost2010PropOp38
 70
     1
102
RTVSPost2010Prop39
140
1.0
102
RTVSPost2010PropOp39
 70
     1
102
RTVSPost2010Prop40
 90
        0
102
RTVSPost2010PropOp40
 70
     1
102
RTVSPost2010Prop41ColorIndex
 90
       18
102
RTVSPost2010Prop41ColorRGB
 90
-16777216
102
RTVSPost2010PropOp41
 70
     1
102
RTVSPost2010Prop42
 90
       50
102
RTVSPost2010PropOp42
 70
     1
102
RTVSPost2010Prop43
 90
        3
102
RTVSPost2010PropOp43
 70
     1
102
RTVSPost2010Prop44ColorIndex
 90
        5
102
RTVSPost2010Prop44ColorRGB
 90
      255
102
RTVSPost2010PropOp44
 70
     1
102
RTVSPost2010Prop45
280
     0
102
RTVSPost2010PropOp45
 70
     1
102
RTVSPost2010Prop46
 90
       50
102
RTVSPost2010PropOp46
 70
     1
102
RTVSPost2010Prop47
 90
       50
102
RTVSPost2010PropOp47
 70
     1
102
RTVSPost2010Prop48
 90
       50
102
RTVSPost2010PropOp48
 70
     1
102
RTVSPost2010Prop49
280
     0
102
RTVSPost2010PropOp49
 70
     1
102
RTVSPost2010Prop50
 90
       50
102
RTVSPost2010PropOp50
 70
     1
102
RTVSPost2010Prop51ColorIndex
 90
      256
102
RTVSPost2010Prop51ColorRGB
 90
-16777216
102
RTVSPost2010PropOp51
 70
     0
102
RTVSPost2010Prop52
140
1.0
102
RTVSPost2010PropOp52
 70
     0
102
RTVSPost2010Prop53
 90
        2
102
RTVSPost2010PropOp53
 70
     1
102
RTVSPost2010Prop54
  1
strokes_ogs.tif
102
RTVSPost2010PropOp54
 70
     1
102
RTVSPost2010Prop55
280
     0
102
RTVSPost2010PropOp55
 70
     1
102
RTVSPost2010Prop56
140
1.0
102
RTVSPost2010PropOp56
 70
     1
102
RTVSPost2010Prop57
140
1.0
102
RTVSPost2010PropOp57
 70
     1
102
RTVSPropertyOp0
 70
     1
102
RTVSPropertyOp1
 70
     1
102
RTVSPropertyOp2
 70
     1
102
RTVSPropertyOp3
 70
     1
102
RTVSPropertyOp4
 70
     1
102
RTVSPropertyOp5
 70
     1
102
RTVSPropertyOp6
 70
     1
102
RTVSPropertyOp7
 70
     1
102
RTVSPropertyOp8
 70
     1
102
RTVSPropertyOp9
 70
     1
102
RTVSPropertyOp10
 70
     1
102
RTVSPropertyOp11
 70
     1
102
RTVSPropertyOp12
 70
     1
102
RTVSPropertyOp13
 70
     1
102
RTVSPropertyOp14
 70
     1
102
RTVSPropertyOp15
 70
     1
102
RTVSPropertyOp16
 70
     1
102
RTVSPropertyOp17
 70
     1
102
RTVSPropertyOp18
 70
     1
102
RTVSPropertyOp19
 70
     1
102
RTVSPropertyOp20
 70
     1
102
RTVSPropertyOp21
 70
     1
102
RTVSPropertyOp22
 70
     1
102
RTVSPropertyOp23
 70
     1
102
RTVSPropertyOp24
 70
     1
102
RTVSPropertyOp25
 70
     1
102
RTVSPropertyOp26
 70
     1
102
RTVSPropertyOp27
 70
     1
102
RTVSPropertyOp28
 70
     1
102
RTVSPropertyOp29
 70
     1
102
RTVSPropertyOp30
 70
     1
102
RTVSPropertyOp31
 70
     1
102
RTVSPropertyOp32
 70
     1
102
RTVSPropertyOp33
 70
     1
102
RTVSPropertyOp34
 70
     1
102
RTVSPropertyOp35
 70
     1
102
RTVSPropertyOp36
 70
     1
102
RTVSPropertyOp37
 70
     1
102
RTVSPropertyOp38
 70
     1
102
RTVSPropertyOp39
 70
     1
102
RTVSPropertyOp40
 70
     1
102
RTVSPropertyOp41
 70
     1
102
RTVSPropertyOp42
 70
     1
102
RTVSPropertyOp43
 70
     1
102
RTVSPropertyOp44
 70
     1
102
RTVSPropertyOp45
 70
     1
102
RTVSPropertyOp46
 70
     1
102
RTVSPropertyOp47
 70
     1
102
RTVSPropertyOp48
 70
     1
102
RTVSPropertyOp49
 70
     1
102
RTVSPropertyOp50
 70
     1
102
RTVSPropertyOp51
 70
     0
102
RTVSPropertyOp52
 70
     0
102
RTVSPropertyOp53
 70
     1
102
RTVSPropertyOp54
 70
     1
102
RTVSPropertyOp55
 70
     1
102
RTVSPropertyOp56
 70
     1
102
RTVSPropertyOp57
 70
     1
102
RTVSPropertyOp58
 70
     1
102
RTVSPropertyOp59
 70
     1
102
RTVSPropertyOp60
 70
     1
102
RTVSPropertyOp61
 70
     1
102
RTVSPropertyOp62
 70
     1
  0
XRECORD
  5
A3B
102
{ACAD_REACTORS
330
A3A
102
}
330
A3A
100
AcDbXrecord
280
     1
102
RTVSPost2010Prop28
280
     0
102
RTVSPost2010PropOp28
 70
     1
102
RTVSPost2010Prop29
280
     1
102
RTVSPost2010PropOp29
 70
     1
102
RTVSPost2010Prop30
280
     1
102
RTVSPost2010PropOp30
 70
     1
102
RTVSPost2010Prop31
280
     0
102
RTVSPost2010PropOp31
 70
     1
102
RTVSPost2010Prop32
280
     0
102
RTVSPost2010PropOp32
 70
     1
102
RTVSPost2010Prop33
280
     0
102
RTVSPost2010PropOp33
 70
     1
102
RTVSPost2010Prop34
280
     0
102
RTVSPost2010PropOp34
 70
     1
102
RTVSPost2010Prop35
280
     0
102
RTVSPost2010PropOp35
 70
     1
102
RTVSPost2010Prop36
280
     0
102
RTVSPost2010PropOp36
 70
     1
102
RTVSPost2010Prop37
 90
       50
102
RTVSPost2010PropOp37
 70
     1
102
RTVSPost2010Prop38
140
0.0
102
RTVSPost2010PropOp38
 70
     1
102
RTVSPost2010Prop39
140
1.0
102
RTVSPost2010PropOp39
 70
     1
102
RTVSPost2010Prop40
 90
        0
102
RTVSPost2010PropOp40
 70
     1
102
RTVSPost2010Prop41ColorIndex
 90
       18
102
RTVSPost2010Prop41ColorRGB
 90
-16777216
102
RTVSPost2010PropOp41
 70
     1
102
RTVSPost2010Prop42
 90
       50
102
RTVSPost2010PropOp42
 70
     1
102
RTVSPost2010Prop43
 90
        3
102
RTVSPost2010PropOp43
 70
     1
102
RTVSPost2010Prop44ColorIndex
 90
        5
102
RTVSPost2010Prop44ColorRGB
 90
      255
102
RTVSPost2010PropOp44
 70
     1
102
RTVSPost2010Prop45
280
     0
102
RTVSPost2010PropOp45
 70
     1
102
RTVSPost2010Prop46
 90
       50
102
RTVSPost2010PropOp46
 70
     1
102
RTVSPost2010Prop47
 90
       50
102
RTVSPost2010PropOp47
 70
     1
102
RTVSPost2010Prop48
 90
       50
102
RTVSPost2010PropOp48
 70
     1
102
RTVSPost2010Prop49
280
     0
102
RTVSPost2010PropOp49
 70
     1
102
RTVSPost2010Prop50
 90
       50
102
RTVSPost2010PropOp50
 70
     1
102
RTVSPost2010Prop51ColorIndex
 90
      256
102
RTVSPost2010Prop51ColorRGB
 90
-16777216
102
RTVSPost2010PropOp51
 70
     0
102
RTVSPost2010Prop52
140
1.0
102
RTVSPost2010PropOp52
 70
     0
102
RTVSPost2010Prop53
 90
        2
102
RTVSPost2010PropOp53
 70
     1
102
RTVSPost2010Prop54
  1
strokes_ogs.tif
102
RTVSPost2010PropOp54
 70
     1
102
RTVSPost2010Prop55
280
     0
102
RTVSPost2010PropOp55
 70
     1
102
RTVSPost2010Prop56
140
1.0
102
RTVSPost2010PropOp56
 70
     1
102
RTVSPost2010Prop57
140
1.0
102
RTVSPost2010PropOp57
 70
     1
102
RTVSPropertyOp0
 70
     1
102
RTVSPropertyOp1
 70
     1
102
RTVSPropertyOp2
 70
     1
102
RTVSPropertyOp3
 70
     1
102
RTVSPropertyOp4
 70
     1
102
RTVSPropertyOp5
 70
     1
102
RTVSPropertyOp6
 70
     1
102
RTVSPropertyOp7
 70
     1
102
RTVSPropertyOp8
 70
     1
102
RTVSPropertyOp9
 70
     1
102
RTVSPropertyOp10
 70
     1
102
RTVSPropertyOp11
 70
     1
102
RTVSPropertyOp12
 70
     1
102
RTVSPropertyOp13
 70
     1
102
RTVSPropertyOp14
 70
     1
102
RTVSPropertyOp15
 70
     1
102
RTVSPropertyOp16
 70
     1
102
RTVSPropertyOp17
 70
     1
102
RTVSPropertyOp18
 70
     1
102
RTVSPropertyOp19
 70
     1
102
RTVSPropertyOp20
 70
     1
102
RTVSPropertyOp21
 70
     1
102
RTVSPropertyOp22
 70
     1
102
RTVSPropertyOp23
 70
     1
102
RTVSPropertyOp24
 70
     1
102
RTVSPropertyOp25
 70
     1
102
RTVSPropertyOp26
 70
     1
102
RTVSPropertyOp27
 70
     1
102
RTVSPropertyOp28
 70
     1
102
RTVSPropertyOp29
 70
     1
102
RTVSPropertyOp30
 70
     1
102
RTVSPropertyOp31
 70
     1
102
RTVSPropertyOp32
 70
     1
102
RTVSPropertyOp33
 70
     1
102
RTVSPropertyOp34
 70
     1
102
RTVSPropertyOp35
 70
     1
102
RTVSPropertyOp36
 70
     1
102
RTVSPropertyOp37
 70
     1
102
RTVSPropertyOp38
 70
     1
102
RTVSPropertyOp39
 70
     1
102
RTVSPropertyOp40
 70
     1
102
RTVSPropertyOp41
 70
     1
102
RTVSPropertyOp42
 70
     1
102
RTVSPropertyOp43
 70
     1
102
RTVSPropertyOp44
 70
     1
102
RTVSPropertyOp45
 70
     1
102
RTVSPropertyOp46
 70
     1
102
RTVSPropertyOp47
 70
     1
102
RTVSPropertyOp48
 70
     1
102
RTVSPropertyOp49
 70
     1
102
RTVSPropertyOp50
 70
     1
102
RTVSPropertyOp51
 70
     0
102
RTVSPropertyOp52
 70
     0
102
RTVSPropertyOp53
 70
     1
102
RTVSPropertyOp54
 70
     1
102
RTVSPropertyOp55
 70
     1
102
RTVSPropertyOp56
 70
     1
102
RTVSPropertyOp57
 70
     1
102
RTVSPropertyOp58
 70
     1
102
RTVSPropertyOp59
 70
     1
102
RTVSPropertyOp60
 70
     1
102
RTVSPropertyOp61
 70
     1
102
RTVSPropertyOp62
 70
     1
  0
XRECORD
  5
A2D
102
{ACAD_REACTORS
330
A2C
102
}
330
A2C
100
AcDbXrecord
280
     1
102
RTVSPost2010Prop28
280
     0
102
RTVSPost2010PropOp28
 70
     1
102
RTVSPost2010Prop29
280
     1
102
RTVSPost2010PropOp29
 70
     1
102
RTVSPost2010Prop30
280
     1
102
RTVSPost2010PropOp30
 70
     1
102
RTVSPost2010Prop31
280
     0
102
RTVSPost2010PropOp31
 70
     1
102
RTVSPost2010Prop32
280
     0
102
RTVSPost2010PropOp32
 70
     1
102
RTVSPost2010Prop33
280
     0
102
RTVSPost2010PropOp33
 70
     1
102
RTVSPost2010Prop34
280
     0
102
RTVSPost2010PropOp34
 70
     1
102
RTVSPost2010Prop35
280
     0
102
RTVSPost2010PropOp35
 70
     1
102
RTVSPost2010Prop36
280
     0
102
RTVSPost2010PropOp36
 70
     1
102
RTVSPost2010Prop37
 90
       50
102
RTVSPost2010PropOp37
 70
     1
102
RTVSPost2010Prop38
140
0.0
102
RTVSPost2010PropOp38
 70
     1
102
RTVSPost2010Prop39
140
1.0
102
RTVSPost2010PropOp39
 70
     1
102
RTVSPost2010Prop40
 90
        0
102
RTVSPost2010PropOp40
 70
     1
102
RTVSPost2010Prop41ColorIndex
 90
       18
102
RTVSPost2010Prop41ColorRGB
 90
-16777216
102
RTVSPost2010PropOp41
 70
     1
102
RTVSPost2010Prop42
 90
       50
102
RTVSPost2010PropOp42
 70
     1
102
RTVSPost2010Prop43
 90
        3
102
RTVSPost2010PropOp43
 70
     1
102
RTVSPost2010Prop44ColorIndex
 90
        5
102
RTVSPost2010Prop44ColorRGB
 90
      255
102
RTVSPost2010PropOp44
 70
     1
102
RTVSPost2010Prop45
280
     0
102
RTVSPost2010PropOp45
 70
     1
102
RTVSPost2010Prop46
 90
       50
102
RTVSPost2010PropOp46
 70
     1
102
RTVSPost2010Prop47
 90
       50
102
RTVSPost2010PropOp47
 70
     1
102
RTVSPost2010Prop48
 90
       50
102
RTVSPost2010PropOp48
 70
     1
102
RTVSPost2010Prop49
280
     0
102
RTVSPost2010PropOp49
 70
     1
102
RTVSPost2010Prop50
 90
       50
102
RTVSPost2010PropOp50
 70
     1
102
RTVSPost2010Prop51ColorIndex
 90
      256
102
RTVSPost2010Prop51ColorRGB
 90
-16777216
102
RTVSPost2010PropOp51
 70
     0
102
RTVSPost2010Prop52
140
1.0
102
RTVSPost2010PropOp52
 70
     0
102
RTVSPost2010Prop53
 90
        2
102
RTVSPost2010PropOp53
 70
     1
102
RTVSPost2010Prop54
  1
strokes_ogs.tif
102
RTVSPost2010PropOp54
 70
     1
102
RTVSPost2010Prop55
280
     0
102
RTVSPost2010PropOp55
 70
     1
102
RTVSPost2010Prop56
140
1.0
102
RTVSPost2010PropOp56
 70
     1
102
RTVSPost2010Prop57
140
1.0
102
RTVSPost2010PropOp57
 70
     1
102
RTVSPropertyOp0
 70
     1
102
RTVSPropertyOp1
 70
     1
102
RTVSPropertyOp2
 70
     1
102
RTVSPropertyOp3
 70
     1
102
RTVSPropertyOp4
 70
     1
102
RTVSPropertyOp5
 70
     1
102
RTVSPropertyOp6
 70
     1
102
RTVSPropertyOp7
 70
     1
102
RTVSPropertyOp8
 70
     1
102
RTVSPropertyOp9
 70
     1
102
RTVSPropertyOp10
 70
     1
102
RTVSPropertyOp11
 70
     1
102
RTVSPropertyOp12
 70
     1
102
RTVSPropertyOp13
 70
     1
102
RTVSPropertyOp14
 70
     1
102
RTVSPropertyOp15
 70
     1
102
RTVSPropertyOp16
 70
     1
102
RTVSPropertyOp17
 70
     1
102
RTVSPropertyOp18
 70
     1
102
RTVSPropertyOp19
 70
     1
102
RTVSPropertyOp20
 70
     1
102
RTVSPropertyOp21
 70
     1
102
RTVSPropertyOp22
 70
     1
102
RTVSPropertyOp23
 70
     1
102
RTVSPropertyOp24
 70
     1
102
RTVSPropertyOp25
 70
     1
102
RTVSPropertyOp26
 70
     1
102
RTVSPropertyOp27
 70
     1
102
RTVSPropertyOp28
 70
     1
102
RTVSPropertyOp29
 70
     1
102
RTVSPropertyOp30
 70
     1
102
RTVSPropertyOp31
 70
     1
102
RTVSPropertyOp32
 70
     1
102
RTVSPropertyOp33
 70
     1
102
RTVSPropertyOp34
 70
     1
102
RTVSPropertyOp35
 70
     1
102
RTVSPropertyOp36
 70
     1
102
RTVSPropertyOp37
 70
     1
102
RTVSPropertyOp38
 70
     1
102
RTVSPropertyOp39
 70
     1
102
RTVSPropertyOp40
 70
     1
102
RTVSPropertyOp41
 70
     1
102
RTVSPropertyOp42
 70
     1
102
RTVSPropertyOp43
 70
     1
102
RTVSPropertyOp44
 70
     1
102
RTVSPropertyOp45
 70
     1
102
RTVSPropertyOp46
 70
     1
102
RTVSPropertyOp47
 70
     1
102
RTVSPropertyOp48
 70
     1
102
RTVSPropertyOp49
 70
     1
102
RTVSPropertyOp50
 70
     1
102
RTVSPropertyOp51
 70
     0
102
RTVSPropertyOp52
 70
     0
102
RTVSPropertyOp53
 70
     1
102
RTVSPropertyOp54
 70
     1
102
RTVSPropertyOp55
 70
     1
102
RTVSPropertyOp56
 70
     1
102
RTVSPropertyOp57
 70
     1
102
RTVSPropertyOp58
 70
     1
102
RTVSPropertyOp59
 70
     1
102
RTVSPropertyOp60
 70
     1
102
RTVSPropertyOp61
 70
     1
102
RTVSPropertyOp62
 70
     1
  0
XRECORD
  5
A31
102
{ACAD_REACTORS
330
A30
102
}
330
A30
100
AcDbXrecord
280
     1
102
RTVSPost2010Prop28
280
     0
102
RTVSPost2010PropOp28
 70
     1
102
RTVSPost2010Prop29
280
     1
102
RTVSPost2010PropOp29
 70
     1
102
RTVSPost2010Prop30
280
     1
102
RTVSPost2010PropOp30
 70
     1
102
RTVSPost2010Prop31
280
     0
102
RTVSPost2010PropOp31
 70
     1
102
RTVSPost2010Prop32
280
     0
102
RTVSPost2010PropOp32
 70
     1
102
RTVSPost2010Prop33
280
     0
102
RTVSPost2010PropOp33
 70
     1
102
RTVSPost2010Prop34
280
     0
102
RTVSPost2010PropOp34
 70
     1
102
RTVSPost2010Prop35
280
     0
102
RTVSPost2010PropOp35
 70
     1
102
RTVSPost2010Prop36
280
     0
102
RTVSPost2010PropOp36
 70
     1
102
RTVSPost2010Prop37
 90
       50
102
RTVSPost2010PropOp37
 70
     1
102
RTVSPost2010Prop38
140
0.0
102
RTVSPost2010PropOp38
 70
     1
102
RTVSPost2010Prop39
140
1.0
102
RTVSPost2010PropOp39
 70
     1
102
RTVSPost2010Prop40
 90
        0
102
RTVSPost2010PropOp40
 70
     1
102
RTVSPost2010Prop41ColorIndex
 90
       18
102
RTVSPost2010Prop41ColorRGB
 90
-16777216
102
RTVSPost2010PropOp41
 70
     1
102
RTVSPost2010Prop42
 90
       50
102
RTVSPost2010PropOp42
 70
     1
102
RTVSPost2010Prop43
 90
        3
102
RTVSPost2010PropOp43
 70
     1
102
RTVSPost2010Prop44ColorIndex
 90
        5
102
RTVSPost2010Prop44ColorRGB
 90
      255
102
RTVSPost2010PropOp44
 70
     1
102
RTVSPost2010Prop45
280
     0
102
RTVSPost2010PropOp45
 70
     1
102
RTVSPost2010Prop46
 90
       50
102
RTVSPost2010PropOp46
 70
     1
102
RTVSPost2010Prop47
 90
       50
102
RTVSPost2010PropOp47
 70
     1
102
RTVSPost2010Prop48
 90
       50
102
RTVSPost2010PropOp48
 70
     1
102
RTVSPost2010Prop49
280
     0
102
RTVSPost2010PropOp49
 70
     1
102
RTVSPost2010Prop50
 90
       50
102
RTVSPost2010PropOp50
 70
     1
102
RTVSPost2010Prop51ColorIndex
 90
      256
102
RTVSPost2010Prop51ColorRGB
 90
-16777216
102
RTVSPost2010PropOp51
 70
     0
102
RTVSPost2010Prop52
140
1.0
102
RTVSPost2010PropOp52
 70
     0
102
RTVSPost2010Prop53
 90
        2
102
RTVSPost2010PropOp53
 70
     1
102
RTVSPost2010Prop54
  1
strokes_ogs.tif
102
RTVSPost2010PropOp54
 70
     1
102
RTVSPost2010Prop55
280
     0
102
RTVSPost2010PropOp55
 70
     1
102
RTVSPost2010Prop56
140
1.0
102
RTVSPost2010PropOp56
 70
     1
102
RTVSPost2010Prop57
140
1.0
102
RTVSPost2010PropOp57
 70
     1
102
RTVSPropertyOp0
 70
     1
102
RTVSPropertyOp1
 70
     1
102
RTVSPropertyOp2
 70
     1
102
RTVSPropertyOp3
 70
     1
102
RTVSPropertyOp4
 70
     1
102
RTVSPropertyOp5
 70
     1
102
RTVSPropertyOp6
 70
     1
102
RTVSPropertyOp7
 70
     1
102
RTVSPropertyOp8
 70
     1
102
RTVSPropertyOp9
 70
     1
102
RTVSPropertyOp10
 70
     1
102
RTVSPropertyOp11
 70
     1
102
RTVSPropertyOp12
 70
     1
102
RTVSPropertyOp13
 70
     1
102
RTVSPropertyOp14
 70
     1
102
RTVSPropertyOp15
 70
     1
102
RTVSPropertyOp16
 70
     1
102
RTVSPropertyOp17
 70
     1
102
RTVSPropertyOp18
 70
     1
102
RTVSPropertyOp19
 70
     1
102
RTVSPropertyOp20
 70
     1
102
RTVSPropertyOp21
 70
     1
102
RTVSPropertyOp22
 70
     1
102
RTVSPropertyOp23
 70
     1
102
RTVSPropertyOp24
 70
     1
102
RTVSPropertyOp25
 70
     1
102
RTVSPropertyOp26
 70
     1
102
RTVSPropertyOp27
 70
     1
102
RTVSPropertyOp28
 70
     1
102
RTVSPropertyOp29
 70
     1
102
RTVSPropertyOp30
 70
     1
102
RTVSPropertyOp31
 70
     1
102
RTVSPropertyOp32
 70
     1
102
RTVSPropertyOp33
 70
     1
102
RTVSPropertyOp34
 70
     1
102
RTVSPropertyOp35
 70
     1
102
RTVSPropertyOp36
 70
     1
102
RTVSPropertyOp37
 70
     1
102
RTVSPropertyOp38
 70
     1
102
RTVSPropertyOp39
 70
     1
102
RTVSPropertyOp40
 70
     1
102
RTVSPropertyOp41
 70
     1
102
RTVSPropertyOp42
 70
     1
102
RTVSPropertyOp43
 70
     1
102
RTVSPropertyOp44
 70
     1
102
RTVSPropertyOp45
 70
     1
102
RTVSPropertyOp46
 70
     1
102
RTVSPropertyOp47
 70
     1
102
RTVSPropertyOp48
 70
     1
102
RTVSPropertyOp49
 70
     1
102
RTVSPropertyOp50
 70
     1
102
RTVSPropertyOp51
 70
     0
102
RTVSPropertyOp52
 70
     0
102
RTVSPropertyOp53
 70
     1
102
RTVSPropertyOp54
 70
     1
102
RTVSPropertyOp55
 70
     1
102
RTVSPropertyOp56
 70
     1
102
RTVSPropertyOp57
 70
     1
102
RTVSPropertyOp58
 70
     1
102
RTVSPropertyOp59
 70
     1
102
RTVSPropertyOp60
 70
     1
102
RTVSPropertyOp61
 70
     1
102
RTVSPropertyOp62
 70
     1
  0
XRECORD
  5
A4B
102
{ACAD_REACTORS
330
A4A
102
}
330
A4A
100
AcDbXrecord
280
     1
102
RTVSPost2010Prop28
280
     0
102
RTVSPost2010PropOp28
 70
     0
102
RTVSPost2010Prop29
280
     1
102
RTVSPost2010PropOp29
 70
     0
102
RTVSPost2010Prop30
280
     1
102
RTVSPost2010PropOp30
 70
     0
102
RTVSPost2010Prop31
280
     0
102
RTVSPost2010PropOp31
 70
     0
102
RTVSPost2010Prop32
280
     0
102
RTVSPost2010PropOp32
 70
     0
102
RTVSPost2010Prop33
280
     0
102
RTVSPost2010PropOp33
 70
     0
102
RTVSPost2010Prop34
280
     0
102
RTVSPost2010PropOp34
 70
     0
102
RTVSPost2010Prop35
280
     0
102
RTVSPost2010PropOp35
 70
     0
102
RTVSPost2010Prop36
280
     0
102
RTVSPost2010PropOp36
 70
     0
102
RTVSPost2010Prop37
 90
       50
102
RTVSPost2010PropOp37
 70
     0
102
RTVSPost2010Prop38
140
0.0
102
RTVSPost2010PropOp38
 70
     0
102
RTVSPost2010Prop39
140
1.0
102
RTVSPost2010PropOp39
 70
     0
102
RTVSPost2010Prop40
 90
        0
102
RTVSPost2010PropOp40
 70
     0
102
RTVSPost2010Prop41ColorIndex
 90
       18
102
RTVSPost2010Prop41ColorRGB
 90
-16777216
102
RTVSPost2010PropOp41
 70
     0
102
RTVSPost2010Prop42
 90
       50
102
RTVSPost2010PropOp42
 70
     0
102
RTVSPost2010Prop43
 90
        3
102
RTVSPost2010PropOp43
 70
     0
102
RTVSPost2010Prop44ColorIndex
 90
        5
102
RTVSPost2010Prop44ColorRGB
 90
      255
102
RTVSPost2010PropOp44
 70
     0
102
RTVSPost2010Prop45
280
     0
102
RTVSPost2010PropOp45
 70
     0
102
RTVSPost2010Prop46
 90
       50
102
RTVSPost2010PropOp46
 70
     0
102
RTVSPost2010Prop47
 90
       50
102
RTVSPost2010PropOp47
 70
     0
102
RTVSPost2010Prop48
 90
       50
102
RTVSPost2010PropOp48
 70
     0
102
RTVSPost2010Prop49
280
     0
102
RTVSPost2010PropOp49
 70
     0
102
RTVSPost2010Prop50
 90
       50
102
RTVSPost2010PropOp50
 70
     0
102
RTVSPost2010Prop51ColorIndex
 90
      256
102
RTVSPost2010Prop51ColorRGB
 90
-16777216
102
RTVSPost2010PropOp51
 70
     0
102
RTVSPost2010Prop52
140
1.0
102
RTVSPost2010PropOp52
 70
     0
102
RTVSPost2010Prop53
 90
        2
102
RTVSPost2010PropOp53
 70
     0
102
RTVSPost2010Prop54
  1
strokes_ogs.tif
102
RTVSPost2010PropOp54
 70
     0
102
RTVSPost2010Prop55
280
     0
102
RTVSPost2010PropOp55
 70
     0
102
RTVSPost2010Prop56
140
1.0
102
RTVSPost2010PropOp56
 70
     0
102
RTVSPost2010Prop57
140
1.0
102
RTVSPost2010PropOp57
 70
     0
102
RTVSPropertyOp0
 70
     0
102
RTVSPropertyOp1
 70
     0
102
RTVSPropertyOp2
 70
     0
102
RTVSPropertyOp3
 70
     0
102
RTVSPropertyOp4
 70
     0
102
RTVSPropertyOp5
 70
     0
102
RTVSPropertyOp6
 70
     0
102
RTVSPropertyOp7
 70
     0
102
RTVSPropertyOp8
 70
     0
102
RTVSPropertyOp9
 70
     0
102
RTVSPropertyOp10
 70
     0
102
RTVSPropertyOp11
 70
     0
102
RTVSPropertyOp12
 70
     0
102
RTVSPropertyOp13
 70
     0
102
RTVSPropertyOp14
 70
     2
102
RTVSPropertyOp15
 70
     0
102
RTVSPropertyOp16
 70
     0
102
RTVSPropertyOp17
 70
     0
102
RTVSPropertyOp18
 70
     0
102
RTVSPropertyOp19
 70
     0
102
RTVSPropertyOp20
 70
     0
102
RTVSPropertyOp21
 70
     0
102
RTVSPropertyOp22
 70
     0
102
RTVSPropertyOp23
 70
     0
102
RTVSPropertyOp24
 70
     0
102
RTVSPropertyOp25
 70
     0
102
RTVSPropertyOp26
 70
     0
102
RTVSPropertyOp27
 70
     0
102
RTVSPropertyOp28
 70
     0
102
RTVSPropertyOp29
 70
     0
102
RTVSPropertyOp30
 70
     0
102
RTVSPropertyOp31
 70
     0
102
RTVSPropertyOp32
 70
     0
102
RTVSPropertyOp33
 70
     0
102
RTVSPropertyOp34
 70
     0
102
RTVSPropertyOp35
 70
     0
102
RTVSPropertyOp36
 70
     0
102
RTVSPropertyOp37
 70
     0
102
RTVSPropertyOp38
 70
     0
102
RTVSPropertyOp39
 70
     0
102
RTVSPropertyOp40
 70
     0
102
RTVSPropertyOp41
 70
     0
102
RTVSPropertyOp42
 70
     0
102
RTVSPropertyOp43
 70
     0
102
RTVSPropertyOp44
 70
     0
102
RTVSPropertyOp45
 70
     0
102
RTVSPropertyOp46
 70
     0
102
RTVSPropertyOp47
 70
     0
102
RTVSPropertyOp48
 70
     0
102
RTVSPropertyOp49
 70
     0
102
RTVSPropertyOp50
 70
     0
102
RTVSPropertyOp51
 70
     0
102
RTVSPropertyOp52
 70
     0
102
RTVSPropertyOp53
 70
     0
102
RTVSPropertyOp54
 70
     0
102
RTVSPropertyOp55
 70
     0
102
RTVSPropertyOp56
 70
     0
102
RTVSPropertyOp57
 70
     0
102
RTVSPropertyOp58
 70
     1
102
RTVSPropertyOp59
 70
     1
102
RTVSPropertyOp60
 70
     1
102
RTVSPropertyOp61
 70
     1
102
RTVSPropertyOp62
 70
     1
  0
XRECORD
  5
A39
102
{ACAD_REACTORS
330
A38
102
}
330
A38
100
AcDbXrecord
280
     1
102
RTVSPost2010Prop28
280
     0
102
RTVSPost2010PropOp28
 70
     1
102
RTVSPost2010Prop29
280
     1
102
RTVSPost2010PropOp29
 70
     1
102
RTVSPost2010Prop30
280
     1
102
RTVSPost2010PropOp30
 70
     1
102
RTVSPost2010Prop31
280
     0
102
RTVSPost2010PropOp31
 70
     1
102
RTVSPost2010Prop32
280
     0
102
RTVSPost2010PropOp32
 70
     1
102
RTVSPost2010Prop33
280
     0
102
RTVSPost2010PropOp33
 70
     1
102
RTVSPost2010Prop34
280
     0
102
RTVSPost2010PropOp34
 70
     1
102
RTVSPost2010Prop35
280
     0
102
RTVSPost2010PropOp35
 70
     1
102
RTVSPost2010Prop36
280
     0
102
RTVSPost2010PropOp36
 70
     1
102
RTVSPost2010Prop37
 90
       50
102
RTVSPost2010PropOp37
 70
     1
102
RTVSPost2010Prop38
140
0.0
102
RTVSPost2010PropOp38
 70
     1
102
RTVSPost2010Prop39
140
1.0
102
RTVSPost2010PropOp39
 70
     1
102
RTVSPost2010Prop40
 90
        0
102
RTVSPost2010PropOp40
 70
     1
102
RTVSPost2010Prop41ColorIndex
 90
       18
102
RTVSPost2010Prop41ColorRGB
 90
-16777216
102
RTVSPost2010PropOp41
 70
     1
102
RTVSPost2010Prop42
 90
       50
102
RTVSPost2010PropOp42
 70
     1
102
RTVSPost2010Prop43
 90
        3
102
RTVSPost2010PropOp43
 70
     1
102
RTVSPost2010Prop44ColorIndex
 90
        5
102
RTVSPost2010Prop44ColorRGB
 90
      255
102
RTVSPost2010PropOp44
 70
     1
102
RTVSPost2010Prop45
280
     0
102
RTVSPost2010PropOp45
 70
     1
102
RTVSPost2010Prop46
 90
       50
102
RTVSPost2010PropOp46
 70
     1
102
RTVSPost2010Prop47
 90
       50
102
RTVSPost2010PropOp47
 70
     1
102
RTVSPost2010Prop48
 90
       50
102
RTVSPost2010PropOp48
 70
     1
102
RTVSPost2010Prop49
280
     0
102
RTVSPost2010PropOp49
 70
     1
102
RTVSPost2010Prop50
 90
       50
102
RTVSPost2010PropOp50
 70
     1
102
RTVSPost2010Prop51ColorIndex
 90
      256
102
RTVSPost2010Prop51ColorRGB
 90
-16777216
102
RTVSPost2010PropOp51
 70
     0
102
RTVSPost2010Prop52
140
1.0
102
RTVSPost2010PropOp52
 70
     0
102
RTVSPost2010Prop53
 90
        2
102
RTVSPost2010PropOp53
 70
     1
102
RTVSPost2010Prop54
  1
strokes_ogs.tif
102
RTVSPost2010PropOp54
 70
     1
102
RTVSPost2010Prop55
280
     0
102
RTVSPost2010PropOp55
 70
     1
102
RTVSPost2010Prop56
140
1.0
102
RTVSPost2010PropOp56
 70
     1
102
RTVSPost2010Prop57
140
1.0
102
RTVSPost2010PropOp57
 70
     1
102
RTVSPropertyOp0
 70
     1
102
RTVSPropertyOp1
 70
     1
102
RTVSPropertyOp2
 70
     1
102
RTVSPropertyOp3
 70
     1
102
RTVSPropertyOp4
 70
     1
102
RTVSPropertyOp5
 70
     1
102
RTVSPropertyOp6
 70
     1
102
RTVSPropertyOp7
 70
     1
102
RTVSPropertyOp8
 70
     1
102
RTVSPropertyOp9
 70
     1
102
RTVSPropertyOp10
 70
     1
102
RTVSPropertyOp11
 70
     1
102
RTVSPropertyOp12
 70
     1
102
RTVSPropertyOp13
 70
     1
102
RTVSPropertyOp14
 70
     1
102
RTVSPropertyOp15
 70
     1
102
RTVSPropertyOp16
 70
     1
102
RTVSPropertyOp17
 70
     1
102
RTVSPropertyOp18
 70
     1
102
RTVSPropertyOp19
 70
     1
102
RTVSPropertyOp20
 70
     1
102
RTVSPropertyOp21
 70
     1
102
RTVSPropertyOp22
 70
     1
102
RTVSPropertyOp23
 70
     1
102
RTVSPropertyOp24
 70
     1
102
RTVSPropertyOp25
 70
     1
102
RTVSPropertyOp26
 70
     1
102
RTVSPropertyOp27
 70
     1
102
RTVSPropertyOp28
 70
     1
102
RTVSPropertyOp29
 70
     1
102
RTVSPropertyOp30
 70
     1
102
RTVSPropertyOp31
 70
     1
102
RTVSPropertyOp32
 70
     1
102
RTVSPropertyOp33
 70
     1
102
RTVSPropertyOp34
 70
     1
102
RTVSPropertyOp35
 70
     1
102
RTVSPropertyOp36
 70
     1
102
RTVSPropertyOp37
 70
     1
102
RTVSPropertyOp38
 70
     1
102
RTVSPropertyOp39
 70
     1
102
RTVSPropertyOp40
 70
     1
102
RTVSPropertyOp41
 70
     1
102
RTVSPropertyOp42
 70
     1
102
RTVSPropertyOp43
 70
     1
102
RTVSPropertyOp44
 70
     1
102
RTVSPropertyOp45
 70
     1
102
RTVSPropertyOp46
 70
     1
102
RTVSPropertyOp47
 70
     1
102
RTVSPropertyOp48
 70
     1
102
RTVSPropertyOp49
 70
     1
102
RTVSPropertyOp50
 70
     1
102
RTVSPropertyOp51
 70
     0
102
RTVSPropertyOp52
 70
     0
102
RTVSPropertyOp53
 70
     1
102
RTVSPropertyOp54
 70
     1
102
RTVSPropertyOp55
 70
     1
102
RTVSPropertyOp56
 70
     1
102
RTVSPropertyOp57
 70
     1
102
RTVSPropertyOp58
 70
     1
102
RTVSPropertyOp59
 70
     1
102
RTVSPropertyOp60
 70
     1
102
RTVSPropertyOp61
 70
     1
102
RTVSPropertyOp62
 70
     1
  0
XRECORD
  5
A1D
102
{ACAD_REACTORS
330
A1C
102
}
330
A1C
100
AcDbXrecord
280
     1
102
RTVSPost2010Prop28
280
     0
102
RTVSPost2010PropOp28
 70
     1
102
RTVSPost2010Prop29
280
     1
102
RTVSPost2010PropOp29
 70
     1
102
RTVSPost2010Prop30
280
     1
102
RTVSPost2010PropOp30
 70
     1
102
RTVSPost2010Prop31
280
     0
102
RTVSPost2010PropOp31
 70
     1
102
RTVSPost2010Prop32
280
     0
102
RTVSPost2010PropOp32
 70
     1
102
RTVSPost2010Prop33
280
     0
102
RTVSPost2010PropOp33
 70
     1
102
RTVSPost2010Prop34
280
     0
102
RTVSPost2010PropOp34
 70
     1
102
RTVSPost2010Prop35
280
     0
102
RTVSPost2010PropOp35
 70
     1
102
RTVSPost2010Prop36
280
     0
102
RTVSPost2010PropOp36
 70
     1
102
RTVSPost2010Prop37
 90
       50
102
RTVSPost2010PropOp37
 70
     1
102
RTVSPost2010Prop38
140
0.0
102
RTVSPost2010PropOp38
 70
     1
102
RTVSPost2010Prop39
140
1.0
102
RTVSPost2010PropOp39
 70
     1
102
RTVSPost2010Prop40
 90
        0
102
RTVSPost2010PropOp40
 70
     1
102
RTVSPost2010Prop41ColorIndex
 90
       18
102
RTVSPost2010Prop41ColorRGB
 90
-16777216
102
RTVSPost2010PropOp41
 70
     1
102
RTVSPost2010Prop42
 90
       50
102
RTVSPost2010PropOp42
 70
     1
102
RTVSPost2010Prop43
 90
        3
102
RTVSPost2010PropOp43
 70
     1
102
RTVSPost2010Prop44ColorIndex
 90
        5
102
RTVSPost2010Prop44ColorRGB
 90
      255
102
RTVSPost2010PropOp44
 70
     1
102
RTVSPost2010Prop45
280
     0
102
RTVSPost2010PropOp45
 70
     1
102
RTVSPost2010Prop46
 90
       50
102
RTVSPost2010PropOp46
 70
     1
102
RTVSPost2010Prop47
 90
       50
102
RTVSPost2010PropOp47
 70
     1
102
RTVSPost2010Prop48
 90
       50
102
RTVSPost2010PropOp48
 70
     1
102
RTVSPost2010Prop49
280
     0
102
RTVSPost2010PropOp49
 70
     1
102
RTVSPost2010Prop50
 90
       50
102
RTVSPost2010PropOp50
 70
     1
102
RTVSPost2010Prop51ColorIndex
 90
      256
102
RTVSPost2010Prop51ColorRGB
 90
-16777216
102
RTVSPost2010PropOp51
 70
     0
102
RTVSPost2010Prop52
140
1.0
102
RTVSPost2010PropOp52
 70
     0
102
RTVSPost2010Prop53
 90
        2
102
RTVSPost2010PropOp53
 70
     1
102
RTVSPost2010Prop54
  1
strokes_ogs.tif
102
RTVSPost2010PropOp54
 70
     1
102
RTVSPost2010Prop55
280
     0
102
RTVSPost2010PropOp55
 70
     1
102
RTVSPost2010Prop56
140
1.0
102
RTVSPost2010PropOp56
 70
     1
102
RTVSPost2010Prop57
140
1.0
102
RTVSPost2010PropOp57
 70
     1
102
RTVSPropertyOp0
 70
     1
102
RTVSPropertyOp1
 70
     1
102
RTVSPropertyOp2
 70
     1
102
RTVSPropertyOp3
 70
     1
102
RTVSPropertyOp4
 70
     1
102
RTVSPropertyOp5
 70
     1
102
RTVSPropertyOp6
 70
     1
102
RTVSPropertyOp7
 70
     1
102
RTVSPropertyOp8
 70
     1
102
RTVSPropertyOp9
 70
     1
102
RTVSPropertyOp10
 70
     1
102
RTVSPropertyOp11
 70
     1
102
RTVSPropertyOp12
 70
     1
102
RTVSPropertyOp13
 70
     1
102
RTVSPropertyOp14
 70
     1
102
RTVSPropertyOp15
 70
     1
102
RTVSPropertyOp16
 70
     1
102
RTVSPropertyOp17
 70
     1
102
RTVSPropertyOp18
 70
     1
102
RTVSPropertyOp19
 70
     1
102
RTVSPropertyOp20
 70
     1
102
RTVSPropertyOp21
 70
     1
102
RTVSPropertyOp22
 70
     1
102
RTVSPropertyOp23
 70
     1
102
RTVSPropertyOp24
 70
     1
102
RTVSPropertyOp25
 70
     1
102
RTVSPropertyOp26
 70
     1
102
RTVSPropertyOp27
 70
     1
102
RTVSPropertyOp28
 70
     1
102
RTVSPropertyOp29
 70
     1
102
RTVSPropertyOp30
 70
     1
102
RTVSPropertyOp31
 70
     1
102
RTVSPropertyOp32
 70
     1
102
RTVSPropertyOp33
 70
     1
102
RTVSPropertyOp34
 70
     1
102
RTVSPropertyOp35
 70
     1
102
RTVSPropertyOp36
 70
     1
102
RTVSPropertyOp37
 70
     1
102
RTVSPropertyOp38
 70
     1
102
RTVSPropertyOp39
 70
     1
102
RTVSPropertyOp40
 70
     1
102
RTVSPropertyOp41
 70
     1
102
RTVSPropertyOp42
 70
     1
102
RTVSPropertyOp43
 70
     1
102
RTVSPropertyOp44
 70
     1
102
RTVSPropertyOp45
 70
     1
102
RTVSPropertyOp46
 70
     1
102
RTVSPropertyOp47
 70
     1
102
RTVSPropertyOp48
 70
     1
102
RTVSPropertyOp49
 70
     1
102
RTVSPropertyOp50
 70
     1
102
RTVSPropertyOp51
 70
     0
102
RTVSPropertyOp52
 70
     0
102
RTVSPropertyOp53
 70
     1
102
RTVSPropertyOp54
 70
     1
102
RTVSPropertyOp55
 70
     1
102
RTVSPropertyOp56
 70
     1
102
RTVSPropertyOp57
 70
     1
102
RTVSPropertyOp58
 70
     1
102
RTVSPropertyOp59
 70
     1
102
RTVSPropertyOp60
 70
     1
102
RTVSPropertyOp61
 70
     1
102
RTVSPropertyOp62
 70
     1
  0
XRECORD
  5
A1F
102
{ACAD_REACTORS
330
A1E
102
}
330
A1E
100
AcDbXrecord
280
     1
102
RTVSPost2010Prop28
280
     0
102
RTVSPost2010PropOp28
 70
     1
102
RTVSPost2010Prop29
280
     1
102
RTVSPost2010PropOp29
 70
     1
102
RTVSPost2010Prop30
280
     1
102
RTVSPost2010PropOp30
 70
     1
102
RTVSPost2010Prop31
280
     0
102
RTVSPost2010PropOp31
 70
     1
102
RTVSPost2010Prop32
280
     0
102
RTVSPost2010PropOp32
 70
     1
102
RTVSPost2010Prop33
280
     0
102
RTVSPost2010PropOp33
 70
     1
102
RTVSPost2010Prop34
280
     0
102
RTVSPost2010PropOp34
 70
     1
102
RTVSPost2010Prop35
280
     0
102
RTVSPost2010PropOp35
 70
     1
102
RTVSPost2010Prop36
280
     0
102
RTVSPost2010PropOp36
 70
     1
102
RTVSPost2010Prop37
 90
       50
102
RTVSPost2010PropOp37
 70
     1
102
RTVSPost2010Prop38
140
0.0
102
RTVSPost2010PropOp38
 70
     1
102
RTVSPost2010Prop39
140
1.0
102
RTVSPost2010PropOp39
 70
     1
102
RTVSPost2010Prop40
 90
        0
102
RTVSPost2010PropOp40
 70
     1
102
RTVSPost2010Prop41ColorIndex
 90
       18
102
RTVSPost2010Prop41ColorRGB
 90
-16777216
102
RTVSPost2010PropOp41
 70
     1
102
RTVSPost2010Prop42
 90
       50
102
RTVSPost2010PropOp42
 70
     1
102
RTVSPost2010Prop43
 90
        3
102
RTVSPost2010PropOp43
 70
     1
102
RTVSPost2010Prop44ColorIndex
 90
        5
102
RTVSPost2010Prop44ColorRGB
 90
      255
102
RTVSPost2010PropOp44
 70
     1
102
RTVSPost2010Prop45
280
     0
102
RTVSPost2010PropOp45
 70
     1
102
RTVSPost2010Prop46
 90
       50
102
RTVSPost2010PropOp46
 70
     1
102
RTVSPost2010Prop47
 90
       50
102
RTVSPost2010PropOp47
 70
     1
102
RTVSPost2010Prop48
 90
       50
102
RTVSPost2010PropOp48
 70
     1
102
RTVSPost2010Prop49
280
     0
102
RTVSPost2010PropOp49
 70
     1
102
RTVSPost2010Prop50
 90
       50
102
RTVSPost2010PropOp50
 70
     1
102
RTVSPost2010Prop51ColorIndex
 90
      256
102
RTVSPost2010Prop51ColorRGB
 90
-16777216
102
RTVSPost2010PropOp51
 70
     0
102
RTVSPost2010Prop52
140
1.0
102
RTVSPost2010PropOp52
 70
     0
102
RTVSPost2010Prop53
 90
        2
102
RTVSPost2010PropOp53
 70
     1
102
RTVSPost2010Prop54
  1
strokes_ogs.tif
102
RTVSPost2010PropOp54
 70
     1
102
RTVSPost2010Prop55
280
     0
102
RTVSPost2010PropOp55
 70
     1
102
RTVSPost2010Prop56
140
1.0
102
RTVSPost2010PropOp56
 70
     1
102
RTVSPost2010Prop57
140
1.0
102
RTVSPost2010PropOp57
 70
     1
102
RTVSPropertyOp0
 70
     1
102
RTVSPropertyOp1
 70
     1
102
RTVSPropertyOp2
 70
     1
102
RTVSPropertyOp3
 70
     1
102
RTVSPropertyOp4
 70
     1
102
RTVSPropertyOp5
 70
     1
102
RTVSPropertyOp6
 70
     1
102
RTVSPropertyOp7
 70
     1
102
RTVSPropertyOp8
 70
     1
102
RTVSPropertyOp9
 70
     1
102
RTVSPropertyOp10
 70
     1
102
RTVSPropertyOp11
 70
     1
102
RTVSPropertyOp12
 70
     1
102
RTVSPropertyOp13
 70
     1
102
RTVSPropertyOp14
 70
     1
102
RTVSPropertyOp15
 70
     1
102
RTVSPropertyOp16
 70
     1
102
RTVSPropertyOp17
 70
     1
102
RTVSPropertyOp18
 70
     1
102
RTVSPropertyOp19
 70
     1
102
RTVSPropertyOp20
 70
     1
102
RTVSPropertyOp21
 70
     1
102
RTVSPropertyOp22
 70
     1
102
RTVSPropertyOp23
 70
     1
102
RTVSPropertyOp24
 70
     1
102
RTVSPropertyOp25
 70
     1
102
RTVSPropertyOp26
 70
     1
102
RTVSPropertyOp27
 70
     1
102
RTVSPropertyOp28
 70
     1
102
RTVSPropertyOp29
 70
     1
102
RTVSPropertyOp30
 70
     1
102
RTVSPropertyOp31
 70
     1
102
RTVSPropertyOp32
 70
     1
102
RTVSPropertyOp33
 70
     1
102
RTVSPropertyOp34
 70
     1
102
RTVSPropertyOp35
 70
     1
102
RTVSPropertyOp36
 70
     1
102
RTVSPropertyOp37
 70
     1
102
RTVSPropertyOp38
 70
     1
102
RTVSPropertyOp39
 70
     1
102
RTVSPropertyOp40
 70
     1
102
RTVSPropertyOp41
 70
     1
102
RTVSPropertyOp42
 70
     1
102
RTVSPropertyOp43
 70
     1
102
RTVSPropertyOp44
 70
     1
102
RTVSPropertyOp45
 70
     1
102
RTVSPropertyOp46
 70
     1
102
RTVSPropertyOp47
 70
     1
102
RTVSPropertyOp48
 70
     1
102
RTVSPropertyOp49
 70
     1
102
RTVSPropertyOp50
 70
     1
102
RTVSPropertyOp51
 70
     0
102
RTVSPropertyOp52
 70
     0
102
RTVSPropertyOp53
 70
     1
102
RTVSPropertyOp54
 70
     1
102
RTVSPropertyOp55
 70
     1
102
RTVSPropertyOp56
 70
     1
102
RTVSPropertyOp57
 70
     1
102
RTVSPropertyOp58
 70
     1
102
RTVSPropertyOp59
 70
     1
102
RTVSPropertyOp60
 70
     1
102
RTVSPropertyOp61
 70
     1
102
RTVSPropertyOp62
 70
     1
  0
XRECORD
  5
A21
102
{ACAD_REACTORS
330
A20
102
}
330
A20
100
AcDbXrecord
280
     1
102
RTVSPost2010Prop28
280
     0
102
RTVSPost2010PropOp28
 70
     1
102
RTVSPost2010Prop29
280
     1
102
RTVSPost2010PropOp29
 70
     1
102
RTVSPost2010Prop30
280
     1
102
RTVSPost2010PropOp30
 70
     1
102
RTVSPost2010Prop31
280
     0
102
RTVSPost2010PropOp31
 70
     1
102
RTVSPost2010Prop32
280
     0
102
RTVSPost2010PropOp32
 70
     1
102
RTVSPost2010Prop33
280
     0
102
RTVSPost2010PropOp33
 70
     1
102
RTVSPost2010Prop34
280
     0
102
RTVSPost2010PropOp34
 70
     1
102
RTVSPost2010Prop35
280
     0
102
RTVSPost2010PropOp35
 70
     1
102
RTVSPost2010Prop36
280
     0
102
RTVSPost2010PropOp36
 70
     1
102
RTVSPost2010Prop37
 90
       50
102
RTVSPost2010PropOp37
 70
     1
102
RTVSPost2010Prop38
140
0.0
102
RTVSPost2010PropOp38
 70
     1
102
RTVSPost2010Prop39
140
1.0
102
RTVSPost2010PropOp39
 70
     1
102
RTVSPost2010Prop40
 90
        0
102
RTVSPost2010PropOp40
 70
     1
102
RTVSPost2010Prop41ColorIndex
 90
       18
102
RTVSPost2010Prop41ColorRGB
 90
-16777216
102
RTVSPost2010PropOp41
 70
     1
102
RTVSPost2010Prop42
 90
       50
102
RTVSPost2010PropOp42
 70
     1
102
RTVSPost2010Prop43
 90
        3
102
RTVSPost2010PropOp43
 70
     1
102
RTVSPost2010Prop44ColorIndex
 90
        5
102
RTVSPost2010Prop44ColorRGB
 90
      255
102
RTVSPost2010PropOp44
 70
     1
102
RTVSPost2010Prop45
280
     0
102
RTVSPost2010PropOp45
 70
     1
102
RTVSPost2010Prop46
 90
       50
102
RTVSPost2010PropOp46
 70
     1
102
RTVSPost2010Prop47
 90
       50
102
RTVSPost2010PropOp47
 70
     1
102
RTVSPost2010Prop48
 90
       50
102
RTVSPost2010PropOp48
 70
     1
102
RTVSPost2010Prop49
280
     0
102
RTVSPost2010PropOp49
 70
     1
102
RTVSPost2010Prop50
 90
       50
102
RTVSPost2010PropOp50
 70
     1
102
RTVSPost2010Prop51ColorIndex
 90
      256
102
RTVSPost2010Prop51ColorRGB
 90
-16777216
102
RTVSPost2010PropOp51
 70
     0
102
RTVSPost2010Prop52
140
1.0
102
RTVSPost2010PropOp52
 70
     0
102
RTVSPost2010Prop53
 90
        2
102
RTVSPost2010PropOp53
 70
     1
102
RTVSPost2010Prop54
  1
strokes_ogs.tif
102
RTVSPost2010PropOp54
 70
     1
102
RTVSPost2010Prop55
280
     0
102
RTVSPost2010PropOp55
 70
     1
102
RTVSPost2010Prop56
140
1.0
102
RTVSPost2010PropOp56
 70
     1
102
RTVSPost2010Prop57
140
1.0
102
RTVSPost2010PropOp57
 70
     1
102
RTVSPropertyOp0
 70
     1
102
RTVSPropertyOp1
 70
     1
102
RTVSPropertyOp2
 70
     1
102
RTVSPropertyOp3
 70
     1
102
RTVSPropertyOp4
 70
     1
102
RTVSPropertyOp5
 70
     1
102
RTVSPropertyOp6
 70
     1
102
RTVSPropertyOp7
 70
     1
102
RTVSPropertyOp8
 70
     1
102
RTVSPropertyOp9
 70
     1
102
RTVSPropertyOp10
 70
     1
102
RTVSPropertyOp11
 70
     1
102
RTVSPropertyOp12
 70
     1
102
RTVSPropertyOp13
 70
     1
102
RTVSPropertyOp14
 70
     1
102
RTVSPropertyOp15
 70
     1
102
RTVSPropertyOp16
 70
     1
102
RTVSPropertyOp17
 70
     1
102
RTVSPropertyOp18
 70
     1
102
RTVSPropertyOp19
 70
     1
102
RTVSPropertyOp20
 70
     1
102
RTVSPropertyOp21
 70
     1
102
RTVSPropertyOp22
 70
     1
102
RTVSPropertyOp23
 70
     1
102
RTVSPropertyOp24
 70
     1
102
RTVSPropertyOp25
 70
     1
102
RTVSPropertyOp26
 70
     1
102
RTVSPropertyOp27
 70
     1
102
RTVSPropertyOp28
 70
     1
102
RTVSPropertyOp29
 70
     1
102
RTVSPropertyOp30
 70
     1
102
RTVSPropertyOp31
 70
     1
102
RTVSPropertyOp32
 70
     1
102
RTVSPropertyOp33
 70
     1
102
RTVSPropertyOp34
 70
     1
102
RTVSPropertyOp35
 70
     1
102
RTVSPropertyOp36
 70
     1
102
RTVSPropertyOp37
 70
     1
102
RTVSPropertyOp38
 70
     1
102
RTVSPropertyOp39
 70
     1
102
RTVSPropertyOp40
 70
     1
102
RTVSPropertyOp41
 70
     1
102
RTVSPropertyOp42
 70
     1
102
RTVSPropertyOp43
 70
     1
102
RTVSPropertyOp44
 70
     1
102
RTVSPropertyOp45
 70
     1
102
RTVSPropertyOp46
 70
     1
102
RTVSPropertyOp47
 70
     1
102
RTVSPropertyOp48
 70
     1
102
RTVSPropertyOp49
 70
     1
102
RTVSPropertyOp50
 70
     1
102
RTVSPropertyOp51
 70
     0
102
RTVSPropertyOp52
 70
     0
102
RTVSPropertyOp53
 70
     1
102
RTVSPropertyOp54
 70
     1
102
RTVSPropertyOp55
 70
     1
102
RTVSPropertyOp56
 70
     1
102
RTVSPropertyOp57
 70
     1
102
RTVSPropertyOp58
 70
     1
102
RTVSPropertyOp59
 70
     1
102
RTVSPropertyOp60
 70
     1
102
RTVSPropertyOp61
 70
     1
102
RTVSPropertyOp62
 70
     1
  0
XRECORD
  5
A23
102
{ACAD_REACTORS
330
A22
102
}
330
A22
100
AcDbXrecord
280
     1
102
RTVSPost2010Prop28
280
     0
102
RTVSPost2010PropOp28
 70
     1
102
RTVSPost2010Prop29
280
     1
102
RTVSPost2010PropOp29
 70
     1
102
RTVSPost2010Prop30
280
     1
102
RTVSPost2010PropOp30
 70
     1
102
RTVSPost2010Prop31
280
     0
102
RTVSPost2010PropOp31
 70
     1
102
RTVSPost2010Prop32
280
     0
102
RTVSPost2010PropOp32
 70
     1
102
RTVSPost2010Prop33
280
     0
102
RTVSPost2010PropOp33
 70
     1
102
RTVSPost2010Prop34
280
     0
102
RTVSPost2010PropOp34
 70
     1
102
RTVSPost2010Prop35
280
     0
102
RTVSPost2010PropOp35
 70
     1
102
RTVSPost2010Prop36
280
     0
102
RTVSPost2010PropOp36
 70
     1
102
RTVSPost2010Prop37
 90
       50
102
RTVSPost2010PropOp37
 70
     1
102
RTVSPost2010Prop38
140
0.0
102
RTVSPost2010PropOp38
 70
     1
102
RTVSPost2010Prop39
140
1.0
102
RTVSPost2010PropOp39
 70
     1
102
RTVSPost2010Prop40
 90
        0
102
RTVSPost2010PropOp40
 70
     1
102
RTVSPost2010Prop41ColorIndex
 90
       18
102
RTVSPost2010Prop41ColorRGB
 90
-16777216
102
RTVSPost2010PropOp41
 70
     1
102
RTVSPost2010Prop42
 90
       50
102
RTVSPost2010PropOp42
 70
     1
102
RTVSPost2010Prop43
 90
        3
102
RTVSPost2010PropOp43
 70
     1
102
RTVSPost2010Prop44ColorIndex
 90
        5
102
RTVSPost2010Prop44ColorRGB
 90
      255
102
RTVSPost2010PropOp44
 70
     1
102
RTVSPost2010Prop45
280
     0
102
RTVSPost2010PropOp45
 70
     1
102
RTVSPost2010Prop46
 90
       50
102
RTVSPost2010PropOp46
 70
     1
102
RTVSPost2010Prop47
 90
       50
102
RTVSPost2010PropOp47
 70
     1
102
RTVSPost2010Prop48
 90
       50
102
RTVSPost2010PropOp48
 70
     1
102
RTVSPost2010Prop49
280
     0
102
RTVSPost2010PropOp49
 70
     1
102
RTVSPost2010Prop50
 90
       50
102
RTVSPost2010PropOp50
 70
     1
102
RTVSPost2010Prop51ColorIndex
 90
      256
102
RTVSPost2010Prop51ColorRGB
 90
-16777216
102
RTVSPost2010PropOp51
 70
     0
102
RTVSPost2010Prop52
140
1.0
102
RTVSPost2010PropOp52
 70
     0
102
RTVSPost2010Prop53
 90
        2
102
RTVSPost2010PropOp53
 70
     1
102
RTVSPost2010Prop54
  1
strokes_ogs.tif
102
RTVSPost2010PropOp54
 70
     1
102
RTVSPost2010Prop55
280
     0
102
RTVSPost2010PropOp55
 70
     1
102
RTVSPost2010Prop56
140
1.0
102
RTVSPost2010PropOp56
 70
     1
102
RTVSPost2010Prop57
140
1.0
102
RTVSPost2010PropOp57
 70
     1
102
RTVSPropertyOp0
 70
     1
102
RTVSPropertyOp1
 70
     1
102
RTVSPropertyOp2
 70
     1
102
RTVSPropertyOp3
 70
     1
102
RTVSPropertyOp4
 70
     1
102
RTVSPropertyOp5
 70
     1
102
RTVSPropertyOp6
 70
     1
102
RTVSPropertyOp7
 70
     1
102
RTVSPropertyOp8
 70
     1
102
RTVSPropertyOp9
 70
     1
102
RTVSPropertyOp10
 70
     1
102
RTVSPropertyOp11
 70
     1
102
RTVSPropertyOp12
 70
     1
102
RTVSPropertyOp13
 70
     1
102
RTVSPropertyOp14
 70
     1
102
RTVSPropertyOp15
 70
     1
102
RTVSPropertyOp16
 70
     1
102
RTVSPropertyOp17
 70
     1
102
RTVSPropertyOp18
 70
     1
102
RTVSPropertyOp19
 70
     1
102
RTVSPropertyOp20
 70
     1
102
RTVSPropertyOp21
 70
     1
102
RTVSPropertyOp22
 70
     1
102
RTVSPropertyOp23
 70
     1
102
RTVSPropertyOp24
 70
     1
102
RTVSPropertyOp25
 70
     1
102
RTVSPropertyOp26
 70
     1
102
RTVSPropertyOp27
 70
     1
102
RTVSPropertyOp28
 70
     1
102
RTVSPropertyOp29
 70
     1
102
RTVSPropertyOp30
 70
     1
102
RTVSPropertyOp31
 70
     1
102
RTVSPropertyOp32
 70
     1
102
RTVSPropertyOp33
 70
     1
102
RTVSPropertyOp34
 70
     1
102
RTVSPropertyOp35
 70
     1
102
RTVSPropertyOp36
 70
     1
102
RTVSPropertyOp37
 70
     1
102
RTVSPropertyOp38
 70
     1
102
RTVSPropertyOp39
 70
     1
102
RTVSPropertyOp40
 70
     1
102
RTVSPropertyOp41
 70
     1
102
RTVSPropertyOp42
 70
     1
102
RTVSPropertyOp43
 70
     1
102
RTVSPropertyOp44
 70
     1
102
RTVSPropertyOp45
 70
     1
102
RTVSPropertyOp46
 70
     1
102
RTVSPropertyOp47
 70
     1
102
RTVSPropertyOp48
 70
     1
102
RTVSPropertyOp49
 70
     1
102
RTVSPropertyOp50
 70
     1
102
RTVSPropertyOp51
 70
     0
102
RTVSPropertyOp52
 70
     0
102
RTVSPropertyOp53
 70
     1
102
RTVSPropertyOp54
 70
     1
102
RTVSPropertyOp55
 70
     1
102
RTVSPropertyOp56
 70
     1
102
RTVSPropertyOp57
 70
     1
102
RTVSPropertyOp58
 70
     1
102
RTVSPropertyOp59
 70
     1
102
RTVSPropertyOp60
 70
     1
102
RTVSPropertyOp61
 70
     1
102
RTVSPropertyOp62
 70
     1
  0
XRECORD
  5
A2B
102
{ACAD_REACTORS
330
A2A
102
}
330
A2A
100
AcDbXrecord
280
     1
102
RTVSPost2010Prop28
280
     0
102
RTVSPost2010PropOp28
 70
     1
102
RTVSPost2010Prop29
280
     1
102
RTVSPost2010PropOp29
 70
     1
102
RTVSPost2010Prop30
280
     1
102
RTVSPost2010PropOp30
 70
     1
102
RTVSPost2010Prop31
280
     0
102
RTVSPost2010PropOp31
 70
     1
102
RTVSPost2010Prop32
280
     0
102
RTVSPost2010PropOp32
 70
     1
102
RTVSPost2010Prop33
280
     0
102
RTVSPost2010PropOp33
 70
     1
102
RTVSPost2010Prop34
280
     0
102
RTVSPost2010PropOp34
 70
     1
102
RTVSPost2010Prop35
280
     0
102
RTVSPost2010PropOp35
 70
     1
102
RTVSPost2010Prop36
280
     0
102
RTVSPost2010PropOp36
 70
     1
102
RTVSPost2010Prop37
 90
       50
102
RTVSPost2010PropOp37
 70
     1
102
RTVSPost2010Prop38
140
0.0
102
RTVSPost2010PropOp38
 70
     1
102
RTVSPost2010Prop39
140
1.0
102
RTVSPost2010PropOp39
 70
     1
102
RTVSPost2010Prop40
 90
        0
102
RTVSPost2010PropOp40
 70
     1
102
RTVSPost2010Prop41ColorIndex
 90
       18
102
RTVSPost2010Prop41ColorRGB
 90
-16777216
102
RTVSPost2010PropOp41
 70
     1
102
RTVSPost2010Prop42
 90
       50
102
RTVSPost2010PropOp42
 70
     1
102
RTVSPost2010Prop43
 90
        3
102
RTVSPost2010PropOp43
 70
     1
102
RTVSPost2010Prop44ColorIndex
 90
        5
102
RTVSPost2010Prop44ColorRGB
 90
      255
102
RTVSPost2010PropOp44
 70
     1
102
RTVSPost2010Prop45
280
     0
102
RTVSPost2010PropOp45
 70
     1
102
RTVSPost2010Prop46
 90
       50
102
RTVSPost2010PropOp46
 70
     1
102
RTVSPost2010Prop47
 90
       50
102
RTVSPost2010PropOp47
 70
     1
102
RTVSPost2010Prop48
 90
       50
102
RTVSPost2010PropOp48
 70
     1
102
RTVSPost2010Prop49
280
     0
102
RTVSPost2010PropOp49
 70
     1
102
RTVSPost2010Prop50
 90
       50
102
RTVSPost2010PropOp50
 70
     1
102
RTVSPost2010Prop51ColorIndex
 90
      256
102
RTVSPost2010Prop51ColorRGB
 90
-16777216
102
RTVSPost2010PropOp51
 70
     0
102
RTVSPost2010Prop52
140
1.0
102
RTVSPost2010PropOp52
 70
     0
102
RTVSPost2010Prop53
 90
        2
102
RTVSPost2010PropOp53
 70
     1
102
RTVSPost2010Prop54
  1
strokes_ogs.tif
102
RTVSPost2010PropOp54
 70
     1
102
RTVSPost2010Prop55
280
     0
102
RTVSPost2010PropOp55
 70
     1
102
RTVSPost2010Prop56
140
1.0
102
RTVSPost2010PropOp56
 70
     1
102
RTVSPost2010Prop57
140
1.0
102
RTVSPost2010PropOp57
 70
     1
102
RTVSPropertyOp0
 70
     1
102
RTVSPropertyOp1
 70
     1
102
RTVSPropertyOp2
 70
     1
102
RTVSPropertyOp3
 70
     1
102
RTVSPropertyOp4
 70
     1
102
RTVSPropertyOp5
 70
     1
102
RTVSPropertyOp6
 70
     1
102
RTVSPropertyOp7
 70
     1
102
RTVSPropertyOp8
 70
     1
102
RTVSPropertyOp9
 70
     1
102
RTVSPropertyOp10
 70
     1
102
RTVSPropertyOp11
 70
     1
102
RTVSPropertyOp12
 70
     1
102
RTVSPropertyOp13
 70
     1
102
RTVSPropertyOp14
 70
     1
102
RTVSPropertyOp15
 70
     1
102
RTVSPropertyOp16
 70
     1
102
RTVSPropertyOp17
 70
     1
102
RTVSPropertyOp18
 70
     1
102
RTVSPropertyOp19
 70
     1
102
RTVSPropertyOp20
 70
     1
102
RTVSPropertyOp21
 70
     1
102
RTVSPropertyOp22
 70
     1
102
RTVSPropertyOp23
 70
     1
102
RTVSPropertyOp24
 70
     1
102
RTVSPropertyOp25
 70
     1
102
RTVSPropertyOp26
 70
     1
102
RTVSPropertyOp27
 70
     1
102
RTVSPropertyOp28
 70
     1
102
RTVSPropertyOp29
 70
     1
102
RTVSPropertyOp30
 70
     1
102
RTVSPropertyOp31
 70
     1
102
RTVSPropertyOp32
 70
     1
102
RTVSPropertyOp33
 70
     1
102
RTVSPropertyOp34
 70
     1
102
RTVSPropertyOp35
 70
     1
102
RTVSPropertyOp36
 70
     1
102
RTVSPropertyOp37
 70
     1
102
RTVSPropertyOp38
 70
     1
102
RTVSPropertyOp39
 70
     1
102
RTVSPropertyOp40
 70
     1
102
RTVSPropertyOp41
 70
     1
102
RTVSPropertyOp42
 70
     1
102
RTVSPropertyOp43
 70
     1
102
RTVSPropertyOp44
 70
     1
102
RTVSPropertyOp45
 70
     1
102
RTVSPropertyOp46
 70
     1
102
RTVSPropertyOp47
 70
     1
102
RTVSPropertyOp48
 70
     1
102
RTVSPropertyOp49
 70
     1
102
RTVSPropertyOp50
 70
     1
102
RTVSPropertyOp51
 70
     0
102
RTVSPropertyOp52
 70
     0
102
RTVSPropertyOp53
 70
     1
102
RTVSPropertyOp54
 70
     1
102
RTVSPropertyOp55
 70
     1
102
RTVSPropertyOp56
 70
     1
102
RTVSPropertyOp57
 70
     1
102
RTVSPropertyOp58
 70
     1
102
RTVSPropertyOp59
 70
     1
102
RTVSPropertyOp60
 70
     1
102
RTVSPropertyOp61
 70
     1
102
RTVSPropertyOp62
 70
     1
  0
XRECORD
  5
A47
102
{ACAD_REACTORS
330
A46
102
}
330
A46
100
AcDbXrecord
280
     1
102
RTVSPost2010Prop28
280
     0
102
RTVSPost2010PropOp28
 70
     0
102
RTVSPost2010Prop29
280
     1
102
RTVSPost2010PropOp29
 70
     0
102
RTVSPost2010Prop30
280
     1
102
RTVSPost2010PropOp30
 70
     0
102
RTVSPost2010Prop31
280
     0
102
RTVSPost2010PropOp31
 70
     0
102
RTVSPost2010Prop32
280
     0
102
RTVSPost2010PropOp32
 70
     0
102
RTVSPost2010Prop33
280
     0
102
RTVSPost2010PropOp33
 70
     0
102
RTVSPost2010Prop34
280
     0
102
RTVSPost2010PropOp34
 70
     0
102
RTVSPost2010Prop35
280
     0
102
RTVSPost2010PropOp35
 70
     0
102
RTVSPost2010Prop36
280
     0
102
RTVSPost2010PropOp36
 70
     0
102
RTVSPost2010Prop37
 90
       50
102
RTVSPost2010PropOp37
 70
     0
102
RTVSPost2010Prop38
140
0.0
102
RTVSPost2010PropOp38
 70
     0
102
RTVSPost2010Prop39
140
1.0
102
RTVSPost2010PropOp39
 70
     0
102
RTVSPost2010Prop40
 90
        0
102
RTVSPost2010PropOp40
 70
     0
102
RTVSPost2010Prop41ColorIndex
 90
       18
102
RTVSPost2010Prop41ColorRGB
 90
-16777216
102
RTVSPost2010PropOp41
 70
     0
102
RTVSPost2010Prop42
 90
       50
102
RTVSPost2010PropOp42
 70
     0
102
RTVSPost2010Prop43
 90
        3
102
RTVSPost2010PropOp43
 70
     0
102
RTVSPost2010Prop44ColorIndex
 90
        5
102
RTVSPost2010Prop44ColorRGB
 90
      255
102
RTVSPost2010PropOp44
 70
     0
102
RTVSPost2010Prop45
280
     0
102
RTVSPost2010PropOp45
 70
     0
102
RTVSPost2010Prop46
 90
       50
102
RTVSPost2010PropOp46
 70
     0
102
RTVSPost2010Prop47
 90
       50
102
RTVSPost2010PropOp47
 70
     0
102
RTVSPost2010Prop48
 90
       50
102
RTVSPost2010PropOp48
 70
     0
102
RTVSPost2010Prop49
280
     0
102
RTVSPost2010PropOp49
 70
     0
102
RTVSPost2010Prop50
 90
       50
102
RTVSPost2010PropOp50
 70
     0
102
RTVSPost2010Prop51ColorIndex
 90
      256
102
RTVSPost2010Prop51ColorRGB
 90
-16777216
102
RTVSPost2010PropOp51
 70
     0
102
RTVSPost2010Prop52
140
1.0
102
RTVSPost2010PropOp52
 70
     0
102
RTVSPost2010Prop53
 90
        2
102
RTVSPost2010PropOp53
 70
     0
102
RTVSPost2010Prop54
  1
strokes_ogs.tif
102
RTVSPost2010PropOp54
 70
     0
102
RTVSPost2010Prop55
280
     0
102
RTVSPost2010PropOp55
 70
     0
102
RTVSPost2010Prop56
140
1.0
102
RTVSPost2010PropOp56
 70
     0
102
RTVSPost2010Prop57
140
1.0
102
RTVSPost2010PropOp57
 70
     0
102
RTVSPropertyOp0
 70
     0
102
RTVSPropertyOp1
 70
     0
102
RTVSPropertyOp2
 70
     0
102
RTVSPropertyOp3
 70
     0
102
RTVSPropertyOp4
 70
     0
102
RTVSPropertyOp5
 70
     0
102
RTVSPropertyOp6
 70
     0
102
RTVSPropertyOp7
 70
     0
102
RTVSPropertyOp8
 70
     0
102
RTVSPropertyOp9
 70
     0
102
RTVSPropertyOp10
 70
     0
102
RTVSPropertyOp11
 70
     0
102
RTVSPropertyOp12
 70
     0
102
RTVSPropertyOp13
 70
     0
102
RTVSPropertyOp14
 70
     2
102
RTVSPropertyOp15
 70
     0
102
RTVSPropertyOp16
 70
     0
102
RTVSPropertyOp17
 70
     0
102
RTVSPropertyOp18
 70
     0
102
RTVSPropertyOp19
 70
     0
102
RTVSPropertyOp20
 70
     0
102
RTVSPropertyOp21
 70
     0
102
RTVSPropertyOp22
 70
     0
102
RTVSPropertyOp23
 70
     0
102
RTVSPropertyOp24
 70
     0
102
RTVSPropertyOp25
 70
     0
102
RTVSPropertyOp26
 70
     0
102
RTVSPropertyOp27
 70
     0
102
RTVSPropertyOp28
 70
     0
102
RTVSPropertyOp29
 70
     0
102
RTVSPropertyOp30
 70
     0
102
RTVSPropertyOp31
 70
     0
102
RTVSPropertyOp32
 70
     0
102
RTVSPropertyOp33
 70
     0
102
RTVSPropertyOp34
 70
     0
102
RTVSPropertyOp35
 70
     0
102
RTVSPropertyOp36
 70
     0
102
RTVSPropertyOp37
 70
     0
102
RTVSPropertyOp38
 70
     0
102
RTVSPropertyOp39
 70
     0
102
RTVSPropertyOp40
 70
     0
102
RTVSPropertyOp41
 70
     0
102
RTVSPropertyOp42
 70
     0
102
RTVSPropertyOp43
 70
     0
102
RTVSPropertyOp44
 70
     0
102
RTVSPropertyOp45
 70
     0
102
RTVSPropertyOp46
 70
     0
102
RTVSPropertyOp47
 70
     0
102
RTVSPropertyOp48
 70
     0
102
RTVSPropertyOp49
 70
     0
102
RTVSPropertyOp50
 70
     0
102
RTVSPropertyOp51
 70
     0
102
RTVSPropertyOp52
 70
     0
102
RTVSPropertyOp53
 70
     0
102
RTVSPropertyOp54
 70
     0
102
RTVSPropertyOp55
 70
     0
102
RTVSPropertyOp56
 70
     0
102
RTVSPropertyOp57
 70
     0
102
RTVSPropertyOp58
 70
     1
102
RTVSPropertyOp59
 70
     1
102
RTVSPropertyOp60
 70
     1
102
RTVSPropertyOp61
 70
     1
102
RTVSPropertyOp62
 70
     1
  0
XRECORD
  5
A37
102
{ACAD_REACTORS
330
A36
102
}
330
A36
100
AcDbXrecord
280
     1
102
RTVSPost2010Prop28
280
     0
102
RTVSPost2010PropOp28
 70
     1
102
RTVSPost2010Prop29
280
     1
102
RTVSPost2010PropOp29
 70
     1
102
RTVSPost2010Prop30
280
     1
102
RTVSPost2010PropOp30
 70
     1
102
RTVSPost2010Prop31
280
     0
102
RTVSPost2010PropOp31
 70
     1
102
RTVSPost2010Prop32
280
     0
102
RTVSPost2010PropOp32
 70
     1
102
RTVSPost2010Prop33
280
     0
102
RTVSPost2010PropOp33
 70
     1
102
RTVSPost2010Prop34
280
     0
102
RTVSPost2010PropOp34
 70
     1
102
RTVSPost2010Prop35
280
     0
102
RTVSPost2010PropOp35
 70
     1
102
RTVSPost2010Prop36
280
     0
102
RTVSPost2010PropOp36
 70
     1
102
RTVSPost2010Prop37
 90
       50
102
RTVSPost2010PropOp37
 70
     1
102
RTVSPost2010Prop38
140
0.0
102
RTVSPost2010PropOp38
 70
     1
102
RTVSPost2010Prop39
140
1.0
102
RTVSPost2010PropOp39
 70
     1
102
RTVSPost2010Prop40
 90
        0
102
RTVSPost2010PropOp40
 70
     1
102
RTVSPost2010Prop41ColorIndex
 90
       18
102
RTVSPost2010Prop41ColorRGB
 90
-16777216
102
RTVSPost2010PropOp41
 70
     1
102
RTVSPost2010Prop42
 90
       50
102
RTVSPost2010PropOp42
 70
     1
102
RTVSPost2010Prop43
 90
        3
102
RTVSPost2010PropOp43
 70
     1
102
RTVSPost2010Prop44ColorIndex
 90
        5
102
RTVSPost2010Prop44ColorRGB
 90
      255
102
RTVSPost2010PropOp44
 70
     1
102
RTVSPost2010Prop45
280
     0
102
RTVSPost2010PropOp45
 70
     1
102
RTVSPost2010Prop46
 90
       50
102
RTVSPost2010PropOp46
 70
     1
102
RTVSPost2010Prop47
 90
       50
102
RTVSPost2010PropOp47
 70
     1
102
RTVSPost2010Prop48
 90
       50
102
RTVSPost2010PropOp48
 70
     1
102
RTVSPost2010Prop49
280
     0
102
RTVSPost2010PropOp49
 70
     1
102
RTVSPost2010Prop50
 90
       50
102
RTVSPost2010PropOp50
 70
     1
102
RTVSPost2010Prop51ColorIndex
 90
      256
102
RTVSPost2010Prop51ColorRGB
 90
-16777216
102
RTVSPost2010PropOp51
 70
     0
102
RTVSPost2010Prop52
140
1.0
102
RTVSPost2010PropOp52
 70
     0
102
RTVSPost2010Prop53
 90
        2
102
RTVSPost2010PropOp53
 70
     1
102
RTVSPost2010Prop54
  1
strokes_ogs.tif
102
RTVSPost2010PropOp54
 70
     1
102
RTVSPost2010Prop55
280
     0
102
RTVSPost2010PropOp55
 70
     1
102
RTVSPost2010Prop56
140
1.0
102
RTVSPost2010PropOp56
 70
     1
102
RTVSPost2010Prop57
140
1.0
102
RTVSPost2010PropOp57
 70
     1
102
RTVSPropertyOp0
 70
     1
102
RTVSPropertyOp1
 70
     1
102
RTVSPropertyOp2
 70
     1
102
RTVSPropertyOp3
 70
     1
102
RTVSPropertyOp4
 70
     1
102
RTVSPropertyOp5
 70
     1
102
RTVSPropertyOp6
 70
     1
102
RTVSPropertyOp7
 70
     1
102
RTVSPropertyOp8
 70
     1
102
RTVSPropertyOp9
 70
     1
102
RTVSPropertyOp10
 70
     1
102
RTVSPropertyOp11
 70
     1
102
RTVSPropertyOp12
 70
     1
102
RTVSPropertyOp13
 70
     1
102
RTVSPropertyOp14
 70
     1
102
RTVSPropertyOp15
 70
     1
102
RTVSPropertyOp16
 70
     1
102
RTVSPropertyOp17
 70
     1
102
RTVSPropertyOp18
 70
     1
102
RTVSPropertyOp19
 70
     1
102
RTVSPropertyOp20
 70
     1
102
RTVSPropertyOp21
 70
     1
102
RTVSPropertyOp22
 70
     1
102
RTVSPropertyOp23
 70
     1
102
RTVSPropertyOp24
 70
     1
102
RTVSPropertyOp25
 70
     1
102
RTVSPropertyOp26
 70
     1
102
RTVSPropertyOp27
 70
     1
102
RTVSPropertyOp28
 70
     1
102
RTVSPropertyOp29
 70
     1
102
RTVSPropertyOp30
 70
     1
102
RTVSPropertyOp31
 70
     1
102
RTVSPropertyOp32
 70
     1
102
RTVSPropertyOp33
 70
     1
102
RTVSPropertyOp34
 70
     1
102
RTVSPropertyOp35
 70
     1
102
RTVSPropertyOp36
 70
     1
102
RTVSPropertyOp37
 70
     1
102
RTVSPropertyOp38
 70
     1
102
RTVSPropertyOp39
 70
     1
102
RTVSPropertyOp40
 70
     1
102
RTVSPropertyOp41
 70
     1
102
RTVSPropertyOp42
 70
     1
102
RTVSPropertyOp43
 70
     1
102
RTVSPropertyOp44
 70
     1
102
RTVSPropertyOp45
 70
     1
102
RTVSPropertyOp46
 70
     1
102
RTVSPropertyOp47
 70
     1
102
RTVSPropertyOp48
 70
     1
102
RTVSPropertyOp49
 70
     1
102
RTVSPropertyOp50
 70
     1
102
RTVSPropertyOp51
 70
     0
102
RTVSPropertyOp52
 70
     0
102
RTVSPropertyOp53
 70
     1
102
RTVSPropertyOp54
 70
     1
102
RTVSPropertyOp55
 70
     1
102
RTVSPropertyOp56
 70
     1
102
RTVSPropertyOp57
 70
     1
102
RTVSPropertyOp58
 70
     1
102
RTVSPropertyOp59
 70
     1
102
RTVSPropertyOp60
 70
     1
102
RTVSPropertyOp61
 70
     1
102
RTVSPropertyOp62
 70
     1
  0
XRECORD
  5
A49
102
{ACAD_REACTORS
330
A48
102
}
330
A48
100
AcDbXrecord
280
     1
102
RTVSPost2010Prop28
280
     0
102
RTVSPost2010PropOp28
 70
     0
102
RTVSPost2010Prop29
280
     1
102
RTVSPost2010PropOp29
 70
     0
102
RTVSPost2010Prop30
280
     1
102
RTVSPost2010PropOp30
 70
     0
102
RTVSPost2010Prop31
280
     0
102
RTVSPost2010PropOp31
 70
     0
102
RTVSPost2010Prop32
280
     0
102
RTVSPost2010PropOp32
 70
     0
102
RTVSPost2010Prop33
280
     0
102
RTVSPost2010PropOp33
 70
     0
102
RTVSPost2010Prop34
280
     0
102
RTVSPost2010PropOp34
 70
     0
102
RTVSPost2010Prop35
280
     0
102
RTVSPost2010PropOp35
 70
     0
102
RTVSPost2010Prop36
280
     0
102
RTVSPost2010PropOp36
 70
     0
102
RTVSPost2010Prop37
 90
       50
102
RTVSPost2010PropOp37
 70
     0
102
RTVSPost2010Prop38
140
0.0
102
RTVSPost2010PropOp38
 70
     0
102
RTVSPost2010Prop39
140
1.0
102
RTVSPost2010PropOp39
 70
     0
102
RTVSPost2010Prop40
 90
        0
102
RTVSPost2010PropOp40
 70
     0
102
RTVSPost2010Prop41ColorIndex
 90
       18
102
RTVSPost2010Prop41ColorRGB
 90
-16777216
102
RTVSPost2010PropOp41
 70
     0
102
RTVSPost2010Prop42
 90
       50
102
RTVSPost2010PropOp42
 70
     0
102
RTVSPost2010Prop43
 90
        3
102
RTVSPost2010PropOp43
 70
     0
102
RTVSPost2010Prop44ColorIndex
 90
        5
102
RTVSPost2010Prop44ColorRGB
 90
      255
102
RTVSPost2010PropOp44
 70
     0
102
RTVSPost2010Prop45
280
     0
102
RTVSPost2010PropOp45
 70
     0
102
RTVSPost2010Prop46
 90
       50
102
RTVSPost2010PropOp46
 70
     0
102
RTVSPost2010Prop47
 90
       50
102
RTVSPost2010PropOp47
 70
     0
102
RTVSPost2010Prop48
 90
       50
102
RTVSPost2010PropOp48
 70
     0
102
RTVSPost2010Prop49
280
     0
102
RTVSPost2010PropOp49
 70
     0
102
RTVSPost2010Prop50
 90
       50
102
RTVSPost2010PropOp50
 70
     0
102
RTVSPost2010Prop51ColorIndex
 90
      256
102
RTVSPost2010Prop51ColorRGB
 90
-16777216
102
RTVSPost2010PropOp51
 70
     0
102
RTVSPost2010Prop52
140
1.0
102
RTVSPost2010PropOp52
 70
     0
102
RTVSPost2010Prop53
 90
        2
102
RTVSPost2010PropOp53
 70
     0
102
RTVSPost2010Prop54
  1
strokes_ogs.tif
102
RTVSPost2010PropOp54
 70
     0
102
RTVSPost2010Prop55
280
     0
102
RTVSPost2010PropOp55
 70
     0
102
RTVSPost2010Prop56
140
1.0
102
RTVSPost2010PropOp56
 70
     0
102
RTVSPost2010Prop57
140
1.0
102
RTVSPost2010PropOp57
 70
     0
102
RTVSPropertyOp0
 70
     0
102
RTVSPropertyOp1
 70
     0
102
RTVSPropertyOp2
 70
     0
102
RTVSPropertyOp3
 70
     0
102
RTVSPropertyOp4
 70
     0
102
RTVSPropertyOp5
 70
     0
102
RTVSPropertyOp6
 70
     0
102
RTVSPropertyOp7
 70
     0
102
RTVSPropertyOp8
 70
     0
102
RTVSPropertyOp9
 70
     0
102
RTVSPropertyOp10
 70
     0
102
RTVSPropertyOp11
 70
     0
102
RTVSPropertyOp12
 70
     0
102
RTVSPropertyOp13
 70
     0
102
RTVSPropertyOp14
 70
     2
102
RTVSPropertyOp15
 70
     0
102
RTVSPropertyOp16
 70
     0
102
RTVSPropertyOp17
 70
     0
102
RTVSPropertyOp18
 70
     0
102
RTVSPropertyOp19
 70
     0
102
RTVSPropertyOp20
 70
     0
102
RTVSPropertyOp21
 70
     0
102
RTVSPropertyOp22
 70
     0
102
RTVSPropertyOp23
 70
     0
102
RTVSPropertyOp24
 70
     0
102
RTVSPropertyOp25
 70
     0
102
RTVSPropertyOp26
 70
     0
102
RTVSPropertyOp27
 70
     0
102
RTVSPropertyOp28
 70
     0
102
RTVSPropertyOp29
 70
     0
102
RTVSPropertyOp30
 70
     0
102
RTVSPropertyOp31
 70
     0
102
RTVSPropertyOp32
 70
     0
102
RTVSPropertyOp33
 70
     0
102
RTVSPropertyOp34
 70
     0
102
RTVSPropertyOp35
 70
     0
102
RTVSPropertyOp36
 70
     0
102
RTVSPropertyOp37
 70
     0
102
RTVSPropertyOp38
 70
     0
102
RTVSPropertyOp39
 70
     0
102
RTVSPropertyOp40
 70
     0
102
RTVSPropertyOp41
 70
     0
102
RTVSPropertyOp42
 70
     0
102
RTVSPropertyOp43
 70
     0
102
RTVSPropertyOp44
 70
     0
102
RTVSPropertyOp45
 70
     0
102
RTVSPropertyOp46
 70
     0
102
RTVSPropertyOp47
 70
     0
102
RTVSPropertyOp48
 70
     0
102
RTVSPropertyOp49
 70
     0
102
RTVSPropertyOp50
 70
     0
102
RTVSPropertyOp51
 70
     0
102
RTVSPropertyOp52
 70
     0
102
RTVSPropertyOp53
 70
     0
102
RTVSPropertyOp54
 70
     0
102
RTVSPropertyOp55
 70
     0
102
RTVSPropertyOp56
 70
     0
102
RTVSPropertyOp57
 70
     0
102
RTVSPropertyOp58
 70
     1
102
RTVSPropertyOp59
 70
     1
102
RTVSPropertyOp60
 70
     1
102
RTVSPropertyOp61
 70
     1
102
RTVSPropertyOp62
 70
     1
  0
XRECORD
  5
A2F
102
{ACAD_REACTORS
330
A2E
102
}
330
A2E
100
AcDbXrecord
280
     1
102
RTVSPost2010Prop28
280
     0
102
RTVSPost2010PropOp28
 70
     1
102
RTVSPost2010Prop29
280
     1
102
RTVSPost2010PropOp29
 70
     1
102
RTVSPost2010Prop30
280
     1
102
RTVSPost2010PropOp30
 70
     1
102
RTVSPost2010Prop31
280
     0
102
RTVSPost2010PropOp31
 70
     1
102
RTVSPost2010Prop32
280
     0
102
RTVSPost2010PropOp32
 70
     1
102
RTVSPost2010Prop33
280
     0
102
RTVSPost2010PropOp33
 70
     1
102
RTVSPost2010Prop34
280
     0
102
RTVSPost2010PropOp34
 70
     1
102
RTVSPost2010Prop35
280
     0
102
RTVSPost2010PropOp35
 70
     1
102
RTVSPost2010Prop36
280
     0
102
RTVSPost2010PropOp36
 70
     1
102
RTVSPost2010Prop37
 90
       50
102
RTVSPost2010PropOp37
 70
     1
102
RTVSPost2010Prop38
140
0.0
102
RTVSPost2010PropOp38
 70
     1
102
RTVSPost2010Prop39
140
1.0
102
RTVSPost2010PropOp39
 70
     1
102
RTVSPost2010Prop40
 90
        0
102
RTVSPost2010PropOp40
 70
     1
102
RTVSPost2010Prop41ColorIndex
 90
       18
102
RTVSPost2010Prop41ColorRGB
 90
-16777216
102
RTVSPost2010PropOp41
 70
     1
102
RTVSPost2010Prop42
 90
       50
102
RTVSPost2010PropOp42
 70
     1
102
RTVSPost2010Prop43
 90
        3
102
RTVSPost2010PropOp43
 70
     1
102
RTVSPost2010Prop44ColorIndex
 90
        5
102
RTVSPost2010Prop44ColorRGB
 90
      255
102
RTVSPost2010PropOp44
 70
     1
102
RTVSPost2010Prop45
280
     0
102
RTVSPost2010PropOp45
 70
     1
102
RTVSPost2010Prop46
 90
       50
102
RTVSPost2010PropOp46
 70
     1
102
RTVSPost2010Prop47
 90
       50
102
RTVSPost2010PropOp47
 70
     1
102
RTVSPost2010Prop48
 90
       50
102
RTVSPost2010PropOp48
 70
     1
102
RTVSPost2010Prop49
280
     0
102
RTVSPost2010PropOp49
 70
     1
102
RTVSPost2010Prop50
 90
       50
102
RTVSPost2010PropOp50
 70
     1
102
RTVSPost2010Prop51ColorIndex
 90
      256
102
RTVSPost2010Prop51ColorRGB
 90
-16777216
102
RTVSPost2010PropOp51
 70
     0
102
RTVSPost2010Prop52
140
1.0
102
RTVSPost2010PropOp52
 70
     0
102
RTVSPost2010Prop53
 90
        2
102
RTVSPost2010PropOp53
 70
     1
102
RTVSPost2010Prop54
  1
strokes_ogs.tif
102
RTVSPost2010PropOp54
 70
     1
102
RTVSPost2010Prop55
280
     0
102
RTVSPost2010PropOp55
 70
     1
102
RTVSPost2010Prop56
140
1.0
102
RTVSPost2010PropOp56
 70
     1
102
RTVSPost2010Prop57
140
1.0
102
RTVSPost2010PropOp57
 70
     1
102
RTVSPropertyOp0
 70
     1
102
RTVSPropertyOp1
 70
     1
102
RTVSPropertyOp2
 70
     1
102
RTVSPropertyOp3
 70
     1
102
RTVSPropertyOp4
 70
     1
102
RTVSPropertyOp5
 70
     1
102
RTVSPropertyOp6
 70
     1
102
RTVSPropertyOp7
 70
     1
102
RTVSPropertyOp8
 70
     1
102
RTVSPropertyOp9
 70
     1
102
RTVSPropertyOp10
 70
     1
102
RTVSPropertyOp11
 70
     1
102
RTVSPropertyOp12
 70
     1
102
RTVSPropertyOp13
 70
     1
102
RTVSPropertyOp14
 70
     1
102
RTVSPropertyOp15
 70
     1
102
RTVSPropertyOp16
 70
     1
102
RTVSPropertyOp17
 70
     1
102
RTVSPropertyOp18
 70
     1
102
RTVSPropertyOp19
 70
     1
102
RTVSPropertyOp20
 70
     1
102
RTVSPropertyOp21
 70
     1
102
RTVSPropertyOp22
 70
     1
102
RTVSPropertyOp23
 70
     1
102
RTVSPropertyOp24
 70
     1
102
RTVSPropertyOp25
 70
     1
102
RTVSPropertyOp26
 70
     1
102
RTVSPropertyOp27
 70
     1
102
RTVSPropertyOp28
 70
     1
102
RTVSPropertyOp29
 70
     1
102
RTVSPropertyOp30
 70
     1
102
RTVSPropertyOp31
 70
     1
102
RTVSPropertyOp32
 70
     1
102
RTVSPropertyOp33
 70
     1
102
RTVSPropertyOp34
 70
     1
102
RTVSPropertyOp35
 70
     1
102
RTVSPropertyOp36
 70
     1
102
RTVSPropertyOp37
 70
     1
102
RTVSPropertyOp38
 70
     1
102
RTVSPropertyOp39
 70
     1
102
RTVSPropertyOp40
 70
     1
102
RTVSPropertyOp41
 70
     1
102
RTVSPropertyOp42
 70
     1
102
RTVSPropertyOp43
 70
     1
102
RTVSPropertyOp44
 70
     1
102
RTVSPropertyOp45
 70
     1
102
RTVSPropertyOp46
 70
     1
102
RTVSPropertyOp47
 70
     1
102
RTVSPropertyOp48
 70
     1
102
RTVSPropertyOp49
 70
     1
102
RTVSPropertyOp50
 70
     1
102
RTVSPropertyOp51
 70
     0
102
RTVSPropertyOp52
 70
     0
102
RTVSPropertyOp53
 70
     1
102
RTVSPropertyOp54
 70
     1
102
RTVSPropertyOp55
 70
     1
102
RTVSPropertyOp56
 70
     1
102
RTVSPropertyOp57
 70
     1
102
RTVSPropertyOp58
 70
     1
102
RTVSPropertyOp59
 70
     1
102
RTVSPropertyOp60
 70
     1
102
RTVSPropertyOp61
 70
     1
102
RTVSPropertyOp62
 70
     1
  0
XRECORD
  5
A45
102
{ACAD_REACTORS
330
A44
102
}
330
A44
100
AcDbXrecord
280
     1
102
RTVSPost2010Prop28
280
     0
102
RTVSPost2010PropOp28
 70
     1
102
RTVSPost2010Prop29
280
     1
102
RTVSPost2010PropOp29
 70
     1
102
RTVSPost2010Prop30
280
     1
102
RTVSPost2010PropOp30
 70
     1
102
RTVSPost2010Prop31
280
     0
102
RTVSPost2010PropOp31
 70
     1
102
RTVSPost2010Prop32
280
     0
102
RTVSPost2010PropOp32
 70
     1
102
RTVSPost2010Prop33
280
     0
102
RTVSPost2010PropOp33
 70
     1
102
RTVSPost2010Prop34
280
     0
102
RTVSPost2010PropOp34
 70
     1
102
RTVSPost2010Prop35
280
     0
102
RTVSPost2010PropOp35
 70
     1
102
RTVSPost2010Prop36
280
     0
102
RTVSPost2010PropOp36
 70
     1
102
RTVSPost2010Prop37
 90
       50
102
RTVSPost2010PropOp37
 70
     1
102
RTVSPost2010Prop38
140
0.0
102
RTVSPost2010PropOp38
 70
     1
102
RTVSPost2010Prop39
140
1.0
102
RTVSPost2010PropOp39
 70
     1
102
RTVSPost2010Prop40
 90
        0
102
RTVSPost2010PropOp40
 70
     1
102
RTVSPost2010Prop41ColorIndex
 90
       18
102
RTVSPost2010Prop41ColorRGB
 90
-16777216
102
RTVSPost2010PropOp41
 70
     1
102
RTVSPost2010Prop42
 90
       50
102
RTVSPost2010PropOp42
 70
     1
102
RTVSPost2010Prop43
 90
        3
102
RTVSPost2010PropOp43
 70
     1
102
RTVSPost2010Prop44ColorIndex
 90
        5
102
RTVSPost2010Prop44ColorRGB
 90
      255
102
RTVSPost2010PropOp44
 70
     1
102
RTVSPost2010Prop45
280
     0
102
RTVSPost2010PropOp45
 70
     1
102
RTVSPost2010Prop46
 90
       50
102
RTVSPost2010PropOp46
 70
     1
102
RTVSPost2010Prop47
 90
       50
102
RTVSPost2010PropOp47
 70
     1
102
RTVSPost2010Prop48
 90
       50
102
RTVSPost2010PropOp48
 70
     1
102
RTVSPost2010Prop49
280
     0
102
RTVSPost2010PropOp49
 70
     1
102
RTVSPost2010Prop50
 90
       50
102
RTVSPost2010PropOp50
 70
     1
102
RTVSPost2010Prop51ColorIndex
 90
      256
102
RTVSPost2010Prop51ColorRGB
 90
-16777216
102
RTVSPost2010PropOp51
 70
     0
102
RTVSPost2010Prop52
140
1.0
102
RTVSPost2010PropOp52
 70
     0
102
RTVSPost2010Prop53
 90
        2
102
RTVSPost2010PropOp53
 70
     1
102
RTVSPost2010Prop54
  1
strokes_ogs.tif
102
RTVSPost2010PropOp54
 70
     1
102
RTVSPost2010Prop55
280
     0
102
RTVSPost2010PropOp55
 70
     1
102
RTVSPost2010Prop56
140
1.0
102
RTVSPost2010PropOp56
 70
     1
102
RTVSPost2010Prop57
140
1.0
102
RTVSPost2010PropOp57
 70
     1
102
RTVSPropertyOp0
 70
     1
102
RTVSPropertyOp1
 70
     1
102
RTVSPropertyOp2
 70
     1
102
RTVSPropertyOp3
 70
     1
102
RTVSPropertyOp4
 70
     1
102
RTVSPropertyOp5
 70
     1
102
RTVSPropertyOp6
 70
     1
102
RTVSPropertyOp7
 70
     1
102
RTVSPropertyOp8
 70
     1
102
RTVSPropertyOp9
 70
     1
102
RTVSPropertyOp10
 70
     1
102
RTVSPropertyOp11
 70
     1
102
RTVSPropertyOp12
 70
     1
102
RTVSPropertyOp13
 70
     1
102
RTVSPropertyOp14
 70
     1
102
RTVSPropertyOp15
 70
     1
102
RTVSPropertyOp16
 70
     1
102
RTVSPropertyOp17
 70
     1
102
RTVSPropertyOp18
 70
     1
102
RTVSPropertyOp19
 70
     1
102
RTVSPropertyOp20
 70
     1
102
RTVSPropertyOp21
 70
     1
102
RTVSPropertyOp22
 70
     1
102
RTVSPropertyOp23
 70
     1
102
RTVSPropertyOp24
 70
     1
102
RTVSPropertyOp25
 70
     1
102
RTVSPropertyOp26
 70
     1
102
RTVSPropertyOp27
 70
     1
102
RTVSPropertyOp28
 70
     1
102
RTVSPropertyOp29
 70
     1
102
RTVSPropertyOp30
 70
     1
102
RTVSPropertyOp31
 70
     1
102
RTVSPropertyOp32
 70
     1
102
RTVSPropertyOp33
 70
     1
102
RTVSPropertyOp34
 70
     1
102
RTVSPropertyOp35
 70
     1
102
RTVSPropertyOp36
 70
     1
102
RTVSPropertyOp37
 70
     1
102
RTVSPropertyOp38
 70
     1
102
RTVSPropertyOp39
 70
     1
102
RTVSPropertyOp40
 70
     1
102
RTVSPropertyOp41
 70
     1
102
RTVSPropertyOp42
 70
     1
102
RTVSPropertyOp43
 70
     1
102
RTVSPropertyOp44
 70
     1
102
RTVSPropertyOp45
 70
     1
102
RTVSPropertyOp46
 70
     1
102
RTVSPropertyOp47
 70
     1
102
RTVSPropertyOp48
 70
     1
102
RTVSPropertyOp49
 70
     1
102
RTVSPropertyOp50
 70
     1
102
RTVSPropertyOp51
 70
     0
102
RTVSPropertyOp52
 70
     0
102
RTVSPropertyOp53
 70
     1
102
RTVSPropertyOp54
 70
     1
102
RTVSPropertyOp55
 70
     1
102
RTVSPropertyOp56
 70
     1
102
RTVSPropertyOp57
 70
     1
102
RTVSPropertyOp58
 70
     1
102
RTVSPropertyOp59
 70
     1
102
RTVSPropertyOp60
 70
     1
102
RTVSPropertyOp61
 70
     1
102
RTVSPropertyOp62
 70
     1
  0
XRECORD
  5
A43
102
{ACAD_REACTORS
330
A42
102
}
330
A42
100
AcDbXrecord
280
     1
102
RTVSPost2010Prop28
280
     0
102
RTVSPost2010PropOp28
 70
     1
102
RTVSPost2010Prop29
280
     1
102
RTVSPost2010PropOp29
 70
     1
102
RTVSPost2010Prop30
280
     1
102
RTVSPost2010PropOp30
 70
     1
102
RTVSPost2010Prop31
280
     0
102
RTVSPost2010PropOp31
 70
     1
102
RTVSPost2010Prop32
280
     0
102
RTVSPost2010PropOp32
 70
     1
102
RTVSPost2010Prop33
280
     0
102
RTVSPost2010PropOp33
 70
     1
102
RTVSPost2010Prop34
280
     0
102
RTVSPost2010PropOp34
 70
     1
102
RTVSPost2010Prop35
280
     0
102
RTVSPost2010PropOp35
 70
     1
102
RTVSPost2010Prop36
280
     0
102
RTVSPost2010PropOp36
 70
     1
102
RTVSPost2010Prop37
 90
       50
102
RTVSPost2010PropOp37
 70
     1
102
RTVSPost2010Prop38
140
0.0
102
RTVSPost2010PropOp38
 70
     1
102
RTVSPost2010Prop39
140
1.0
102
RTVSPost2010PropOp39
 70
     1
102
RTVSPost2010Prop40
 90
        0
102
RTVSPost2010PropOp40
 70
     1
102
RTVSPost2010Prop41ColorIndex
 90
       18
102
RTVSPost2010Prop41ColorRGB
 90
-16777216
102
RTVSPost2010PropOp41
 70
     1
102
RTVSPost2010Prop42
 90
       50
102
RTVSPost2010PropOp42
 70
     1
102
RTVSPost2010Prop43
 90
        3
102
RTVSPost2010PropOp43
 70
     1
102
RTVSPost2010Prop44ColorIndex
 90
        5
102
RTVSPost2010Prop44ColorRGB
 90
      255
102
RTVSPost2010PropOp44
 70
     1
102
RTVSPost2010Prop45
280
     0
102
RTVSPost2010PropOp45
 70
     1
102
RTVSPost2010Prop46
 90
       50
102
RTVSPost2010PropOp46
 70
     1
102
RTVSPost2010Prop47
 90
       50
102
RTVSPost2010PropOp47
 70
     1
102
RTVSPost2010Prop48
 90
       50
102
RTVSPost2010PropOp48
 70
     1
102
RTVSPost2010Prop49
280
     0
102
RTVSPost2010PropOp49
 70
     1
102
RTVSPost2010Prop50
 90
       50
102
RTVSPost2010PropOp50
 70
     1
102
RTVSPost2010Prop51ColorIndex
 90
      256
102
RTVSPost2010Prop51ColorRGB
 90
-16777216
102
RTVSPost2010PropOp51
 70
     0
102
RTVSPost2010Prop52
140
1.0
102
RTVSPost2010PropOp52
 70
     0
102
RTVSPost2010Prop53
 90
        2
102
RTVSPost2010PropOp53
 70
     1
102
RTVSPost2010Prop54
  1
strokes_ogs.tif
102
RTVSPost2010PropOp54
 70
     1
102
RTVSPost2010Prop55
280
     0
102
RTVSPost2010PropOp55
 70
     1
102
RTVSPost2010Prop56
140
1.0
102
RTVSPost2010PropOp56
 70
     1
102
RTVSPost2010Prop57
140
1.0
102
RTVSPost2010PropOp57
 70
     1
102
RTVSPropertyOp0
 70
     1
102
RTVSPropertyOp1
 70
     1
102
RTVSPropertyOp2
 70
     1
102
RTVSPropertyOp3
 70
     1
102
RTVSPropertyOp4
 70
     1
102
RTVSPropertyOp5
 70
     1
102
RTVSPropertyOp6
 70
     1
102
RTVSPropertyOp7
 70
     1
102
RTVSPropertyOp8
 70
     1
102
RTVSPropertyOp9
 70
     1
102
RTVSPropertyOp10
 70
     1
102
RTVSPropertyOp11
 70
     1
102
RTVSPropertyOp12
 70
     1
102
RTVSPropertyOp13
 70
     1
102
RTVSPropertyOp14
 70
     1
102
RTVSPropertyOp15
 70
     1
102
RTVSPropertyOp16
 70
     1
102
RTVSPropertyOp17
 70
     1
102
RTVSPropertyOp18
 70
     1
102
RTVSPropertyOp19
 70
     1
102
RTVSPropertyOp20
 70
     1
102
RTVSPropertyOp21
 70
     1
102
RTVSPropertyOp22
 70
     1
102
RTVSPropertyOp23
 70
     1
102
RTVSPropertyOp24
 70
     1
102
RTVSPropertyOp25
 70
     1
102
RTVSPropertyOp26
 70
     1
102
RTVSPropertyOp27
 70
     1
102
RTVSPropertyOp28
 70
     1
102
RTVSPropertyOp29
 70
     1
102
RTVSPropertyOp30
 70
     1
102
RTVSPropertyOp31
 70
     1
102
RTVSPropertyOp32
 70
     1
102
RTVSPropertyOp33
 70
     1
102
RTVSPropertyOp34
 70
     1
102
RTVSPropertyOp35
 70
     1
102
RTVSPropertyOp36
 70
     1
102
RTVSPropertyOp37
 70
     1
102
RTVSPropertyOp38
 70
     1
102
RTVSPropertyOp39
 70
     1
102
RTVSPropertyOp40
 70
     1
102
RTVSPropertyOp41
 70
     1
102
RTVSPropertyOp42
 70
     1
102
RTVSPropertyOp43
 70
     1
102
RTVSPropertyOp44
 70
     1
102
RTVSPropertyOp45
 70
     1
102
RTVSPropertyOp46
 70
     1
102
RTVSPropertyOp47
 70
     1
102
RTVSPropertyOp48
 70
     1
102
RTVSPropertyOp49
 70
     1
102
RTVSPropertyOp50
 70
     1
102
RTVSPropertyOp51
 70
     0
102
RTVSPropertyOp52
 70
     0
102
RTVSPropertyOp53
 70
     1
102
RTVSPropertyOp54
 70
     1
102
RTVSPropertyOp55
 70
     1
102
RTVSPropertyOp56
 70
     1
102
RTVSPropertyOp57
 70
     1
102
RTVSPropertyOp58
 70
     1
102
RTVSPropertyOp59
 70
     1
102
RTVSPropertyOp60
 70
     1
102
RTVSPropertyOp61
 70
     1
102
RTVSPropertyOp62
 70
     1
  0
XRECORD
  5
A3D
102
{ACAD_REACTORS
330
A3C
102
}
330
A3C
100
AcDbXrecord
280
     1
102
RTVSPost2010Prop28
280
     0
102
RTVSPost2010PropOp28
 70
     1
102
RTVSPost2010Prop29
280
     1
102
RTVSPost2010PropOp29
 70
     1
102
RTVSPost2010Prop30
280
     1
102
RTVSPost2010PropOp30
 70
     1
102
RTVSPost2010Prop31
280
     0
102
RTVSPost2010PropOp31
 70
     1
102
RTVSPost2010Prop32
280
     0
102
RTVSPost2010PropOp32
 70
     1
102
RTVSPost2010Prop33
280
     0
102
RTVSPost2010PropOp33
 70
     1
102
RTVSPost2010Prop34
280
     0
102
RTVSPost2010PropOp34
 70
     1
102
RTVSPost2010Prop35
280
     0
102
RTVSPost2010PropOp35
 70
     1
102
RTVSPost2010Prop36
280
     0
102
RTVSPost2010PropOp36
 70
     1
102
RTVSPost2010Prop37
 90
       50
102
RTVSPost2010PropOp37
 70
     1
102
RTVSPost2010Prop38
140
0.0
102
RTVSPost2010PropOp38
 70
     1
102
RTVSPost2010Prop39
140
1.0
102
RTVSPost2010PropOp39
 70
     1
102
RTVSPost2010Prop40
 90
        0
102
RTVSPost2010PropOp40
 70
     1
102
RTVSPost2010Prop41ColorIndex
 90
       18
102
RTVSPost2010Prop41ColorRGB
 90
-16777216
102
RTVSPost2010PropOp41
 70
     1
102
RTVSPost2010Prop42
 90
       50
102
RTVSPost2010PropOp42
 70
     1
102
RTVSPost2010Prop43
 90
        3
102
RTVSPost2010PropOp43
 70
     1
102
RTVSPost2010Prop44ColorIndex
 90
        5
102
RTVSPost2010Prop44ColorRGB
 90
      255
102
RTVSPost2010PropOp44
 70
     1
102
RTVSPost2010Prop45
280
     0
102
RTVSPost2010PropOp45
 70
     1
102
RTVSPost2010Prop46
 90
       50
102
RTVSPost2010PropOp46
 70
     1
102
RTVSPost2010Prop47
 90
       50
102
RTVSPost2010PropOp47
 70
     1
102
RTVSPost2010Prop48
 90
       50
102
RTVSPost2010PropOp48
 70
     1
102
RTVSPost2010Prop49
280
     0
102
RTVSPost2010PropOp49
 70
     1
102
RTVSPost2010Prop50
 90
       50
102
RTVSPost2010PropOp50
 70
     1
102
RTVSPost2010Prop51ColorIndex
 90
      256
102
RTVSPost2010Prop51ColorRGB
 90
-16777216
102
RTVSPost2010PropOp51
 70
     0
102
RTVSPost2010Prop52
140
1.0
102
RTVSPost2010PropOp52
 70
     0
102
RTVSPost2010Prop53
 90
        2
102
RTVSPost2010PropOp53
 70
     1
102
RTVSPost2010Prop54
  1
strokes_ogs.tif
102
RTVSPost2010PropOp54
 70
     1
102
RTVSPost2010Prop55
280
     0
102
RTVSPost2010PropOp55
 70
     1
102
RTVSPost2010Prop56
140
1.0
102
RTVSPost2010PropOp56
 70
     1
102
RTVSPost2010Prop57
140
1.0
102
RTVSPost2010PropOp57
 70
     1
102
RTVSPropertyOp0
 70
     1
102
RTVSPropertyOp1
 70
     1
102
RTVSPropertyOp2
 70
     1
102
RTVSPropertyOp3
 70
     1
102
RTVSPropertyOp4
 70
     1
102
RTVSPropertyOp5
 70
     1
102
RTVSPropertyOp6
 70
     1
102
RTVSPropertyOp7
 70
     1
102
RTVSPropertyOp8
 70
     1
102
RTVSPropertyOp9
 70
     1
102
RTVSPropertyOp10
 70
     1
102
RTVSPropertyOp11
 70
     1
102
RTVSPropertyOp12
 70
     1
102
RTVSPropertyOp13
 70
     1
102
RTVSPropertyOp14
 70
     1
102
RTVSPropertyOp15
 70
     1
102
RTVSPropertyOp16
 70
     1
102
RTVSPropertyOp17
 70
     1
102
RTVSPropertyOp18
 70
     1
102
RTVSPropertyOp19
 70
     1
102
RTVSPropertyOp20
 70
     1
102
RTVSPropertyOp21
 70
     1
102
RTVSPropertyOp22
 70
     1
102
RTVSPropertyOp23
 70
     1
102
RTVSPropertyOp24
 70
     1
102
RTVSPropertyOp25
 70
     1
102
RTVSPropertyOp26
 70
     1
102
RTVSPropertyOp27
 70
     1
102
RTVSPropertyOp28
 70
     1
102
RTVSPropertyOp29
 70
     1
102
RTVSPropertyOp30
 70
     1
102
RTVSPropertyOp31
 70
     1
102
RTVSPropertyOp32
 70
     1
102
RTVSPropertyOp33
 70
     1
102
RTVSPropertyOp34
 70
     1
102
RTVSPropertyOp35
 70
     1
102
RTVSPropertyOp36
 70
     1
102
RTVSPropertyOp37
 70
     1
102
RTVSPropertyOp38
 70
     1
102
RTVSPropertyOp39
 70
     1
102
RTVSPropertyOp40
 70
     1
102
RTVSPropertyOp41
 70
     1
102
RTVSPropertyOp42
 70
     1
102
RTVSPropertyOp43
 70
     1
102
RTVSPropertyOp44
 70
     1
102
RTVSPropertyOp45
 70
     1
102
RTVSPropertyOp46
 70
     1
102
RTVSPropertyOp47
 70
     1
102
RTVSPropertyOp48
 70
     1
102
RTVSPropertyOp49
 70
     1
102
RTVSPropertyOp50
 70
     1
102
RTVSPropertyOp51
 70
     0
102
RTVSPropertyOp52
 70
     0
102
RTVSPropertyOp53
 70
     1
102
RTVSPropertyOp54
 70
     1
102
RTVSPropertyOp55
 70
     1
102
RTVSPropertyOp56
 70
     1
102
RTVSPropertyOp57
 70
     1
102
RTVSPropertyOp58
 70
     1
102
RTVSPropertyOp59
 70
     1
102
RTVSPropertyOp60
 70
     1
102
RTVSPropertyOp61
 70
     1
102
RTVSPropertyOp62
 70
     1
  0
XRECORD
  5
A3F
102
{ACAD_REACTORS
330
A3E
102
}
330
A3E
100
AcDbXrecord
280
     1
102
RTVSPost2010Prop28
280
     0
102
RTVSPost2010PropOp28
 70
     1
102
RTVSPost2010Prop29
280
     1
102
RTVSPost2010PropOp29
 70
     1
102
RTVSPost2010Prop30
280
     1
102
RTVSPost2010PropOp30
 70
     1
102
RTVSPost2010Prop31
280
     0
102
RTVSPost2010PropOp31
 70
     1
102
RTVSPost2010Prop32
280
     0
102
RTVSPost2010PropOp32
 70
     1
102
RTVSPost2010Prop33
280
     0
102
RTVSPost2010PropOp33
 70
     1
102
RTVSPost2010Prop34
280
     0
102
RTVSPost2010PropOp34
 70
     1
102
RTVSPost2010Prop35
280
     0
102
RTVSPost2010PropOp35
 70
     1
102
RTVSPost2010Prop36
280
     0
102
RTVSPost2010PropOp36
 70
     1
102
RTVSPost2010Prop37
 90
       50
102
RTVSPost2010PropOp37
 70
     1
102
RTVSPost2010Prop38
140
0.0
102
RTVSPost2010PropOp38
 70
     1
102
RTVSPost2010Prop39
140
1.0
102
RTVSPost2010PropOp39
 70
     1
102
RTVSPost2010Prop40
 90
        0
102
RTVSPost2010PropOp40
 70
     1
102
RTVSPost2010Prop41ColorIndex
 90
       18
102
RTVSPost2010Prop41ColorRGB
 90
-16777216
102
RTVSPost2010PropOp41
 70
     1
102
RTVSPost2010Prop42
 90
       50
102
RTVSPost2010PropOp42
 70
     1
102
RTVSPost2010Prop43
 90
        3
102
RTVSPost2010PropOp43
 70
     1
102
RTVSPost2010Prop44ColorIndex
 90
        5
102
RTVSPost2010Prop44ColorRGB
 90
      255
102
RTVSPost2010PropOp44
 70
     1
102
RTVSPost2010Prop45
280
     0
102
RTVSPost2010PropOp45
 70
     1
102
RTVSPost2010Prop46
 90
       50
102
RTVSPost2010PropOp46
 70
     1
102
RTVSPost2010Prop47
 90
       50
102
RTVSPost2010PropOp47
 70
     1
102
RTVSPost2010Prop48
 90
       50
102
RTVSPost2010PropOp48
 70
     1
102
RTVSPost2010Prop49
280
     0
102
RTVSPost2010PropOp49
 70
     1
102
RTVSPost2010Prop50
 90
       50
102
RTVSPost2010PropOp50
 70
     1
102
RTVSPost2010Prop51ColorIndex
 90
      256
102
RTVSPost2010Prop51ColorRGB
 90
-16777216
102
RTVSPost2010PropOp51
 70
     0
102
RTVSPost2010Prop52
140
1.0
102
RTVSPost2010PropOp52
 70
     0
102
RTVSPost2010Prop53
 90
        2
102
RTVSPost2010PropOp53
 70
     1
102
RTVSPost2010Prop54
  1
strokes_ogs.tif
102
RTVSPost2010PropOp54
 70
     1
102
RTVSPost2010Prop55
280
     0
102
RTVSPost2010PropOp55
 70
     1
102
RTVSPost2010Prop56
140
1.0
102
RTVSPost2010PropOp56
 70
     1
102
RTVSPost2010Prop57
140
1.0
102
RTVSPost2010PropOp57
 70
     1
102
RTVSPropertyOp0
 70
     1
102
RTVSPropertyOp1
 70
     1
102
RTVSPropertyOp2
 70
     1
102
RTVSPropertyOp3
 70
     1
102
RTVSPropertyOp4
 70
     1
102
RTVSPropertyOp5
 70
     1
102
RTVSPropertyOp6
 70
     1
102
RTVSPropertyOp7
 70
     1
102
RTVSPropertyOp8
 70
     1
102
RTVSPropertyOp9
 70
     1
102
RTVSPropertyOp10
 70
     1
102
RTVSPropertyOp11
 70
     1
102
RTVSPropertyOp12
 70
     1
102
RTVSPropertyOp13
 70
     1
102
RTVSPropertyOp14
 70
     1
102
RTVSPropertyOp15
 70
     1
102
RTVSPropertyOp16
 70
     1
102
RTVSPropertyOp17
 70
     1
102
RTVSPropertyOp18
 70
     1
102
RTVSPropertyOp19
 70
     1
102
RTVSPropertyOp20
 70
     1
102
RTVSPropertyOp21
 70
     1
102
RTVSPropertyOp22
 70
     1
102
RTVSPropertyOp23
 70
     1
102
RTVSPropertyOp24
 70
     1
102
RTVSPropertyOp25
 70
     1
102
RTVSPropertyOp26
 70
     1
102
RTVSPropertyOp27
 70
     1
102
RTVSPropertyOp28
 70
     1
102
RTVSPropertyOp29
 70
     1
102
RTVSPropertyOp30
 70
     1
102
RTVSPropertyOp31
 70
     1
102
RTVSPropertyOp32
 70
     1
102
RTVSPropertyOp33
 70
     1
102
RTVSPropertyOp34
 70
     1
102
RTVSPropertyOp35
 70
     1
102
RTVSPropertyOp36
 70
     1
102
RTVSPropertyOp37
 70
     1
102
RTVSPropertyOp38
 70
     1
102
RTVSPropertyOp39
 70
     1
102
RTVSPropertyOp40
 70
     1
102
RTVSPropertyOp41
 70
     1
102
RTVSPropertyOp42
 70
     1
102
RTVSPropertyOp43
 70
     1
102
RTVSPropertyOp44
 70
     1
102
RTVSPropertyOp45
 70
     1
102
RTVSPropertyOp46
 70
     1
102
RTVSPropertyOp47
 70
     1
102
RTVSPropertyOp48
 70
     1
102
RTVSPropertyOp49
 70
     1
102
RTVSPropertyOp50
 70
     1
102
RTVSPropertyOp51
 70
     0
102
RTVSPropertyOp52
 70
     0
102
RTVSPropertyOp53
 70
     1
102
RTVSPropertyOp54
 70
     1
102
RTVSPropertyOp55
 70
     1
102
RTVSPropertyOp56
 70
     1
102
RTVSPropertyOp57
 70
     1
102
RTVSPropertyOp58
 70
     1
102
RTVSPropertyOp59
 70
     1
102
RTVSPropertyOp60
 70
     1
102
RTVSPropertyOp61
 70
     1
102
RTVSPropertyOp62
 70
     1
  0
XRECORD
  5
A35
102
{ACAD_REACTORS
330
A34
102
}
330
A34
100
AcDbXrecord
280
     1
102
RTVSPost2010Prop28
280
     0
102
RTVSPost2010PropOp28
 70
     1
102
RTVSPost2010Prop29
280
     1
102
RTVSPost2010PropOp29
 70
     1
102
RTVSPost2010Prop30
280
     1
102
RTVSPost2010PropOp30
 70
     1
102
RTVSPost2010Prop31
280
     0
102
RTVSPost2010PropOp31
 70
     1
102
RTVSPost2010Prop32
280
     0
102
RTVSPost2010PropOp32
 70
     1
102
RTVSPost2010Prop33
280
     0
102
RTVSPost2010PropOp33
 70
     1
102
RTVSPost2010Prop34
280
     0
102
RTVSPost2010PropOp34
 70
     1
102
RTVSPost2010Prop35
280
     0
102
RTVSPost2010PropOp35
 70
     1
102
RTVSPost2010Prop36
280
     0
102
RTVSPost2010PropOp36
 70
     1
102
RTVSPost2010Prop37
 90
       50
102
RTVSPost2010PropOp37
 70
     1
102
RTVSPost2010Prop38
140
0.0
102
RTVSPost2010PropOp38
 70
     1
102
RTVSPost2010Prop39
140
1.0
102
RTVSPost2010PropOp39
 70
     1
102
RTVSPost2010Prop40
 90
        0
102
RTVSPost2010PropOp40
 70
     1
102
RTVSPost2010Prop41ColorIndex
 90
       18
102
RTVSPost2010Prop41ColorRGB
 90
-16777216
102
RTVSPost2010PropOp41
 70
     1
102
RTVSPost2010Prop42
 90
       50
102
RTVSPost2010PropOp42
 70
     1
102
RTVSPost2010Prop43
 90
        3
102
RTVSPost2010PropOp43
 70
     1
102
RTVSPost2010Prop44ColorIndex
 90
        5
102
RTVSPost2010Prop44ColorRGB
 90
      255
102
RTVSPost2010PropOp44
 70
     1
102
RTVSPost2010Prop45
280
     0
102
RTVSPost2010PropOp45
 70
     1
102
RTVSPost2010Prop46
 90
       50
102
RTVSPost2010PropOp46
 70
     1
102
RTVSPost2010Prop47
 90
       50
102
RTVSPost2010PropOp47
 70
     1
102
RTVSPost2010Prop48
 90
       50
102
RTVSPost2010PropOp48
 70
     1
102
RTVSPost2010Prop49
280
     0
102
RTVSPost2010PropOp49
 70
     1
102
RTVSPost2010Prop50
 90
       50
102
RTVSPost2010PropOp50
 70
     1
102
RTVSPost2010Prop51ColorIndex
 90
      256
102
RTVSPost2010Prop51ColorRGB
 90
-16777216
102
RTVSPost2010PropOp51
 70
     0
102
RTVSPost2010Prop52
140
1.0
102
RTVSPost2010PropOp52
 70
     0
102
RTVSPost2010Prop53
 90
        2
102
RTVSPost2010PropOp53
 70
     1
102
RTVSPost2010Prop54
  1
strokes_ogs.tif
102
RTVSPost2010PropOp54
 70
     1
102
RTVSPost2010Prop55
280
     0
102
RTVSPost2010PropOp55
 70
     1
102
RTVSPost2010Prop56
140
1.0
102
RTVSPost2010PropOp56
 70
     1
102
RTVSPost2010Prop57
140
1.0
102
RTVSPost2010PropOp57
 70
     1
102
RTVSPropertyOp0
 70
     1
102
RTVSPropertyOp1
 70
     1
102
RTVSPropertyOp2
 70
     1
102
RTVSPropertyOp3
 70
     1
102
RTVSPropertyOp4
 70
     1
102
RTVSPropertyOp5
 70
     1
102
RTVSPropertyOp6
 70
     1
102
RTVSPropertyOp7
 70
     1
102
RTVSPropertyOp8
 70
     1
102
RTVSPropertyOp9
 70
     1
102
RTVSPropertyOp10
 70
     1
102
RTVSPropertyOp11
 70
     1
102
RTVSPropertyOp12
 70
     1
102
RTVSPropertyOp13
 70
     1
102
RTVSPropertyOp14
 70
     1
102
RTVSPropertyOp15
 70
     1
102
RTVSPropertyOp16
 70
     1
102
RTVSPropertyOp17
 70
     1
102
RTVSPropertyOp18
 70
     1
102
RTVSPropertyOp19
 70
     1
102
RTVSPropertyOp20
 70
     1
102
RTVSPropertyOp21
 70
     1
102
RTVSPropertyOp22
 70
     1
102
RTVSPropertyOp23
 70
     1
102
RTVSPropertyOp24
 70
     1
102
RTVSPropertyOp25
 70
     1
102
RTVSPropertyOp26
 70
     1
102
RTVSPropertyOp27
 70
     1
102
RTVSPropertyOp28
 70
     1
102
RTVSPropertyOp29
 70
     1
102
RTVSPropertyOp30
 70
     1
102
RTVSPropertyOp31
 70
     1
102
RTVSPropertyOp32
 70
     1
102
RTVSPropertyOp33
 70
     1
102
RTVSPropertyOp34
 70
     1
102
RTVSPropertyOp35
 70
     1
102
RTVSPropertyOp36
 70
     1
102
RTVSPropertyOp37
 70
     1
102
RTVSPropertyOp38
 70
     1
102
RTVSPropertyOp39
 70
     1
102
RTVSPropertyOp40
 70
     1
102
RTVSPropertyOp41
 70
     1
102
RTVSPropertyOp42
 70
     1
102
RTVSPropertyOp43
 70
     1
102
RTVSPropertyOp44
 70
     1
102
RTVSPropertyOp45
 70
     1
102
RTVSPropertyOp46
 70
     1
102
RTVSPropertyOp47
 70
     1
102
RTVSPropertyOp48
 70
     1
102
RTVSPropertyOp49
 70
     1
102
RTVSPropertyOp50
 70
     1
102
RTVSPropertyOp51
 70
     0
102
RTVSPropertyOp52
 70
     0
102
RTVSPropertyOp53
 70
     1
102
RTVSPropertyOp54
 70
     1
102
RTVSPropertyOp55
 70
     1
102
RTVSPropertyOp56
 70
     1
102
RTVSPropertyOp57
 70
     1
102
RTVSPropertyOp58
 70
     1
102
RTVSPropertyOp59
 70
     1
102
RTVSPropertyOp60
 70
     1
102
RTVSPropertyOp61
 70
     1
102
RTVSPropertyOp62
 70
     1
  0
XRECORD
  5
A29
102
{ACAD_REACTORS
330
A28
102
}
330
A28
100
AcDbXrecord
280
     1
102
RTVSPost2010Prop28
280
     0
102
RTVSPost2010PropOp28
 70
     1
102
RTVSPost2010Prop29
280
     1
102
RTVSPost2010PropOp29
 70
     1
102
RTVSPost2010Prop30
280
     1
102
RTVSPost2010PropOp30
 70
     1
102
RTVSPost2010Prop31
280
     0
102
RTVSPost2010PropOp31
 70
     1
102
RTVSPost2010Prop32
280
     0
102
RTVSPost2010PropOp32
 70
     1
102
RTVSPost2010Prop33
280
     0
102
RTVSPost2010PropOp33
 70
     1
102
RTVSPost2010Prop34
280
     0
102
RTVSPost2010PropOp34
 70
     1
102
RTVSPost2010Prop35
280
     0
102
RTVSPost2010PropOp35
 70
     1
102
RTVSPost2010Prop36
280
     0
102
RTVSPost2010PropOp36
 70
     1
102
RTVSPost2010Prop37
 90
       50
102
RTVSPost2010PropOp37
 70
     1
102
RTVSPost2010Prop38
140
0.0
102
RTVSPost2010PropOp38
 70
     1
102
RTVSPost2010Prop39
140
1.0
102
RTVSPost2010PropOp39
 70
     1
102
RTVSPost2010Prop40
 90
        0
102
RTVSPost2010PropOp40
 70
     1
102
RTVSPost2010Prop41ColorIndex
 90
       18
102
RTVSPost2010Prop41ColorRGB
 90
-16777216
102
RTVSPost2010PropOp41
 70
     1
102
RTVSPost2010Prop42
 90
       50
102
RTVSPost2010PropOp42
 70
     1
102
RTVSPost2010Prop43
 90
        3
102
RTVSPost2010PropOp43
 70
     1
102
RTVSPost2010Prop44ColorIndex
 90
        5
102
RTVSPost2010Prop44ColorRGB
 90
      255
102
RTVSPost2010PropOp44
 70
     1
102
RTVSPost2010Prop45
280
     0
102
RTVSPost2010PropOp45
 70
     1
102
RTVSPost2010Prop46
 90
       50
102
RTVSPost2010PropOp46
 70
     1
102
RTVSPost2010Prop47
 90
       50
102
RTVSPost2010PropOp47
 70
     1
102
RTVSPost2010Prop48
 90
       50
102
RTVSPost2010PropOp48
 70
     1
102
RTVSPost2010Prop49
280
     0
102
RTVSPost2010PropOp49
 70
     1
102
RTVSPost2010Prop50
 90
       50
102
RTVSPost2010PropOp50
 70
     1
102
RTVSPost2010Prop51ColorIndex
 90
      256
102
RTVSPost2010Prop51ColorRGB
 90
-16777216
102
RTVSPost2010PropOp51
 70
     0
102
RTVSPost2010Prop52
140
1.0
102
RTVSPost2010PropOp52
 70
     0
102
RTVSPost2010Prop53
 90
        2
102
RTVSPost2010PropOp53
 70
     1
102
RTVSPost2010Prop54
  1
strokes_ogs.tif
102
RTVSPost2010PropOp54
 70
     1
102
RTVSPost2010Prop55
280
     0
102
RTVSPost2010PropOp55
 70
     1
102
RTVSPost2010Prop56
140
1.0
102
RTVSPost2010PropOp56
 70
     1
102
RTVSPost2010Prop57
140
1.0
102
RTVSPost2010PropOp57
 70
     1
102
RTVSPropertyOp0
 70
     1
102
RTVSPropertyOp1
 70
     1
102
RTVSPropertyOp2
 70
     1
102
RTVSPropertyOp3
 70
     1
102
RTVSPropertyOp4
 70
     1
102
RTVSPropertyOp5
 70
     1
102
RTVSPropertyOp6
 70
     1
102
RTVSPropertyOp7
 70
     1
102
RTVSPropertyOp8
 70
     1
102
RTVSPropertyOp9
 70
     1
102
RTVSPropertyOp10
 70
     1
102
RTVSPropertyOp11
 70
     1
102
RTVSPropertyOp12
 70
     1
102
RTVSPropertyOp13
 70
     1
102
RTVSPropertyOp14
 70
     1
102
RTVSPropertyOp15
 70
     1
102
RTVSPropertyOp16
 70
     1
102
RTVSPropertyOp17
 70
     1
102
RTVSPropertyOp18
 70
     1
102
RTVSPropertyOp19
 70
     1
102
RTVSPropertyOp20
 70
     1
102
RTVSPropertyOp21
 70
     1
102
RTVSPropertyOp22
 70
     1
102
RTVSPropertyOp23
 70
     1
102
RTVSPropertyOp24
 70
     1
102
RTVSPropertyOp25
 70
     1
102
RTVSPropertyOp26
 70
     1
102
RTVSPropertyOp27
 70
     1
102
RTVSPropertyOp28
 70
     1
102
RTVSPropertyOp29
 70
     1
102
RTVSPropertyOp30
 70
     1
102
RTVSPropertyOp31
 70
     1
102
RTVSPropertyOp32
 70
     1
102
RTVSPropertyOp33
 70
     1
102
RTVSPropertyOp34
 70
     1
102
RTVSPropertyOp35
 70
     1
102
RTVSPropertyOp36
 70
     1
102
RTVSPropertyOp37
 70
     1
102
RTVSPropertyOp38
 70
     1
102
RTVSPropertyOp39
 70
     1
102
RTVSPropertyOp40
 70
     1
102
RTVSPropertyOp41
 70
     1
102
RTVSPropertyOp42
 70
     1
102
RTVSPropertyOp43
 70
     1
102
RTVSPropertyOp44
 70
     1
102
RTVSPropertyOp45
 70
     1
102
RTVSPropertyOp46
 70
     1
102
RTVSPropertyOp47
 70
     1
102
RTVSPropertyOp48
 70
     1
102
RTVSPropertyOp49
 70
     1
102
RTVSPropertyOp50
 70
     1
102
RTVSPropertyOp51
 70
     0
102
RTVSPropertyOp52
 70
     0
102
RTVSPropertyOp53
 70
     1
102
RTVSPropertyOp54
 70
     1
102
RTVSPropertyOp55
 70
     1
102
RTVSPropertyOp56
 70
     1
102
RTVSPropertyOp57
 70
     1
102
RTVSPropertyOp58
 70
     1
102
RTVSPropertyOp59
 70
     1
102
RTVSPropertyOp60
 70
     1
102
RTVSPropertyOp61
 70
     1
102
RTVSPropertyOp62
 70
     1
  0
XRECORD
  5
A41
102
{ACAD_REACTORS
330
A40
102
}
330
A40
100
AcDbXrecord
280
     1
102
RTVSPost2010Prop28
280
     0
102
RTVSPost2010PropOp28
 70
     1
102
RTVSPost2010Prop29
280
     1
102
RTVSPost2010PropOp29
 70
     1
102
RTVSPost2010Prop30
280
     1
102
RTVSPost2010PropOp30
 70
     1
102
RTVSPost2010Prop31
280
     0
102
RTVSPost2010PropOp31
 70
     1
102
RTVSPost2010Prop32
280
     0
102
RTVSPost2010PropOp32
 70
     1
102
RTVSPost2010Prop33
280
     0
102
RTVSPost2010PropOp33
 70
     1
102
RTVSPost2010Prop34
280
     0
102
RTVSPost2010PropOp34
 70
     1
102
RTVSPost2010Prop35
280
     0
102
RTVSPost2010PropOp35
 70
     1
102
RTVSPost2010Prop36
280
     0
102
RTVSPost2010PropOp36
 70
     1
102
RTVSPost2010Prop37
 90
       50
102
RTVSPost2010PropOp37
 70
     1
102
RTVSPost2010Prop38
140
0.0
102
RTVSPost2010PropOp38
 70
     1
102
RTVSPost2010Prop39
140
1.0
102
RTVSPost2010PropOp39
 70
     1
102
RTVSPost2010Prop40
 90
        0
102
RTVSPost2010PropOp40
 70
     1
102
RTVSPost2010Prop41ColorIndex
 90
       18
102
RTVSPost2010Prop41ColorRGB
 90
-16777216
102
RTVSPost2010PropOp41
 70
     1
102
RTVSPost2010Prop42
 90
       50
102
RTVSPost2010PropOp42
 70
     1
102
RTVSPost2010Prop43
 90
        3
102
RTVSPost2010PropOp43
 70
     1
102
RTVSPost2010Prop44ColorIndex
 90
        5
102
RTVSPost2010Prop44ColorRGB
 90
      255
102
RTVSPost2010PropOp44
 70
     1
102
RTVSPost2010Prop45
280
     0
102
RTVSPost2010PropOp45
 70
     1
102
RTVSPost2010Prop46
 90
       50
102
RTVSPost2010PropOp46
 70
     1
102
RTVSPost2010Prop47
 90
       50
102
RTVSPost2010PropOp47
 70
     1
102
RTVSPost2010Prop48
 90
       50
102
RTVSPost2010PropOp48
 70
     1
102
RTVSPost2010Prop49
280
     0
102
RTVSPost2010PropOp49
 70
     1
102
RTVSPost2010Prop50
 90
       50
102
RTVSPost2010PropOp50
 70
     1
102
RTVSPost2010Prop51ColorIndex
 90
      256
102
RTVSPost2010Prop51ColorRGB
 90
-16777216
102
RTVSPost2010PropOp51
 70
     0
102
RTVSPost2010Prop52
140
1.0
102
RTVSPost2010PropOp52
 70
     0
102
RTVSPost2010Prop53
 90
        2
102
RTVSPost2010PropOp53
 70
     1
102
RTVSPost2010Prop54
  1
strokes_ogs.tif
102
RTVSPost2010PropOp54
 70
     1
102
RTVSPost2010Prop55
280
     0
102
RTVSPost2010PropOp55
 70
     1
102
RTVSPost2010Prop56
140
1.0
102
RTVSPost2010PropOp56
 70
     1
102
RTVSPost2010Prop57
140
1.0
102
RTVSPost2010PropOp57
 70
     1
102
RTVSPropertyOp0
 70
     1
102
RTVSPropertyOp1
 70
     1
102
RTVSPropertyOp2
 70
     1
102
RTVSPropertyOp3
 70
     1
102
RTVSPropertyOp4
 70
     1
102
RTVSPropertyOp5
 70
     1
102
RTVSPropertyOp6
 70
     1
102
RTVSPropertyOp7
 70
     1
102
RTVSPropertyOp8
 70
     1
102
RTVSPropertyOp9
 70
     1
102
RTVSPropertyOp10
 70
     1
102
RTVSPropertyOp11
 70
     1
102
RTVSPropertyOp12
 70
     1
102
RTVSPropertyOp13
 70
     1
102
RTVSPropertyOp14
 70
     1
102
RTVSPropertyOp15
 70
     1
102
RTVSPropertyOp16
 70
     1
102
RTVSPropertyOp17
 70
     1
102
RTVSPropertyOp18
 70
     1
102
RTVSPropertyOp19
 70
     1
102
RTVSPropertyOp20
 70
     1
102
RTVSPropertyOp21
 70
     1
102
RTVSPropertyOp22
 70
     1
102
RTVSPropertyOp23
 70
     1
102
RTVSPropertyOp24
 70
     1
102
RTVSPropertyOp25
 70
     1
102
RTVSPropertyOp26
 70
     1
102
RTVSPropertyOp27
 70
     1
102
RTVSPropertyOp28
 70
     1
102
RTVSPropertyOp29
 70
     1
102
RTVSPropertyOp30
 70
     1
102
RTVSPropertyOp31
 70
     1
102
RTVSPropertyOp32
 70
     1
102
RTVSPropertyOp33
 70
     1
102
RTVSPropertyOp34
 70
     1
102
RTVSPropertyOp35
 70
     1
102
RTVSPropertyOp36
 70
     1
102
RTVSPropertyOp37
 70
     1
102
RTVSPropertyOp38
 70
     1
102
RTVSPropertyOp39
 70
     1
102
RTVSPropertyOp40
 70
     1
102
RTVSPropertyOp41
 70
     1
102
RTVSPropertyOp42
 70
     1
102
RTVSPropertyOp43
 70
     1
102
RTVSPropertyOp44
 70
     1
102
RTVSPropertyOp45
 70
     1
102
RTVSPropertyOp46
 70
     1
102
RTVSPropertyOp47
 70
     1
102
RTVSPropertyOp48
 70
     1
102
RTVSPropertyOp49
 70
     1
102
RTVSPropertyOp50
 70
     1
102
RTVSPropertyOp51
 70
     0
102
RTVSPropertyOp52
 70
     0
102
RTVSPropertyOp53
 70
     1
102
RTVSPropertyOp54
 70
     1
102
RTVSPropertyOp55
 70
     1
102
RTVSPropertyOp56
 70
     1
102
RTVSPropertyOp57
 70
     1
102
RTVSPropertyOp58
 70
     1
102
RTVSPropertyOp59
 70
     1
102
RTVSPropertyOp60
 70
     1
102
RTVSPropertyOp61
 70
     1
102
RTVSPropertyOp62
 70
     1
  0
ENDSEC
  0
EOF
