  0
SECTION
  2
HEADER
  9
$ACADVER
  1
AC1015
  9
$ACADMAINTVER
 70
    20
  9
$DWGCODEPAGE
  3
ANSI_1252
  9
$INSBASE
 10
0.0
 20
0.0
 30
0.0
  9
$EXTMIN
 10
1604.444084682655
 20
-0.0069599508418605
 30
-0.0000000000000058
  9
$EXTMAX
 10
2383.245703800339
 20
454.0878323596919
 30
0.0000000000000104
  9
$LIMMIN
 10
0.0
 20
0.0
  9
$LIMMAX
 10
12.0
 20
9.0
  9
$ORTHOMODE
 70
     1
  9
$REGENMODE
 70
     1
  9
$FILLMODE
 70
     1
  9
$QTEXTMODE
 70
     0
  9
$MIRRTEXT
 70
     0
  9
$LTSCALE
 40
1.0
  9
$ATTMODE
 70
     1
  9
$TEXTSIZE
 40
0.2
  9
$TRACEWID
 40
0.05
  9
$TEXTSTYLE
  7
Standard
  9
$CLAYER
  8
0
  9
$CELTYPE
  6
ByLayer
  9
$CECOLOR
 62
   256
  9
$CELTSCALE
 40
1.0
  9
$DISPSILH
 70
     0
  9
$DIMSCALE
 40
24.0
  9
$DIMASZ
 40
0.18
  9
$DIMEXO
 40
0.0625
  9
$DIMDLI
 40
0.38
  9
$DIMRND
 40
0.0
  9
$DIMDLE
 40
0.0
  9
$DIMEXE
 40
0.18
  9
$DIMTP
 40
0.0
  9
$DIMTM
 40
0.0
  9
$DIMTXT
 40
0.18
  9
$DIMCEN
 40
0.09
  9
$DIMTSZ
 40
0.0
  9
$DIMTOL
 70
     0
  9
$DIMLIM
 70
     0
  9
$DIMTIH
 70
     1
  9
$DIMTOH
 70
     1
  9
$DIMSE1
 70
     0
  9
$DIMSE2
 70
     0
  9
$DIMTAD
 70
     0
  9
$DIMZIN
 70
     0
  9
$DIMBLK
  1

  9
$DIMASO
 70
     1
  9
$DIMSHO
 70
     1
  9
$DIMPOST
  1

  9
$DIMAPOST
  1

  9
$DIMALT
 70
     0
  9
$DIMALTD
 70
     2
  9
$DIMALTF
 40
25.4
  9
$DIMLFAC
 40
1.0
  9
$DIMTOFL
 70
     0
  9
$DIMTVP
 40
0.0
  9
$DIMTIX
 70
     0
  9
$DIMSOXD
 70
     0
  9
$DIMSAH
 70
     0
  9
$DIMBLK1
  1

  9
$DIMBLK2
  1

  9
$DIMSTYLE
  2
Standard
  9
$DIMCLRD
 70
     0
  9
$DIMCLRE
 70
     0
  9
$DIMCLRT
 70
     0
  9
$DIMTFAC
 40
1.0
  9
$DIMGAP
 40
0.09
  9
$DIMJUST
 70
     0
  9
$DIMSD1
 70
     0
  9
$DIMSD2
 70
     0
  9
$DIMTOLJ
 70
     1
  9
$DIMTZIN
 70
     0
  9
$DIMALTZ
 70
     0
  9
$DIMALTTZ
 70
     0
  9
$DIMUPT
 70
     0
  9
$DIMDEC
 70
     3
  9
$DIMTDEC
 70
     3
  9
$DIMALTU
 70
     4
  9
$DIMALTTD
 70
     2
  9
$DIMTXSTY
  7
Standard
  9
$DIMAUNIT
 70
     0
  9
$DIMADEC
 70
     0
  9
$DIMALTRND
 40
0.0
  9
$DIMAZIN
 70
     0
  9
$DIMDSEP
 70
    46
  9
$DIMATFIT
 70
     3
  9
$DIMFRAC
 70
     1
  9
$DIMLDRBLK
  1

  9
$DIMLUNIT
 70
     5
  9
$DIMLWD
 70
    -2
  9
$DIMLWE
 70
    -2
  9
$DIMTMOVE
 70
     0
  9
$LUNITS
 70
     4
  9
$LUPREC
 70
     4
  9
$SKETCHINC
 40
0.1
  9
$FILLETRAD
 40
0.0
  9
$AUNITS
 70
     0
  9
$AUPREC
 70
     0
  9
$MENU
  1
.
  9
$ELEVATION
 40
0.0
  9
$PELEVATION
 40
0.0
  9
$THICKNESS
 40
0.0
  9
$LIMCHECK
 70
     0
  9
$CHAMFERA
 40
0.0
  9
$CHAMFERB
 40
0.0
  9
$CHAMFERC
 40
0.0
  9
$CHAMFERD
 40
0.0
  9
$SKPOLY
 70
     0
  9
$TDCREATE
 40
2457120.754960359
  9
$TDUCREATE
 40
2457120.921627026
  9
$TDUPDATE
 40
2457122.634070475
  9
$TDUUPDATE
 40
2457122.800737141
  9
$TDINDWG
 40
0.0219484028
  9
$TDUSRTIMER
 40
0.0219481944
  9
$USRTIMER
 70
     1
  9
$ANGBASE
 50
0.0
  9
$ANGDIR
 70
     0
  9
$PDMODE
 70
     0
  9
$PDSIZE
 40
0.0
  9
$PLINEWID
 40
0.0
  9
$SPLFRAME
 70
     0
  9
$SPLINETYPE
 70
     6
  9
$SPLINESEGS
 70
     8
  9
$HANDSEED
  5
A35
  9
$SURFTAB1
 70
     6
  9
$SURFTAB2
 70
     6
  9
$SURFTYPE
 70
     6
  9
$SURFU
 70
     6
  9
$SURFV
 70
     6
  9
$UCSBASE
  2

  9
$UCSNAME
  2

  9
$UCSORG
 10
0.0
 20
0.0
 30
0.0
  9
$UCSXDIR
 10
1.0
 20
0.0
 30
0.0
  9
$UCSYDIR
 10
0.0
 20
1.0
 30
0.0
  9
$UCSORTHOREF
  2

  9
$UCSORTHOVIEW
 70
     0
  9
$UCSORGTOP
 10
0.0
 20
0.0
 30
0.0
  9
$UCSORGBOTTOM
 10
0.0
 20
0.0
 30
0.0
  9
$UCSORGLEFT
 10
0.0
 20
0.0
 30
0.0
  9
$UCSORGRIGHT
 10
0.0
 20
0.0
 30
0.0
  9
$UCSORGFRONT
 10
0.0
 20
0.0
 30
0.0
  9
$UCSORGBACK
 10
0.0
 20
0.0
 30
0.0
  9
$PUCSBASE
  2

  9
$PUCSNAME
  2

  9
$PUCSORG
 10
0.0
 20
0.0
 30
0.0
  9
$PUCSXDIR
 10
1.0
 20
0.0
 30
0.0
  9
$PUCSYDIR
 10
0.0
 20
1.0
 30
0.0
  9
$PUCSORTHOREF
  2

  9
$PUCSORTHOVIEW
 70
     0
  9
$PUCSORGTOP
 10
0.0
 20
0.0
 30
0.0
  9
$PUCSORGBOTTOM
 10
0.0
 20
0.0
 30
0.0
  9
$PUCSORGLEFT
 10
0.0
 20
0.0
 30
0.0
  9
$PUCSORGRIGHT
 10
0.0
 20
0.0
 30
0.0
  9
$PUCSORGFRONT
 10
0.0
 20
0.0
 30
0.0
  9
$PUCSORGBACK
 10
0.0
 20
0.0
 30
0.0
  9
$USERI1
 70
     0
  9
$USERI2
 70
     0
  9
$USERI3
 70
     0
  9
$USERI4
 70
     0
  9
$USERI5
 70
     0
  9
$USERR1
 40
0.0
  9
$USERR2
 40
0.0
  9
$USERR3
 40
0.0
  9
$USERR4
 40
0.0
  9
$USERR5
 40
0.0
  9
$WORLDVIEW
 70
     1
  9
$SHADEDGE
 70
     3
  9
$SHADEDIF
 70
    70
  9
$TILEMODE
 70
     1
  9
$MAXACTVP
 70
    64
  9
$PINSBASE
 10
0.0
 20
0.0
 30
0.0
  9
$PLIMCHECK
 70
     0
  9
$PEXTMIN
 10
504.8202508019799
 20
-868.6532958552332
 30
0.0
  9
$PEXTMAX
 10
2516.357093359524
 20
1040.832099471579
 30
0.0
  9
$PLIMMIN
 10
457.0559704444398
 20
-936.3798351776614
  9
$PLIMMAX
 10
3103.405920651643
 20
1108.526931389329
  9
$UNITMODE
 70
     0
  9
$VISRETAIN
 70
     1
  9
$PLINEGEN
 70
     0
  9
$PSLTSCALE
 70
     1
  9
$TREEDEPTH
 70
  3020
  9
$CMLSTYLE
  2
Standard
  9
$CMLJUST
 70
     0
  9
$CMLSCALE
 40
1.0
  9
$PROXYGRAPHICS
 70
     1
  9
$MEASUREMENT
 70
     0
  9
$CELWEIGHT
370
    -1
  9
$ENDCAPS
280
     0
  9
$JOINSTYLE
280
     0
  9
$LWDISPLAY
290
     0
  9
$INSUNITS
 70
     1
  9
$HYPERLINKBASE
  1

  9
$STYLESHEET
  1

  9
$XEDIT
290
     1
  9
$CEPSNTYPE
380
     0
  9
$PSTYLEMODE
290
     1
  9
$FINGERPRINTGUID
  2
{34A6EDE3-D558-4224-A1D7-21684ECF28D7}
  9
$VERSIONGUID
  2
{F9A0FFAF-C373-470D-B5F8-3410DC47B452}
  9
$EXTNAMES
290
     1
  9
$PSVPSCALE
 40
0.0
  9
$OLESTARTUP
290
     0
  0
ENDSEC
  0
SECTION
  2
CLASSES
  0
CLASS
  1
ACDBDICTIONARYWDFLT
  2
AcDbDictionaryWithDefault
  3
ObjectDBX Classes
 90
        0
280
     0
281
     0
  0
CLASS
  1
MATERIAL
  2
AcDbMaterial
  3
ObjectDBX Classes
 90
     1153
280
     0
281
     0
  0
CLASS
  1
VISUALSTYLE
  2
AcDbVisualStyle
  3
ObjectDBX Classes
 90
     4095
280
     0
281
     0
  0
CLASS
  1
SCALE
  2
AcDbScale
  3
ObjectDBX Classes
 90
     1153
280
     0
281
     0
  0
CLASS
  1
TABLESTYLE
  2
AcDbTableStyle
  3
ObjectDBX Classes
 90
     4095
280
     0
281
     0
  0
CLASS
  1
MLEADERSTYLE
  2
AcDbMLeaderStyle
  3
ACDB_MLEADERSTYLE_CLASS
 90
     4095
280
     0
281
     0
  0
CLASS
  1
ACDBSECTIONVIEWSTYLE
  2
AcDbSectionViewStyle
  3
ObjectDBX Classes
 90
     1025
280
     0
281
     0
  0
CLASS
  1
ACDBDETAILVIEWSTYLE
  2
AcDbDetailViewStyle
  3
ObjectDBX Classes
 90
     1025
280
     0
281
     0
  0
CLASS
  1
RASTERVARIABLES
  2
AcDbRasterVariables
  3
ISM
 90
        0
280
     0
281
     0
  0
CLASS
  1
DICTIONARYVAR
  2
AcDbDictionaryVar
  3
ObjectDBX Classes
 90
        0
280
     0
281
     0
  0
CLASS
  1
CELLSTYLEMAP
  2
AcDbCellStyleMap
  3
ObjectDBX Classes
 90
     1152
280
     0
281
     0
  0
CLASS
  1
SORTENTSTABLE
  2
AcDbSortentsTable
  3
ObjectDBX Classes
 90
        0
280
     0
281
     0
  0
CLASS
  1
SUN
  2
AcDbSun
  3
SCENEOE
 90
    33921
280
     0
281
     0
  0
CLASS
  1
EXACXREFPANELOBJECT
  2
ExAcXREFPanelObject
  3
EXAC_ESW
 90
     1025
280
     0
281
     0
  0
CLASS
  1
NPOCOLLECTION
  2
AcDbImpNonPersistentObjectsCollection
  3
ObjectDBX Classes
 90
     1153
280
     0
281
     0
  0
CLASS
  1
DIMASSOC
  2
AcDbDimAssoc
  3
"AcDbDimAssoc|Product Desc:     AcDim ARX App For Dimension|Company:          Autodesk, Inc.|WEB Address:      www.autodesk.com"
 90
    32768
280
     0
281
     0
  0
CLASS
  1
ACDBPLACEHOLDER
  2
AcDbPlaceHolder
  3
ObjectDBX Classes
 90
        0
280
     0
281
     0
  0
CLASS
  1
LAYOUT
  2
AcDbLayout
  3
ObjectDBX Classes
 90
        0
280
     0
281
     0
  0
ENDSEC
  0
SECTION
  2
TABLES
  0
TABLE
  2
VPORT
  5
8
330
0
100
AcDbSymbolTable
 70
     1
  0
VPORT
  5
57
330
8
100
AcDbSymbolTableRecord
100
AcDbViewportTableRecord
  2
*Active
 70
     0
 10
0.0
 20
0.0
 11
1.0
 21
1.0
 12
1993.844894241497
 22
227.040436204425
 13
0.0
 23
0.0
 14
1.0
 24
1.0
 15
0.0
 25
0.0
 16
0.0
 26
0.0
 36
1.0
 17
0.0
 27
0.0
 37
0.0
 40
457.7575959616228
 41
2.455128205128205
 42
50.0
 43
0.0
 44
0.0
 50
0.0
 51
0.0
 71
     0
 72
  1000
 73
     1
 74
     1
 75
     0
 76
     0
 77
     0
 78
     0
281
     0
 65
     1
110
0.0
120
0.0
130
0.0
111
1.0
121
0.0
131
0.0
112
0.0
122
1.0
132
0.0
 79
     0
146
0.0
1001
ACAD_NAV_VCDISPLAY
1070
     3
  0
ENDTAB
  0
TABLE
  2
LTYPE
  5
5
330
0
100
AcDbSymbolTable
 70
     2
  0
LTYPE
  5
5B
330
5
100
AcDbSymbolTableRecord
100
AcDbLinetypeTableRecord
  2
ByBlock
 70
     0
  3

 72
    65
 73
     0
 40
0.0
  0
LTYPE
  5
5C
330
5
100
AcDbSymbolTableRecord
100
AcDbLinetypeTableRecord
  2
ByLayer
 70
     0
  3

 72
    65
 73
     0
 40
0.0
  0
LTYPE
  5
5D
330
5
100
AcDbSymbolTableRecord
100
AcDbLinetypeTableRecord
  2
Continuous
 70
     0
  3
Solid line
 72
    65
 73
     0
 40
0.0
  0
LTYPE
  5
69
330
5
100
AcDbSymbolTableRecord
100
AcDbLinetypeTableRecord
  2
PHANTOM2
 70
     0
  3
___ _ _ ___ _ _ ___ _ _ ___ _ _
 72
    65
 73
     6
 40
1.25
 49
0.625
 74
     0
 49
-0.125
 74
     0
 49
0.125
 74
     0
 49
-0.125
 74
     0
 49
0.125
 74
     0
 49
-0.125
 74
     0
  0
ENDTAB
  0
TABLE
  2
LAYER
  5
2
102
{ACAD_XDICTIONARY
360
3F5
102
}
330
0
100
AcDbSymbolTable
 70
     2
  0
LAYER
  5
54
330
2
100
AcDbSymbolTableRecord
100
AcDbLayerTableRecord
  2
0
 70
     0
 62
     7
  6
Continuous
370
    -3
390
F
  0
LAYER
  5
32F
330
2
100
AcDbSymbolTableRecord
100
AcDbLayerTableRecord
  2
Defpoints
 70
     0
 62
     7
  6
Continuous
290
     0
370
    -3
390
F
  0
ENDTAB
  0
TABLE
  2
STYLE
  5
3
330
0
100
AcDbSymbolTable
 70
     1
  0
STYLE
  5
55
330
3
100
AcDbSymbolTableRecord
100
AcDbTextStyleTableRecord
  2
Standard
 70
     0
 40
0.0
 41
1.0
 50
0.0
 71
     0
 42
0.2
  3
txt
  4

  0
ENDTAB
  0
TABLE
  2
VIEW
  5
6
330
0
100
AcDbSymbolTable
 70
     0
  0
ENDTAB
  0
TABLE
  2
UCS
  5
7
330
0
100
AcDbSymbolTable
 70
     0
  0
ENDTAB
  0
TABLE
  2
APPID
  5
9
330
0
100
AcDbSymbolTable
 70
    13
  0
APPID
  5
56
330
9
100
AcDbSymbolTableRecord
100
AcDbRegAppTableRecord
  2
ACAD
 70
     0
  0
APPID
  5
5E
330
9
100
AcDbSymbolTableRecord
100
AcDbRegAppTableRecord
  2
AcadAnnotative
 70
     0
  0
APPID
  5
79
330
9
100
AcDbSymbolTableRecord
100
AcDbRegAppTableRecord
  2
REVIT
 70
     0
  0
APPID
  5
3EE
330
9
100
AcDbSymbolTableRecord
100
AcDbRegAppTableRecord
  2
ACAD_PSEXT
 70
     0
  0
APPID
  5
5F8
330
9
100
AcDbSymbolTableRecord
100
AcDbRegAppTableRecord
  2
ACAD_NAV_VCDISPLAY
 70
     0
  0
APPID
  5
6C8
330
9
100
AcDbSymbolTableRecord
100
AcDbRegAppTableRecord
  2
GradientColor1ACI
 70
     0
  0
APPID
  5
6C9
330
9
100
AcDbSymbolTableRecord
100
AcDbRegAppTableRecord
  2
GradientColor2ACI
 70
     0
  0
APPID
  5
6CB
330
9
100
AcDbSymbolTableRecord
100
AcDbRegAppTableRecord
  2
ACAD_EXEMPT_FROM_CAD_STANDARDS
 70
     0
  0
APPID
  5
6D3
330
9
100
AcDbSymbolTableRecord
100
AcDbRegAppTableRecord
  2
ACAD_DSTYLE_DIMJAG
 70
     0
  0
APPID
  5
6D4
330
9
100
AcDbSymbolTableRecord
100
AcDbRegAppTableRecord
  2
ACAD_DSTYLE_DIMTALN
 70
     0
  0
APPID
  5
770
330
9
100
AcDbSymbolTableRecord
100
AcDbRegAppTableRecord
  2
ACAD_MLEADERVER
 70
     0
  0
APPID
  5
777
330
9
100
AcDbSymbolTableRecord
100
AcDbRegAppTableRecord
  2
ACAD_DSTYLE_DIMARC_LENGTH_SYMBOL
 70
     0
  0
APPID
  5
778
330
9
100
AcDbSymbolTableRecord
100
AcDbRegAppTableRecord
  2
ACAD_DSTYLE_DIMTEXT_FILL
 70
     0
  0
ENDTAB
  0
TABLE
  2
DIMSTYLE
  5
A
330
0
100
AcDbSymbolTable
 70
     1
100
AcDbDimStyleTable
 71
     1
340
58
  0
DIMSTYLE
105
58
330
A
100
AcDbSymbolTableRecord
100
AcDbDimStyleTableRecord
  2
Standard
 70
     0
340
55
  0
ENDTAB
  0
TABLE
  2
BLOCK_RECORD
  5
1
330
0
100
AcDbSymbolTable
 70
     4
  0
BLOCK_RECORD
  5
71
102
{ACAD_XDICTIONARY
360
3DC
102
}
330
1
100
AcDbSymbolTableRecord
100
AcDbBlockTableRecord
  2
*Model_Space
340
74
  0
BLOCK_RECORD
  5
6D
330
1
100
AcDbSymbolTableRecord
100
AcDbBlockTableRecord
  2
*Paper_Space
340
70
  0
ENDTAB
  0
ENDSEC
  0
SECTION
  2
BLOCKS
  0
BLOCK
  5
72
330
71
100
AcDbEntity
  8
0
100
AcDbBlockBegin
  2
*Model_Space
 70
     0
 10
0.0
 20
0.0
 30
0.0
  3
*Model_Space
  1

  0
ENDBLK
  5
73
330
71
100
AcDbEntity
  8
0
100
AcDbBlockEnd
  0
BLOCK
  5
6E
330
6D
100
AcDbEntity
 67
     1
  8
0
100
AcDbBlockBegin
  2
*Paper_Space
 70
     0
 10
0.0
 20
0.0
 30
0.0
  3
*Paper_Space
  1

  0
ENDBLK
  5
6F
330
6D
100
AcDbEntity
 67
     1
  8
0
100
AcDbBlockEnd
  0
ENDSEC
  0
SECTION
  2
ENTITIES
  0
LINE
  5
438
330
71
100
AcDbEntity
  8
0
100
AcDbLine
 10
2102.538332934478
 20
380.5550730438378
 30
0.0
 11
2107.538332934478
 21
380.5550730438378
 31
0.0
  0
LINE
  5
439
330
71
100
AcDbEntity
  8
0
100
AcDbLine
 10
2107.538332934478
 20
385.5550730438379
 30
0.0
 11
2102.538332934478
 21
385.5550730438379
 31
0.0
  0
LWPOLYLINE
  5
43A
330
71
100
AcDbEntity
  8
0
100
AcDbPolyline
 90
       41
 70
   128
 43
0.0
 10
2107.538332934478
 20
380.5550730438378
 10
2107.698290271224
 20
380.5550730438378
 10
2107.857991710355
 20
380.5550730438378
 10
2108.017181763634
 20
380.5550730438378
 10
2108.175605760935
 20
380.5550730438378
 10
2108.333010257658
 20
380.5550730438378
 10
2108.489143440186
 20
380.5550730438378
 10
2108.643755528734
 20
380.5550730438378
 10
2108.796599176943
 20
380.5550730438378
 10
2108.947429867578
 20
380.5550730438378
 10
2109.096006303714
 20
380.5550730438378
 10
2109.242090794742
 20
380.5550730438378
 10
2109.385449636644
 20
380.5550730438378
 10
2109.525853485853
 20
380.5550730438378
 10
2109.663077726162
 20
380.5550730438378
 10
2109.796902828058
 20
380.5550730438378
 10
2109.927114699928
 20
380.5550730438378
 10
2110.053505030552
 20
380.5550730438378
 10
2110.175871622364
 20
380.5550730438378
 10
2110.294018714921
 20
380.5550730438378
 10
2110.407757298077
 20
380.5550730438378
 10
2110.516905414362
 20
380.5550730438378
 10
2110.621288450074
 20
380.5550730438378
 10
2110.720739414624
 20
380.5550730438378
 10
2110.815099207682
 20
380.5550730438378
 10
2110.90421687371
 20
380.5550730438378
 10
2110.987949843452
 20
380.5550730438378
 10
2111.066164162018
 20
380.5550730438378
 10
2111.138734703185
 20
380.5550730438378
 10
2111.205545369565
 20
380.5550730438378
 10
2111.266489278348
 20
380.5550730438378
 10
2111.321468932277
 20
380.5550730438378
 10
2111.370396375635
 20
380.5550730438378
 10
2111.413193334952
 20
380.5550730438378
 10
2111.44979134422
 20
380.5550730438378
 10
2111.480131854432
 20
380.5550730438378
 10
2111.504166327245
 20
380.5550730438378
 10
2111.521856312629
 20
380.5550730438378
 10
2111.533173510381
 20
380.5550730438378
 10
2111.538099815398
 20
380.5550730438378
 10
2111.538332934479
 20
380.5550730438378
  0
LWPOLYLINE
  5
43B
330
71
100
AcDbEntity
  8
0
100
AcDbPolyline
 90
       41
 70
   128
 43
0.0
 10
2111.538332934479
 20
385.5550730438379
 10
2111.535133361122
 20
385.5550730438379
 10
2111.525539759689
 20
385.5550730438379
 10
2111.509567477894
 20
385.5550730438379
 10
2111.487242067981
 20
385.5550730438379
 10
2111.458599245844
 20
385.5550730438379
 10
2111.423684833887
 20
385.5550730438379
 10
2111.382554687722
 20
385.5550730438379
 10
2111.335274606808
 20
385.5550730438379
 10
2111.28192022919
 20
385.5550730438379
 10
2111.22257691049
 20
385.5550730438379
 10
2111.157339587359
 20
385.5550730438379
 10
2111.086312625596
 20
385.5550730438379
 10
2111.009609653189
 20
385.5550730438379
 10
2110.927353378532
 20
385.5550730438379
 10
2110.839675394117
 20
385.5550730438379
 10
2110.746715966016
 20
385.5550730438379
 10
2110.648623809482
 20
385.5550730438379
 10
2110.545555851042
 20
385.5550730438379
 10
2110.437676977442
 20
385.5550730438379
 10
2110.325159771867
 20
385.5550730438379
 10
2110.208184237844
 20
385.5550730438379
 10
2110.086937511272
 20
385.5550730438379
 10
2109.961613561052
 20
385.5550730438379
 10
2109.832412878768
 20
385.5550730438379
 10
2109.699542157951
 20
385.5550730438379
 10
2109.56321396341
 20
385.5550730438379
 10
2109.423646391173
 20
385.5550730438379
 10
2109.281062719585
 20
385.5550730438379
 10
2109.135691052104
 20
385.5550730438379
 10
2108.987763952385
 20
385.5550730438379
 10
2108.837518072233
 20
385.5550730438379
 10
2108.685193773006
 20
385.5550730438379
 10
2108.531034741088
 20
385.5550730438379
 10
2108.375287598044
 20
385.5550730438379
 10
2108.218201506079
 20
385.5550730438379
 10
2108.060027769431
 20
385.5550730438379
 10
2107.901019432335
 20
385.5550730438379
 10
2107.741430874213
 20
385.5550730438379
 10
2107.581517402711
 20
385.5550730438379
 10
2107.538332934478
 20
385.5550730438379
  0
LINE
  5
43C
330
71
100
AcDbEntity
  8
0
100
AcDbLine
 10
2122.538332934478
 20
359.7050730438399
 30
0.0
 11
2117.538332934478
 21
359.7050730438399
 31
0.0
  0
LINE
  5
43D
330
71
100
AcDbEntity
  8
0
100
AcDbLine
 10
2117.538332934478
 20
359.7050730438399
 30
0.0
 11
2117.538332934478
 21
355.31788281313
 31
0.0
  0
LINE
  5
43E
330
71
100
AcDbEntity
  8
0
100
AcDbLine
 10
2122.538332934478
 20
355.31788281313
 30
0.0
 11
2122.538332934478
 21
359.7050730438399
 31
0.0
  0
LINE
  5
43F
330
71
100
AcDbEntity
  8
0
100
AcDbLine
 10
2109.038332934478
 20
352.3050730438409
 30
0.0
 11
2102.53833293448
 21
352.3050730438409
 31
0.0
  0
LINE
  5
440
330
71
100
AcDbEntity
  8
0
100
AcDbLine
 10
2114.038332934478
 20
345.9050730438388
 30
0.0
 11
2115.788332934478
 21
345.9050730438388
 31
0.0
  0
LINE
  5
441
330
71
100
AcDbEntity
  8
0
100
AcDbLine
 10
2115.788332934478
 20
354.7050730438408
 30
0.0
 11
2114.038332934478
 21
354.7050730438408
 31
0.0
  0
LWPOLYLINE
  5
442
330
71
100
AcDbEntity
  8
0
100
AcDbPolyline
 90
       41
 70
   128
 43
0.0
 10
2116.538332934478
 20
344.9050730438388
 10
2116.508340933838
 20
344.9056729638432
 10
2116.478396914001
 20
344.9074717641118
 10
2116.448548779011
 20
344.9104665669485
 10
2116.418844279517
 20
344.9146525813072
 10
2116.389330936382
 20
344.9200231104579
 10
2116.360055964658
 20
344.9265695626998
 10
2116.331066198055
 20
344.9342814651056
 10
2116.302408014016
 20
344.9431464802771
 10
2116.274127259522
 20
344.9531504260804
 10
2116.246269177747
 20
344.9642772983367
 10
2116.218878335679
 20
344.9765092964238
 10
2116.191998552821
 20
344.9898268517544
 10
2116.165672831096
 20
345.0042086590806
 10
2116.139943286038
 20
345.0196317105788
 10
2116.114851079432
 20
345.0360713326567
 10
2116.090436353457
 20
345.0535012254257
 10
2116.066738166464
 20
345.0718935047756
 10
2116.043794430499
 20
345.0912187469831
 10
2116.021641850645
 20
345.1114460357832
 10
2116.000315866303
 20
345.1325430118286
 10
2115.9798505945
 20
345.1544759244579
 10
2115.960278775304
 20
345.1772096856899
 10
2115.941631719451
 20
345.2007079263562
 10
2115.923939258252
 20
345.2249330542845
 10
2115.907229695872
 20
345.2498463144376
 10
2115.891529764045
 20
345.2754078509143
 10
2115.876864579314
 20
345.3015767707085
 10
2115.863257602846
 20
345.3283112091313
 10
2115.850730602899
 20
345.3555683967842
 10
2115.839303620003
 20
345.3833047279811
 10
2115.828994934891
 20
345.4114758305098
 10
2115.819821039261
 20
345.4400366366148
 10
2115.81179660939
 20
345.4689414550996
 10
2115.804934482651
 20
345.4981440444202
 10
2115.799245636987
 20
345.5275976866637
 10
2115.794739173335
 20
345.5572552622852
 10
2115.791422301075
 20
345.5870693254908
 10
2115.789300326496
 20
345.6169921801387
 10
2115.788376644306
 20
345.6469759560453
 10
2115.788332934478
 20
345.6550730438388
  0
LWPOLYLINE
  5
443
330
71
100
AcDbEntity
  8
0
100
AcDbPolyline
 90
       41
 70
   128
 43
0.0
 10
2115.788332934478
 20
350.3050730438399
 10
2115.788332934478
 20
350.119122639872
 10
2115.788332934478
 20
349.9334697168832
 10
2115.788332934478
 20
349.7484112799463
 10
2115.788332934478
 20
349.5642433830834
 10
2115.788332934478
 20
349.3812606556427
 10
2115.788332934478
 20
349.1997558309535
 10
2115.788332934478
 20
349.0200192780165
 10
2115.788332934478
 20
348.8423385369746
 10
2115.788332934478
 20
348.6669978591103
 10
2115.788332934478
 20
348.4942777521043
 10
2115.788332934478
 20
348.3244545312825
 10
2115.788332934478
 20
348.1577998775715
 10
2115.788332934478
 20
347.9945804028661
 10
2115.788332934478
 20
347.8350572235072
 10
2115.788332934478
 20
347.6794855425524
 10
2115.788332934478
 20
347.5281142415042
 10
2115.788332934478
 20
347.3811854821533
 10
2115.788332934478
 20
347.2389343191718
 10
2115.788332934478
 20
347.1015883240751
 10
2115.788332934478
 20
346.9693672211564
 10
2115.788332934478
 20
346.8424825359747
 10
2115.788332934478
 20
346.7211372569587
 10
2115.788332934478
 20
346.6055255106701
 10
2115.788332934478
 20
346.4958322512393
 10
2115.788332934478
 20
346.3922329644822
 10
2115.788332934478
 20
346.2948933871573
 10
2115.788332934478
 20
346.203969241824
 10
2115.788332934478
 20
346.1196059877183
 10
2115.788332934478
 20
346.0419385880503
 10
2115.788332934478
 20
345.9710912940914
 10
2115.788332934478
 20
345.9071774463985
 10
2115.788332934478
 20
345.8502992934941
 10
2115.788332934478
 20
345.8005478282889
 10
2115.788332934478
 20
345.7580026425147
 10
2115.788332934478
 20
345.7227317993926
 10
2115.788332934478
 20
345.6947917247476
 10
2115.788332934478
 20
345.6742271167388
 10
2115.788332934478
 20
345.6610708743523
 10
2115.788332934478
 20
345.6553440447696
 10
2115.788332934478
 20
345.6550730438388
  0
LWPOLYLINE
  5
444
330
71
100
AcDbEntity
  8
0
100
AcDbPolyline
 90
       10
 70
   128
 43
0.0
 10
2115.788332934478
 20
345.6550730438388
 10
2115.788332934478
 20
345.6587925478654
 10
2115.788332934478
 20
345.6699451095317
 10
2115.788332934478
 20
345.6885128871185
 10
2115.788332934478
 20
345.7144661761422
 10
2115.788332934478
 20
345.747763456877
 10
2115.788332934478
 20
345.7883514607769
 10
2115.788332934478
 20
345.8361652556937
 10
2115.788332934478
 20
345.8911283497555
 10
2115.788332934478
 20
345.9050730438388
  0
LWPOLYLINE
  5
445
330
71
100
AcDbEntity
  8
0
100
AcDbPolyline
 90
       41
 70
   128
 43
0.0
 10
2115.788332934478
 20
354.9550730438408
 10
2115.788932854483
 20
354.9850650444808
 10
2115.790731654751
 20
355.0150090643179
 10
2115.793726457587
 20
355.0448571993075
 10
2115.797912471947
 20
355.0745616988016
 10
2115.803283001097
 20
355.1040750419371
 10
2115.809829453339
 20
355.1333500136612
 10
2115.817541355745
 20
355.1623397802639
 10
2115.826406370916
 20
355.190997964303
 10
2115.83641031672
 20
355.2192787187972
 10
2115.847537188976
 20
355.2471368005722
 10
2115.859769187063
 20
355.2745276426403
 10
2115.873086742393
 20
355.3014074254968
 10
2115.88746854972
 20
355.3277331472236
 10
2115.902891601218
 20
355.3534626922815
 10
2115.919331223295
 20
355.3785548988872
 10
2115.936761116065
 20
355.4029696248628
 10
2115.955153395415
 20
355.4266678118548
 10
2115.974478637622
 20
355.4496115478195
 10
2115.994705926422
 20
355.4717641276738
 10
2116.015802902468
 20
355.4930901120155
 10
2116.037735815098
 20
355.513555383819
 10
2116.060469576329
 20
355.5331272030151
 10
2116.083967816996
 20
355.5517742588681
 10
2116.108192944924
 20
355.5694667200665
 10
2116.133106205077
 20
355.5861762824469
 10
2116.158667741554
 20
355.6018762142732
 10
2116.184836661348
 20
355.6165413990046
 10
2116.211571099771
 20
355.6301483754733
 10
2116.238828287424
 20
355.6426753754199
 10
2116.266564618621
 20
355.6541023583162
 10
2116.294735721149
 20
355.6644110434281
 10
2116.323296527254
 20
355.6735849390578
 10
2116.352201345739
 20
355.6816093689294
 10
2116.38140393506
 20
355.6884714956674
 10
2116.410857577303
 20
355.6941603413323
 10
2116.440515152925
 20
355.6986668049847
 10
2116.47032921613
 20
355.7019836772442
 10
2116.500252070778
 20
355.7041056518226
 10
2116.530235846685
 20
355.7050293340132
 10
2116.538332934478
 20
355.7050730438409
  0
LWPOLYLINE
  5
446
330
71
100
AcDbEntity
  8
0
100
AcDbPolyline
 90
       10
 70
   128
 43
0.0
 10
2115.788332934478
 20
354.7050730438408
 10
2115.788332934478
 20
354.7598467941857
 10
2115.788332934478
 20
354.8095982593908
 10
2115.788332934478
 20
354.8521434451652
 10
2115.788332934478
 20
354.8874142882871
 10
2115.788332934478
 20
354.9153543629322
 10
2115.788332934478
 20
354.9359189709409
 10
2115.788332934478
 20
354.9490752133273
 10
2115.788332934478
 20
354.9548020429102
 10
2115.788332934478
 20
354.9550730438408
  0
LWPOLYLINE
  5
447
330
71
100
AcDbEntity
  8
0
100
AcDbPolyline
 90
       41
 70
   128
 43
0.0
 10
2115.788332934478
 20
354.9550730438408
 10
2115.788332934478
 20
354.9513535398144
 10
2115.788332934478
 20
354.9402009781482
 10
2115.788332934478
 20
354.9216332005614
 10
2115.788332934478
 20
354.8956799115376
 10
2115.788332934478
 20
354.8623826308027
 10
2115.788332934478
 20
354.8217946269027
 10
2115.788332934478
 20
354.7739808319859
 10
2115.788332934478
 20
354.7190177379241
 10
2115.788332934478
 20
354.6569932739433
 10
2115.788332934478
 20
354.5880066659541
 10
2115.788332934478
 20
354.5121682778137
 10
2115.788332934478
 20
354.4295994347644
 10
2115.788332934478
 20
354.3404322293419
 10
2115.788332934478
 20
354.2448093100532
 10
2115.788332934478
 20
354.1428836531708
 10
2115.788332934478
 20
354.0348183180025
 10
2115.788332934478
 20
353.9207861860325
 10
2115.788332934478
 20
353.8009696843458
 10
2115.788332934478
 20
353.6755604937858
 10
2115.788332934478
 20
353.544759242305
 10
2115.788332934478
 20
353.4087751840026
 10
2115.788332934478
 20
353.2678258643639
 10
2115.788332934478
 20
353.1221367722327
 10
2115.788332934478
 20
352.9719409790773
 10
2115.788332934478
 20
352.8174787661273
 10
2115.788332934478
 20
352.6589972399729
 10
2115.788332934478
 20
352.4967499372481
 10
2115.788332934478
 20
352.330996419027
 10
2115.788332934478
 20
352.1620018555797
 10
2115.788332934478
 20
351.9900366021569
 10
2115.788332934478
 20
351.8153757664805
 10
2115.788332934478
 20
351.6382987686288
 10
2115.788332934478
 20
351.4590888940237
 10
2115.788332934478
 20
351.2780328402353
 10
2115.788332934478
 20
351.0954202583262
 10
2115.788332934478
 20
350.9115432894723
 10
2115.788332934478
 20
350.7266960975989
 10
2115.788332934478
 20
350.5411743987811
 10
2115.788332934478
 20
350.3552749881609
 10
2115.788332934478
 20
350.3050730438399
  0
LINE
  5
448
330
71
100
AcDbEntity
  8
0
100
AcDbLine
 10
2116.538332934478
 20
344.9050730438388
 30
0.0
 11
2128.038332934478
 21
344.9050730438388
 31
0.0
  0
LINE
  5
449
330
71
100
AcDbEntity
  8
0
100
AcDbLine
 10
2128.038332934478
 20
355.7050730438409
 30
0.0
 11
2122.538332934477
 21
355.7050730438409
 31
0.0
  0
LINE
  5
44A
330
71
100
AcDbEntity
  8
0
100
AcDbLine
 10
2117.538332934478
 20
355.7050730438409
 30
0.0
 11
2116.538332934478
 21
355.7050730438409
 31
0.0
  0
LWPOLYLINE
  5
44B
330
71
100
AcDbEntity
  8
0
100
AcDbPolyline
 90
       41
 70
   128
 43
0.0
 10
2129.538332934478
 20
346.4050730438388
 10
2129.53713309447
 20
346.3450890425588
 10
2129.533535493932
 20
346.285201002885
 10
2129.527545888259
 20
346.2255047329055
 10
2129.519173859542
 20
346.1660957339175
 10
2129.50843280124
 20
346.1070690476463
 10
2129.495339896756
 20
346.0485191041982
 10
2129.479916091944
 20
345.9905395709927
 10
2129.462186061601
 20
345.9332232029145
 10
2129.442178169995
 20
345.8766616939263
 10
2129.419924425482
 20
345.8209455303759
 10
2129.395460429308
 20
345.7661638462397
 10
2129.368825318647
 20
345.7124042805266
 10
2129.340061703994
 20
345.6597528370732
 10
2129.309215600998
 20
345.6082937469576
 10
2129.276336356843
 20
345.5581093337463
 10
2129.241476571305
 20
345.5092798817952
 10
2129.204692012605
 20
345.4618835078111
 10
2129.16604152819
 20
345.4159960358817
 10
2129.12558695059
 20
345.371690876173
 10
2129.083392998499
 20
345.3290389074897
 10
2129.03952717324
 20
345.2881083638825
 10
2128.994059650776
 20
345.2489647254905
 10
2128.947063169444
 20
345.2116706137843
 10
2128.898612913587
 20
345.1762856913873
 10
2128.84878639328
 20
345.1428665666271
 10
2128.797663320327
 20
345.111466702974
 10
2128.745325480739
 20
345.0821363335115
 10
2128.691856603893
 20
345.0549223805741
 10
2128.637342228588
 20
345.0298683806811
 10
2128.581869566193
 20
345.0070144148881
 10
2128.525527361136
 20
344.9863970446646
 10
2128.468405748926
 20
344.9680492534051
 10
2128.410596111957
 20
344.9520003936614
 10
2128.352190933315
 20
344.9382761401858
 10
2128.293283648829
 20
344.9268984488562
 10
2128.233968497585
 20
344.9178855215513
 10
2128.174340371174
 20
344.9112517770323
 10
2128.114494661879
 20
344.9070078278754
 10
2128.054527110066
 20
344.9051604634941
 10
2128.038332934478
 20
344.9050730438388
  0
LWPOLYLINE
  5
44C
330
71
100
AcDbEntity
  8
0
100
AcDbPolyline
 90
       41
 70
   128
 43
0.0
 10
2129.538332934478
 20
350.3050730438399
 10
2129.538332934478
 20
350.1491146405119
 10
2129.538332934478
 20
349.99340573736
 10
2129.538332934478
 20
349.8381954354128
 10
2129.538332934478
 20
349.6837320380441
 10
2129.538332934478
 20
349.5302626537389
 10
2129.538332934478
 20
349.3780328007738
 10
2129.538332934478
 20
349.2272860144396
 10
2129.538332934478
 20
349.0782634574367
 10
2129.538332934478
 20
348.9312035340669
 10
2129.538332934478
 20
348.7863415088357
 10
2129.538332934478
 20
348.643909130082
 10
2129.538332934478
 20
348.5041342592275
 10
2129.538332934478
 20
348.3672405062488
 10
2129.538332934478
 20
348.233446871948
 10
2129.538332934478
 20
348.1029673975986
 10
2129.538332934478
 20
347.976010822526
 10
2129.538332934478
 20
347.8527802501671
 10
2129.538332934478
 20
347.7334728231505
 10
2129.538332934478
 20
347.618279407908
 10
2129.538332934478
 20
347.5073842893309
 10
2129.538332934478
 20
347.4009648759527
 10
2129.538332934478
 20
347.299191416133
 10
2129.538332934478
 20
347.2022267256972
 10
2129.538332934478
 20
347.1102259274652
 10
2129.538332934478
 20
347.0233362030882
 10
2129.538332934478
 20
346.9416965575899
 10
2129.538332934478
 20
346.8654375969877
 10
2129.538332934478
 20
346.7946813193505
 10
2129.538332934478
 20
346.729540919629
 10
2129.538332934478
 20
346.6701206085667
 10
2129.538332934478
 20
346.6165154459857
 10
2129.538332934478
 20
346.5688111887109
 10
2129.538332934478
 20
346.5270841533777
 10
2129.538332934478
 20
346.4914010943412
 10
2129.538332934478
 20
346.4618190968839
 10
2129.538332934478
 20
346.4383854858912
 10
2129.538332934478
 20
346.4211377501421
 10
2129.538332934478
 20
346.4101034823341
 10
2129.538332934478
 20
346.4053003349418
 10
2129.538332934478
 20
346.4050730438388
  0
LWPOLYLINE
  5
44D
330
71
100
AcDbEntity
  8
0
100
AcDbPolyline
 90
       41
 70
   128
 43
0.0
 10
2129.538332934478
 20
346.4050730438388
 10
2129.538332934478
 20
346.4081926278609
 10
2129.538332934478
 20
346.4175463892587
 10
2129.538332934478
 20
346.4331193640088
 10
2129.538332934478
 20
346.454886638674
 10
2129.538332934478
 20
346.4828133902581
 10
2129.538332934478
 20
346.516854941916
 10
2129.538332934478
 20
346.5569568344268
 10
2129.538332934478
 20
346.6030549133173
 10
2129.538332934478
 20
346.655075431495
 10
2129.538332934478
 20
346.7129351672277
 10
2129.538332934478
 20
346.7765415572811
 10
2129.538332934478
 20
346.8457928449997
 10
2129.538332934478
 20
346.9205782430961
 10
2129.538332934478
 20
347.0007781108866
 10
2129.538332934478
 20
347.0862641456912
 10
2129.538332934478
 20
347.1768995880903
 10
2129.538332934478
 20
347.2725394407106
 10
2129.538332934478
 20
347.3730307001895
 10
2129.538332934478
 20
347.4782126019495
 10
2129.538332934478
 20
347.5879168773852
 10
2129.538332934478
 20
347.7019680230581
 10
2129.538332934478
 20
347.8201835814648
 10
2129.538332934478
 20
347.9423744329297
 10
2129.538332934478
 20
348.0683450981565
 10
2129.538332934478
 20
348.1978940509537
 10
2129.538332934478
 20
348.3308140406315
 10
2129.538332934478
 20
348.4668924235618
 10
2129.538332934478
 20
348.6059115033602
 10
2129.538332934478
 20
348.7476488791549
 10
2129.538332934478
 20
348.8918778013805
 10
2129.538332934478
 20
349.0383675345282
 10
2129.538332934478
 20
349.1868837262749
 10
2129.538332934478
 20
349.3371887823954
 10
2129.538332934478
 20
349.4890422468632
 10
2129.538332934478
 20
349.6422011865287
 10
2129.538332934478
 20
349.7964205797611
 10
2129.538332934478
 20
349.951453708429
 10
2129.538332934478
 20
350.1070525525989
 10
2129.538332934478
 20
350.2629681873125
 10
2129.538332934478
 20
350.3050730438399
  0
LWPOLYLINE
  5
44E
330
71
100
AcDbEntity
  8
0
100
AcDbPolyline
 90
       41
 70
   128
 43
0.0
 10
2128.038332934478
 20
355.7050730438409
 10
2128.098316935759
 20
355.7038732038324
 10
2128.158204975432
 20
355.7002756032948
 10
2128.217901245411
 20
355.6942859976217
 10
2128.277310244399
 20
355.6859139689044
 10
2128.336336930671
 20
355.6751729106027
 10
2128.394886874119
 20
355.6620800061188
 10
2128.452866407324
 20
355.646656201307
 10
2128.510182775402
 20
355.6289261709645
 10
2128.566744284391
 20
355.6089182793578
 10
2128.622460447941
 20
355.5866645348453
 10
2128.677242132077
 20
355.5622005386707
 10
2128.73100169779
 20
355.5355654280097
 10
2128.783653141244
 20
355.5068018133572
 10
2128.835112231359
 20
355.4759557103611
 10
2128.885296644571
 20
355.4430764662054
 10
2128.934126096522
 20
355.4082166806672
 10
2128.981522470506
 20
355.3714321219672
 10
2129.027409942435
 20
355.3327816375522
 10
2129.071715102144
 20
355.2923270599521
 10
2129.114367070828
 20
355.2501331078615
 10
2129.155297614435
 20
355.2062672826028
 10
2129.194441252826
 20
355.1607997601388
 10
2129.231735364533
 20
355.113803278806
 10
2129.26712028693
 20
355.0653530229495
 10
2129.30053941169
 20
355.0155265026431
 10
2129.331939275343
 20
354.96440342969
 10
2129.361269644805
 20
354.9120655901015
 10
2129.388483597743
 20
354.8585967132559
 10
2129.413537597637
 20
354.8040823379503
 10
2129.436391563429
 20
354.7486096755559
 10
2129.457008933653
 20
354.6922674704991
 10
2129.475356724912
 20
354.6351458582888
 10
2129.491405584656
 20
354.5773362213193
 10
2129.505129838131
 20
354.518931042678
 10
2129.516507529461
 20
354.4600237581912
 10
2129.525520456765
 20
354.400708606948
 10
2129.532154201284
 20
354.3410804805375
 10
2129.536398150442
 20
354.2812347712411
 10
2129.538245514823
 20
354.2212672194281
 10
2129.538332934478
 20
354.2050730438409
  0
LWPOLYLINE
  5
44F
330
71
100
AcDbEntity
  8
0
100
AcDbPolyline
 90
       41
 70
   128
 43
0.0
 10
2129.538332934478
 20
350.3050730438399
 10
2129.538332934478
 20
350.4610314471678
 10
2129.538332934478
 20
350.6167403503197
 10
2129.538332934478
 20
350.7719506522667
 10
2129.538332934478
 20
350.9264140496357
 10
2129.538332934478
 20
351.0798834339407
 10
2129.538332934478
 20
351.2321132869058
 10
2129.538332934478
 20
351.3828600732402
 10
2129.538332934478
 20
351.5318826302431
 10
2129.538332934478
 20
351.6789425536131
 10
2129.538332934478
 20
351.823804578844
 10
2129.538332934478
 20
351.9662369575976
 10
2129.538332934478
 20
352.1060118284522
 10
2129.538332934478
 20
352.242905581431
 10
2129.538332934478
 20
352.3766992157318
 10
2129.538332934478
 20
352.507178690081
 10
2129.538332934478
 20
352.6341352651538
 10
2129.538332934478
 20
352.7573658375126
 10
2129.538332934478
 20
352.8766732645294
 10
2129.538332934478
 20
352.9918666797716
 10
2129.538332934478
 20
353.1027617983489
 10
2129.538332934478
 20
353.209181211727
 10
2129.538332934478
 20
353.3109546715467
 10
2129.538332934478
 20
353.4079193619825
 10
2129.538332934478
 20
353.4999201602145
 10
2129.538332934478
 20
353.5868098845915
 10
2129.538332934478
 20
353.6684495300899
 10
2129.538332934478
 20
353.7447084906921
 10
2129.538332934478
 20
353.8154647683291
 10
2129.538332934478
 20
353.8806051680507
 10
2129.538332934478
 20
353.9400254791129
 10
2129.538332934478
 20
353.9936306416941
 10
2129.538332934478
 20
354.0413348989689
 10
2129.538332934478
 20
354.0830619343021
 10
2129.538332934478
 20
354.1187449933386
 10
2129.538332934478
 20
354.1483269907958
 10
2129.538332934478
 20
354.1717606017884
 10
2129.538332934478
 20
354.1890083375376
 10
2129.538332934478
 20
354.2000426053456
 10
2129.538332934478
 20
354.2048457527376
 10
2129.538332934478
 20
354.2050730438409
  0
LWPOLYLINE
  5
450
330
71
100
AcDbEntity
  8
0
100
AcDbPolyline
 90
       41
 70
   128
 43
0.0
 10
2129.538332934478
 20
354.2050730438409
 10
2129.538332934478
 20
354.2019534598188
 10
2129.538332934478
 20
354.1925996984212
 10
2129.538332934478
 20
354.1770267236709
 10
2129.538332934478
 20
354.1552594490056
 10
2129.538332934478
 20
354.1273326974217
 10
2129.538332934478
 20
354.0932911457638
 10
2129.538332934478
 20
354.0531892532529
 10
2129.538332934478
 20
354.0070911743622
 10
2129.538332934478
 20
353.9550706561848
 10
2129.538332934478
 20
353.897210920452
 10
2129.538332934478
 20
353.8336045303987
 10
2129.538332934478
 20
353.7643532426799
 10
2129.538332934478
 20
353.6895678445835
 10
2129.538332934478
 20
353.609367976793
 10
2129.538332934478
 20
353.5238819419884
 10
2129.538332934478
 20
353.4332464995893
 10
2129.538332934478
 20
353.3376066469692
 10
2129.538332934478
 20
353.2371153874902
 10
2129.538332934478
 20
353.1319334857301
 10
2129.538332934478
 20
353.0222292102944
 10
2129.538332934478
 20
352.9081780646215
 10
2129.538332934478
 20
352.789962506215
 10
2129.538332934478
 20
352.6677716547498
 10
2129.538332934478
 20
352.5418009895231
 10
2129.538332934478
 20
352.4122520367261
 10
2129.538332934478
 20
352.2793320470481
 10
2129.538332934478
 20
352.143253664118
 10
2129.538332934478
 20
352.0042345843194
 10
2129.538332934478
 20
351.8624972085247
 10
2129.538332934478
 20
351.7182682862991
 10
2129.538332934478
 20
351.5717785531514
 10
2129.538332934478
 20
351.4232623614047
 10
2129.538332934478
 20
351.2729573052844
 10
2129.538332934478
 20
351.1211038408165
 10
2129.538332934478
 20
350.9679449011509
 10
2129.538332934478
 20
350.8137255079188
 10
2129.538332934478
 20
350.6586923792506
 10
2129.538332934478
 20
350.5030935350808
 10
2129.538332934478
 20
350.3471779003671
 10
2129.538332934478
 20
350.3050730438399
  0
LWPOLYLINE
  5
451
330
71
100
AcDbEntity
  8
0
100
AcDbPolyline
 90
        4
 70
   128
 43
0.0
 10
2114.038332934478
 20
344.6550730438401
 10
2114.03633320113
 20
344.5550997083844
 10
2114.030337200235
 20
344.4552863089282
 10
2114.028573802677
 20
344.4377111524951
  0
LWPOLYLINE
  5
452
330
71
100
AcDbEntity
  8
0
100
AcDbPolyline
 90
        4
 70
   128
 43
0.0
 10
2114.028520879597
 20
344.4371836869708
 10
2114.020354524113
 20
344.3557925256288
 10
2114.006401142917
 20
344.2567775273153
 10
2114.004414112073
 20
344.2458579472405
  0
LWPOLYLINE
  5
453
330
71
100
AcDbEntity
  8
0
100
AcDbPolyline
 90
       69
 70
   128
 43
0.0
 10
2113.999882097706
 20
344.2209525996727
 10
2113.988499379081
 20
344.1583997168633
 10
2113.966677871609
 20
344.0608164777832
 10
2113.940971530255
 20
343.9641839224407
 10
2113.911421479684
 20
343.8686566423107
 10
2113.878074993673
 20
343.7743874606634
 10
2113.840985419485
 20
343.6815271880795
 10
2113.800212092528
 20
343.590224381186
 10
2113.755820241426
 20
343.5006251049973
 10
2113.707880883672
 20
343.4128726992416
 10
2113.656470712012
 20
343.3271075490489
 10
2113.601671971752
 20
343.2434668603637
 10
2113.54357232919
 20
343.1620844404451
 10
2113.482264731356
 20
343.0830904838049
 10
2113.417847257331
 20
343.0066113639223
 10
2113.35042296133
 20
342.9327694310746
 10
2113.280099707846
 20
342.8616828166024
 10
2113.206989999082
 20
342.7934652439238
 10
2113.131210794974
 20
342.7282258466036
 10
2113.052883326087
 20
342.66606899376
 10
2112.972132899659
 20
342.6070941230987
 10
2112.889088699148
 20
342.5513955818312
 10
2112.80388357756
 20
342.4990624757427
 10
2112.716653844913
 20
342.4501785266388
 10
2112.62753905017
 20
342.4048219384099
 10
2112.536681757994
 20
342.3630652719218
 10
2112.44422732067
 20
342.3249753289332
 10
2112.350323645575
 20
342.2906130452272
 10
2112.255120958558
 20
342.2600333931279
 10
2112.158771563609
 20
342.2332852935555
 10
2112.061429599206
 20
342.2104115377628
 10
2111.963250791728
 20
342.19144871888
 10
2111.864392206324
 20
342.1764271733719
 10
2111.765011995639
 20
342.165370932507
 10
2111.665269146811
 20
342.158297683912
 10
2111.565323227124
 20
342.1552187432761
 10
2111.465334128725
 20
342.1561390362473
 10
2111.365461812843
 20
342.1610570905532
 10
2111.265866053878
 20
342.1699650383559
 10
2111.1667061838
 20
342.1828486288392
 10
2111.068140837246
 20
342.199687251007
 10
2110.970327697745
 20
342.2204539666556
 10
2110.873423245456
 20
342.24511555347
 10
2110.777582506829
 20
342.2736325581719
 10
2110.6829588066
 20
342.3059593596378
 10
2110.589703522508
 20
342.3420442418807
 10
2110.49796584311
 20
342.381829476787
 10
2110.407892529126
 20
342.4252514164676
 10
2110.319627678642
 20
342.4722405950823
 10
2110.233312496591
 20
342.5227218399688
 10
2110.149085068852
 20
342.5766143919043
 10
2110.067080141339
 20
342.633832034302
 10
2109.987428904446
 20
342.6942832311399
 10
2109.910258783159
 20
342.7578712733987
 10
2109.835693233211
 20
342.8244944337755
 10
2109.763851543573
 20
342.8940461294256
 10
2109.694848645625
 20
342.9664150924731
 10
2109.628794929284
 20
343.0414855480151
 10
2109.565796066405
 20
343.1191373993369
 10
2109.505952841729
 20
343.1992464200409
 10
2109.44936099165
 20
343.2816844527833
 10
2109.396111051056
 20
343.3663196142975
 10
2109.346288208493
 20
343.4530165063795
 10
2109.299972169879
 20
343.5416364324964
 10
2109.257237030998
 20
343.632037619671
 10
2109.218151158955
 20
343.7240754452883
 10
2109.182777082807
 20
343.8176026684612
 10
2109.151171393529
 20
343.9124696655841
 10
2109.123384653484
 20
344.0085246696983
  0
LWPOLYLINE
  5
454
330
71
100
AcDbEntity
  8
0
100
AcDbPolyline
 90
        4
 70
   128
 43
0.0
 10
2109.120581185013
 20
344.0199021335812
 10
2109.099461315525
 20
344.1056140132884
 10
2109.079439651893
 20
344.2035823741155
 10
2109.076608061704
 20
344.2209525996727
  0
LWPOLYLINE
  5
455
330
71
100
AcDbEntity
  8
0
100
AcDbPolyline
 90
        6
 70
   128
 43
0.0
 10
2109.075030800289
 20
344.2306282182157
 10
2109.063351692977
 20
344.3022730237016
 10
2109.051223176079
 20
344.4015280780596
 10
2109.04307350424
 20
344.5011887502764
 10
2109.038915715196
 20
344.6010956045358
 10
2109.038332934478
 20
344.6550730438401
  0
LWPOLYLINE
  5
456
330
71
100
AcDbEntity
  8
0
100
AcDbPolyline
 90
        6
 70
   128
 43
0.0
 10
2109.038332934478
 20
345.796087432495
 10
2109.038332934478
 20
345.6766406829483
 10
2109.038332934478
 20
345.5507619796847
 10
2109.038332934478
 20
345.4324891599247
 10
2109.038332934478
 20
345.3220114349498
 10
2109.038332934478
 20
345.2775095911331
  0
LWPOLYLINE
  5
457
330
71
100
AcDbEntity
  8
0
100
AcDbPolyline
 90
        6
 70
   128
 43
0.0
 10
2109.038332934478
 20
345.1000686284134
 10
2109.038332934478
 20
345.0390522081354
 10
2109.038332934478
 20
344.9613934469606
 10
2109.038332934478
 20
344.8922834332163
 10
2109.038332934478
 20
344.8318327281826
 10
2109.038332934478
 20
344.7939131797717
  0
LWPOLYLINE
  5
458
330
71
100
AcDbEntity
  8
0
100
AcDbPolyline
 90
        6
 70
   128
 43
0.0
 10
2109.038332934478
 20
344.7939131797717
 10
2109.038332934478
 20
344.8170134859367
 10
2109.038332934478
 20
344.8751098173947
 10
2109.038332934478
 20
344.9418929316847
 10
2109.038332934478
 20
345.0172559900701
 10
2109.038332934478
 20
345.1000686284134
  0
LWPOLYLINE
  5
459
330
71
100
AcDbEntity
  8
0
100
AcDbPolyline
 90
        7
 70
   128
 43
0.0
 10
2109.038332934478
 20
345.2775095911331
 10
2109.038332934478
 20
345.2935517301468
 10
2109.038332934478
 20
345.4018946786708
 10
2109.038332934478
 20
345.5180816666235
 10
2109.038332934478
 20
345.6419268196094
 10
2109.038332934478
 20
345.7732320118026
 10
2109.038332934478
 20
345.796087432495
  0
LWPOLYLINE
  5
45A
330
71
100
AcDbEntity
  8
0
100
AcDbPolyline
 90
        5
 70
   128
 43
0.0
 10
2114.038332934478
 20
345.63303498448
 10
2114.038332934478
 20
345.5507619796847
 10
2114.038332934478
 20
345.4324891599247
 10
2114.038332934478
 20
345.3220114349498
 10
2114.038332934478
 20
345.3108629455041
  0
LWPOLYLINE
  5
45B
330
71
100
AcDbEntity
  8
0
100
AcDbPolyline
 90
        8
 70
   128
 43
0.0
 10
2114.038332934478
 20
344.9053733000467
 10
2114.038332934478
 20
344.8922834332163
 10
2114.038332934478
 20
344.8318327281826
 10
2114.038332934478
 20
344.7801380400912
 10
2114.038332934478
 20
344.737282069416
 10
2114.038332934478
 20
344.7033333765678
 10
2114.038332934478
 20
344.6783462722134
 10
2114.038332934478
 20
344.6752896421145
  0
LWPOLYLINE
  5
45C
330
71
100
AcDbEntity
  8
0
100
AcDbPolyline
 90
        7
 70
   128
 43
0.0
 10
2114.038332934478
 20
344.6752896421145
 10
2114.038332934478
 20
344.6957042512766
 10
2114.038332934478
 20
344.7272388927787
 10
2114.038332934478
 20
344.7676968790478
 10
2114.038332934478
 20
344.8170134859367
 10
2114.038332934478
 20
344.8751098173947
 10
2114.038332934478
 20
344.9053733000467
  0
LWPOLYLINE
  5
45D
330
71
100
AcDbEntity
  8
0
100
AcDbPolyline
 90
        4
 70
   128
 43
0.0
 10
2114.038332934478
 20
345.3108629455041
 10
2114.038332934478
 20
345.4018946786708
 10
2114.038332934478
 20
345.5180816666235
 10
2114.038332934478
 20
345.63303498448
  0
LWPOLYLINE
  5
45E
330
71
100
AcDbEntity
  8
0
100
AcDbPolyline
 90
        5
 70
   128
 43
0.0
 10
2114.038332934478
 20
346.1680451253783
 10
2114.038332934478
 20
346.2097495831618
 10
2114.038332934478
 20
346.3686801360362
 10
2114.038332934478
 20
346.5339080778439
 10
2114.038332934478
 20
346.600384873111
  0
LWPOLYLINE
  5
45F
330
71
100
AcDbEntity
  8
0
100
AcDbPolyline
 90
        7
 70
   128
 43
0.0
 10
2114.038332934478
 20
347.0253716389154
 10
2114.038332934478
 20
347.0646851225368
 10
2114.038332934478
 20
347.2523650156909
 10
2114.038332934478
 20
347.4449285904804
 10
2114.038332934478
 20
347.6420677862634
 10
2114.038332934478
 20
347.8434672223813
 10
2114.038332934478
 20
347.8963016420939
  0
LWPOLYLINE
  5
460
330
71
100
AcDbEntity
  8
0
100
AcDbPolyline
 90
       41
 70
   128
 43
0.0
 10
2114.038332934478
 20
344.6550730438401
 10
2114.038332934478
 20
344.6582726171962
 10
2114.038332934478
 20
344.6678662186296
 10
2114.038332934478
 20
344.6838385004247
 10
2114.038332934478
 20
344.7061639103377
 10
2114.038332934478
 20
344.7348067324751
 10
2114.038332934478
 20
344.7697211444321
 10
2114.038332934478
 20
344.8108512905969
 10
2114.038332934478
 20
344.8581313715104
 10
2114.038332934478
 20
344.9114857491285
 10
2114.038332934478
 20
344.9708290678284
 10
2114.038332934478
 20
345.0360663909603
 10
2114.038332934478
 20
345.1070933527228
 10
2114.038332934478
 20
345.1837963251296
 10
2114.038332934478
 20
345.2660525997863
 10
2114.038332934478
 20
345.3537305842013
 10
2114.038332934478
 20
345.4466900123029
 10
2114.038332934478
 20
345.5447821688363
 10
2114.038332934478
 20
345.6478501272766
 10
2114.038332934478
 20
345.7557290008764
 10
2114.038332934478
 20
345.8682462064513
 10
2114.038332934478
 20
345.9852217404749
 10
2114.038332934478
 20
346.1064684670459
 10
2114.038332934478
 20
346.2317924172662
 10
2114.038332934478
 20
346.3609930995501
 10
2114.038332934478
 20
346.4938638203675
 10
2114.038332934478
 20
346.6301920149088
 10
2114.038332934478
 20
346.7697595871451
 10
2114.038332934478
 20
346.9123432587332
 10
2114.038332934478
 20
347.057714926215
 10
2114.038332934478
 20
347.2056420259333
 10
2114.038332934478
 20
347.355887906085
 10
2114.038332934478
 20
347.5082122053124
 10
2114.038332934478
 20
347.6623712372306
 10
2114.038332934478
 20
347.8181183802742
 10
2114.038332934478
 20
347.9752044722392
 10
2114.038332934478
 20
348.1333782088875
 10
2114.038332934478
 20
348.2923865459828
 10
2114.038332934478
 20
348.4519751041057
 10
2114.038332934478
 20
348.6118885756068
 10
2114.038332934478
 20
348.6550730438401
  0
LWPOLYLINE
  5
461
330
71
100
AcDbEntity
  8
0
100
AcDbPolyline
 90
       29
 70
   128
 43
0.0
 10
2109.038332934478
 20
346.6800730438398
 10
2109.038332934478
 20
346.6675524924653
 10
2109.038332934478
 20
346.5303282521564
 10
2109.038332934478
 20
346.39650315026
 10
2109.038332934478
 20
346.2662912783907
 10
2109.038332934478
 20
346.1399009477661
 10
2109.038332934478
 20
346.0175343559541
 10
2109.038332934478
 20
345.8993872633978
 10
2109.038332934478
 20
345.7856486802421
 10
2109.038332934478
 20
345.6765005639567
 10
2109.038332934478
 20
345.5721175282442
 10
2109.038332934478
 20
345.4726665636946
 10
2109.038332934478
 20
345.378306770636
 10
2109.038332934478
 20
345.2891891046085
 10
2109.038332934478
 20
345.2054561348667
 10
2109.038332934478
 20
345.1272418163004
 10
2109.038332934478
 20
345.0546712751338
 10
2109.038332934478
 20
344.9878606087531
 10
2109.038332934478
 20
344.9269166999712
 10
2109.038332934478
 20
344.8719370460418
 10
2109.038332934478
 20
344.8230096026831
 10
2109.038332934478
 20
344.780212643367
 10
2109.038332934478
 20
344.7436146340989
 10
2109.038332934478
 20
344.7132741238862
 10
2109.038332934478
 20
344.6892396510734
 10
2109.038332934478
 20
344.6715496656894
 10
2109.038332934478
 20
344.6602324679377
 10
2109.038332934478
 20
344.6553061629203
 10
2109.038332934478
 20
344.6550730438401
  0
LINE
  5
462
330
71
100
AcDbEntity
  8
0
100
AcDbLine
 10
2114.038332934478
 20
348.6550730438401
 30
0.0
 11
2114.038332934478
 21
379.0550730438398
 31
0.0
  0
LINE
  5
463
330
71
100
AcDbEntity
  8
0
100
AcDbLine
 10
2109.038332934478
 20
379.0550730438398
 30
0.0
 11
2109.038332934478
 21
350.6800730438399
 31
0.0
  0
LWPOLYLINE
  5
464
330
71
100
AcDbEntity
  8
0
100
AcDbPolyline
 90
        4
 70
   128
 43
0.0
 10
2111.538332934479
 20
385.5550730438399
 10
2111.638306269944
 20
385.5530733104923
 10
2111.738119669401
 20
385.5470773095965
 10
2111.756222291348
 20
385.5452609889595
  0
LWPOLYLINE
  5
465
330
71
100
AcDbEntity
  8
0
100
AcDbPolyline
 90
        4
 70
   128
 43
0.0
 10
2111.785879111154
 20
385.5422853816691
 10
2111.837613452701
 20
385.5370946334747
 10
2111.936628451013
 20
385.523141252279
 10
2111.961398101243
 20
385.5186339306923
  0
LWPOLYLINE
  5
466
330
71
100
AcDbEntity
  8
0
100
AcDbPolyline
 90
        4
 70
   128
 43
0.0
 10
2111.972453378646
 20
385.5166222070698
 10
2112.035006261465
 20
385.5052394884428
 10
2112.132589500546
 20
385.48341798097
 10
2112.170028876849
 20
385.4734583003645
  0
LWPOLYLINE
  5
467
330
71
100
AcDbEntity
  8
0
100
AcDbPolyline
 90
       35
 70
   128
 43
0.0
 10
2112.185380547235
 20
385.4693744253403
 10
2112.229222055888
 20
385.4577116396167
 10
2112.324749336018
 20
385.4281615890461
 10
2112.419018517666
 20
385.3948151030346
 10
2112.511878790249
 20
385.357725528847
 10
2112.603181597143
 20
385.3169522018898
 10
2112.692780873332
 20
385.2725603507881
 10
2112.780533279087
 20
385.224620993034
 10
2112.86629842928
 20
385.1732108213733
 10
2112.949939117966
 20
385.118412081114
 10
2113.031321537884
 20
385.0603124385505
 10
2113.110315494524
 20
384.9990048407172
 10
2113.186794614406
 20
384.9345873666921
 10
2113.260636547254
 20
384.8671630706922
 10
2113.331723161727
 20
384.7968398172077
 10
2113.399940734405
 20
384.7237301084431
 10
2113.465180131725
 20
384.6479509043363
 10
2113.527336984569
 20
384.5696234354484
 10
2113.58631185523
 20
384.4888730090212
 10
2113.642010396498
 20
384.4058288085102
 10
2113.694343502587
 20
384.3206236869219
 10
2113.74322745169
 20
384.2333939542743
 10
2113.788584039919
 20
384.1442791595316
 10
2113.830340706407
 20
384.0534218673557
 10
2113.868430649396
 20
383.9609674300315
 10
2113.902792933101
 20
383.8670637549368
 10
2113.933372585201
 20
383.7718610679199
 10
2113.960120684773
 20
383.675511672971
 10
2113.982994440566
 20
383.5781697085685
 10
2114.001957259449
 20
383.4799909010905
 10
2114.016978804957
 20
383.3811323156854
 10
2114.028035045822
 20
383.2817521050007
 10
2114.035108294417
 20
383.1820092561737
 10
2114.038187235053
 20
383.0820633364856
 10
2114.038332934478
 20
383.0550730438398
  0
LWPOLYLINE
  5
468
330
71
100
AcDbEntity
  8
0
100
AcDbPolyline
 90
       41
 70
   128
 43
0.0
 10
2114.038332934478
 20
383.0550730438398
 10
2114.038332934478
 20
383.0518734704839
 10
2114.038332934478
 20
383.0422798690504
 10
2114.038332934478
 20
383.0263075872554
 10
2114.038332934478
 20
383.0039821773423
 10
2114.038332934478
 20
382.9753393552048
 10
2114.038332934478
 20
382.940424943248
 10
2114.038332934478
 20
382.8992947970829
 10
2114.038332934478
 20
382.8520147161697
 10
2114.038332934478
 20
382.7986603385517
 10
2114.038332934478
 20
382.7393170198515
 10
2114.038332934478
 20
382.6740796967198
 10
2114.038332934478
 20
382.6030527349571
 10
2114.038332934478
 20
382.5263497625503
 10
2114.038332934478
 20
382.4440934878935
 10
2114.038332934478
 20
382.3564155034784
 10
2114.038332934478
 20
382.2634560753769
 10
2114.038332934478
 20
382.1653639188436
 10
2114.038332934478
 20
382.0622959604035
 10
2114.038332934478
 20
381.9544170868033
 10
2114.038332934478
 20
381.8418998812285
 10
2114.038332934478
 20
381.7249243472052
 10
2114.038332934478
 20
381.6036776206341
 10
2114.038332934478
 20
381.4783536704137
 10
2114.038332934478
 20
381.3491529881298
 10
2114.038332934478
 20
381.2162822673123
 10
2114.038332934478
 20
381.079954072771
 10
2114.038332934478
 20
380.9403865005349
 10
2114.038332934478
 20
380.7978028289467
 10
2114.038332934478
 20
380.6524311614651
 10
2114.038332934478
 20
380.5045040617465
 10
2114.038332934478
 20
380.3542581815948
 10
2114.038332934478
 20
380.2019338823677
 10
2114.038332934478
 20
380.0477748504493
 10
2114.038332934478
 20
379.8920277074055
 10
2114.038332934478
 20
379.7349416154408
 10
2114.038332934478
 20
379.5767678787923
 10
2114.038332934478
 20
379.4177595416972
 10
2114.038332934478
 20
379.2581709835742
 10
2114.038332934478
 20
379.0982575120729
 10
2114.038332934478
 20
379.0550730438398
  0
LWPOLYLINE
  5
469
330
71
100
AcDbEntity
  8
0
100
AcDbPolyline
 90
       11
 70
   128
 43
0.0
 10
2109.038332934478
 20
379.0550730438398
 10
2109.038332934478
 20
379.2150303805864
 10
2109.038332934478
 20
379.3747318197165
 10
2109.038332934478
 20
379.5339218729955
 10
2109.038332934478
 20
379.692345870297
 10
2109.038332934478
 20
379.8497503670202
 10
2109.038332934478
 20
380.0058835495483
 10
2109.038332934478
 20
380.1604956380964
 10
2109.038332934478
 20
380.3133392863043
 10
2109.038332934478
 20
380.4641699769403
 10
2109.038332934478
 20
380.5562808836364
  0
LINE
  5
476
330
71
100
AcDbEntity
  8
0
100
AcDbLine
 10
2102.538332934463
 20
312.0550730438684
 30
0.0
 11
2102.538332934464
 21
454.0550730438683
 31
0.0
  0
LINE
  5
477
330
71
100
AcDbEntity
  8
0
100
AcDbLine
 10
2102.538332934464
 20
454.0550730438683
 30
0.0
 11
1886.788332934464
 21
454.0550730438696
 31
0.0
  0
LINE
  5
478
330
71
100
AcDbEntity
  8
0
100
AcDbLine
 10
1886.788332934464
 20
454.0550730438696
 30
0.0
 11
1886.788332934463
 21
312.0550730438698
 31
0.0
  0
LINE
  5
479
330
71
100
AcDbEntity
  8
0
100
AcDbLine
 10
1886.788332934463
 20
312.0550730438698
 30
0.0
 11
2102.538332934463
 21
312.0550730438684
 31
0.0
  0
LINE
  5
47C
330
71
100
AcDbEntity
  8
0
100
AcDbLine
 10
2102.788332934478
 20
396.6800730438397
 30
0.0
 11
2102.53833293448
 21
396.6800730438397
 31
0.0
  0
LINE
  5
47D
330
71
100
AcDbEntity
  8
0
100
AcDbLine
 10
2102.53833293448
 20
393.6800730438397
 30
0.0
 11
2102.788332934478
 21
393.6800730438397
 31
0.0
  0
LINE
  5
47E
330
71
100
AcDbEntity
  8
0
100
AcDbLine
 10
2102.788332934478
 20
321.3050730438395
 30
0.0
 11
2102.53833293448
 21
321.3050730438395
 31
0.0
  0
LINE
  5
47F
330
71
100
AcDbEntity
  8
0
100
AcDbLine
 10
2102.53833293448
 20
319.3050730438396
 30
0.0
 11
2102.788332934478
 21
319.3050730438396
 31
0.0
  0
LINE
  5
480
330
71
100
AcDbEntity
  8
0
100
AcDbLine
 10
2102.788332934478
 20
444.3050730438397
 30
0.0
 11
2102.53833293448
 21
444.3050730438397
 31
0.0
  0
LINE
  5
481
330
71
100
AcDbEntity
  8
0
100
AcDbLine
 10
2102.53833293448
 20
442.8050730438397
 30
0.0
 11
2102.788332934478
 21
442.8050730438397
 31
0.0
  0
LINE
  5
482
330
71
100
AcDbEntity
  8
0
100
AcDbLine
 10
2102.788332934478
 20
396.6800730438393
 30
0.0
 11
2102.788332934478
 21
393.6800730438394
 31
0.0
  0
LINE
  5
483
330
71
100
AcDbEntity
  8
0
100
AcDbLine
 10
2102.788332934478
 20
321.3050730438395
 30
0.0
 11
2102.788332934478
 21
319.3050730438393
 31
0.0
  0
LINE
  5
484
330
71
100
AcDbEntity
  8
0
100
AcDbLine
 10
2102.788332934478
 20
444.3050730438393
 30
0.0
 11
2102.788332934478
 21
442.8050730438393
 31
0.0
  0
LINE
  5
485
330
71
100
AcDbEntity
  8
0
100
AcDbLine
 10
2111.538332934478
 20
350.6800730438399
 30
0.0
 11
2102.538332934478
 21
350.6800730438399
 31
0.0
  0
LINE
  5
486
330
71
100
AcDbEntity
  8
0
100
AcDbLine
 10
2102.538332934478
 20
346.6800730438399
 30
0.0
 11
2111.538332934478
 21
346.6800730438398
 31
0.0
  0
LINE
  5
487
330
71
100
AcDbEntity
  8
0
100
AcDbLine
 10
2111.538332934478
 20
419.4300730438397
 30
0.0
 11
2102.538332934478
 21
419.4300730438397
 31
0.0
  0
LINE
  5
488
330
71
100
AcDbEntity
  8
0
100
AcDbLine
 10
2102.538332934478
 20
415.43007304384
 30
0.0
 11
2111.538332934478
 21
415.43007304384
 31
0.0
  0
LINE
  5
489
330
71
100
AcDbEntity
  8
0
100
AcDbLine
 10
2111.538332934478
 20
350.6800730438397
 30
0.0
 11
2111.538332934478
 21
346.6800730438397
 31
0.0
  0
LINE
  5
48A
330
71
100
AcDbEntity
  8
0
100
AcDbLine
 10
2111.538332934478
 20
419.4300730438395
 30
0.0
 11
2111.538332934478
 21
415.4300730438396
 31
0.0
  0
LINE
  5
497
330
71
100
AcDbEntity
  8
0
100
AcDbLine
 10
1746.472519422844
 20
165.7450353879098
 30
0.0
 11
1604.472519422845
 21
165.7450353879094
 31
0.0
  0
LINE
  5
498
330
71
100
AcDbEntity
  8
0
100
AcDbLine
 10
1604.472519422845
 20
165.7450353879094
 30
0.0
 11
1604.472519422845
 21
206.4999999999998
 31
0.0
  0
LINE
  5
499
330
71
100
AcDbEntity
  8
0
100
AcDbLine
 10
1746.472519422844
 20
165.7450353879098
 30
0.0
 11
1746.472519422844
 21
206.5000000000003
 31
0.0
  0
LINE
  5
49A
330
71
100
AcDbEntity
  8
0
100
AcDbLine
 10
1604.472519422873
 20
165.5
 30
0.0
 11
1746.472519422873
 21
165.5
 31
0.0
  0
LINE
  5
49B
330
71
100
AcDbEntity
  8
0
100
AcDbLine
 10
1746.472519422873
 20
69.625
 30
0.0
 11
1604.472519422873
 21
69.625
 31
0.0
  0
LINE
  5
49C
330
71
100
AcDbEntity
  8
0
100
AcDbLine
 10
1604.472519422873
 20
69.625
 30
0.0
 11
1604.472519422873
 21
165.5
 31
0.0
  0
LINE
  5
49D
330
71
100
AcDbEntity
  8
0
100
AcDbLine
 10
1746.472519422873
 20
69.625
 30
0.0
 11
1746.472519422873
 21
165.5
 31
0.0
  0
LINE
  5
4A1
330
71
100
AcDbEntity
  8
0
100
AcDbLine
 10
1604.472519422874
 20
69.625
 30
0.0
 11
1746.472519422874
 21
69.625
 31
0.0
  0
LINE
  5
4A2
330
71
100
AcDbEntity
  8
0
100
AcDbLine
 10
1746.472519422874
 20
0.0
 30
0.0
 11
1604.472519422874
 21
0.0
 31
0.0
  0
LINE
  5
4A3
330
71
100
AcDbEntity
  8
0
100
AcDbLine
 10
1604.472519422874
 20
63.75000000000087
 30
0.0
 11
1604.472519422874
 21
69.625
 31
0.0
  0
LINE
  5
4A4
330
71
100
AcDbEntity
  8
0
100
AcDbLine
 10
1604.472519422874
 20
63.75000000000087
 30
0.0
 11
1746.472519422874
 21
63.75000000000087
 31
0.0
  0
LINE
  5
4A5
330
71
100
AcDbEntity
  8
0
100
AcDbLine
 10
1746.472519422874
 20
21.75000000000045
 30
0.0
 11
1604.472519422874
 21
21.75000000000045
 31
0.0
  0
LINE
  5
4A6
330
71
100
AcDbEntity
  8
0
100
AcDbLine
 10
1604.472519422874
 20
0.0
 30
0.0
 11
1604.472519422874
 21
21.75000000000045
 31
0.0
  0
LINE
  5
4A7
330
71
100
AcDbEntity
  8
0
100
AcDbLine
 10
1746.472519422874
 20
63.75000000000087
 30
0.0
 11
1746.472519422874
 21
69.625
 31
0.0
  0
LINE
  5
4A8
330
71
100
AcDbEntity
  8
0
100
AcDbLine
 10
1746.472519422874
 20
0.0
 30
0.0
 11
1746.472519422874
 21
21.75000000000045
 31
0.0
  0
LINE
  5
4A9
330
71
100
AcDbEntity
  8
0
100
AcDbLine
 10
1745.472519422874
 20
63.75000000000085
 30
0.0
 11
1745.472519422874
 21
21.75000000000042
 31
0.0
  0
LINE
  5
4AA
330
71
100
AcDbEntity
  8
0
100
AcDbLine
 10
1744.097519422874
 20
63.75000000000085
 30
0.0
 11
1744.097519422874
 21
21.75000000000043
 31
0.0
  0
LINE
  5
4AB
330
71
100
AcDbEntity
  8
0
100
AcDbLine
 10
1740.722519422874
 20
63.75000000000087
 30
0.0
 11
1740.722519422874
 21
21.75000000000043
 31
0.0
  0
LINE
  5
4AC
330
71
100
AcDbEntity
  8
0
100
AcDbLine
 10
1677.222519422874
 20
63.75000000000087
 30
0.0
 11
1677.222519422874
 21
21.75000000000043
 31
0.0
  0
LINE
  5
4AD
330
71
100
AcDbEntity
  8
0
100
AcDbLine
 10
1673.722519422875
 20
21.75000000000043
 30
0.0
 11
1673.722519422875
 21
63.75000000000087
 31
0.0
  0
LINE
  5
4AE
330
71
100
AcDbEntity
  8
0
100
AcDbLine
 10
1610.222519422874
 20
63.75000000000087
 30
0.0
 11
1610.222519422874
 21
21.75000000000043
 31
0.0
  0
LINE
  5
4AF
330
71
100
AcDbEntity
  8
0
100
AcDbLine
 10
1606.847519422874
 20
63.75000000000085
 30
0.0
 11
1606.847519422874
 21
21.75000000000043
 31
0.0
  0
LINE
  5
4B0
330
71
100
AcDbEntity
  8
0
100
AcDbLine
 10
1605.472519422874
 20
63.75000000000085
 30
0.0
 11
1605.472519422874
 21
21.75000000000042
 31
0.0
  0
LINE
  5
4B1
330
71
100
AcDbEntity
  8
0
100
AcDbLine
 10
2107.538332934478
 20
158.3750000000034
 30
0.0
 11
2102.538332934478
 21
158.3750000000034
 31
0.0
  0
LINE
  5
4B2
330
71
100
AcDbEntity
  8
0
100
AcDbLine
 10
2102.538332934478
 20
153.3750000000033
 30
0.0
 11
2107.538332934478
 21
153.3750000000033
 31
0.0
  0
LWPOLYLINE
  5
4B3
330
71
100
AcDbEntity
  8
0
100
AcDbPolyline
 90
       41
 70
   128
 43
0.0
 10
2114.038332934479
 20
151.875000000003
 10
2114.033133627776
 20
152.1349306722162
 10
2114.017544025446
 20
152.3944455108026
 10
2113.991589067529
 20
152.6531293473809
 10
2113.955310276421
 20
152.9105683429957
 10
2113.908765690447
 20
153.1663506501711
 10
2113.852029771017
 20
153.4200670717795
 10
2113.785193283499
 20
153.6713117156697
 10
2113.708363152015
 20
153.9196826440078
 10
2113.621662288386
 20
154.1647825162911
 10
2113.525229395497
 20
154.4062192250092
 10
2113.419218745409
 20
154.6436065229321
 10
2113.303799932544
 20
154.8765646410228
 10
2113.179157602383
 20
155.1047208959876
 10
2113.045491156066
 20
155.3277102864889
 10
2112.903014431392
 20
155.5451760770709
 10
2112.751955360727
 20
155.7567703688588
 10
2112.59255560636
 20
155.9621546561231
 10
2112.425070173895
 20
156.1610003678179
 10
2112.249767004295
 20
156.3529893932221
 10
2112.066926545235
 20
156.5378145908502
 10
2111.876841302447
 20
156.7151802798137
 10
2111.67981537177
 20
156.8848027128468
 10
2111.476163952661
 20
157.0464105302398
 10
2111.26621284395
 20
157.1997451939599
 10
2111.050297922622
 20
157.3445614012548
 10
2110.828764606492
 20
157.4806274770851
 10
2110.601967301608
 20
157.6077257447555
 10
2110.370268835277
 20
157.7256528741506
 10
2110.134039875619
 20
157.8342202070199
 10
2109.893658338577
 20
157.9332540587903
 10
2109.649508783331
 20
158.0225959964254
 10
2109.401981797086
 20
158.1021030918833
 10
2109.15147337022
 20
158.1716481507722
 10
2108.898384262773
 20
158.2311199158329
 10
2108.64311936333
 20
158.2804232449283
 10
2108.386087041276
 20
158.3194792632494
 10
2108.127698493496
 20
158.348225489498
 10
2107.868367086547
 20
158.3666159358448
 10
2107.608507695357
 20
158.3746211814982
 10
2107.538332934478
 20
158.3750000000034
  0
LWPOLYLINE
  5
4B4
330
71
100
AcDbEntity
  8
0
100
AcDbPolyline
 90
       41
 70
   128
 43
0.0
 10
2107.538332934478
 20
153.3750000000033
 10
2107.598316935758
 20
153.3738001599948
 10
2107.658204975432
 20
153.3702025594572
 10
2107.717901245412
 20
153.3642129537842
 10
2107.7773102444
 20
153.3558409250668
 10
2107.836336930671
 20
153.3450998667652
 10
2107.89488687412
 20
153.3320069622815
 10
2107.952866407325
 20
153.3165831574694
 10
2108.010182775402
 20
153.2988531271269
 10
2108.066744284391
 20
153.2788452355202
 10
2108.122460447942
 20
153.2565914910077
 10
2108.177242132077
 20
153.2321274948334
 10
2108.231001697792
 20
153.2054923841723
 10
2108.283653141244
 20
153.1767287695199
 10
2108.33511223136
 20
153.1458826665235
 10
2108.385296644571
 20
153.1130034223679
 10
2108.434126096522
 20
153.0781436368297
 10
2108.481522470507
 20
153.0413590781297
 10
2108.527409942436
 20
153.0027085937147
 10
2108.571715102145
 20
152.9622540161147
 10
2108.614367070828
 20
152.9200600640239
 10
2108.655297614435
 20
152.8761942387653
 10
2108.694441252827
 20
152.8307267163011
 10
2108.731735364533
 20
152.7837302349685
 10
2108.76712028693
 20
152.7352799791117
 10
2108.800539411691
 20
152.6854534588055
 10
2108.831939275344
 20
152.6343303858523
 10
2108.861269644807
 20
152.5819925462637
 10
2108.888483597744
 20
152.5285236694181
 10
2108.913537597636
 20
152.4740092941125
 10
2108.93639156343
 20
152.418536631718
 10
2108.957008933653
 20
152.3621944266612
 10
2108.975356724913
 20
152.305072814451
 10
2108.991405584657
 20
152.2472631774815
 10
2109.005129838132
 20
152.1888579988402
 10
2109.016507529462
 20
152.1299507143533
 10
2109.025520456766
 20
152.0706355631102
 10
2109.032154201285
 20
152.0110074366994
 10
2109.036398150442
 20
151.9511617274033
 10
2109.038245514824
 20
151.8911941755904
 10
2109.038332934479
 20
151.8750000000028
  0
LINE
  5
4B5
330
71
100
AcDbEntity
  8
0
100
AcDbLine
 10
2114.038332934479
 20
143.875000000003
 30
0.0
 11
2114.038332934479
 21
151.8750000000028
 31
0.0
  0
LINE
  5
4B6
330
71
100
AcDbEntity
  8
0
100
AcDbLine
 10
2109.038332934479
 20
151.8750000000028
 30
0.0
 11
2109.038332934479
 21
149.2500000000001
 31
0.0
  0
LINE
  5
4B7
330
71
100
AcDbEntity
  8
0
100
AcDbLine
 10
2109.038332934479
 20
145.2500000000002
 30
0.0
 11
2109.038332934479
 21
143.875000000003
 31
0.0
  0
LINE
  5
4B9
330
71
100
AcDbEntity
  8
0
100
AcDbLine
 10
2102.53833293448
 20
12.24999999999824
 30
0.0
 11
2109.038332934478
 21
12.24999999999824
 31
0.0
  0
LINE
  5
4BA
330
71
100
AcDbEntity
  8
0
100
AcDbLine
 10
2109.038332934478
 20
16.25000000000022
 30
0.0
 11
2102.53833293448
 21
16.25000000000022
 31
0.0
  0
LINE
  5
4BB
330
71
100
AcDbEntity
  8
0
100
AcDbLine
 10
2114.038332934478
 20
9.849999999998198
 30
0.0
 11
2115.788332934478
 21
9.849999999998198
 31
0.0
  0
LINE
  5
4BC
330
71
100
AcDbEntity
  8
0
100
AcDbLine
 10
2115.788332934478
 20
18.65000000000026
 30
0.0
 11
2114.038332934478
 21
18.65000000000026
 31
0.0
  0
LWPOLYLINE
  5
4BD
330
71
100
AcDbEntity
  8
0
100
AcDbPolyline
 90
       80
 70
   128
 43
0.0
 10
2115.788332934478
 20
18.9000000000002
 10
2115.788332934478
 20
18.89628049597382
 10
2115.788332934478
 20
18.88512793430754
 10
2115.788332934478
 20
18.86656015672059
 10
2115.788332934478
 20
18.84060686769709
 10
2115.788332934478
 20
18.80730958696199
 10
2115.788332934478
 20
18.76672158306211
 10
2115.788332934478
 20
18.7189077881452
 10
2115.788332934478
 20
18.66394469408356
 10
2115.788332934478
 20
18.60192023010267
 10
2115.788332934478
 20
18.5329336221136
 10
2115.788332934478
 20
18.45709523397289
 10
2115.788332934478
 20
18.3745263909239
 10
2115.788332934478
 20
18.28535918550113
 10
2115.788332934478
 20
18.18973626621254
 10
2115.788332934478
 20
18.08781060933
 10
2115.788332934478
 20
17.97974527416198
 10
2115.788332934478
 20
17.8657131421919
 10
2115.788332934478
 20
17.74589664050517
 10
2115.788332934478
 20
17.62048744994524
 10
2115.788332934478
 20
17.48968619846436
 10
2115.788332934478
 20
17.35370214016199
 10
2115.788332934478
 20
17.21275282052329
 10
2115.788332934478
 20
17.06706372839192
 10
2115.788332934478
 20
16.91686793523672
 10
2115.788332934478
 20
16.76240572228669
 10
2115.788332934478
 20
16.60392419613236
 10
2115.788332934478
 20
16.44167689340758
 10
2115.788332934478
 20
16.2759233751866
 10
2115.788332934478
 20
16.10692881173878
 10
2115.788332934478
 20
15.93496355831632
 10
2115.788332934478
 20
15.76030272263994
 10
2115.788332934478
 20
15.58322572478823
 10
2115.788332934478
 20
15.40401585018293
 10
2115.788332934478
 20
15.22295979639454
 10
2115.788332934478
 20
15.04034721448556
 10
2115.788332934478
 20
14.85647024563178
 10
2115.788332934478
 20
14.67162305375842
 10
2115.788332934478
 20
14.48610135494038
 10
2115.788332934478
 20
14.30020194432012
 10
2115.788332934478
 20
14.11422222129834
 10
2115.788332934478
 20
13.92845971375771
 10
2115.788332934478
 20
13.74321160208387
 10
2115.788332934478
 20
13.55877424373716
 10
2115.788332934478
 20
13.37544269914713
 10
2115.788332934478
 20
13.19351025967625
 10
2115.788332934478
 20
13.01326797841722
 10
2115.788332934478
 20
12.83500420457073
 10
2115.788332934478
 20
12.65900412214728
 10
2115.788332934478
 20
12.48554929373398
 10
2115.788332934478
 20
12.31491721005466
 10
2115.788332934478
 20
12.14738084604357
 10
2115.788332934478
 20
11.98320822414387
 10
2115.788332934478
 20
11.8226619855294
 10
2115.788332934478
 20
11.66599896993346
 10
2115.788332934478
 20
11.51346980476148
 10
2115.788332934478
 20
11.36531850413973
 10
2115.788332934478
 20
11.22178207854551
 10
2115.788332934478
 20
11.08309015564043
 10
2115.788332934478
 20
10.94946461291465
 10
2115.788332934478
 20
10.8211192227319
 10
2115.788332934478
 20
10.69825931033688
 10
2115.788332934478
 20
10.58108142538117
 10
2115.788332934478
 20
10.46977302748393
 10
2115.788332934478
 20
10.36451218633738
 10
2115.788332934478
 20
10.26546729683286
 10
2115.788332934478
 20
10.1727968096651
 10
2115.788332934478
 20
10.08664897784484
 10
2115.788332934478
 20
10.00716161952579
 10
2115.788332934478
 20
9.934461897524952
 10
2115.788332934478
 20
9.868666115889141
 10
2115.788332934478
 20
9.809879533833107
 10
2115.788332934478
 20
9.758196197347782
 10
2115.788332934478
 20
9.71369878874634
 10
2115.788332934478
 20
9.676458494390193
 10
2115.788332934478
 20
9.646534890806206
 10
2115.788332934478
 20
9.623975849376732
 10
2115.788332934478
 20
9.608817459755924
 10
2115.788332934478
 20
9.601083972133263
 10
2115.788332934478
 20
9.599999999998088
  0
LWPOLYLINE
  5
4BE
330
71
100
AcDbEntity
  8
0
100
AcDbPolyline
 90
       41
 70
   128
 43
0.0
 10
2115.788332934478
 20
18.9000000000002
 10
2115.788932854483
 20
18.92999200064019
 10
2115.790731654751
 20
18.95993602047707
 10
2115.793726457588
 20
18.98978415546696
 10
2115.797912471947
 20
19.01948865496086
 10
2115.803283001097
 20
19.04900199809657
 10
2115.809829453339
 20
19.0782769698207
 10
2115.817541355745
 20
19.10726673642341
 10
2115.826406370916
 20
19.13592492046234
 10
2115.83641031672
 20
19.16420567495663
 10
2115.847537188976
 20
19.19206375673178
 10
2115.859769187063
 20
19.21945459879987
 10
2115.873086742394
 20
19.24633438165636
 10
2115.88746854972
 20
19.27266010338325
 10
2115.902891601219
 20
19.29838964844094
 10
2115.919331223296
 20
19.32348185504645
 10
2115.936761116065
 20
19.34789658102214
 10
2115.955153395415
 20
19.37159476801423
 10
2115.974478637623
 20
19.39453850397887
 10
2115.994705926423
 20
19.41669108383325
 10
2116.015802902468
 20
19.43801706817504
 10
2116.037735815098
 20
19.45848233997827
 10
2116.06046957633
 20
19.47805415917446
 10
2116.083967816996
 20
19.49670121502754
 10
2116.108192944924
 20
19.51439367622595
 10
2116.133106205078
 20
19.53110323860636
 10
2116.158667741554
 20
19.54680317043272
 10
2116.184836661348
 20
19.56146835516403
 10
2116.211571099771
 20
19.57507533163266
 10
2116.238828287424
 20
19.58760233157903
 10
2116.266564618621
 20
19.59902931447567
 10
2116.294735721149
 20
19.60933799958735
 10
2116.323296527254
 20
19.61851189521723
 10
2116.352201345739
 20
19.62653632508892
 10
2116.38140393506
 20
19.63339845182673
 10
2116.410857577303
 20
19.63908729749169
 10
2116.440515152925
 20
19.64359376114407
 10
2116.47032921613
 20
19.64691063340342
 10
2116.500252070778
 20
19.64903260798189
 10
2116.530235846685
 20
19.64995629017272
 10
2116.538332934478
 20
19.6500000000002
  0
LWPOLYLINE
  5
4BF
330
71
100
AcDbEntity
  8
0
100
AcDbPolyline
 90
       41
 70
   128
 43
0.0
 10
2116.538332934478
 20
8.849999999998258
 10
2116.508340933838
 20
8.850599920002535
 10
2116.478396914001
 20
8.852398720271422
 10
2116.448548779012
 20
8.855393523107863
 10
2116.418844279518
 20
8.859579537466514
 10
2116.389330936382
 20
8.86495006661738
 10
2116.360055964658
 20
8.871496518859201
 10
2116.331066198055
 20
8.879208421265216
 10
2116.302408014016
 20
8.888073436436568
 10
2116.274127259522
 20
8.898077382239819
 10
2116.246269177747
 20
8.909204254495987
 10
2116.218878335679
 20
8.921436252583132
 10
2116.191998552822
 20
8.934753807913693
 10
2116.165672831096
 20
8.949135615240091
 10
2116.139943286038
 20
8.964558666738296
 10
2116.114851079432
 20
8.980998288815893
 10
2116.090436353457
 20
8.998428181585095
 10
2116.066738166464
 20
9.016820460935091
 10
2116.043794430499
 20
9.036145703142606
 10
2116.021641850645
 20
9.056372991942676
 10
2116.000315866303
 20
9.077469967987893
 10
2115.9798505945
 20
9.099402880617443
 10
2115.960278775304
 20
9.122136641849404
 10
2115.941631719451
 20
9.145634882515707
 10
2115.923939258253
 20
9.169860010443812
 10
2115.907229695872
 20
9.194773270597123
 10
2115.891529764045
 20
9.220334807073641
 10
2115.876864579315
 20
9.246503726867898
 10
2115.863257602846
 20
9.273238165290649
 10
2115.8507306029
 20
9.300495352943583
 10
2115.839303620003
 20
9.328231684140687
 10
2115.828994934891
 20
9.356402786669091
 10
2115.819821039262
 20
9.384963592774337
 10
2115.81179660939
 20
9.413868411259043
 10
2115.804934482652
 20
9.443071000579662
 10
2115.799245636987
 20
9.472524642823199
 10
2115.794739173335
 20
9.502182218444655
 10
2115.791422301075
 20
9.531996281650091
 10
2115.789300326497
 20
9.561919136298113
 10
2115.788376644306
 20
9.591902912204655
 10
2115.788332934478
 20
9.599999999998088
  0
LWPOLYLINE
  5
4C0
330
71
100
AcDbEntity
  8
0
100
AcDbPolyline
 90
        4
 70
   128
 43
0.0
 10
2115.788332934478
 20
9.599999999998088
 10
2115.788332934478
 20
9.603719504024807
 10
2115.788332934478
 20
9.614872065691086
 10
2115.788332934478
 20
9.622553189619905
  0
LWPOLYLINE
  5
4C1
330
71
100
AcDbEntity
  8
0
100
AcDbPolyline
 90
        4
 70
   128
 43
0.0
 10
2115.788332934478
 20
18.87805018983056
 10
2115.788332934478
 20
18.8911825402427
 10
2115.788332934478
 20
18.89891602786536
 10
2115.788332934478
 20
18.9000000000002
  0
LINE
  5
4C2
330
71
100
AcDbEntity
  8
0
100
AcDbLine
 10
2116.538332934478
 20
8.849999999998258
 30
0.0
 11
2128.038332934478
 21
8.849999999998258
 31
0.0
  0
LINE
  5
4C3
330
71
100
AcDbEntity
  8
0
100
AcDbLine
 10
2128.038332934478
 20
19.6500000000002
 30
0.0
 11
2116.538332934478
 21
19.6500000000002
 31
0.0
  0
LWPOLYLINE
  5
4C4
330
71
100
AcDbEntity
  8
0
100
AcDbPolyline
 90
       80
 70
   128
 43
0.0
 10
2129.538332934478
 20
10.34999999999809
 10
2129.538332934478
 20
10.35311958402053
 10
2129.538332934478
 20
10.36247334541809
 10
2129.538332934478
 20
10.37804632016826
 10
2129.538332934478
 20
10.39981359483346
 10
2129.538332934478
 20
10.42774034641752
 10
2129.538332934478
 20
10.4617818980754
 10
2129.538332934478
 20
10.5018837905863
 10
2129.538332934478
 20
10.54798186947675
 10
2129.538332934478
 20
10.60000238765439
 10
2129.538332934478
 20
10.65786212338696
 10
2129.538332934478
 20
10.72146851344052
 10
2129.538332934478
 20
10.79071980115912
 10
2129.538332934478
 20
10.86550519925549
 10
2129.538332934478
 20
10.94570506704604
 10
2129.538332934478
 20
11.03119110185082
 10
2129.538332934478
 20
11.12182654424981
 10
2129.538332934478
 20
11.21746639686989
 10
2129.538332934478
 20
11.3179576563491
 10
2129.538332934478
 20
11.42313955810897
 10
2129.538332934478
 20
11.5328438335448
 10
2129.538332934478
 20
11.64689497921745
 10
2129.538332934478
 20
11.76511053762419
 10
2129.538332934478
 20
11.88730138908925
 10
2129.538332934478
 20
12.01327205431619
 10
2129.538332934478
 20
12.14282100711307
 10
2129.538332934478
 20
12.27574099679088
 10
2129.538332934478
 20
12.41181937972123
 10
2129.538332934478
 20
12.55083845951963
 10
2129.538332934478
 20
12.69257583531435
 10
2129.538332934478
 20
12.83680475754005
 10
2129.538332934478
 20
12.98329449068768
 10
2129.538332934478
 20
13.13181068243432
 10
2129.538332934478
 20
13.28211573855492
 10
2129.538332934478
 20
13.43396920302268
 10
2129.538332934478
 20
13.58712814268813
 10
2129.538332934478
 20
13.74134753592045
 10
2129.538332934478
 20
13.89638066458837
 10
2129.538332934478
 20
14.05197950875839
 10
2129.538332934478
 20
14.20789514347194
 10
2129.538332934478
 20
14.36387813697433
 10
2129.538332934478
 20
14.51967894975024
 10
2129.538332934478
 20
14.67504833373487
 10
2129.538332934478
 20
14.82973773105771
 10
2129.538332934478
 20
14.98349967168172
 10
2129.538332934478
 20
15.13608816930246
 10
2129.538332934478
 20
15.28725911487464
 10
2129.538332934478
 20
15.43677066713286
 10
2129.538332934478
 20
15.58438363948812
 10
2129.538332934478
 20
15.7298618826735
 10
2129.538332934478
 20
15.87297266253364
 10
2129.538332934478
 20
16.01348703234924
 10
2129.538332934478
 20
16.15118019910386
 10
2129.538332934478
 20
16.28583188310318
 10
2129.538332934478
 20
16.4172266703772
 10
2129.538332934478
 20
16.54515435729575
 10
2129.538332934478
 20
16.66941028684942
 10
2129.538332934478
 20
16.78979567605739
 10
2129.538332934478
 20
16.90611793397772
 10
2129.538332934478
 20
17.01819096981222
 10
2129.538332934478
 20
17.12583549061082
 10
2129.538332934478
 20
17.22887928810348
 10
2129.538332934478
 20
17.32715751419522
 10
2129.538332934478
 20
17.42051294468978
 10
2129.538332934478
 20
17.50879623081277
 10
2129.538332934478
 20
17.59186613813915
 10
2129.538332934478
 20
17.66958977253801
 10
2129.538332934478
 20
17.7418427927742
 10
2129.538332934478
 20
17.80850960942893
 10
2129.538332934478
 20
17.8694835698165
 10
2129.538332934478
 20
17.924667128608
 10
2129.538332934478
 20
17.9739720038808
 10
2129.538332934478
 20
18.01731931835229
 10
2129.538332934478
 20
18.05463972556634
 10
2129.538332934478
 20
18.08587352083293
 10
2129.538332934478
 20
18.11097073674204
 10
2129.538332934478
 20
18.12989122310216
 10
2129.538332934478
 20
18.14260471117131
 10
2129.538332934478
 20
18.14909086208086
 10
2129.538332934478
 20
18.1500000000002
  0
LWPOLYLINE
  5
4C5
330
71
100
AcDbEntity
  8
0
100
AcDbPolyline
 90
       41
 70
   128
 43
0.0
 10
2128.038332934478
 20
19.6500000000002
 10
2128.098316935759
 20
19.64880015999182
 10
2128.158204975432
 20
19.64520255945421
 10
2128.217901245412
 20
19.63921295378099
 10
2128.277310244399
 20
19.63084092506369
 10
2128.336336930671
 20
19.6200998667623
 10
2128.394886874119
 20
19.60700696227831
 10
2128.452866407325
 20
19.59158315746645
 10
2128.510182775404
 20
19.57385312712392
 10
2128.566744284391
 20
19.55384523551708
 10
2128.622460447941
 20
19.53159149100474
 10
2128.677242132078
 20
19.50712749483028
 10
2128.73100169779
 20
19.48049238416916
 10
2128.783653141244
 20
19.4517287695167
 10
2128.835112231359
 20
19.42088266652046
 10
2128.885296644571
 20
19.38800342236493
 10
2128.934126096522
 20
19.35314363682669
 10
2128.981522470506
 20
19.31635907812653
 10
2129.027409942436
 20
19.27770859371167
 10
2129.071715102144
 20
19.2372540161117
 10
2129.114367070828
 20
19.19506006402093
 10
2129.155297614435
 20
19.15119423876234
 10
2129.194441252828
 20
19.10572671629807
 10
2129.231735364533
 20
19.05873023496548
 10
2129.26712028693
 20
19.0102799791091
 10
2129.300539411691
 20
18.96045345880247
 10
2129.331939275343
 20
18.90933038584944
 10
2129.361269644806
 20
18.85699254626092
 10
2129.388483597743
 20
18.80352366941542
 10
2129.413537597637
 20
18.74900929410972
 10
2129.436391563429
 20
18.69353663171534
 10
2129.457008933653
 20
18.63719442665836
 10
2129.475356724912
 20
18.58007281444821
 10
2129.491405584656
 20
18.52226317747897
 10
2129.505129838131
 20
18.46385799883739
 10
2129.516507529461
 20
18.40495071435066
 10
2129.525520456766
 20
18.3456355631074
 10
2129.532154201285
 20
18.28600743669687
 10
2129.536398150442
 20
18.22616172740066
 10
2129.538245514823
 20
18.16619417558774
 10
2129.538332934478
 20
18.1500000000002
  0
LWPOLYLINE
  5
4C6
330
71
100
AcDbEntity
  8
0
100
AcDbPolyline
 90
       41
 70
   128
 43
0.0
 10
2129.538332934478
 20
10.34999999999809
 10
2129.53713309447
 20
10.29001599871827
 10
2129.533535493932
 20
10.23012795904452
 10
2129.527545888259
 20
10.17043168906491
 10
2129.519173859542
 20
10.11102269007676
 10
2129.508432801241
 20
10.05199600380552
 10
2129.495339896756
 20
9.993446060357424
 10
2129.479916091944
 20
9.935466527152014
 10
2129.462186061601
 20
9.87815015907415
 10
2129.442178169995
 20
9.821588650085571
 10
2129.419924425484
 20
9.765872486535267
 10
2129.395460429308
 20
9.711090802399267
 10
2129.368825318647
 20
9.657331236686102
 10
2129.340061703995
 20
9.604679793232831
 10
2129.309215600998
 20
9.553220703116775
 10
2129.276336356843
 20
9.503036289905592
 10
2129.241476571305
 20
9.454206837954695
 10
2129.204692012605
 20
9.406810463970712
 10
2129.16604152819
 20
9.36092299204091
 10
2129.12558695059
 20
9.316617832332322
 10
2129.083392998499
 20
9.273965863649094
 10
2129.03952717324
 20
9.233035320041947
 10
2128.994059650776
 20
9.193891681649914
 10
2128.947063169444
 20
9.156597569943754
 10
2128.898612913587
 20
9.121212647546766
 10
2128.84878639328
 20
9.087793522786451
 10
2128.797663320328
 20
9.056393659133386
 10
2128.745325480739
 20
9.027063289670927
 10
2128.691856603893
 20
8.999849336733346
 10
2128.637342228588
 20
8.974795336840596
 10
2128.581869566193
 20
8.951941371047494
 10
2128.525527361137
 20
8.931324000823789
 10
2128.468405748926
 20
8.912976209564359
 10
2128.410596111957
 20
8.896927349820826
 10
2128.352190933315
 20
8.883203096345367
 10
2128.293283648829
 20
8.871825405015611
 10
2128.233968497585
 20
8.862812477710685
 10
2128.174340371175
 20
8.856178733191653
 10
2128.114494661879
 20
8.851934784034879
 10
2128.054527110066
 20
8.850087419653387
 10
2128.038332934478
 20
8.849999999998258
  0
LWPOLYLINE
  5
4C7
330
71
100
AcDbEntity
  8
0
100
AcDbPolyline
 90
        5
 70
   128
 43
0.0
 10
2129.538332934478
 20
18.1500000000002
 10
2129.538332934478
 20
18.1468804159781
 10
2129.538332934478
 20
18.13752665458054
 10
2129.538332934478
 20
18.12195367983036
 10
2129.538332934478
 20
18.11966692624723
  0
LWPOLYLINE
  5
4C8
330
71
100
AcDbEntity
  8
0
100
AcDbPolyline
 90
        5
 70
   128
 43
0.0
 10
2129.538332934478
 20
10.38125048933659
 10
2129.538332934478
 20
10.3701087768963
 10
2129.538332934478
 20
10.35739528882714
 10
2129.538332934478
 20
10.35090913791793
 10
2129.538332934478
 20
10.34999999999809
  0
LWPOLYLINE
  5
4C9
330
71
100
AcDbEntity
  8
0
100
AcDbPolyline
 90
       47
 70
   128
 43
0.0
 10
2109.038332934478
 20
15.55299794656446
 10
2109.038332934478
 20
15.43219846228334
 10
2109.038332934478
 20
15.21031435738388
 10
2109.038332934478
 20
14.98689395436832
 10
2109.038332934478
 20
14.76229467822156
 10
2109.038332934478
 20
14.5368758398734
 10
2109.038332934478
 20
14.31099806137825
 10
2109.038332934478
 20
14.0850226989973
 10
2109.038332934478
 20
13.85931126510451
 10
2109.038332934478
 20
13.63422484984516
 10
2109.038332934478
 20
13.41012354346776
 10
2109.038332934478
 20
13.1873658602567
 10
2109.038332934478
 20
12.96630816498589
 10
2109.038332934478
 20
12.74730410281148
 10
2109.038332934478
 20
12.53070403351461
 10
2109.038332934478
 20
12.31685447100045
 10
2109.038332934478
 20
12.10609752895044
 10
2109.038332934478
 20
11.89877037351254
 10
2109.038332934478
 20
11.69520468390828
 10
2109.038332934478
 20
11.49572612181555
 10
2109.038332934478
 20
11.3006538103811
 10
2109.038332934478
 20
11.11029982368967
 10
2109.038332934478
 20
10.92496868751323
 10
2109.038332934478
 20
10.74495689213455
 10
2109.038332934478
 20
10.57055241802584
 10
2109.038332934478
 20
10.40203427514143
 10
2109.038332934478
 20
10.23967205656117
 10
2109.038332934478
 20
10.08372550719946
 10
2109.038332934478
 20
9.934444108268335
 10
2109.038332934478
 20
9.792066678161175
 10
2109.038332934478
 20
9.656820990394122
 10
2109.038332934478
 20
9.528923409216183
 10
2109.038332934478
 20
9.408578543474446
 10
2109.038332934478
 20
9.295978919281363
 10
2109.038332934478
 20
9.191304672016027
 10
2109.038332934478
 20
9.094723258144879
 10
2109.038332934478
 20
9.006389187327043
 10
2109.038332934478
 20
8.926443775231915
 10
2109.038332934478
 20
8.855014917464982
 10
2109.038332934478
 20
8.792216884961531
 10
2109.038332934478
 20
8.738150141177182
 10
2109.038332934478
 20
8.692901181368254
 10
2109.038332934478
 20
8.656542394217693
 10
2109.038332934478
 20
8.629131946029527
 10
2109.038332934478
 20
8.610713687672896
 10
2109.038332934478
 20
8.601317084432363
 10
2109.038332934478
 20
8.600000000010592
  0
LWPOLYLINE
  5
4CA
330
71
100
AcDbEntity
  8
0
100
AcDbPolyline
 90
       47
 70
   128
 43
0.0
 10
2114.038332934478
 20
8.600000000010592
 10
2114.038332934478
 20
8.604519397375947
 10
2114.038332934478
 20
8.618070359400631
 10
2114.038332934478
 20
8.640631207435996
 10
2114.038332934478
 20
8.672165848937932
 10
2114.038332934478
 20
8.71262383520718
 10
2114.038332934478
 20
8.761940442096202
 10
2114.038332934478
 20
8.820036773554132
 10
2114.038332934478
 20
8.886819887844067
 10
2114.038332934478
 20
8.962182946229402
 10
2114.038332934478
 20
9.046005383893428
 10
2114.038332934478
 20
9.138153102816712
 10
2114.038332934478
 20
9.238478686306219
 10
2114.038332934478
 20
9.346821634830288
 10
2114.038332934478
 20
9.463008622782977
 10
2114.038332934478
 20
9.586853775768814
 10
2114.038332934478
 20
9.718158967962036
 10
2114.038332934478
 20
9.856714139065216
 10
2114.038332934478
 20
10.00229763036179
 10
2114.038332934478
 20
10.15467653932131
 10
2114.038332934478
 20
10.31360709219558
 10
2114.038332934478
 20
10.47883503400328
 10
2114.038332934478
 20
10.65009603528437
 10
2114.038332934478
 20
10.82711611497046
 10
2114.038332934478
 20
11.00961207869647
 10
2114.038332934478
 20
11.19729197185028
 10
2114.038332934478
 20
11.38985554663975
 10
2114.038332934478
 20
11.58699474242286
 10
2114.038332934478
 20
11.78839417854072
 10
2114.038332934478
 20
11.99373165885828
 10
2114.038332934478
 20
12.20267868721004
 10
2114.038332934478
 20
12.41490099292389
 10
2114.038332934478
 20
12.63005906558197
 10
2114.038332934478
 20
12.8478086981662
 10
2114.038332934478
 20
13.06780153771512
 10
2114.038332934478
 20
13.28968564261475
 10
2114.038332934478
 20
13.51310604563013
 10
2114.038332934478
 20
13.73770532177707
 10
2114.038332934478
 20
13.96312416012523
 10
2114.038332934478
 20
14.1890019386202
 10
2114.038332934478
 20
14.41497730100133
 10
2114.038332934478
 20
14.64068873489395
 10
2114.038332934478
 20
14.86577515015346
 10
2114.038332934478
 20
15.08987645653087
 10
2114.038332934478
 20
15.3126341397421
 10
2114.038332934478
 20
15.53369183501274
 10
2114.038332934478
 20
15.55604223187555
  0
LINE
  5
4CB
330
71
100
AcDbEntity
  8
0
100
AcDbLine
 10
2114.038332934478
 20
19.89562789803801
 30
0.0
 11
2114.038332934478
 21
19.89868291556626
 31
0.0
  0
LWPOLYLINE
  5
4CC
330
71
100
AcDbEntity
  8
0
100
AcDbPolyline
 90
       80
 70
   128
 43
0.0
 10
2114.038332934478
 20
8.600000000010592
 10
2114.036333201131
 20
8.500026664543836
 10
2114.030337200235
 20
8.400213265087584
 10
2114.020354524113
 20
8.300719481788231
 10
2114.006401142917
 20
8.201704483474939
 10
2113.988499379082
 20
8.103326673022817
 10
2113.966677871609
 20
8.005743433942766
 10
2113.940971530255
 20
7.909110878600187
 10
2113.911421479684
 20
7.813583598470187
 10
2113.878074993673
 20
7.719314416822668
 10
2113.840985419486
 20
7.62645414423872
 10
2113.800212092528
 20
7.535151337345437
 10
2113.755820241427
 20
7.445552061156603
 10
2113.707880883672
 20
7.357799655401035
 10
2113.656470712012
 20
7.272034505208177
 10
2113.601671971752
 20
7.188393816522986
 10
2113.54357232919
 20
7.10701139660449
 10
2113.482264731356
 20
7.028017439964115
 10
2113.417847257331
 20
6.951538320081737
 10
2113.35042296133
 20
6.877696387234037
 10
2113.280099707846
 20
6.806609772761587
 10
2113.206989999082
 20
6.738392200083294
 10
2113.131210794974
 20
6.673152802762955
 10
2113.052883326087
 20
6.610995949919526
 10
2112.972132899659
 20
6.552021079257882
 10
2112.889088699148
 20
6.496322537990693
 10
2112.80388357756
 20
6.443989431902079
 10
2112.716653844913
 20
6.395105482797986
 10
2112.62753905017
 20
6.349748894569299
 10
2112.536681757994
 20
6.30799222808099
 10
2112.44422732067
 20
6.269902285092312
 10
2112.350323645575
 20
6.235540001386537
 10
2112.255120958558
 20
6.204960349287487
 10
2112.158771563609
 20
6.178212249714702
 10
2112.061429599207
 20
6.155338493922156
 10
2111.963250791729
 20
6.136375675039231
 10
2111.864392206324
 20
6.121354129531252
 10
2111.765011995639
 20
6.110297888666422
 10
2111.665269146812
 20
6.103224640071458
 10
2111.565323227124
 20
6.100145699435527
 10
2111.465334128725
 20
6.101065992406742
 10
2111.365461812843
 20
6.105984046712475
 10
2111.265866053879
 20
6.114891994515402
 10
2111.1667061838
 20
6.127775584998627
 10
2111.068140837246
 20
6.144614207166452
 10
2110.970327697746
 20
6.165380922814847
 10
2110.873423245456
 20
6.190042509629222
 10
2110.777582506829
 20
6.218559514331387
 10
2110.682958806601
 20
6.250886315797227
 10
2110.589703522508
 20
6.286971198039902
 10
2110.49796584311
 20
6.326756432946182
 10
2110.407892529126
 20
6.370178372627092
 10
2110.319627678643
 20
6.41716755124156
 10
2110.233312496591
 20
6.467648796128227
 10
2110.149085068852
 20
6.521541348063745
 10
2110.06708014134
 20
6.578758990461436
 10
2109.987428904447
 20
6.639210187299567
 10
2109.910258783159
 20
6.702798229558081
 10
2109.835693233211
 20
6.769421389934902
 10
2109.763851543573
 20
6.838973085584994
 10
2109.694848645625
 20
6.911342048632548
 10
2109.628794929284
 20
6.986412504174547
 10
2109.565796066405
 20
7.064064355496267
 10
2109.505952841729
 20
7.144173376200341
 10
2109.44936099165
 20
7.226611408942571
 10
2109.396111051056
 20
7.311246570456884
 10
2109.346288208493
 20
7.397943462538761
 10
2109.299972169879
 20
7.486563388655837
 10
2109.257237030998
 20
7.576964575830457
 10
2109.218151158955
 20
7.669002401447809
 10
2109.182777082807
 20
7.762529624620639
 10
2109.151171393529
 20
7.85739662174353
 10
2109.123384653484
 20
7.953451625857722
 10
2109.099461315525
 20
8.050540969447636
 10
2109.079439651893
 20
8.148509330274917
 10
2109.063351692977
 20
8.247199979860964
 10
2109.051223176079
 20
8.346455034219102
 10
2109.043073504241
 20
8.446115706435646
 10
2109.038915715196
 20
8.546022560695346
 10
2109.038332934478
 20
8.600000000010592
  0
LWPOLYLINE
  5
4CD
330
71
100
AcDbEntity
  8
0
100
AcDbPolyline
 90
        4
 70
   128
 43
0.0
 10
2109.038332934478
 20
8.600000000010592
 10
2109.038332934478
 20
8.604519397375947
 10
2109.038332934478
 20
8.618070359400631
 10
2109.038332934478
 20
8.640631207435996
  0
LINE
  5
4CE
330
71
100
AcDbEntity
  8
0
100
AcDbLine
 10
2109.038332934478
 20
19.89640678802732
 30
0.0
 11
2109.038332934478
 21
19.89868291556626
 31
0.0
  0
LWPOLYLINE
  5
4CF
330
71
100
AcDbEntity
  8
0
100
AcDbPolyline
 90
        5
 70
   128
 43
0.0
 10
2114.038332934478
 20
8.640140031115093
 10
2114.038332934478
 20
8.629131946029527
 10
2114.038332934478
 20
8.610713687672896
 10
2114.038332934478
 20
8.601317084432363
 10
2114.038332934478
 20
8.600000000010592
  0
LINE
  5
4D0
330
71
100
AcDbEntity
  8
0
100
AcDbLine
 10
2114.038332934478
 20
21.70000000000311
 30
0.0
 11
2114.038332934478
 21
34.25000000000005
 31
0.0
  0
LINE
  5
4D1
330
71
100
AcDbEntity
  8
0
100
AcDbLine
 10
2109.038332934478
 20
34.25000000000005
 30
0.0
 11
2109.038332934478
 21
21.70000000000311
 31
0.0
  0
LWPOLYLINE
  5
4D2
330
71
100
AcDbEntity
  8
0
100
AcDbPolyline
 90
       41
 70
   128
 43
0.0
 10
2114.038332934478
 20
34.25000000000005
 10
2114.038332934478
 20
34.40995733674662
 10
2114.038332934478
 20
34.56965877587663
 10
2114.038332934478
 20
34.72884882915559
 10
2114.038332934478
 20
34.88727282645704
 10
2114.038332934478
 20
35.04467732318039
 10
2114.038332934478
 20
35.20081050570854
 10
2114.038332934478
 20
35.35542259425636
 10
2114.038332934478
 20
35.50826624246457
 10
2114.038332934478
 20
35.65909693310032
 10
2114.038332934478
 20
35.80767336923457
 10
2114.038332934478
 20
35.95375786026403
 10
2114.038332934478
 20
36.09711670216603
 10
2114.038332934478
 20
36.23752055137487
 10
2114.038332934478
 20
36.37474479168343
 10
2114.038332934478
 20
36.50856989358015
 10
2114.038332934478
 20
36.63878176544955
 10
2114.038332934478
 20
36.76517209607391
 10
2114.038332934478
 20
36.88753868788591
 10
2114.038332934478
 20
37.00568578044237
 10
2114.038332934478
 20
37.11942436359804
 10
2114.038332934478
 20
37.2285724798835
 10
2114.038332934478
 20
37.33295551559586
 10
2114.038332934478
 20
37.43240648014545
 10
2114.038332934478
 20
37.52676627320408
 10
2114.038332934478
 20
37.6158839392316
 10
2114.038332934478
 20
37.69961690897326
 10
2114.038332934478
 20
37.77783122753981
 10
2114.038332934478
 20
37.85040176870609
 10
2114.038332934478
 20
37.91721243508714
 10
2114.038332934478
 20
37.97815634386893
 10
2114.038332934478
 20
38.03313599779806
 10
2114.038332934478
 20
38.08206344115689
 10
2114.038332934478
 20
38.12486040047303
 10
2114.038332934478
 20
38.16145840974139
 10
2114.038332934478
 20
38.19179891995389
 10
2114.038332934478
 20
38.21583339276662
 10
2114.038332934478
 20
38.23352337815066
 10
2114.038332934478
 20
38.2448405759024
 10
2114.038332934478
 20
38.24976688091981
 10
2114.038332934478
 20
38.24999999999999
  0
LWPOLYLINE
  5
4D3
330
71
100
AcDbEntity
  8
0
100
AcDbPolyline
 90
       41
 70
   128
 43
0.0
 10
2109.038332934478
 20
38.24999999999999
 10
2109.038332934478
 20
38.24680042664408
 10
2109.038332934478
 20
38.23720682521047
 10
2109.038332934478
 20
38.22123454341543
 10
2109.038332934478
 20
38.19890913350258
 10
2109.038332934478
 20
38.17026631136496
 10
2109.038332934478
 20
38.13535189940818
 10
2109.038332934478
 20
38.09422175324311
 10
2109.038332934478
 20
38.04694167232975
 10
2109.038332934478
 20
37.9935872947118
 10
2109.038332934478
 20
37.93424397601165
 10
2109.038332934478
 20
37.86900665287998
 10
2109.038332934478
 20
37.79797969111723
 10
2109.038332934478
 20
37.72127671871067
 10
2109.038332934478
 20
37.63902044405375
 10
2109.038332934478
 20
37.55134245963871
 10
2109.038332934478
 20
37.4583830315372
 10
2109.038332934478
 20
37.36029087500361
 10
2109.038332934478
 20
37.25722291656353
 10
2109.038332934478
 20
37.14934404296366
 10
2109.038332934478
 20
37.03682683738872
 10
2109.038332934478
 20
36.91985130336536
 10
2109.038332934478
 20
36.79860457679444
 10
2109.038332934478
 20
36.67328062657384
 10
2109.038332934478
 20
36.54407994428976
 10
2109.038332934478
 20
36.41120922347255
 10
2109.038332934478
 20
36.27488102893102
 10
2109.038332934478
 20
36.13531345669497
 10
2109.038332934478
 20
35.99272978510691
 10
2109.038332934478
 20
35.84735811762528
 10
2109.038332934478
 20
35.6994310179067
 10
2109.038332934478
 20
35.5491851377551
 10
2109.038332934478
 20
35.39686083852791
 10
2109.038332934478
 20
35.24270180660947
 10
2109.038332934478
 20
35.08695466356562
 10
2109.038332934478
 20
34.92986857160082
 10
2109.038332934478
 20
34.7716948349527
 10
2109.038332934478
 20
34.61268649785722
 10
2109.038332934478
 20
34.45309793973433
 10
2109.038332934478
 20
34.2931844682331
 10
2109.038332934478
 20
34.25000000000005
  0
LINE
  5
4D4
330
71
100
AcDbEntity
  8
0
100
AcDbLine
 10
2114.037994144338
 20
38.23306275166493
 30
0.0
 11
2114.036333201131
 21
38.15002666453341
 31
0.0
  0
LWPOLYLINE
  5
4D5
330
71
100
AcDbEntity
  8
0
100
AcDbPolyline
 90
       37
 70
   128
 43
0.0
 10
2114.038332934478
 20
42.25000000000011
 10
2114.038332934478
 20
42.09004266325353
 10
2114.038332934478
 20
41.93034122412319
 10
2114.038332934478
 20
41.77115117084421
 10
2114.038332934478
 20
41.61272717354314
 10
2114.038332934478
 20
41.45532267681978
 10
2114.038332934478
 20
41.29918949429145
 10
2114.038332934478
 20
41.14457740574343
 10
2114.038332934478
 20
40.9917337575356
 10
2114.038332934478
 20
40.84090306689964
 10
2114.038332934478
 20
40.69232663076539
 10
2114.038332934478
 20
40.54624213973595
 10
2114.038332934478
 20
40.40288329783414
 10
2114.038332934478
 20
40.26247944862495
 10
2114.038332934478
 20
40.12525520831638
 10
2114.038332934478
 20
39.99143010641983
 10
2114.038332934478
 20
39.86121823455043
 10
2114.038332934478
 20
39.73482790392607
 10
2114.038332934478
 20
39.61246131211407
 10
2114.038332934478
 20
39.49431421955779
 10
2114.038332934478
 20
39.38057563640194
 10
2114.038332934478
 20
39.27142752011667
 10
2114.038332934478
 20
39.16704448440429
 10
2114.038332934478
 20
39.06759351985453
 10
2114.038332934478
 20
38.97323372679608
 10
2114.038332934478
 20
38.88411606076857
 10
2114.038332934478
 20
38.80038309102655
 10
2114.038332934478
 20
38.72216877246017
 10
2114.038332934478
 20
38.64959823129407
 10
2114.038332934478
 20
38.58278756491301
 10
2114.038332934478
 20
38.52184365613106
 10
2114.038332934478
 20
38.46686400220175
 10
2114.038332934478
 20
38.4179365588431
 10
2114.038332934478
 20
38.37513959952696
 10
2114.038332934478
 20
38.33854159025878
 10
2114.038332934478
 20
38.30820108004628
 10
2114.038332934478
 20
38.28738597622407
  0
LWPOLYLINE
  5
4D6
330
71
100
AcDbEntity
  8
0
100
AcDbPolyline
 90
       41
 70
   128
 43
0.0
 10
2109.038332934478
 20
38.24999999999999
 10
2109.038332934478
 20
38.25319957335608
 10
2109.038332934478
 20
38.26279317478952
 10
2109.038332934478
 20
38.27876545658437
 10
2109.038332934478
 20
38.30109086649758
 10
2109.038332934478
 20
38.3297336886352
 10
2109.038332934478
 20
38.36464810059197
 10
2109.038332934478
 20
38.40577824675687
 10
2109.038332934478
 20
38.45305832767024
 10
2109.038332934478
 20
38.50641270528836
 10
2109.038332934478
 20
38.56575602398851
 10
2109.038332934478
 20
38.63099334712018
 10
2109.038332934478
 20
38.70202030888293
 10
2109.038332934478
 20
38.7787232812895
 10
2109.038332934478
 20
38.86097955594624
 10
2109.038332934478
 20
38.94865754036129
 10
2109.038332934478
 20
39.04161696846296
 10
2109.038332934478
 20
39.13970912499621
 10
2109.038332934478
 20
39.24277708343664
 10
2109.038332934478
 20
39.35065595703633
 10
2109.038332934478
 20
39.46317316261144
 10
2109.038332934478
 20
39.5801486966348
 10
2109.038332934478
 20
39.70139542320572
 10
2109.038332934478
 20
39.82671937342614
 10
2109.038332934478
 20
39.95592005571006
 10
2109.038332934478
 20
40.08879077652744
 10
2109.038332934478
 20
40.2251189710688
 10
2109.038332934478
 20
40.36468654330517
 10
2109.038332934478
 20
40.50727021489325
 10
2109.038332934478
 20
40.65264188237486
 10
2109.038332934478
 20
40.80056898209329
 10
2109.038332934478
 20
40.95081486224506
 10
2109.038332934478
 20
41.10313916147225
 10
2109.038332934478
 20
41.25729819339047
 10
2109.038332934478
 20
41.41304533643437
 10
2109.038332934478
 20
41.57013142839899
 10
2109.038332934478
 20
41.72830516504745
 10
2109.038332934478
 20
41.88731350214292
 10
2109.038332934478
 20
42.04690206026582
 10
2109.038332934478
 20
42.20681553176688
 10
2109.038332934478
 20
42.25000000000011
  0
LINE
  5
4D7
330
71
100
AcDbEntity
  8
0
100
AcDbLine
 10
2114.038332934478
 20
42.24999999999993
 30
0.0
 11
2114.038332934478
 21
143.8750000000004
 31
0.0
  0
LINE
  5
4D8
330
71
100
AcDbEntity
  8
0
100
AcDbLine
 10
2109.038332934478
 20
143.8750000000004
 30
0.0
 11
2109.038332934478
 21
85.62500000000019
 31
0.0
  0
LINE
  5
4D9
330
71
100
AcDbEntity
  8
0
100
AcDbLine
 10
2109.038332934478
 20
81.62500000000028
 30
0.0
 11
2109.038332934478
 21
42.25000000000011
 31
0.0
  0
LINE
  5
4DE
330
71
100
AcDbEntity
  8
0
100
AcDbLine
 10
2114.038332934478
 20
14.24999999999966
 30
0.0
 11
2114.038332934478
 21
21.69999999999953
 31
0.0
  0
LINE
  5
4DF
330
71
100
AcDbEntity
  8
0
100
AcDbLine
 10
2109.038332934478
 20
21.6999999999997
 30
0.0
 11
2109.038332934478
 21
14.24999999999966
 31
0.0
  0
LINE
  5
50C
330
71
100
AcDbEntity
  8
0
100
AcDbLine
 10
2102.538332934463
 20
165.7450353879098
 30
0.0
 11
1886.788332934463
 21
165.7450353879098
 31
0.0
  0
LINE
  5
50D
330
71
100
AcDbEntity
  8
0
100
AcDbLine
 10
2102.538332934463
 20
206.5000000000003
 30
0.0
 11
2102.538332934463
 21
165.7450353879098
 31
0.0
  0
LINE
  5
50E
330
71
100
AcDbEntity
  8
0
100
AcDbLine
 10
1886.788332934463
 20
165.7450353879098
 30
0.0
 11
1886.788332934463
 21
206.5000000000003
 31
0.0
  0
LINE
  5
50F
330
71
100
AcDbEntity
  8
0
100
AcDbLine
 10
1886.788332934477
 20
165.5
 30
0.0
 11
2102.538332934477
 21
165.5
 31
0.0
  0
LINE
  5
510
330
71
100
AcDbEntity
  8
0
100
AcDbLine
 10
2102.538332934477
 20
69.625
 30
0.0
 11
1886.788332934477
 21
69.625
 31
0.0
  0
LINE
  5
511
330
71
100
AcDbEntity
  8
0
100
AcDbLine
 10
1886.788332934477
 20
69.625
 30
0.0
 11
1886.788332934477
 21
165.5
 31
0.0
  0
LINE
  5
512
330
71
100
AcDbEntity
  8
0
100
AcDbLine
 10
2037.163332934478
 20
142.8750000000036
 30
0.0
 11
2071.663332934478
 21
142.8750000000036
 31
0.0
  0
LINE
  5
513
330
71
100
AcDbEntity
  8
0
100
AcDbLine
 10
2071.663332934478
 20
142.8750000000036
 30
0.0
 11
2071.663332934478
 21
90.37500000000319
 31
0.0
  0
LINE
  5
514
330
71
100
AcDbEntity
  8
0
100
AcDbLine
 10
2071.663332934478
 20
90.37500000000322
 30
0.0
 11
2037.163332934478
 21
90.37500000000322
 31
0.0
  0
LINE
  5
515
330
71
100
AcDbEntity
  8
0
100
AcDbLine
 10
2037.163332934478
 20
90.37500000000322
 30
0.0
 11
2037.163332934478
 21
142.8750000000037
 31
0.0
  0
LINE
  5
516
330
71
100
AcDbEntity
  8
0
100
AcDbLine
 10
1917.663332934478
 20
90.37500000000322
 30
0.0
 11
1917.663332934478
 21
142.8750000000036
 31
0.0
  0
LINE
  5
517
330
71
100
AcDbEntity
  8
0
100
AcDbLine
 10
1917.663332934478
 20
142.8750000000036
 30
0.0
 11
1952.163332934478
 21
142.8750000000036
 31
0.0
  0
LINE
  5
518
330
71
100
AcDbEntity
  8
0
100
AcDbLine
 10
1952.163332934478
 20
142.8750000000036
 30
0.0
 11
1952.163332934478
 21
90.37500000000322
 31
0.0
  0
LINE
  5
519
330
71
100
AcDbEntity
  8
0
100
AcDbLine
 10
1952.163332934478
 20
90.37500000000322
 30
0.0
 11
1917.663332934478
 21
90.37500000000322
 31
0.0
  0
LINE
  5
51A
330
71
100
AcDbEntity
  8
0
100
AcDbLine
 10
1977.413332934478
 20
142.8750000000036
 30
0.0
 11
2011.913332934478
 21
142.8750000000036
 31
0.0
  0
LINE
  5
51B
330
71
100
AcDbEntity
  8
0
100
AcDbLine
 10
2011.913332934478
 20
142.8750000000036
 30
0.0
 11
2011.913332934478
 21
90.37500000000319
 31
0.0
  0
LINE
  5
51C
330
71
100
AcDbEntity
  8
0
100
AcDbLine
 10
2011.913332934478
 20
90.37500000000322
 30
0.0
 11
1977.413332934478
 21
90.37500000000322
 31
0.0
  0
LINE
  5
51D
330
71
100
AcDbEntity
  8
0
100
AcDbLine
 10
1977.413332934478
 20
90.37500000000322
 30
0.0
 11
1977.413332934478
 21
142.8750000000037
 31
0.0
  0
LINE
  5
51E
330
71
100
AcDbEntity
  8
0
100
AcDbLine
 10
2102.538332934477
 20
69.625
 30
0.0
 11
2102.538332934477
 21
165.5
 31
0.0
  0
LINE
  5
522
330
71
100
AcDbEntity
  8
0
100
AcDbLine
 10
1886.788332934481
 20
69.625
 30
0.0
 11
2102.53833293448
 21
69.625
 31
0.0
  0
LINE
  5
523
330
71
100
AcDbEntity
  8
0
100
AcDbLine
 10
2102.53833293448
 20
0.0
 30
0.0
 11
1886.788332934481
 21
0.0
 31
0.0
  0
LINE
  5
524
330
71
100
AcDbEntity
  8
0
100
AcDbLine
 10
2102.53833293448
 20
69.625
 30
0.0
 11
2102.53833293448
 21
63.75000000000017
 31
0.0
  0
LINE
  5
525
330
71
100
AcDbEntity
  8
0
100
AcDbLine
 10
2102.53833293448
 20
21.74999999999974
 30
0.0
 11
2102.53833293448
 21
0.0
 31
0.0
  0
LINE
  5
526
330
71
100
AcDbEntity
  8
0
100
AcDbLine
 10
1886.788332934481
 20
63.75000000000087
 30
0.0
 11
1886.788332934481
 21
69.625
 31
0.0
  0
LINE
  5
527
330
71
100
AcDbEntity
  8
0
100
AcDbLine
 10
1886.788332934481
 20
63.75000000000087
 30
0.0
 11
2102.53833293448
 21
63.75000000000017
 31
0.0
  0
LINE
  5
528
330
71
100
AcDbEntity
  8
0
100
AcDbLine
 10
2102.53833293448
 20
21.74999999999974
 30
0.0
 11
1886.788332934481
 21
21.75000000000045
 31
0.0
  0
LINE
  5
529
330
71
100
AcDbEntity
  8
0
100
AcDbLine
 10
1886.788332934481
 20
0.0
 30
0.0
 11
1886.788332934481
 21
21.75000000000045
 31
0.0
  0
LINE
  5
52A
330
71
100
AcDbEntity
  8
0
100
AcDbLine
 10
2101.538332934481
 20
63.75000000000017
 30
0.0
 11
2101.538332934481
 21
21.74999999999975
 31
0.0
  0
LINE
  5
52B
330
71
100
AcDbEntity
  8
0
100
AcDbLine
 10
2100.163332934481
 20
63.75000000000017
 30
0.0
 11
2100.163332934481
 21
21.74999999999975
 31
0.0
  0
LINE
  5
52C
330
71
100
AcDbEntity
  8
0
100
AcDbLine
 10
2096.78833293448
 20
63.75000000000018
 30
0.0
 11
2096.78833293448
 21
21.74999999999976
 31
0.0
  0
LINE
  5
52D
330
71
100
AcDbEntity
  8
0
100
AcDbLine
 10
2032.413332934481
 20
63.75000000000039
 30
0.0
 11
2032.413332934481
 21
21.74999999999997
 31
0.0
  0
LINE
  5
52F
330
71
100
AcDbEntity
  8
0
100
AcDbLine
 10
2028.913332934481
 20
21.74999999999998
 30
0.0
 11
2028.913332934481
 21
63.75000000000039
 31
0.0
  0
LINE
  5
531
330
71
100
AcDbEntity
  8
0
100
AcDbLine
 10
1960.413332934481
 20
63.75000000000062
 30
0.0
 11
1960.413332934481
 21
21.75000000000021
 31
0.0
  0
LINE
  5
532
330
71
100
AcDbEntity
  8
0
100
AcDbLine
 10
1956.913332934481
 20
21.75000000000022
 30
0.0
 11
1956.913332934481
 21
63.75000000000063
 31
0.0
  0
LINE
  5
533
330
71
100
AcDbEntity
  8
0
100
AcDbLine
 10
1892.538332934481
 20
63.75000000000085
 30
0.0
 11
1892.53833293448
 21
21.75000000000042
 31
0.0
  0
LINE
  5
534
330
71
100
AcDbEntity
  8
0
100
AcDbLine
 10
1889.16333293448
 20
63.75000000000085
 30
0.0
 11
1889.16333293448
 21
21.75000000000043
 31
0.0
  0
LINE
  5
535
330
71
100
AcDbEntity
  8
0
100
AcDbLine
 10
1887.788332934481
 20
63.75000000000087
 30
0.0
 11
1887.78833293448
 21
21.75000000000043
 31
0.0
  0
ARC
  5
536
330
71
100
AcDbEntity
  8
0
100
AcDbCircle
 10
2078.538332934478
 20
186.000000000001
 30
0.0
 40
8.250000000000008
100
AcDbArc
 50
179.9999999999998
 51
359.9999999999986
  0
ARC
  5
537
330
71
100
AcDbEntity
  8
0
100
AcDbCircle
 10
2078.538332934478
 20
186.000000000001
 30
0.0
 40
8.249999999999996
100
AcDbArc
 50
359.9999999999995
 51
179.9999999999998
  0
ARC
  5
538
330
71
100
AcDbEntity
  8
0
100
AcDbCircle
 10
2078.538332934478
 20
186.000000000001
 30
0.0
 40
7.687500000000002
100
AcDbArc
 50
0.0000000000006107
 51
180.0000000000002
  0
ARC
  5
539
330
71
100
AcDbEntity
  8
0
100
AcDbCircle
 10
2078.538332934478
 20
186.000000000001
 30
0.0
 40
7.687499999999982
100
AcDbArc
 50
180.0000000000003
 51
359.9999999999996
  0
LINE
  5
53A
330
71
100
AcDbEntity
  8
0
100
AcDbLine
 10
2083.660833708465
 20
183.5581441512037
 30
0.0
 11
2083.465893232275
 21
183.109235421045
 31
0.0
  0
LINE
  5
53B
330
71
100
AcDbEntity
  8
0
100
AcDbLine
 10
2083.465893232275
 20
183.109235421045
 30
0.0
 11
2083.015000375132
 21
182.9519933575529
 31
0.0
  0
LINE
  5
53C
330
71
100
AcDbEntity
  8
0
100
AcDbLine
 10
2083.015000375132
 20
182.9519933575529
 30
0.0
 11
2082.690471605292
 21
183.0162294686641
 31
0.0
  0
LINE
  5
53D
330
71
100
AcDbEntity
  8
0
100
AcDbLine
 10
2082.690471605292
 20
183.0162294686641
 30
0.0
 11
2082.454980533862
 21
183.2089378019974
 31
0.0
  0
LINE
  5
53E
330
71
100
AcDbEntity
  8
0
100
AcDbLine
 10
2082.454980533862
 20
183.2089378019974
 30
0.0
 11
2082.26400831164
 21
183.9668743099339
 31
0.0
  0
LINE
  5
53F
330
71
100
AcDbEntity
  8
0
100
AcDbLine
 10
2082.26400831164
 20
183.9668743099339
 30
0.0
 11
2082.448036089418
 21
184.7307631988228
 31
0.0
  0
LINE
  5
540
330
71
100
AcDbEntity
  8
0
100
AcDbLine
 10
2082.448036089418
 20
184.7307631988228
 30
0.0
 11
2082.677822795767
 21
184.9204953416799
 31
0.0
  0
LINE
  5
541
330
71
100
AcDbEntity
  8
0
100
AcDbLine
 10
2082.677822795767
 20
184.9204953416799
 30
0.0
 11
2082.999127359259
 21
184.983739389299
 31
0.0
  0
LINE
  5
542
330
71
100
AcDbEntity
  8
0
100
AcDbLine
 10
2082.999127359259
 20
184.983739389299
 30
0.0
 11
2083.467381327513
 21
184.8403862146958
 31
0.0
  0
LINE
  5
543
330
71
100
AcDbEntity
  8
0
100
AcDbLine
 10
2083.467381327513
 20
184.8403862146958
 30
0.0
 11
2083.660833708465
 21
184.4152870083466
 31
0.0
  0
LINE
  5
544
330
71
100
AcDbEntity
  8
0
100
AcDbLine
 10
2083.660833708465
 20
184.4152870083466
 30
0.0
 11
2084.803690851322
 21
184.4152870083466
 31
0.0
  0
LINE
  5
545
330
71
100
AcDbEntity
  8
0
100
AcDbLine
 10
2084.803690851322
 20
184.4152870083466
 30
0.0
 11
2084.643472597354
 21
185.0629804607276
 31
0.0
  0
LINE
  5
546
330
71
100
AcDbEntity
  8
0
100
AcDbLine
 10
2084.643472597354
 20
185.0629804607276
 30
0.0
 11
2084.275913073545
 21
185.5417751035847
 31
0.0
  0
LINE
  5
547
330
71
100
AcDbEntity
  8
0
100
AcDbLine
 10
2084.275913073545
 20
185.5417751035847
 30
0.0
 11
2083.716885295767
 21
185.8375340321561
 31
0.0
  0
LINE
  5
548
330
71
100
AcDbEntity
  8
0
100
AcDbLine
 10
2083.716885295767
 20
185.8375340321561
 30
0.0
 11
2082.982262279895
 21
185.9361203416799
 31
0.0
  0
LINE
  5
549
330
71
100
AcDbEntity
  8
0
100
AcDbLine
 10
2082.982262279895
 20
185.9361203416799
 30
0.0
 11
2082.184271208465
 21
185.8041758972355
 31
0.0
  0
LINE
  5
54A
330
71
100
AcDbEntity
  8
0
100
AcDbLine
 10
2082.184271208465
 20
185.8041758972355
 30
0.0
 11
2081.57402815291
 21
185.4083425639022
 31
0.0
  0
LINE
  5
54B
330
71
100
AcDbEntity
  8
0
100
AcDbLine
 10
2081.57402815291
 20
185.4083425639022
 30
0.0
 11
2081.186751367196
 21
184.7843346273941
 31
0.0
  0
LINE
  5
54C
330
71
100
AcDbEntity
  8
0
100
AcDbLine
 10
2081.186751367196
 20
184.7843346273941
 30
0.0
 11
2081.057659105292
 21
183.967866373426
 31
0.0
  0
LINE
  5
54D
330
71
100
AcDbEntity
  8
0
100
AcDbLine
 10
2081.057659105292
 20
183.967866373426
 30
0.0
 11
2081.187371406878
 21
183.1495380004101
 31
0.0
  0
LINE
  5
54E
330
71
100
AcDbEntity
  8
0
100
AcDbLine
 10
2081.187371406878
 20
183.1495380004101
 30
0.0
 11
2081.57650831164
 21
182.5259020877116
 31
0.0
  0
LINE
  5
54F
330
71
100
AcDbEntity
  8
0
100
AcDbLine
 10
2081.57650831164
 20
182.5259020877116
 30
0.0
 11
2082.191835692592
 21
182.1311848258069
 31
0.0
  0
LINE
  5
550
330
71
100
AcDbEntity
  8
0
100
AcDbLine
 10
2082.191835692592
 20
182.1311848258069
 30
0.0
 11
2083.00011942275
 21
181.999612405172
 31
0.0
  0
LINE
  5
551
330
71
100
AcDbEntity
  8
0
100
AcDbLine
 10
2083.00011942275
 20
181.999612405172
 30
0.0
 11
2083.723209700529
 21
182.1017949448545
 31
0.0
  0
LINE
  5
552
330
71
100
AcDbEntity
  8
0
100
AcDbLine
 10
2083.723209700529
 20
182.1017949448545
 30
0.0
 11
2084.279385295767
 21
182.4083425639021
 31
0.0
  0
LINE
  5
553
330
71
100
AcDbEntity
  8
0
100
AcDbLine
 10
2084.279385295767
 20
182.4083425639021
 30
0.0
 11
2084.64682081164
 21
182.9001580400926
 31
0.0
  0
LINE
  5
554
330
71
100
AcDbEntity
  8
0
100
AcDbLine
 10
2084.64682081164
 20
182.9001580400926
 30
0.0
 11
2084.803690851322
 21
183.5581441512037
 31
0.0
  0
LINE
  5
555
330
71
100
AcDbEntity
  8
0
100
AcDbLine
 10
2084.803690851322
 20
183.5581441512037
 30
0.0
 11
2083.660833708465
 21
183.5581441512037
 31
0.0
  0
LINE
  5
556
330
71
100
AcDbEntity
  8
0
100
AcDbLine
 10
2076.439106330698
 20
184.3322183401269
 30
0.0
 11
2077.616685695777
 21
184.3322183401269
 31
0.0
  0
LINE
  5
557
330
71
100
AcDbEntity
  8
0
100
AcDbLine
 10
2077.616685695777
 20
184.3322183401269
 30
0.0
 11
2077.763511092603
 21
184.8401548480634
 31
0.0
  0
LINE
  5
558
330
71
100
AcDbEntity
  8
0
100
AcDbLine
 10
2077.763511092603
 20
184.8401548480634
 30
0.0
 11
2078.966884108476
 21
184.8401548480634
 31
0.0
  0
LINE
  5
559
330
71
100
AcDbEntity
  8
0
100
AcDbLine
 10
2078.966884108476
 20
184.8401548480634
 30
0.0
 11
2079.108749187841
 21
184.3322183401269
 31
0.0
  0
LINE
  5
55A
330
71
100
AcDbEntity
  8
0
100
AcDbLine
 10
2079.108749187841
 20
184.3322183401269
 30
0.0
 11
2080.312122203713
 21
184.3322183401269
 31
0.0
  0
LINE
  5
55B
330
71
100
AcDbEntity
  8
0
100
AcDbLine
 10
2080.312122203713
 20
184.3322183401269
 30
0.0
 11
2078.982757124348
 21
188.1417421496508
 31
0.0
  0
LINE
  5
55C
330
71
100
AcDbEntity
  8
0
100
AcDbLine
 10
2078.982757124348
 20
188.1417421496508
 30
0.0
 11
2077.753590457682
 21
188.1417421496508
 31
0.0
  0
LINE
  5
55D
330
71
100
AcDbEntity
  8
0
100
AcDbLine
 10
2077.753590457682
 20
188.1417421496508
 30
0.0
 11
2076.439106330698
 21
184.3322183401269
 31
0.0
  0
LINE
  5
55E
330
71
100
AcDbEntity
  8
0
100
AcDbLine
 10
2077.983749187841
 20
185.6655516734602
 30
0.0
 11
2078.369661886253
 21
186.9691231020316
 31
0.0
  0
LINE
  5
55F
330
71
100
AcDbEntity
  8
0
100
AcDbLine
 10
2078.369661886253
 20
186.9691231020316
 30
0.0
 11
2078.746646013238
 21
185.6655516734602
 31
0.0
  0
LINE
  5
560
330
71
100
AcDbEntity
  8
0
100
AcDbLine
 10
2078.746646013238
 20
185.6655516734602
 30
0.0
 11
2077.983749187841
 21
185.6655516734602
 31
0.0
  0
LINE
  5
561
330
71
100
AcDbEntity
  8
0
100
AcDbLine
 10
2072.678375140437
 20
186.0726066493072
 30
0.0
 11
2074.377779902341
 21
186.0726066493072
 31
0.0
  0
LINE
  5
562
330
71
100
AcDbEntity
  8
0
100
AcDbLine
 10
2074.377779902341
 20
186.0726066493072
 30
0.0
 11
2075.145637045198
 21
186.1112971254977
 31
0.0
  0
LINE
  5
563
330
71
100
AcDbEntity
  8
0
100
AcDbLine
 10
2075.145637045198
 20
186.1112971254977
 30
0.0
 11
2075.558335457897
 21
186.2432415699421
 31
0.0
  0
LINE
  5
564
330
71
100
AcDbEntity
  8
0
100
AcDbLine
 10
2075.558335457897
 20
186.2432415699421
 30
0.0
 11
2075.966569584881
 21
186.6261780778786
 31
0.0
  0
LINE
  5
565
330
71
100
AcDbEntity
  8
0
100
AcDbLine
 10
2075.966569584881
 20
186.6261780778786
 30
0.0
 11
2076.106946569007
 21
187.2134796651802
 31
0.0
  0
LINE
  5
566
330
71
100
AcDbEntity
  8
0
100
AcDbLine
 10
2076.106946569007
 20
187.2134796651802
 30
0.0
 11
2075.963097362659
 21
187.7764756969262
 31
0.0
  0
LINE
  5
567
330
71
100
AcDbEntity
  8
0
100
AcDbLine
 10
2075.963097362659
 20
187.7764756969262
 30
0.0
 11
2075.519644981707
 21
188.101376490577
 31
0.0
  0
LINE
  5
568
330
71
100
AcDbEntity
  8
0
100
AcDbLine
 10
2075.519644981707
 20
188.101376490577
 30
0.0
 11
2075.864883076945
 21
188.4188368080373
 31
0.0
  0
LINE
  5
569
330
71
100
AcDbEntity
  8
0
100
AcDbLine
 10
2075.864883076945
 20
188.4188368080373
 30
0.0
 11
2075.979962442024
 21
188.8712177604183
 31
0.0
  0
LINE
  5
56A
330
71
100
AcDbEntity
  8
0
100
AcDbLine
 10
2075.979962442024
 20
188.8712177604183
 30
0.0
 11
2075.826192600754
 21
189.4312376016881
 31
0.0
  0
LINE
  5
56B
330
71
100
AcDbEntity
  8
0
100
AcDbLine
 10
2075.826192600754
 20
189.4312376016881
 30
0.0
 11
2075.383732283293
 21
189.7710193477199
 31
0.0
  0
LINE
  5
56C
330
71
100
AcDbEntity
  8
0
100
AcDbLine
 10
2075.383732283293
 20
189.7710193477199
 30
0.0
 11
2074.988394981707
 21
189.8563368080374
 31
0.0
  0
LINE
  5
56D
330
71
100
AcDbEntity
  8
0
100
AcDbLine
 10
2074.988394981707
 20
189.8563368080374
 30
0.0
 11
2074.254764029325
 21
189.882130458831
 31
0.0
  0
LINE
  5
56E
330
71
100
AcDbEntity
  8
0
100
AcDbLine
 10
2074.254764029325
 20
189.882130458831
 30
0.0
 11
2072.678375140437
 21
189.882130458831
 31
0.0
  0
LINE
  5
56F
330
71
100
AcDbEntity
  8
0
100
AcDbLine
 10
2072.678375140437
 20
189.882130458831
 30
0.0
 11
2072.678375140437
 21
186.0726066493072
 31
0.0
  0
LINE
  5
570
330
71
100
AcDbEntity
  8
0
100
AcDbLine
 10
2073.884724346786
 20
186.9614955381961
 30
0.0
 11
2073.884724346786
 21
187.6599082366088
 31
0.0
  0
LINE
  5
571
330
71
100
AcDbEntity
  8
0
100
AcDbLine
 10
2073.884724346786
 20
187.6599082366088
 30
0.0
 11
2074.433335457896
 21
187.6599082366088
 31
0.0
  0
LINE
  5
572
330
71
100
AcDbEntity
  8
0
100
AcDbLine
 10
2074.433335457896
 20
187.6599082366088
 30
0.0
 11
2074.842561648373
 21
187.5805431572437
 31
0.0
  0
LINE
  5
573
330
71
100
AcDbEntity
  8
0
100
AcDbLine
 10
2074.842561648373
 20
187.5805431572437
 30
0.0
 11
2074.964089426151
 21
187.3136780778786
 31
0.0
  0
LINE
  5
574
330
71
100
AcDbEntity
  8
0
100
AcDbLine
 10
2074.964089426151
 20
187.3136780778786
 30
0.0
 11
2074.845041807103
 21
187.0438368080374
 31
0.0
  0
LINE
  5
575
330
71
100
AcDbEntity
  8
0
100
AcDbLine
 10
2074.845041807103
 20
187.0438368080374
 30
0.0
 11
2074.444248156309
 21
186.9614955381961
 31
0.0
  0
LINE
  5
576
330
71
100
AcDbEntity
  8
0
100
AcDbLine
 10
2074.444248156309
 20
186.9614955381961
 30
0.0
 11
2073.884724346786
 21
186.9614955381961
 31
0.0
  0
LINE
  5
577
330
71
100
AcDbEntity
  8
0
100
AcDbLine
 10
2073.884724346786
 20
188.3583209350214
 30
0.0
 11
2073.884724346786
 21
188.9932415699421
 31
0.0
  0
LINE
  5
578
330
71
100
AcDbEntity
  8
0
100
AcDbLine
 10
2073.884724346786
 20
188.9932415699421
 30
0.0
 11
2074.219049743611
 21
188.9932415699421
 31
0.0
  0
LINE
  5
579
330
71
100
AcDbEntity
  8
0
100
AcDbLine
 10
2074.219049743611
 20
188.9932415699421
 30
0.0
 11
2074.727482283293
 21
188.9257812524818
 31
0.0
  0
LINE
  5
57A
330
71
100
AcDbEntity
  8
0
100
AcDbLine
 10
2074.727482283293
 20
188.9257812524818
 30
0.0
 11
2074.837105299167
 21
188.6757812524818
 31
0.0
  0
LINE
  5
57B
330
71
100
AcDbEntity
  8
0
100
AcDbLine
 10
2074.837105299167
 20
188.6757812524818
 30
0.0
 11
2074.734922759484
 21
188.4307415699421
 31
0.0
  0
LINE
  5
57C
330
71
100
AcDbEntity
  8
0
100
AcDbLine
 10
2074.734922759484
 20
188.4307415699421
 30
0.0
 11
2074.382740219801
 21
188.3583209350214
 31
0.0
  0
LINE
  5
57D
330
71
100
AcDbEntity
  8
0
100
AcDbLine
 10
2074.382740219801
 20
188.3583209350214
 30
0.0
 11
2073.884724346786
 21
188.3583209350214
 31
0.0
  0
ARC
  5
57E
330
71
100
AcDbEntity
  8
0
100
AcDbCircle
 10
2078.538332934477
 20
186.0000000000018
 30
0.0
 40
9.000000000000017
100
AcDbArc
 50
179.9999999999997
 51
359.9999999999986
  0
ARC
  5
57F
330
71
100
AcDbEntity
  8
0
100
AcDbCircle
 10
2078.538332934477
 20
186.0000000000018
 30
0.0
 40
8.999999999999994
100
AcDbArc
 50
359.9999999999995
 51
179.9999999999998
  0
LINE
  5
584
330
71
100
AcDbEntity
  8
0
100
AcDbLine
 10
2102.53833293448
 20
16.75000000000011
 30
0.0
 11
2102.788332934478
 21
16.75000000000011
 31
0.0
  0
LINE
  5
585
330
71
100
AcDbEntity
  8
0
100
AcDbLine
 10
2102.788332934478
 20
19.74999999999994
 30
0.0
 11
2102.53833293448
 21
19.74999999999994
 31
0.0
  0
LINE
  5
586
330
71
100
AcDbEntity
  8
0
100
AcDbLine
 10
2102.53833293448
 20
6.124999999999884
 30
0.0
 11
2102.788332934478
 21
6.124999999999884
 31
0.0
  0
LINE
  5
587
330
71
100
AcDbEntity
  8
0
100
AcDbLine
 10
2102.788332934478
 20
8.12500000000011
 30
0.0
 11
2102.53833293448
 21
8.12500000000011
 31
0.0
  0
LINE
  5
588
330
71
100
AcDbEntity
  8
0
100
AcDbLine
 10
2101.538332934481
 20
26.50000000000011
 30
0.0
 11
2102.788332934478
 21
26.50000000000011
 31
0.0
  0
LINE
  5
589
330
71
100
AcDbEntity
  8
0
100
AcDbLine
 10
2102.788332934478
 20
28.00000000000011
 30
0.0
 11
2101.538332934481
 21
28.00000000000011
 31
0.0
  0
LINE
  5
58C
330
71
100
AcDbEntity
  8
0
100
AcDbLine
 10
2102.788332934478
 20
19.75
 30
0.0
 11
2102.788332934478
 21
18.25000000000001
 31
0.0
  0
LINE
  5
58D
330
71
100
AcDbEntity
  8
0
100
AcDbLine
 10
2102.788332934478
 20
18.24999999999999
 30
0.0
 11
2102.788332934478
 21
16.75
 31
0.0
  0
LINE
  5
58E
330
71
100
AcDbEntity
  8
0
100
AcDbLine
 10
2102.788332934478
 20
8.125
 30
0.0
 11
2102.788332934478
 21
7.125000000000007
 31
0.0
  0
LINE
  5
58F
330
71
100
AcDbEntity
  8
0
100
AcDbLine
 10
2102.788332934478
 20
7.124999999999992
 30
0.0
 11
2102.788332934478
 21
6.125
 31
0.0
  0
LINE
  5
590
330
71
100
AcDbEntity
  8
0
100
AcDbLine
 10
2102.788332934478
 20
28.0
 30
0.0
 11
2102.788332934478
 21
27.25
 31
0.0
  0
LINE
  5
591
330
71
100
AcDbEntity
  8
0
100
AcDbLine
 10
2102.788332934478
 20
27.25
 30
0.0
 11
2102.788332934478
 21
26.5
 31
0.0
  0
LINE
  5
592
330
71
100
AcDbEntity
  8
0
100
AcDbLine
 10
2102.538332934478
 20
145.2500000000002
 30
0.0
 11
2111.538332934478
 21
145.2500000000002
 31
0.0
  0
LINE
  5
593
330
71
100
AcDbEntity
  8
0
100
AcDbLine
 10
2111.538332934478
 20
149.2500000000001
 30
0.0
 11
2102.538332934478
 21
149.2500000000001
 31
0.0
  0
LINE
  5
594
330
71
100
AcDbEntity
  8
0
100
AcDbLine
 10
2102.538332934478
 20
81.62500000000028
 30
0.0
 11
2111.538332934478
 21
81.62500000000028
 31
0.0
  0
LINE
  5
595
330
71
100
AcDbEntity
  8
0
100
AcDbLine
 10
2111.538332934478
 20
85.62500000000019
 30
0.0
 11
2102.538332934478
 21
85.62500000000019
 31
0.0
  0
LINE
  5
596
330
71
100
AcDbEntity
  8
0
100
AcDbLine
 10
2111.538332934478
 20
149.25
 30
0.0
 11
2111.538332934478
 21
147.25
 31
0.0
  0
LINE
  5
597
330
71
100
AcDbEntity
  8
0
100
AcDbLine
 10
2111.538332934478
 20
147.25
 30
0.0
 11
2111.538332934478
 21
145.25
 31
0.0
  0
LINE
  5
598
330
71
100
AcDbEntity
  8
0
100
AcDbLine
 10
2111.538332934478
 20
85.625
 30
0.0
 11
2111.538332934478
 21
83.62500000000002
 31
0.0
  0
LINE
  5
599
330
71
100
AcDbEntity
  8
0
100
AcDbLine
 10
2111.538332934478
 20
83.62499999999998
 30
0.0
 11
2111.538332934478
 21
81.62499999999999
 31
0.0
  0
LWPOLYLINE
  5
59A
330
71
100
AcDbEntity
  8
0
100
AcDbPolyline
 90
       41
 70
   128
 43
0.0
 10
2309.736556252557
 20
155.8750000000035
 10
2309.736556252557
 20
155.8718004266471
 10
2309.736556252557
 20
155.8622068252138
 10
2309.736556252557
 20
155.8462345434189
 10
2309.736556252557
 20
155.8239091335059
 10
2309.736556252557
 20
155.7952663113683
 10
2309.736556252557
 20
155.7603518994115
 10
2309.736556252557
 20
155.7192217532466
 10
2309.736556252557
 20
155.671941672333
 10
2309.736556252557
 20
155.6185872947151
 10
2309.736556252557
 20
155.559243976015
 10
2309.736556252557
 20
155.4940066528831
 10
2309.736556252557
 20
155.4229796911204
 10
2309.736556252557
 20
155.3462767187138
 10
2309.736556252557
 20
155.2640204440571
 10
2309.736556252557
 20
155.176342459642
 10
2309.736556252557
 20
155.0833830315405
 10
2309.736556252557
 20
154.9852908750071
 10
2309.736556252557
 20
154.8822229165668
 10
2309.736556252557
 20
154.774344042967
 10
2309.736556252557
 20
154.6618268373918
 10
2309.736556252557
 20
154.5448513033685
 10
2309.736556252557
 20
154.4236045767974
 10
2309.736556252557
 20
154.298280626577
 10
2309.736556252557
 20
154.1690799442931
 10
2309.736556252557
 20
154.0362092234756
 10
2309.736556252557
 20
153.8998810289343
 10
2309.736556252557
 20
153.7603134566979
 10
2309.736556252557
 20
153.6177297851099
 10
2309.736556252557
 20
153.4723581176282
 10
2309.736556252557
 20
153.3244310179097
 10
2309.736556252557
 20
153.1741851377582
 10
2309.736556252557
 20
153.0218608385307
 10
2309.736556252557
 20
152.8677018066124
 10
2309.736556252557
 20
152.7119546635686
 10
2309.736556252557
 20
152.5548685716039
 10
2309.736556252557
 20
152.3966948349555
 10
2309.736556252557
 20
152.2376864978602
 10
2309.736556252557
 20
152.0780979397371
 10
2309.736556252557
 20
151.9181844682359
 10
2309.736556252557
 20
151.8750000000028
  0
LWPOLYLINE
  5
59B
330
71
100
AcDbEntity
  8
0
100
AcDbPolyline
 90
       41
 70
   128
 43
0.0
 10
2314.736556252557
 20
151.875000000003
 10
2314.736556252557
 20
152.0349573367494
 10
2314.736556252557
 20
152.1946587758796
 10
2314.736556252557
 20
152.3538488291587
 10
2314.736556252557
 20
152.51227282646
 10
2314.736556252557
 20
152.6696773231834
 10
2314.736556252557
 20
152.8258105057115
 10
2314.736556252557
 20
152.9804225942595
 10
2314.736556252557
 20
153.1332662424675
 10
2314.736556252557
 20
153.2840969331035
 10
2314.736556252557
 20
153.4326733692376
 10
2314.736556252557
 20
153.5787578602672
 10
2314.736556252557
 20
153.722116702169
 10
2314.736556252557
 20
153.8625205513782
 10
2314.736556252557
 20
153.9997447916866
 10
2314.736556252557
 20
154.1335698935833
 10
2314.736556252557
 20
154.2637817654529
 10
2314.736556252557
 20
154.390172096077
 10
2314.736556252557
 20
154.5125386878891
 10
2314.736556252557
 20
154.6306857804455
 10
2314.736556252557
 20
154.7444243636015
 10
2314.736556252557
 20
154.8535724798866
 10
2314.736556252557
 20
154.9579555155992
 10
2314.736556252557
 20
155.0574064801489
 10
2314.736556252557
 20
155.1517662732072
 10
2314.736556252557
 20
155.2408839392351
 10
2314.736556252557
 20
155.3246169089768
 10
2314.736556252557
 20
155.4028312275431
 10
2314.736556252557
 20
155.4754017687096
 10
2314.736556252557
 20
155.5422124350905
 10
2314.736556252557
 20
155.6031563438724
 10
2314.736556252557
 20
155.6581359978015
 10
2314.736556252557
 20
155.7070634411602
 10
2314.736556252557
 20
155.7498604004765
 10
2314.736556252557
 20
155.7864584097449
 10
2314.736556252557
 20
155.8167989199574
 10
2314.736556252557
 20
155.8408333927701
 10
2314.736556252557
 20
155.858523378154
 10
2314.736556252557
 20
155.8698405759059
 10
2314.736556252557
 20
155.8747668809233
 10
2314.736556252557
 20
155.8750000000035
  0
LINE
  5
59C
330
71
100
AcDbEntity
  8
0
100
AcDbLine
 10
2309.736556252557
 20
151.8750000000028
 30
0.0
 11
2309.736556252557
 21
143.8750000000028
 31
0.0
  0
LINE
  5
59D
330
71
100
AcDbEntity
  8
0
100
AcDbLine
 10
2314.736556252557
 20
143.875000000003
 30
0.0
 11
2314.736556252557
 21
151.875000000003
 31
0.0
  0
LINE
  5
5A0
330
71
100
AcDbEntity
  8
0
100
AcDbLine
 10
2284.499366021849
 20
16.24989559934299
 30
0.0
 11
2288.886556252559
 21
16.24989559934299
 31
0.0
  0
LINE
  5
5A1
330
71
100
AcDbEntity
  8
0
100
AcDbLine
 10
2288.886556252559
 20
12.25010440065591
 30
0.0
 11
2284.499366021849
 21
12.25010440065591
 31
0.0
  0
LINE
  5
5A2
330
71
100
AcDbEntity
  8
0
100
AcDbLine
 10
2288.886556252559
 20
16.24989559934299
 30
0.0
 11
2288.886556252559
 21
12.25010440065591
 31
0.0
  0
LWPOLYLINE
  5
5A3
330
71
100
AcDbEntity
  8
0
100
AcDbPolyline
 90
       80
 70
   128
 43
0.0
 10
2279.486556252559
 20
19.6500000000002
 10
2279.270613847951
 20
19.64568057596972
 10
2279.055016905125
 20
19.63272921403438
 10
2278.840110333199
 20
19.61116663361116
 10
2278.626237936842
 20
19.58102733022866
 10
2278.413741866265
 20
19.54235952034286
 10
2278.202962069852
 20
19.49522506420117
 10
2277.994235750313
 20
19.43969936687841
 10
2277.787896825232
 20
19.37587125764542
 10
2277.584275392873
 20
19.30384284786111
 10
2277.383697204092
 20
19.22372936761587
 10
2277.186483141202
 20
19.13565898138801
 10
2276.992948704634
 20
19.0397725830083
 10
2276.803403508202
 20
18.93622357025947
 10
2276.618150783786
 20
18.82517759947267
 10
2276.437486896225
 20
18.70681232051219
 10
2276.261700869202
 20
18.58131709257531
 10
2276.091073922859
 20
18.44889268125507
 10
2275.925879023912
 20
18.30975093736083
 10
2275.766380448962
 20
18.16411445800082
 10
2275.612833361702
 20
18.01221623047473
 10
2275.465483404715
 20
17.85429925954298
 10
2275.324566306504
 20
17.69061617867231
 10
2275.190307504362
 20
17.52142884587448
 10
2275.062921783733
 20
17.34700792479117
 10
2274.942612934595
 20
17.16763245168783
 10
2274.829573425444
 20
16.98358938905681
 10
2274.723984095379
 20
16.79517316653794
 10
2274.626013864804
 20
16.60268520989387
 10
2274.535819465191
 20
16.40643345879362
 10
2274.453545188335
 20
16.20673187417372
 10
2274.379322655531
 20
16.00389993596911
 10
2274.313270606996
 20
15.79826213201215
 10
2274.255494711919
 20
15.59014743892231
 10
2274.206087399407
 20
15.37988879581314
 10
2274.16512771062
 20
15.16782257166078
 10
2274.132681172323
 20
14.95428802718538
 10
2274.108799692055
 20
14.73962677210676
 10
2274.09352147509
 20
14.5241822186407
 10
2274.086870963316
 20
14.30829903211389
 10
2274.088858796134
 20
14.09232257957222
 10
2274.099481793435
 20
13.87659837726721
 10
2274.118722960689
 20
13.66147153790382
 10
2274.146551516133
 20
13.44728621853392
 10
2274.182922940015
 20
13.23438506997752
 10
2274.227779045816
 20
13.02310868865635
 10
2274.281048073335
 20
12.81379507171044
 10
2274.342644803491
 20
12.60677907627587
 10
2274.412470694657
 20
12.40239188378404
 10
2274.490414040302
 20
12.20096047014283
 10
2274.5763501477
 20
12.00280708264432
 10
2274.670141537411
 20
11.80824872443793
 10
2274.771638163218
 20
11.61759664739332
 10
2274.880677652173
 20
11.43115585416335
 10
2274.997085564353
 20
11.2492246102455
 10
2275.120675671933
 20
11.07209396681975
 10
2275.251250257102
 20
10.90004729513026
 10
2275.388600428382
 20
10.73335983314979
 10
2275.532506454795
 20
10.57229824526012
 10
2275.682738117399
 20
10.41712019564306
 10
2275.839055077582
 20
10.26807393607583
 10
2276.001207261553
 20
10.12539790877843
 10
2276.168935260407
 20
9.989320364958924
 10
2276.341970745128
 20
9.860058999659022
 10
2276.520036895852
 20
9.737820603488895
 10
2276.702848844723
 20
9.62280073180608
 10
2276.89011413162
 20
9.515183391869411
 10
2277.081533172033
 20
9.415140748465088
 10
2277.27679973633
 20
9.322832848481708
 10
2277.475601439663
 20
9.238407364867953
 10
2277.677620241716
 20
9.161999360387479
 10
2277.882532955501
 20
9.093731071548234
 10
2278.090011764389
 20
9.033711713049056
 10
2278.299724746543
 20
8.982037303060394
 10
2278.51133640593
 20
8.938790509614705
 10
2278.724508209036
 20
8.904040518355824
 10
2278.938899126449
 20
8.877842921857334
 10
2279.154166178437
 20
8.860239630684533
 10
2279.369964983638
 20
8.851258806348425
 10
2279.486556252559
 20
8.849999999998258
  0
LWPOLYLINE
  5
5A4
330
71
100
AcDbEntity
  8
0
100
AcDbPolyline
 90
       80
 70
   128
 43
0.0
 10
2279.486556252559
 20
8.849999999998258
 10
2279.702498657167
 20
8.854319424028911
 10
2279.918095599992
 20
8.867270785964077
 10
2280.133002171919
 20
8.888833366387471
 10
2280.346874568277
 20
8.918972669769797
 10
2280.559370638852
 20
8.957640479655591
 10
2280.770150435266
 20
9.004774935797287
 10
2280.978876754805
 20
9.060300633120046
 10
2281.185215679887
 20
9.124128742353033
 10
2281.388837112245
 20
9.196157152137512
 10
2281.589415301026
 20
9.276270632382759
 10
2281.786629363915
 20
9.364341018610442
 10
2281.980163800483
 20
9.460227416990331
 10
2282.169708996915
 20
9.563776429739164
 10
2282.354961721332
 20
9.674822400525952
 10
2282.535625608893
 20
9.793187679486091
 10
2282.711411635916
 20
9.918682907423146
 10
2282.882038582259
 20
10.05110731874356
 10
2283.047233481205
 20
10.1902490626378
 10
2283.206732056156
 20
10.33588554199764
 10
2283.360279143417
 20
10.48778376952373
 10
2283.507629100403
 20
10.64570074045548
 10
2283.648546198614
 20
10.80938382132632
 10
2283.782805000756
 20
10.97857115412398
 10
2283.910190721385
 20
11.15299207520727
 10
2284.030499570523
 20
11.33236754831079
 10
2284.143539079674
 20
11.51641061094181
 10
2284.249128409739
 20
11.70482683346068
 10
2284.347098640313
 20
11.89731479010458
 10
2284.437293039927
 20
12.093566541205
 10
2284.519567316783
 20
12.29326812582473
 10
2284.593789849587
 20
12.49610006402952
 10
2284.659841898122
 20
12.70173786798631
 10
2284.717617793198
 20
12.90985256107632
 10
2284.767025105711
 20
13.12011120418532
 10
2284.807984794497
 20
13.33217742833767
 10
2284.840431332795
 20
13.54571197281308
 10
2284.864312813063
 20
13.76037322789204
 10
2284.879591030028
 20
13.97581778135793
 10
2284.886241541801
 20
14.19170096788457
 10
2284.884253708984
 20
14.40767742042607
 10
2284.873630711684
 20
14.62340162273125
 10
2284.854389544429
 20
14.83852846209464
 10
2284.826560988985
 20
15.05271378146471
 10
2284.790189565103
 20
15.26561493002111
 10
2284.745333459302
 20
15.47689131134228
 10
2284.692064431784
 20
15.68620492828819
 10
2284.630467701626
 20
15.89322092372276
 10
2284.560641810461
 20
16.09760811621441
 10
2284.482698464816
 20
16.29903952985563
 10
2284.396762357419
 20
16.49719291735431
 10
2284.302970967708
 20
16.69175127556069
 10
2284.2014743419
 20
16.88240335260513
 10
2284.092434852945
 20
17.06884414583527
 10
2283.976026940765
 20
17.25077538975313
 10
2283.852436833186
 20
17.42790603317854
 10
2283.721862248015
 20
17.59995270486837
 10
2283.584512076737
 20
17.76664016684867
 10
2283.440606050323
 20
17.9277017547385
 10
2283.290374387718
 20
18.08287980435556
 10
2283.134057427536
 20
18.23192606392279
 10
2282.971905243565
 20
18.37460209122002
 10
2282.80417724471
 20
18.51067963503936
 10
2282.63114175999
 20
18.63994100033943
 10
2282.453075609266
 20
18.76217939650973
 10
2282.270263660395
 20
18.87719926819238
 10
2282.082998373498
 20
18.98481660812922
 10
2281.891579333086
 20
19.08485925153354
 10
2281.696312768788
 20
19.17716715151675
 10
2281.497511065455
 20
19.26159263513051
 10
2281.295492263401
 20
19.33800063961098
 10
2281.090579549616
 20
19.40626892845022
 10
2280.883100740729
 20
19.46628828694923
 10
2280.673387758575
 20
19.51796269693824
 10
2280.461776099188
 20
19.56120949038393
 10
2280.248604296082
 20
19.59595948164263
 10
2280.034213378669
 20
19.62215707814129
 10
2279.818946326681
 20
19.6397603693141
 10
2279.60314752148
 20
19.64874119365003
 10
2279.486556252559
 20
19.6500000000002
  0
LWPOLYLINE
  5
5A5
330
71
100
AcDbEntity
  8
0
100
AcDbPolyline
 90
       11
 70
   128
 43
0.0
 10
2279.486556252559
 20
22.39999999998815
 10
2279.160643178938
 20
22.39348086927509
 10
2278.835251496711
 20
22.37393390635441
 10
2278.510901763155
 20
22.34139038219706
 10
2278.188112868654
 20
22.29590235949956
 10
2277.867401206581
 20
22.23754260939443
 10
2277.549279847181
 20
22.16640449503228
 10
2277.234257716765
 20
22.08260182222131
 10
2276.922838783542
 20
21.98626865736037
 10
2276.615521251371
 20
21.87755911296392
 10
2276.33003854812
 20
21.7635336895305
  0
LWPOLYLINE
  5
5A6
330
71
100
AcDbEntity
  8
0
100
AcDbPolyline
 90
       42
 70
   128
 43
0.0
 10
2271.343073956999
 20
14.5341420670365
 10
2271.337031232696
 20
14.33798835402393
 10
2271.340031387782
 20
14.01202389324419
 10
2271.35606424482
 20
13.68644014346944
 10
2271.385104154655
 20
13.3617579692455
 10
2271.427104659632
 20
13.03849679278931
 10
2271.481998567898
 20
12.71717376302433
 10
2271.549698060912
 20
12.39830292825314
 10
2271.630094833927
 20
12.08239441378913
 10
2271.723060269256
 20
11.76995360586515
 10
2271.828445642034
 20
11.46148034312324
 10
2271.946082358145
 20
11.15746811698
 10
2272.07578222394
 20
10.85840328214465
 10
2272.217337747299
 20
10.56476427855591
 10
2272.370522469582
 20
10.2770208659798
 10
2272.535091327913
 20
9.99563337249441
 10
2272.710781047222
 20
9.721051958063126
 10
2272.897310561438
 20
9.45371589437485
 10
2273.094381463129
 20
9.194052862102919
 10
2273.301678480893
 20
8.942478266707212
 10
2273.518869983721
 20
8.699394573873632
 10
2273.74560851154
 20
8.465190665655825
 10
2273.981531331075
 20
8.240241218346337
 10
2274.226261016141
 20
8.024906103073872
 10
2274.479406051449
 20
7.819529810087487
 10
2274.740561458944
 20
7.624440897644261
 10
2275.009309445684
 20
7.43995146638764
 10
2275.28522007222
 20
7.266356660052053
 10
2275.567851940408
 20
7.103934193295684
 10
2275.856752899548
 20
6.952943907417477
 10
2276.151460769737
 20
6.813627354664903
 10
2276.451504081249
 20
6.686207411803707
 10
2276.756402828792
 20
6.570887923560118
 10
2277.065669239412
 20
6.467853376515847
 10
2277.378808552823
 20
6.377268603966737
 10
2277.695319812926
 20
6.299278522224367
 10
2278.014696669223
 20
6.234007898783032
 10
2278.336428186872
 20
6.181561152716822
 10
2278.65999966408
 20
6.142022187630741
 10
2278.984893455506
 20
6.115454257435143
 10
2279.310589800392
 20
6.101899865150016
 10
2279.486556252559
 20
6.100000000010652
  0
LWPOLYLINE
  5
5A7
330
71
100
AcDbEntity
  8
0
100
AcDbPolyline
 90
       35
 70
   128
 43
0.0
 10
2279.486556252559
 20
6.100000000010652
 10
2279.812469326179
 20
6.10651913072354
 10
2280.137861008407
 20
6.126066093644054
 10
2280.462210741962
 20
6.158609617801232
 10
2280.784999636463
 20
6.20409764049907
 10
2281.105711298536
 20
6.262457390604196
 10
2281.423832657937
 20
6.333595504966011
 10
2281.738854788354
 20
6.41739817777733
 10
2282.050273721576
 20
6.513731342637925
 10
2282.357591253747
 20
6.622440887034542
 10
2282.66031574237
 20
6.743352898886199
 10
2282.957962892842
 20
6.87627394476669
 10
2283.250056533216
 20
7.020991379358007
 10
2283.53612937598
 20
7.177273685636007
 10
2283.815723765608
 20
7.344870845249544
 10
2284.088392410722
 20
7.523514738494722
 10
2284.353699099656
 20
7.712919573251213
 10
2284.611219398302
 20
7.912782342187994
 10
2284.860541329119
 20
8.122783307509276
 10
2285.101266030202
 20
8.342586512469036
 10
2285.333008393382
 20
8.571840318827637
 10
2285.555397680313
 20
8.810177969399942
 10
2285.768078115578
 20
9.057218174788033
 10
2285.970709455846
 20
9.312565723361782
 10
2286.162967534203
 20
9.575812113515157
 10
2286.344544778734
 20
9.846536207180065
 10
2286.515150704583
 20
10.12430490355768
 10
2286.674512378661
 20
10.40867383198865
 10
2286.822374856287
 20
10.69918806284891
 10
2286.958501589039
 20
10.99538283534275
 10
2287.082674803182
 20
11.29678430101853
 10
2287.194695848062
 20
11.60291028182683
 10
2287.294385513906
 20
11.91327104150195
 10
2287.381584318512
 20
12.2273700690352
 10
2287.386926511397
 20
12.25010440065591
  0
LWPOLYLINE
  5
5A8
330
71
100
AcDbEntity
  8
0
100
AcDbPolyline
 90
       35
 70
   128
 43
0.0
 10
2287.385698830858
 20
16.24989559934306
 10
2287.34301767119
 20
16.4176055862095
 10
2287.250052235862
 20
16.73004639413363
 10
2287.144666863084
 20
17.03851965687522
 10
2287.027030146973
 20
17.34253188301846
 10
2286.897330281178
 20
17.64159671785381
 10
2286.755774757819
 20
17.93523572144272
 10
2286.602590035535
 20
18.22297913401882
 10
2286.438021177207
 20
18.50436662750422
 10
2286.262331457896
 20
18.7789480419355
 10
2286.075801943679
 20
19.04628410562378
 10
2285.878731041989
 20
19.30594713789571
 10
2285.671434024225
 20
19.55752173329159
 10
2285.454242521397
 20
19.800605426125
 10
2285.227503993578
 20
20.03480933434264
 10
2284.991581174043
 20
20.25975878165212
 10
2284.746851488977
 20
20.47509389692459
 10
2284.493706453668
 20
20.68047018991097
 10
2284.232551046174
 20
20.8755591023542
 10
2283.963803059434
 20
21.06004853361099
 10
2283.687892432898
 20
21.23364333994675
 10
2283.405260564711
 20
21.39606580670278
 10
2283.11635960557
 20
21.54705609258115
 10
2282.821651735381
 20
21.68637264533356
 10
2282.521608423869
 20
21.81379258819493
 10
2282.216709676326
 20
21.92911207643835
 10
2281.907443265706
 20
22.03214662348245
 10
2281.594303952294
 20
22.1227313960319
 10
2281.277792692192
 20
22.20072147777427
 10
2280.958415835895
 20
22.26599210121543
 10
2280.636684318245
 20
22.31843884728181
 10
2280.313112841038
 20
22.35797781236772
 10
2279.988219049613
 20
22.38454574256365
 10
2279.662522704726
 20
22.39810013484845
 10
2279.486556252559
 20
22.39999999998815
  0
LINE
  5
5A9
330
71
100
AcDbEntity
  8
0
100
AcDbLine
 10
2271.336556252559
 20
34.25000000000005
 30
0.0
 11
2271.336556252559
 21
21.70000000000311
 31
0.0
  0
LINE
  5
5AA
330
71
100
AcDbEntity
  8
0
100
AcDbLine
 10
2276.336556252559
 20
21.75607111739236
 30
0.0
 11
2276.336556252559
 21
34.25000000000005
 31
0.0
  0
LWPOLYLINE
  5
5AB
330
71
100
AcDbEntity
  8
0
100
AcDbPolyline
 90
       41
 70
   128
 43
0.0
 10
2277.836556252559
 20
40.75000000000009
 10
2277.576625580346
 20
40.74480069329632
 10
2277.31711074176
 20
40.72921109096704
 10
2277.058426905181
 20
40.70325613305004
 10
2276.800987909567
 20
40.66697734194144
 10
2276.545205602391
 20
40.62043275596812
 10
2276.291489180783
 20
40.56369683653835
 10
2276.040244536892
 20
40.49686034902006
 10
2275.791873608554
 20
40.42003021753589
 10
2275.546773736271
 20
40.33332935390649
 10
2275.305337027553
 20
40.2368964610187
 10
2275.06794972963
 20
40.13088581092964
 10
2274.834991611539
 20
40.0154669980654
 10
2274.606835356575
 20
39.89082466790494
 10
2274.383845966073
 20
39.75715822158718
 10
2274.166380175492
 20
39.61468149691296
 10
2273.954785883704
 20
39.46362242624786
 10
2273.749401596439
 20
39.30422267188117
 10
2273.550555884745
 20
39.13673723941587
 10
2273.358566859341
 20
38.96143406981593
 10
2273.173741661712
 20
38.7785936107565
 10
2272.996375972748
 20
38.58850836796852
 10
2272.826753539716
 20
38.39148243729079
 10
2272.665145722323
 20
38.18783101818251
 10
2272.511811058603
 20
37.97787990947091
 10
2272.366994851308
 20
37.76196498814293
 10
2272.230928775478
 20
37.54043167201308
 10
2272.103830507807
 20
37.31363436712932
 10
2271.985903378412
 20
37.08193590079872
 10
2271.877336045543
 20
36.8457069411408
 10
2271.778302193772
 20
36.60532540409838
 10
2271.688960256137
 20
36.36117584885215
 10
2271.609453160679
 20
36.11364886260775
 10
2271.53990810179
 20
35.86314043574049
 10
2271.480436336729
 20
35.61005132829432
 10
2271.431133007634
 20
35.35478642885146
 10
2271.392076989314
 20
35.09775410679799
 10
2271.363330763064
 20
34.83936555901806
 10
2271.344940316718
 20
34.58003415206832
 10
2271.336935071065
 20
34.32017476087878
 10
2271.336556252559
 20
34.25000000000005
  0
LWPOLYLINE
  5
5AC
330
71
100
AcDbEntity
  8
0
100
AcDbPolyline
 90
       41
 70
   128
 43
0.0
 10
2276.336556252559
 20
34.25000000000005
 10
2276.337756092568
 20
34.30998400128004
 10
2276.341353693105
 20
34.36987204095379
 10
2276.347343298778
 20
34.42956831093324
 10
2276.355715327496
 20
34.48897730992138
 10
2276.366456385797
 20
34.54800399619261
 10
2276.379549290281
 20
34.60655393964071
 10
2276.394973095093
 20
34.66453347284613
 10
2276.412703125435
 20
34.72184984092416
 10
2276.432711017042
 20
34.77841134991257
 10
2276.454964761555
 20
34.83412751346288
 10
2276.479428757729
 20
34.88890919759904
 10
2276.50606386839
 20
34.94266876331238
 10
2276.534827483043
 20
34.99532020676565
 10
2276.56567358604
 20
35.04677929688136
 10
2276.598552830194
 20
35.09696371009255
 10
2276.633412615733
 20
35.14579316204361
 10
2276.670197174433
 20
35.19318953602777
 10
2276.708847658848
 20
35.23907700795723
 10
2276.749302236448
 20
35.28338216766581
 10
2276.791496188538
 20
35.3260341363494
 10
2276.835362013797
 20
35.36696467995636
 10
2276.880829536261
 20
35.40610831834857
 10
2276.927826017594
 20
35.44340243005456
 10
2276.976276273451
 20
35.47878735245154
 10
2277.026102793757
 20
35.51220647721186
 10
2277.07722586671
 20
35.54360634086509
 10
2277.129563706299
 20
35.57293671032755
 10
2277.183032583144
 20
35.60015066326479
 10
2277.23754695845
 20
35.62520466315754
 10
2277.293019620844
 20
35.64805862895099
 10
2277.349361825901
 20
35.66867599917435
 10
2277.406483438111
 20
35.68702379043378
 10
2277.464293075081
 20
35.70307265017748
 10
2277.522698253722
 20
35.71679690365311
 10
2277.581605538209
 20
35.72817459498287
 10
2277.640920689452
 20
35.73718752228762
 10
2277.700548815863
 20
35.74382126680649
 10
2277.760394525159
 20
35.74806521596326
 10
2277.820362076972
 20
35.74991258034509
 10
2277.836556252559
 20
35.75000000000005
  0
LINE
  5
5AD
330
71
100
AcDbEntity
  8
0
100
AcDbLine
 10
2308.236556252559
 20
40.75000000000009
 30
0.0
 11
2277.836556252559
 21
40.75000000000009
 31
0.0
  0
LINE
  5
5AE
330
71
100
AcDbEntity
  8
0
100
AcDbLine
 10
2277.836556252559
 20
35.75000000000005
 30
0.0
 11
2308.236556252559
 21
35.75000000000005
 31
0.0
  0
LWPOLYLINE
  5
5AF
330
71
100
AcDbEntity
  8
0
100
AcDbPolyline
 90
       41
 70
   128
 43
0.0
 10
2308.236556252559
 20
35.75000000000005
 10
2308.496486924772
 20
35.75519930670367
 10
2308.756001763359
 20
35.77078890903294
 10
2309.014685599937
 20
35.79674386694995
 10
2309.272124595552
 20
35.83302265805837
 10
2309.527906902727
 20
35.87956724403187
 10
2309.781623324335
 20
35.93630316346178
 10
2310.032867968226
 20
36.00313965098008
 10
2310.281238896564
 20
36.07996978246428
 10
2310.526338768847
 20
36.16667064609333
 10
2310.767775477565
 20
36.26310353898129
 10
2311.005162775488
 20
36.36911418907015
 10
2311.238120893579
 20
36.48453300193472
 10
2311.466277148543
 20
36.60917533209521
 10
2311.689266539045
 20
36.7428417784128
 10
2311.906732329627
 20
36.88531850308703
 10
2312.118326621414
 20
37.03637757375214
 10
2312.323710908679
 20
37.19577732811899
 10
2312.522556620374
 20
37.36326276058412
 10
2312.714545645778
 20
37.53856593018423
 10
2312.899370843406
 20
37.72140638924349
 10
2313.076736532369
 20
37.91149163203146
 10
2313.246358965402
 20
38.10851756270937
 10
2313.407966782795
 20
38.31216898181747
 10
2313.561301446516
 20
38.52212009052908
 10
2313.70611765381
 20
38.73803501185721
 10
2313.842183729641
 20
38.95956832798708
 10
2313.969281997311
 20
39.18636563287082
 10
2314.087209126706
 20
39.41806409920144
 10
2314.195776459575
 20
39.65429305885936
 10
2314.294810311347
 20
39.89467459590161
 10
2314.384152248981
 20
40.138824151148
 10
2314.463659344439
 20
40.3863511373922
 10
2314.533204403327
 20
40.63685956425967
 10
2314.592676168388
 20
40.88994867170582
 10
2314.641979497484
 20
41.14521357114852
 10
2314.681035515805
 20
41.402245893202
 10
2314.709781742054
 20
41.6606344409821
 10
2314.7281721884
 20
41.91996584793167
 10
2314.736177434054
 20
42.17982523912136
 10
2314.736556252559
 20
42.25000000000011
  0
LWPOLYLINE
  5
5B0
330
71
100
AcDbEntity
  8
0
100
AcDbPolyline
 90
       41
 70
   128
 43
0.0
 10
2309.736556252559
 20
42.25000000000011
 10
2309.73535641255
 20
42.19001599872011
 10
2309.731758812013
 20
42.1301279590462
 10
2309.72576920634
 20
42.07043168906657
 10
2309.717397177623
 20
42.0110226900786
 10
2309.70665611932
 20
41.95199600380735
 10
2309.693563214837
 20
41.89344606035927
 10
2309.678139410025
 20
41.83546652715386
 10
2309.660409379683
 20
41.778150159076
 10
2309.640401488076
 20
41.72158865008724
 10
2309.618147743563
 20
41.66587248653693
 10
2309.593683747388
 20
41.61109080240112
 10
2309.567048636728
 20
41.55733123668778
 10
2309.538285022076
 20
41.5046797932345
 10
2309.507438919079
 20
41.4532207031188
 10
2309.474559674923
 20
41.40303628990743
 10
2309.439699889385
 20
41.35420683795635
 10
2309.402915330685
 20
41.30681046397238
 10
2309.36426484627
 20
41.26092299204293
 10
2309.32381026867
 20
41.21661783233434
 10
2309.281616316579
 20
41.17396586365077
 10
2309.237750491321
 20
41.13303532004379
 10
2309.192282968857
 20
41.09389168165159
 10
2309.145286487524
 20
41.05659756994543
 10
2309.096836231668
 20
41.02121264754845
 10
2309.047009711362
 20
40.98779352278813
 10
2308.995886638408
 20
40.95639365913505
 10
2308.943548798819
 20
40.92706328967261
 10
2308.890079921974
 20
40.89984933673536
 10
2308.835565546669
 20
40.87479533684227
 10
2308.780092884274
 20
40.85194137104917
 10
2308.723750679217
 20
40.83132400082581
 10
2308.666629067007
 20
40.81297620956603
 10
2308.608819430038
 20
40.79692734982267
 10
2308.550414251396
 20
40.78320309634704
 10
2308.491506966909
 20
40.77182540501729
 10
2308.432191815666
 20
40.76281247771254
 10
2308.372563689256
 20
40.75617873319367
 10
2308.312717979959
 20
40.75193478403654
 10
2308.252750428146
 20
40.75008741965507
 10
2308.236556252559
 20
40.75000000000009
  0
LINE
  5
5B1
330
71
100
AcDbEntity
  8
0
100
AcDbLine
 10
2309.736556252559
 20
143.8750000000004
 30
0.0
 11
2309.736556252559
 21
42.25000000000011
 31
0.0
  0
LINE
  5
5B2
330
71
100
AcDbEntity
  8
0
100
AcDbLine
 10
2314.736556252559
 20
42.25000000000011
 30
0.0
 11
2314.736556252559
 21
143.8750000000004
 31
0.0
  0
LINE
  5
5B5
330
71
100
AcDbEntity
  8
0
100
AcDbLine
 10
2271.336556252559
 20
21.69999999999953
 30
0.0
 11
2271.336556252559
 21
14.24999999999966
 31
0.0
  0
LINE
  5
5CA
330
71
100
AcDbEntity
  8
0
100
AcDbLine
 10
2383.236556252588
 20
165.7450353879094
 30
0.0
 11
2241.236556252587
 21
165.7450353879098
 31
0.0
  0
LINE
  5
5CB
330
71
100
AcDbEntity
  8
0
100
AcDbLine
 10
2241.236556252587
 20
206.5000000000003
 30
0.0
 11
2241.236556252587
 21
165.7450353879098
 31
0.0
  0
LINE
  5
5CC
330
71
100
AcDbEntity
  8
0
100
AcDbLine
 10
2383.236556252588
 20
165.7450353879094
 30
0.0
 11
2383.236556252588
 21
206.4999999999998
 31
0.0
  0
LINE
  5
5CD
330
71
100
AcDbEntity
  8
0
100
AcDbLine
 10
2241.236556252561
 20
165.5
 30
0.0
 11
2383.236556252561
 21
165.5
 31
0.0
  0
LINE
  5
5CE
330
71
100
AcDbEntity
  8
0
100
AcDbLine
 10
2383.236556252561
 20
69.625
 30
0.0
 11
2314.736556252559
 21
69.625
 31
0.0
  0
LINE
  5
5CF
330
71
100
AcDbEntity
  8
0
100
AcDbLine
 10
2309.736556252559
 20
69.625
 30
0.0
 11
2241.236556252561
 21
69.625
 31
0.0
  0
LINE
  5
5D0
330
71
100
AcDbEntity
  8
0
100
AcDbLine
 10
2383.236556252561
 20
165.5
 30
0.0
 11
2383.236556252561
 21
69.625
 31
0.0
  0
LINE
  5
5D1
330
71
100
AcDbEntity
  8
0
100
AcDbLine
 10
2241.236556252561
 20
69.625
 30
0.0
 11
2241.236556252561
 21
165.5
 31
0.0
  0
LINE
  5
5D5
330
71
100
AcDbEntity
  8
0
100
AcDbLine
 10
2241.236556252559
 20
69.625
 30
0.0
 11
2309.736556252559
 21
69.625
 31
0.0
  0
LINE
  5
5D6
330
71
100
AcDbEntity
  8
0
100
AcDbLine
 10
2314.736556252559
 20
69.625
 30
0.0
 11
2383.236556252559
 21
69.625
 31
0.0
  0
LINE
  5
5D7
330
71
100
AcDbEntity
  8
0
100
AcDbLine
 10
2383.236556252559
 20
0.0
 30
0.0
 11
2241.236556252559
 21
0.0
 31
0.0
  0
LINE
  5
5D8
330
71
100
AcDbEntity
  8
0
100
AcDbLine
 10
2241.236556252559
 20
69.625
 30
0.0
 11
2241.236556252559
 21
63.75000000000017
 31
0.0
  0
LINE
  5
5D9
330
71
100
AcDbEntity
  8
0
100
AcDbLine
 10
2241.236556252559
 20
63.75000000000017
 30
0.0
 11
2309.736556252559
 21
63.75000000000017
 31
0.0
  0
LINE
  5
5DA
330
71
100
AcDbEntity
  8
0
100
AcDbLine
 10
2314.736556252559
 20
63.75000000000017
 30
0.0
 11
2383.236556252559
 21
63.75000000000017
 31
0.0
  0
LINE
  5
5DB
330
71
100
AcDbEntity
  8
0
100
AcDbLine
 10
2383.236556252559
 20
21.74999999999974
 30
0.0
 11
2282.6634671231
 21
21.74999999999974
 31
0.0
  0
LINE
  5
5DC
330
71
100
AcDbEntity
  8
0
100
AcDbLine
 10
2271.336594153972
 20
21.74999999999974
 30
0.0
 11
2241.236556252559
 21
21.74999999999974
 31
0.0
  0
LINE
  5
5DD
330
71
100
AcDbEntity
  8
0
100
AcDbLine
 10
2241.236556252559
 20
21.74999999999974
 30
0.0
 11
2241.236556252559
 21
0.0
 31
0.0
  0
LINE
  5
5DE
330
71
100
AcDbEntity
  8
0
100
AcDbLine
 10
2383.236556252559
 20
63.75000000000017
 30
0.0
 11
2383.236556252559
 21
69.625
 31
0.0
  0
LINE
  5
5DF
330
71
100
AcDbEntity
  8
0
100
AcDbLine
 10
2383.236556252559
 20
0.0
 30
0.0
 11
2383.236556252559
 21
21.74999999999975
 31
0.0
  0
LINE
  5
5E0
330
71
100
AcDbEntity
  8
0
100
AcDbLine
 10
2382.236556252559
 20
21.74999999999976
 30
0.0
 11
2382.236556252559
 21
63.75000000000018
 31
0.0
  0
LINE
  5
5E1
330
71
100
AcDbEntity
  8
0
100
AcDbLine
 10
2380.861556252559
 20
63.75000000000017
 30
0.0
 11
2380.861556252559
 21
21.74999999999975
 31
0.0
  0
LINE
  5
5E2
330
71
100
AcDbEntity
  8
0
100
AcDbLine
 10
2377.486556252559
 20
63.75000000000017
 30
0.0
 11
2377.486556252559
 21
21.74999999999975
 31
0.0
  0
LINE
  5
5E3
330
71
100
AcDbEntity
  8
0
100
AcDbLine
 10
2313.986556252559
 20
39.2321216359604
 30
0.0
 11
2313.986556252559
 21
21.74999999999975
 31
0.0
  0
LINE
  5
5E4
330
71
100
AcDbEntity
  8
0
100
AcDbLine
 10
2310.486556252559
 20
21.74999999999975
 30
0.0
 11
2310.486556252559
 21
36.15312749742417
 31
0.0
  0
LINE
  5
5E5
330
71
100
AcDbEntity
  8
0
100
AcDbLine
 10
2246.98655625256
 20
63.75000000000017
 30
0.0
 11
2246.98655625256
 21
21.74999999999975
 31
0.0
  0
LINE
  5
5E6
330
71
100
AcDbEntity
  8
0
100
AcDbLine
 10
2243.61155625256
 20
63.75000000000017
 30
0.0
 11
2243.61155625256
 21
21.74999999999975
 31
0.0
  0
LINE
  5
5E7
330
71
100
AcDbEntity
  8
0
100
AcDbLine
 10
2242.236556252559
 20
63.75000000000018
 30
0.0
 11
2242.236556252559
 21
21.74999999999976
 31
0.0
  0
ARC
  5
5E8
330
71
100
AcDbEntity
  8
0
100
AcDbCircle
 10
2324.361556252558
 20
18.25
 30
0.0
 40
1.500000000000024
100
AcDbArc
 50
359.9999999999984
 51
179.9999999999986
  0
ARC
  5
5E9
330
71
100
AcDbEntity
  8
0
100
AcDbCircle
 10
2324.361556252558
 20
18.25
 30
0.0
 40
1.499999999999974
100
AcDbArc
 50
180.0000000000013
 51
0.0000000000006107
  0
ARC
  5
5EA
330
71
100
AcDbEntity
  8
0
100
AcDbCircle
 10
2249.486556252558
 20
7.125
 30
0.0
 40
0.9999999999999978
100
AcDbArc
 50
359.9999999999996
 51
179.9999999999997
  0
ARC
  5
5EB
330
71
100
AcDbEntity
  8
0
100
AcDbCircle
 10
2249.486556252558
 20
7.125
 30
0.0
 40
1.0
100
AcDbArc
 50
180.0000000000001
 51
359.9999999999992
  0
ARC
  5
5EC
330
71
100
AcDbEntity
  8
0
100
AcDbCircle
 10
2372.736556252558
 20
27.25
 30
0.0
 40
0.7499999999999984
100
AcDbArc
 50
359.9999999999995
 51
179.9999999999996
  0
ARC
  5
5ED
330
71
100
AcDbEntity
  8
0
100
AcDbCircle
 10
2372.736556252558
 20
27.25
 30
0.0
 40
0.7500000000000018
100
AcDbArc
 50
180.0000000000001
 51
359.9999999999992
  0
ARC
  5
5EE
330
71
100
AcDbEntity
  8
0
100
AcDbCircle
 10
2277.861556252559
 20
147.25
 30
0.0
 40
2.000000000000014
100
AcDbArc
 50
359.9999999999992
 51
179.9999999999988
  0
ARC
  5
5EF
330
71
100
AcDbEntity
  8
0
100
AcDbCircle
 10
2277.861556252559
 20
147.25
 30
0.0
 40
1.999999999999956
100
AcDbArc
 50
180.0000000000004
 51
0.0000000000004071
  0
ARC
  5
5F0
330
71
100
AcDbEntity
  8
0
100
AcDbCircle
 10
2277.861556252559
 20
83.625
 30
0.0
 40
2.000000000000014
100
AcDbArc
 50
359.9999999999992
 51
179.9999999999992
  0
ARC
  5
5F1
330
71
100
AcDbEntity
  8
0
100
AcDbCircle
 10
2277.861556252559
 20
83.625
 30
0.0
 40
1.999999999999968
100
AcDbArc
 50
180.0000000000006
 51
0.0000000000002036
  0
ARC
  5
5F2
330
71
100
AcDbEntity
  8
0
100
AcDbCircle
 10
2346.611556252559
 20
147.25
 30
0.0
 40
2.0
100
AcDbArc
 50
0.0
 51
179.9999999999992
  0
ARC
  5
5F3
330
71
100
AcDbEntity
  8
0
100
AcDbCircle
 10
2346.611556252559
 20
147.25
 30
0.0
 40
2.000000000000024
100
AcDbArc
 50
180.0
 51
0.0
  0
ARC
  5
5F4
330
71
100
AcDbEntity
  8
0
100
AcDbCircle
 10
2346.611556252559
 20
83.625
 30
0.0
 40
2.0
100
AcDbArc
 50
0.0
 51
179.9999999999996
  0
ARC
  5
5F5
330
71
100
AcDbEntity
  8
0
100
AcDbCircle
 10
2346.611556252559
 20
83.625
 30
0.0
 40
2.00000000000003
100
AcDbArc
 50
180.0000000000002
 51
359.9999999999994
  0
HATCH
  5
6CA
330
71
100
AcDbEntity
  8
0
100
AcDbHatch
 10
0.0
 20
0.0
 30
0.0
210
0.0
220
0.0
230
1.0
  2
HONEY
 70
     0
 71
     0
 91
        9
 92
        7
 72
     0
 73
     1
 93
        4
 10
1673.722519422875
 20
63.75000000000087
 10
1610.222519422874
 20
63.75000000000087
 10
1610.222519422874
 20
21.75000000000045
 10
1673.722519422875
 20
21.75000000000045
 97
        0
 92
        7
 72
     0
 73
     1
 93
        4
 10
1740.722519422874
 20
63.75000000000087
 10
1677.222519422874
 20
63.75000000000087
 10
1677.222519422874
 20
21.75000000000045
 10
1740.722519422874
 20
21.75000000000045
 97
        0
 92
        7
 72
     0
 73
     1
 93
        4
 10
1956.913332934481
 20
63.75000000000063
 10
1892.538332934481
 20
63.75000000000085
 10
1892.53833293448
 20
21.75000000000042
 10
1956.913332934481
 20
21.75000000000021
 97
        0
 92
        7
 72
     0
 73
     1
 93
        4
 10
2028.913332934481
 20
63.75000000000041
 10
1960.413332934481
 20
63.75000000000063
 10
1960.413332934481
 20
21.7500000000002
 10
2028.913332934481
 20
21.74999999999998
 97
        0
 92
        7
 72
     0
 73
     1
 93
        4
 10
2096.78833293448
 20
63.75000000000019
 10
2032.413332934481
 20
63.75000000000039
 10
2032.413332934481
 20
21.74999999999997
 10
2096.78833293448
 20
21.74999999999975
 97
        0
 92
        7
 72
     0
 73
     1
 93
       85
 10
2309.736556252559
 20
63.75000000000017
 10
2246.98655625256
 20
63.75000000000017
 10
2246.98655625256
 20
21.74999999999974
 10
2271.336556252559
 20
21.74999999999974
 10
2271.336556252559
 20
34.30787788074937
 10
2271.344940316718
 20
34.58003415206553
 10
2271.363330763064
 20
34.8393655590184
 10
2271.392076989313
 20
35.09775410679424
 10
2271.431133007635
 20
35.3547864288535
 10
2271.480436336729
 20
35.61005132829325
 10
2271.53990810179
 20
35.86314043574049
 10
2271.609453160679
 20
36.11364886261033
 10
2271.688960256137
 20
36.3611758488527
 10
2271.778302193772
 20
36.60532540409736
 10
2271.877336045543
 20
36.84570694114067
 10
2271.985903378412
 20
37.08193590079873
 10
2272.103830507807
 20
37.31363436713269
 10
2272.230928775478
 20
37.54043167201152
 10
2272.366994851307
 20
37.76196498814479
 10
2272.511811058601
 20
37.97787990947018
 10
2272.66514572232
 20
38.18783101817923
 10
2272.826753539716
 20
38.39148243729086
 10
2272.996375972749
 20
38.58850836796857
 10
2273.173741661713
 20
38.77859361075572
 10
2273.35856685934
 20
38.96143406981472
 10
2273.550555884745
 20
39.13673723941597
 10
2273.749401596441
 20
39.30422267188202
 10
2273.954785883704
 20
39.46362242624751
 10
2274.166380175492
 20
39.6146814969131
 10
2274.383845966074
 20
39.75715822158777
 10
2274.606835356575
 20
39.89082466790513
 10
2274.834991611539
 20
40.01546699806561
 10
2275.06794972963
 20
40.13088581092975
 10
2275.305337027552
 20
40.2368964610186
 10
2275.546773736271
 20
40.33332935390617
 10
2275.791873608554
 20
40.42003021753581
 10
2276.040244536892
 20
40.49686034902014
 10
2276.291489180783
 20
40.56369683653846
 10
2276.545205602391
 20
40.6204327559682
 10
2276.800987909567
 20
40.66697734194149
 10
2277.058426905181
 20
40.70325613305003
 10
2277.31711074176
 20
40.72921109096706
 10
2277.576625580346
 20
40.74480069329633
 10
2277.836556252559
 20
40.75000000000009
 10
2308.236556252559
 20
40.75000000000009
 10
2308.252750428146
 20
40.75008741965507
 10
2308.312717979959
 20
40.75193478403654
 10
2308.372563689256
 20
40.75617873319367
 10
2308.432191815666
 20
40.76281247771259
 10
2308.49150696691
 20
40.77182540501731
 10
2308.550414251397
 20
40.78320309634717
 10
2308.608819430038
 20
40.79692734982268
 10
2308.666629067007
 20
40.81297620956621
 10
2308.723750679217
 20
40.83132400082585
 10
2308.780092884274
 20
40.85194137104908
 10
2308.835565546669
 20
40.874795336842
 10
2308.890079921974
 20
40.89984933673522
 10
2308.943548798819
 20
40.92706328967254
 10
2308.995886638407
 20
40.95639365913477
 10
2309.04700971136
 20
40.98779352278788
 10
2309.096836231669
 20
41.02121264754861
 10
2309.145286487526
 20
41.05659756994607
 10
2309.192282968857
 20
41.09389168165193
 10
2309.237750491322
 20
41.13303532004557
 10
2309.281616316578
 20
41.17396586364981
 10
2309.32381026867
 20
41.21661783233347
 10
2309.36426484627
 20
41.26092299204283
 10
2309.402915330686
 20
41.30681046397099
 10
2309.439699889384
 20
41.3542068379573
 10
2309.474559674923
 20
41.40303628990616
 10
2309.507438919081
 20
41.45322070311912
 10
2309.538285022076
 20
41.50467979323422
 10
2309.567048636729
 20
41.55733123668879
 10
2309.593683747388
 20
41.61109080240126
 10
2309.618147743565
 20
41.66587248653844
 10
2309.640401488076
 20
41.72158865008927
 10
2309.660409379683
 20
41.77815015907557
 10
2309.678139410025
 20
41.83546652715217
 10
2309.693563214837
 20
41.8934460603579
 10
2309.706656119321
 20
41.95199600380642
 10
2309.717397177621
 20
42.01102269007659
 10
2309.725769206339
 20
42.07043168906315
 10
2309.731758812013
 20
42.13012795904517
 10
2309.73535641255
 20
42.19001599871748
 10
2309.736556252559
 20
42.25000000000311
 97
        0
 92
        7
 72
     0
 73
     1
 93
       74
 10
2310.486556252559
 20
36.15259810298105
 10
2310.281238896564
 20
36.07996978246417
 10
2310.032867968225
 20
36.00313965097988
 10
2309.781623324336
 20
35.93630316346196
 10
2309.527906902728
 20
35.87956724403194
 10
2309.272124595552
 20
35.83302265805833
 10
2309.014685599937
 20
35.79674386695
 10
2308.756001763359
 20
35.77078890903294
 10
2308.496486924772
 20
35.75519930670367
 10
2308.236556252559
 20
35.75000000000005
 10
2277.83655625256
 20
35.75000000000005
 10
2277.820362076972
 20
35.74991258034509
 10
2277.760394525159
 20
35.74806521596328
 10
2277.700548815863
 20
35.74382126680651
 10
2277.640920689453
 20
35.73718752228764
 10
2277.581605538209
 20
35.72817459498275
 10
2277.522698253722
 20
35.71679690365313
 10
2277.464293075081
 20
35.70307265017753
 10
2277.406483438111
 20
35.6870237904339
 10
2277.349361825901
 20
35.66867599917454
 10
2277.293019620845
 20
35.64805862895098
 10
2277.237546958449
 20
35.6252046631576
 10
2277.183032583145
 20
35.60015066326468
 10
2277.129563706298
 20
35.57293671032765
 10
2277.077225866711
 20
35.54360634086496
 10
2277.026102793758
 20
35.51220647721136
 10
2276.976276273452
 20
35.47878735245187
 10
2276.927826017596
 20
35.44340243005655
 10
2276.88082953626
 20
35.40610831834797
 10
2276.835362013798
 20
35.36696467995715
 10
2276.791496188538
 20
35.32603413635039
 10
2276.749302236447
 20
35.28338216766506
 10
2276.708847658846
 20
35.23907700795614
 10
2276.670197174432
 20
35.19318953602833
 10
2276.633412615732
 20
35.14579316204234
 10
2276.598552830197
 20
35.0969637100934
 10
2276.56567358604
 20
35.04677929688313
 10
2276.534827483043
 20
34.9953202067676
 10
2276.50606386839
 20
34.94266876331238
 10
2276.47942875773
 20
34.88890919760002
 10
2276.454964761557
 20
34.83412751346602
 10
2276.432711017042
 20
34.77841134991177
 10
2276.412703125436
 20
34.72184984092399
 10
2276.394973095092
 20
34.66453347284458
 10
2276.379549290281
 20
34.60655393964194
 10
2276.366456385797
 20
34.54800399619247
 10
2276.355715327495
 20
34.4889773099189
 10
2276.347343298778
 20
34.42956831093062
 10
2276.341353693105
 20
34.36987204095202
 10
2276.337756092568
 20
34.30998400128303
 10
2276.336556252559
 20
34.24999999999734
 10
2276.336556252559
 20
21.7661369435983
 10
2276.615521251371
 20
21.8775591129641
 10
2276.922838783542
 20
21.98626865736069
 10
2277.234257716766
 20
22.08260182222156
 10
2277.54927984718
 20
22.16640449503253
 10
2277.867401206581
 20
22.23754260939454
 10
2278.188112868655
 20
22.29590235949951
 10
2278.510901763155
 20
22.34139038219705
 10
2278.835251496711
 20
22.3739339063544
 10
2279.160643178938
 20
22.39348086927509
 10
2279.486556252559
 20
22.39999999998815
 10
2279.662522704726
 20
22.39810013484845
 10
2279.988219049613
 20
22.38454574256364
 10
2280.313112841038
 20
22.35797781236772
 10
2280.636684318245
 20
22.31843884728183
 10
2280.958415835895
 20
22.26599210121532
 10
2281.277792692192
 20
22.2007214777742
 10
2281.594303952294
 20
22.12273139603198
 10
2281.907443265706
 20
22.03214662348228
 10
2282.216709676325
 20
21.92911207643842
 10
2282.521608423869
 20
21.81379258819488
 10
2282.67182462223
 20
21.74999999999974
 10
2310.486556252559
 20
21.74999999999974
 97
        0
 92
        7
 72
     0
 73
     1
 93
       17
 10
2377.486556252559
 20
63.75000000000017
 10
2314.736556252559
 20
63.75000000000017
 10
2314.736556252559
 20
42.19212211923042
 10
2314.7281721884
 20
41.91996584793144
 10
2314.709781742054
 20
41.6606344409821
 10
2314.681035515805
 20
41.40224589320175
 10
2314.641979497483
 20
41.14521357114719
 10
2314.592676168388
 20
40.88994867170664
 10
2314.533204403327
 20
40.63685956426186
 10
2314.463659344439
 20
40.38635113739394
 10
2314.384152248981
 20
40.13882415114728
 10
2314.294810311347
 20
39.8946745959054
 10
2314.195776459576
 20
39.65429305886232
 10
2314.087209126705
 20
39.41806409920071
 10
2313.986556252559
 20
39.22030539269064
 10
2313.986556252559
 20
21.74999999999974
 10
2377.486556252559
 20
21.74999999999974
 97
        0
 92
       22
 72
     1
 73
     1
 93
        2
 10
2373.486556252558
 20
27.25
 42
-1.0
 10
2371.986556252558
 20
27.25
 42
-1.0
 97
        0
 75
     1
 76
     1
 52
0.0
 41
8.0
 77
     0
 78
     3
 53
0.0
 43
0.0
 44
0.0
 45
1.5
 46
0.8660254037844385
 79
     2
 49
1.0
 49
-2.0
 53
120.0
 43
0.0
 44
0.0
 45
-1.499999999999999
 46
0.8660254037844389
 79
     2
 49
0.9999999999999998
 49
-1.999999999999999
 53
60.0
 43
0.0
 44
0.0
 45
0.0000000000000003
 46
1.732050807568874
 79
     2
 49
-2.0
 49
1.0
 47
0.1514664006970615
 98
        9
 10
1638.959904715196
 20
44.55423880143189
 10
1690.194352484948
 20
42.88811237486152
 10
1917.816084527611
 20
47.12529128187725
 10
1989.93396765396
 20
45.46303973989959
 10
2042.684230813888
 20
45.3115716843522
 10
2274.567485835571
 20
51.6733557292564
 10
2291.089835511353
 20
30.31659653121551
 10
2338.080021946982
 20
42.58536852903215
 10
2338.080021946982
 20
42.58536852903215
1001
GradientColor1ACI
1070
     5
1001
GradientColor2ACI
1070
     2
1001
ACAD
1010
0.0
1020
0.0
1030
0.0
  0
ARC
  5
6D2
330
71
100
AcDbEntity
  8
0
100
AcDbCircle
 10
2312.236556252557
 20
155.8750000000035
 30
0.0
 40
2.5
100
AcDbArc
 50
0.0
 51
180.0
  0
ARC
  5
984
330
71
100
AcDbEntity
  8
0
100
AcDbCircle
 10
1994.663332934479
 20
383.0550730438383
 30
0.0
 40
69.7499999999999
100
AcDbArc
 50
0.0
 51
180.0
  0
ARC
  5
985
330
71
100
AcDbEntity
  8
0
100
AcDbCircle
 10
1994.663332934479
 20
383.0550730438383
 30
0.0
 40
69.7499999999999
100
AcDbArc
 50
180.0
 51
0.0
  0
ARC
  5
986
330
71
100
AcDbEntity
  8
0
100
AcDbCircle
 10
1994.663332934479
 20
383.0550730438379
 30
0.0
 40
68.24999999999988
100
AcDbArc
 50
0.0
 51
180.0
  0
ARC
  5
987
330
71
100
AcDbEntity
  8
0
100
AcDbCircle
 10
1994.663332934479
 20
383.0550730438379
 30
0.0
 40
68.24999999999993
100
AcDbArc
 50
180.0
 51
0.0
  0
ARC
  5
988
330
71
100
AcDbEntity
  8
0
100
AcDbCircle
 10
1994.663332934479
 20
383.0550730438379
 30
0.0
 40
2.999999999999993
100
AcDbArc
 50
0.0
 51
180.0
  0
ARC
  5
989
330
71
100
AcDbEntity
  8
0
100
AcDbCircle
 10
1994.663332934479
 20
383.0550730438379
 30
0.0
 40
3.0
100
AcDbArc
 50
180.0
 51
0.0
  0
LINE
  5
99F
330
71
100
AcDbEntity
  8
0
100
AcDbLine
 10
1604.472519422845
 20
206.4999999999999
 30
0.0
 11
1746.472519422844
 21
206.5000000000003
 31
0.0
  0
LWPOLYLINE
  5
9A0
330
71
100
AcDbEntity
  8
0
100
AcDbPolyline
 90
       41
 70
   128
 43
0.0
 10
1605.722519422883
 20
206.500000000004
 10
1605.842487425443
 20
206.5023996800209
 10
1605.96226350479
 20
206.5095948810962
 10
1606.08165604475
 20
206.5215740924424
 10
1606.200474042726
 20
206.5383181498772
 10
1606.318527415268
 20
206.5598002664803
 10
1606.435627302164
 20
206.5859860754478
 10
1606.551586368575
 20
206.6168336850715
 10
1606.666219104732
 20
206.6522937457567
 10
1606.779342122708
 20
206.6923095289702
 10
1606.890774449809
 20
206.7368170179952
 10
1607.000337818081
 20
206.785745010344
 10
1607.107856949507
 20
206.8390152316662
 10
1607.213159836414
 20
206.896542460971
 10
1607.316078016646
 20
206.9582346669637
 10
1607.416446843068
 20
207.0239931552748
 10
1607.51410574697
 20
207.0937127263511
 10
1607.608898494938
 20
207.1672818437511
 10
1607.700673438797
 20
207.2445828125814
 10
1607.789283758214
 20
207.3254919677811
 10
1607.874587695581
 20
207.4098798719623
 10
1607.956448782795
 20
207.49761152248
 10
1608.03473605958
 20
207.5885465674082
 10
1608.109324282992
 20
207.6825395300736
 10
1608.180094127786
 20
207.7794400417865
 10
1608.246932377307
 20
207.8790930823994
 10
1608.309732104613
 20
207.9813392283057
 10
1608.368392843538
 20
208.0860149074827
 10
1608.422820749413
 20
208.1929526611737
 10
1608.472928749198
 20
208.3019814117851
 10
1608.518636680785
 20
208.4129267365739
 10
1608.559871421231
 20
208.5256111466876
 10
1608.596567003751
 20
208.6398543711081
 10
1608.628664723238
 20
208.7554736450467
 10
1608.656113230189
 20
208.8722840023296
 10
1608.678868612848
 20
208.9900985713032
 10
1608.696894467458
 20
209.1087288737894
 10
1608.710161956496
 20
209.2279851266109
 10
1608.71864985481
 20
209.3476765452032
 10
1608.722344583573
 20
209.467611648829
 10
1608.722519422883
 20
209.500000000004
  0
LWPOLYLINE
  5
9A1
330
71
100
AcDbEntity
  8
0
100
AcDbPolyline
 90
       41
 70
   128
 43
0.0
 10
1742.222519422883
 20
209.5000000000019
 10
1742.2249191029
 20
209.3800319974421
 10
1742.232114303975
 20
209.2602559180946
 10
1742.244093515321
 20
209.1408633781354
 10
1742.260837572756
 20
209.0220453801593
 10
1742.282319689359
 20
208.9039920076168
 10
1742.308505498327
 20
208.7868921207206
 10
1742.339353107951
 20
208.6709330543098
 10
1742.374813168636
 20
208.5563003181535
 10
1742.414828951849
 20
208.4431773001768
 10
1742.459336440874
 20
208.3317449730762
 10
1742.508264433223
 20
208.2221816048042
 10
1742.561534654545
 20
208.1146624733776
 10
1742.61906188385
 20
208.0093595864709
 10
1742.680754089843
 20
207.9064414062393
 10
1742.746512578154
 20
207.8060725798169
 10
1742.81623214923
 20
207.708413675915
 10
1742.88980126663
 20
207.6136209279466
 10
1742.96710223546
 20
207.5218459840876
 10
1743.04801139066
 20
207.4332356646704
 10
1743.132399294841
 20
207.3479317273036
 10
1743.220130945359
 20
207.2660706400895
 10
1743.311065990287
 20
207.1877833633052
 10
1743.405058952953
 20
207.1131951398928
 10
1743.501959464666
 20
207.0424252950988
 10
1743.601612505279
 20
206.9755870455783
 10
1743.703858651185
 20
206.9127873182717
 10
1743.808534330362
 20
206.8541265793473
 10
1743.915472084053
 20
206.7996986734724
 10
1744.024500834664
 20
206.7495906736868
 10
1744.135446159453
 20
206.7038827421004
 10
1744.248130569567
 20
206.6626480016532
 10
1744.362373793987
 20
206.6259524191345
 10
1744.477993067926
 20
206.5938546996472
 10
1744.594803425209
 20
206.5664061926958
 10
1744.712617994182
 20
206.5436508100366
 10
1744.831248296669
 20
206.5256249554269
 10
1744.95050454949
 20
206.5123574663891
 10
1745.070195968082
 20
206.5038695680752
 10
1745.190131071708
 20
206.5001748393122
 10
1745.222519422883
 20
206.5000000000021
  0
LINE
  5
9A2
330
71
100
AcDbEntity
  8
0
100
AcDbLine
 10
1608.722519422883
 20
219.1250000000039
 30
0.0
 11
1608.722519422883
 21
209.500000000004
 31
0.0
  0
LINE
  5
9A3
330
71
100
AcDbEntity
  8
0
100
AcDbLine
 10
1742.222519422883
 20
209.5000000000019
 30
0.0
 11
1742.222519422883
 21
219.1250000000021
 31
0.0
  0
LINE
  5
9A4
330
71
100
AcDbEntity
  8
0
100
AcDbLine
 10
1607.222519422883
 20
219.375000000004
 30
0.0
 11
1607.222519422883
 21
219.1250000000039
 31
0.0
  0
LINE
  5
9A5
330
71
100
AcDbEntity
  8
0
100
AcDbLine
 10
1743.722519422883
 20
219.1250000000021
 30
0.0
 11
1743.722519422883
 21
219.375000000002
 31
0.0
  0
LINE
  5
9A6
330
71
100
AcDbEntity
  8
0
100
AcDbLine
 10
1672.472519422883
 20
230.5000000000032
 30
0.0
 11
1607.222519422883
 21
219.375000000004
 31
0.0
  0
LINE
  5
9A7
330
71
100
AcDbEntity
  8
0
100
AcDbLine
 10
1743.722519422883
 20
219.375000000002
 30
0.0
 11
1678.472519422883
 21
230.5000000000029
 31
0.0
  0
LINE
  5
9A8
330
71
100
AcDbEntity
  8
0
100
AcDbLine
 10
1675.472519422884
 20
219.1250000000027
 30
0.0
 11
1607.284014979414
 21
219.1250000000036
 31
0.0
  0
LINE
  5
9A9
330
71
100
AcDbEntity
  8
0
100
AcDbLine
 10
1743.661023866353
 20
219.1250000000017
 30
0.0
 11
1675.472519422884
 21
219.1250000000027
 31
0.0
  0
LINE
  5
9AA
330
71
100
AcDbEntity
  8
0
100
AcDbLine
 10
1675.472519422884
 20
219.3750000000027
 30
0.0
 11
1607.284014979414
 21
219.3750000000036
 31
0.0
  0
LINE
  5
9AB
330
71
100
AcDbEntity
  8
0
100
AcDbLine
 10
1743.661023866353
 20
219.3750000000018
 30
0.0
 11
1675.472519422884
 21
219.3750000000027
 31
0.0
  0
LINE
  5
9AC
330
71
100
AcDbEntity
  8
0
100
AcDbLine
 10
1675.472519422884
 20
230.5000000000027
 30
0.0
 11
1672.472519422884
 21
230.5000000000028
 31
0.0
  0
LINE
  5
9AD
330
71
100
AcDbEntity
  8
0
100
AcDbLine
 10
1678.472519422883
 20
230.5000000000027
 30
0.0
 11
1675.472519422884
 21
230.5000000000027
 31
0.0
  0
LINE
  5
9C3
330
71
100
AcDbEntity
  8
0
100
AcDbLine
 10
2241.236556252587
 20
206.5000000000003
 30
0.0
 11
2383.236556252586
 21
206.5000000000007
 31
0.0
  0
LWPOLYLINE
  5
9C4
330
71
100
AcDbEntity
  8
0
100
AcDbPolyline
 90
       41
 70
   128
 43
0.0
 10
2242.486556252625
 20
206.5000000000044
 10
2242.606524255185
 20
206.5023996800213
 10
2242.726300334533
 20
206.5095948810966
 10
2242.845692874492
 20
206.5215740924428
 10
2242.964510872468
 20
206.5383181498776
 10
2243.08256424501
 20
206.5598002664807
 10
2243.199664131906
 20
206.5859860754482
 10
2243.315623198318
 20
206.6168336850719
 10
2243.430255934474
 20
206.6522937457571
 10
2243.543378952451
 20
206.6923095289706
 10
2243.654811279551
 20
206.7368170179956
 10
2243.764374647823
 20
206.7857450103444
 10
2243.871893779249
 20
206.8390152316666
 10
2243.977196666156
 20
206.8965424609715
 10
2244.080114846388
 20
206.9582346669641
 10
2244.18048367281
 20
207.0239931552752
 10
2244.278142576712
 20
207.0937127263515
 10
2244.37293532468
 20
207.1672818437515
 10
2244.464710268539
 20
207.2445828125818
 10
2244.553320587957
 20
207.3254919677815
 10
2244.638624525324
 20
207.4098798719627
 10
2244.720485612537
 20
207.4976115224804
 10
2244.798772889322
 20
207.5885465674086
 10
2244.873361112734
 20
207.682539530074
 10
2244.944130957528
 20
207.7794400417869
 10
2245.010969207049
 20
207.8790930823998
 10
2245.073768934355
 20
207.9813392283061
 10
2245.13242967328
 20
208.0860149074831
 10
2245.186857579155
 20
208.1929526611741
 10
2245.23696557894
 20
208.3019814117855
 10
2245.282673510527
 20
208.4129267365743
 10
2245.323908250973
 20
208.525611146688
 10
2245.360603833493
 20
208.6398543711086
 10
2245.39270155298
 20
208.7554736450471
 10
2245.420150059931
 20
208.87228400233
 10
2245.44290544259
 20
208.9900985713036
 10
2245.4609312972
 20
209.1087288737898
 10
2245.474198786238
 20
209.2279851266113
 10
2245.482686684552
 20
209.3476765452036
 10
2245.486381413315
 20
209.4676116488294
 10
2245.486556252625
 20
209.5000000000044
  0
LWPOLYLINE
  5
9C5
330
71
100
AcDbEntity
  8
0
100
AcDbPolyline
 90
       41
 70
   128
 43
0.0
 10
2378.986556252625
 20
209.5000000000023
 10
2378.988955932642
 20
209.3800319974426
 10
2378.996151133717
 20
209.260255918095
 10
2379.008130345063
 20
209.1408633781358
 10
2379.024874402499
 20
209.0220453801597
 10
2379.046356519101
 20
208.9039920076172
 10
2379.072542328069
 20
208.786892120721
 10
2379.103389937693
 20
208.6709330543102
 10
2379.138849998378
 20
208.5563003181539
 10
2379.178865781591
 20
208.4431773001772
 10
2379.223373270616
 20
208.3317449730766
 10
2379.272301262965
 20
208.2221816048046
 10
2379.325571484287
 20
208.114662473378
 10
2379.383098713593
 20
208.0093595864714
 10
2379.444790919585
 20
207.9064414062397
 10
2379.510549407896
 20
207.8060725798173
 10
2379.580268978972
 20
207.7084136759154
 10
2379.653838096372
 20
207.613620927947
 10
2379.731139065202
 20
207.521845984088
 10
2379.812048220403
 20
207.4332356646708
 10
2379.896436124584
 20
207.347931727304
 10
2379.984167775101
 20
207.2660706400899
 10
2380.075102820029
 20
207.1877833633056
 10
2380.169095782695
 20
207.1131951398932
 10
2380.265996294408
 20
207.0424252950992
 10
2380.365649335021
 20
206.9755870455787
 10
2380.467895480927
 20
206.9127873182722
 10
2380.572571160104
 20
206.8541265793477
 10
2380.679508913795
 20
206.7996986734728
 10
2380.788537664406
 20
206.7495906736872
 10
2380.899482989196
 20
206.7038827421008
 10
2381.012167399309
 20
206.6626480016536
 10
2381.12641062373
 20
206.6259524191349
 10
2381.242029897668
 20
206.5938546996477
 10
2381.358840254951
 20
206.5664061926962
 10
2381.476654823924
 20
206.543650810037
 10
2381.595285126411
 20
206.5256249554273
 10
2381.714541379233
 20
206.5123574663895
 10
2381.834232797825
 20
206.5038695680757
 10
2381.95416790145
 20
206.5001748393126
 10
2381.986556252625
 20
206.5000000000025
  0
LINE
  5
9C6
330
71
100
AcDbEntity
  8
0
100
AcDbLine
 10
2245.486556252625
 20
219.1250000000043
 30
0.0
 11
2245.486556252625
 21
209.5000000000044
 31
0.0
  0
LINE
  5
9C7
330
71
100
AcDbEntity
  8
0
100
AcDbLine
 10
2378.986556252625
 20
209.5000000000023
 30
0.0
 11
2378.986556252625
 21
219.1250000000025
 31
0.0
  0
LINE
  5
9C8
330
71
100
AcDbEntity
  8
0
100
AcDbLine
 10
2243.986556252625
 20
219.3750000000044
 30
0.0
 11
2243.986556252625
 21
219.1250000000043
 31
0.0
  0
LINE
  5
9C9
330
71
100
AcDbEntity
  8
0
100
AcDbLine
 10
2380.486556252625
 20
219.1250000000025
 30
0.0
 11
2380.486556252625
 21
219.3750000000024
 31
0.0
  0
LINE
  5
9CA
330
71
100
AcDbEntity
  8
0
100
AcDbLine
 10
2309.236556252625
 20
230.5000000000036
 30
0.0
 11
2243.986556252625
 21
219.3750000000044
 31
0.0
  0
LINE
  5
9CB
330
71
100
AcDbEntity
  8
0
100
AcDbLine
 10
2380.486556252625
 20
219.3750000000024
 30
0.0
 11
2315.236556252625
 21
230.5000000000033
 31
0.0
  0
LINE
  5
9CC
330
71
100
AcDbEntity
  8
0
100
AcDbLine
 10
2312.236556252626
 20
219.1250000000031
 30
0.0
 11
2244.048051809156
 21
219.125000000004
 31
0.0
  0
LINE
  5
9CD
330
71
100
AcDbEntity
  8
0
100
AcDbLine
 10
2380.425060696095
 20
219.1250000000021
 30
0.0
 11
2312.236556252626
 21
219.1250000000031
 31
0.0
  0
LINE
  5
9CE
330
71
100
AcDbEntity
  8
0
100
AcDbLine
 10
2312.236556252626
 20
219.3750000000031
 30
0.0
 11
2244.048051809156
 21
219.375000000004
 31
0.0
  0
LINE
  5
9CF
330
71
100
AcDbEntity
  8
0
100
AcDbLine
 10
2380.425060696095
 20
219.3750000000022
 30
0.0
 11
2312.236556252626
 21
219.3750000000031
 31
0.0
  0
LINE
  5
9D0
330
71
100
AcDbEntity
  8
0
100
AcDbLine
 10
2312.236556252626
 20
230.5000000000031
 30
0.0
 11
2309.236556252626
 21
230.5000000000033
 31
0.0
  0
LINE
  5
9D1
330
71
100
AcDbEntity
  8
0
100
AcDbLine
 10
2315.236556252625
 20
230.5000000000031
 30
0.0
 11
2312.236556252626
 21
230.5000000000031
 31
0.0
  0
LINE
  5
9E4
330
71
100
AcDbEntity
  8
0
100
AcDbLine
 10
1886.788334358325
 20
206.4999996173603
 30
0.0
 11
2102.538334358325
 21
206.4999996173603
 31
0.0
  0
LWPOLYLINE
  5
9E5
330
71
100
AcDbEntity
  8
0
100
AcDbPolyline
 90
       41
 70
   128
 43
0.0
 10
1924.913334358343
 20
206.4999996173629
 10
1925.033302360902
 20
206.50239929738
 10
1925.15307844025
 20
206.5095944984552
 10
1925.272470980209
 20
206.5215737098013
 10
1925.391288978185
 20
206.5383177672359
 10
1925.509342350729
 20
206.5597998838393
 10
1925.626442237625
 20
206.5859856928069
 10
1925.742401304035
 20
206.6168333024306
 10
1925.85703404019
 20
206.6522933631157
 10
1925.970157058168
 20
206.6923091463292
 10
1926.081589385269
 20
206.7368166353544
 10
1926.19115275354
 20
206.7857446277031
 10
1926.298671884966
 20
206.839014849025
 10
1926.403974771875
 20
206.8965420783298
 10
1926.506892952105
 20
206.9582342843226
 10
1926.607261778528
 20
207.023992772634
 10
1926.70492068243
 20
207.0937123437099
 10
1926.799713430398
 20
207.1672814611103
 10
1926.891488374257
 20
207.2445824299403
 10
1926.980098693675
 20
207.3254915851403
 10
1927.065402631041
 20
207.4098794893215
 10
1927.147263718255
 20
207.497611139839
 10
1927.22555099504
 20
207.5885461847672
 10
1927.300139218452
 20
207.6825391474326
 10
1927.370909063246
 20
207.7794396591457
 10
1927.437747312766
 20
207.8790926997586
 10
1927.500547040072
 20
207.9813388456648
 10
1927.559207778998
 20
208.0860145248418
 10
1927.613635684872
 20
208.1929522785327
 10
1927.663743684658
 20
208.3019810291441
 10
1927.709451616244
 20
208.412926353933
 10
1927.750686356692
 20
208.5256107640466
 10
1927.78738193921
 20
208.6398539884671
 10
1927.819479658697
 20
208.7554732624059
 10
1927.846928165648
 20
208.8722836196887
 10
1927.869683548308
 20
208.9900981886624
 10
1927.887709402917
 20
209.1087284911485
 10
1927.900976891955
 20
209.2279847439701
 10
1927.909464790269
 20
209.3476761625622
 10
1927.913159519033
 20
209.4676112661882
 10
1927.913334358343
 20
209.4999996173631
  0
LWPOLYLINE
  5
9E6
330
71
100
AcDbEntity
  8
0
100
AcDbPolyline
 90
       41
 70
   128
 43
0.0
 10
2061.413334358344
 20
209.4999996173631
 10
2061.41573403836
 20
209.3800316148031
 10
2061.422929239435
 20
209.2602555354555
 10
2061.434908450782
 20
209.1408629954962
 10
2061.451652508217
 20
209.0220449975201
 10
2061.47313462482
 20
208.9039916249776
 10
2061.499320433787
 20
208.7868917380814
 10
2061.530168043411
 20
208.6709326716706
 10
2061.565628104096
 20
208.5562999355147
 10
2061.605643887311
 20
208.4431769175377
 10
2061.650151376334
 20
208.331744590437
 10
2061.699079368684
 20
208.2221812221648
 10
2061.752349590006
 20
208.1146620907385
 10
2061.80987681931
 20
208.0093592038317
 10
2061.871569025303
 20
207.9064410236003
 10
2061.937327513614
 20
207.8060721971778
 10
2062.007047084691
 20
207.7084132932758
 10
2062.080616202091
 20
207.6136205453075
 10
2062.157917170921
 20
207.5218456014486
 10
2062.238826326121
 20
207.4332352820314
 10
2062.323214230302
 20
207.3479313446643
 10
2062.410945880819
 20
207.2660702574503
 10
2062.501880925747
 20
207.1877829806661
 10
2062.595873888414
 20
207.1131947572539
 10
2062.692774400125
 20
207.0424249124601
 10
2062.79242744074
 20
206.9755866629391
 10
2062.894673586645
 20
206.9127869356328
 10
2062.999349265822
 20
206.8541261967081
 10
2063.106287019512
 20
206.7996982908334
 10
2063.215315770125
 20
206.7495902910476
 10
2063.326261094913
 20
206.7038823594612
 10
2063.438945505027
 20
206.6626476190145
 10
2063.553188729447
 20
206.6259520364953
 10
2063.668808003386
 20
206.5938543170082
 10
2063.785618360668
 20
206.5664058100571
 10
2063.903432929643
 20
206.5436504273976
 10
2064.022063232128
 20
206.525624572788
 10
2064.141319484951
 20
206.5123570837501
 10
2064.261010903543
 20
206.5038691854362
 10
2064.380946007168
 20
206.5001744566732
 10
2064.413334358343
 20
206.4999996173629
  0
LINE
  5
9E7
330
71
100
AcDbEntity
  8
0
100
AcDbLine
 10
2061.413334358344
 20
209.4999996173631
 30
0.0
 11
2061.413334358344
 21
219.1249996173627
 31
0.0
  0
LINE
  5
9E8
330
71
100
AcDbEntity
  8
0
100
AcDbLine
 10
1927.913334358343
 20
219.1249996173627
 30
0.0
 11
1927.913334358343
 21
209.4999996173631
 31
0.0
  0
LINE
  5
9E9
330
71
100
AcDbEntity
  8
0
100
AcDbLine
 10
2062.913334358344
 20
219.1249996173629
 30
0.0
 11
2062.913334358344
 21
219.3749996173628
 31
0.0
  0
LINE
  5
9EA
330
71
100
AcDbEntity
  8
0
100
AcDbLine
 10
1926.413334358343
 20
219.3749996173628
 30
0.0
 11
1926.413334358343
 21
219.1249996173629
 31
0.0
  0
LINE
  5
9EB
330
71
100
AcDbEntity
  8
0
100
AcDbLine
 10
2062.913334358344
 20
219.3749996173628
 30
0.0
 11
1997.663334358342
 21
230.4999996173629
 31
0.0
  0
LINE
  5
9EC
330
71
100
AcDbEntity
  8
0
100
AcDbLine
 10
1991.663334358343
 20
230.4999996173629
 30
0.0
 11
1926.413334358343
 21
219.3749996173628
 31
0.0
  0
LINE
  5
9ED
330
71
100
AcDbEntity
  8
0
100
AcDbLine
 10
2062.913334358344
 20
219.1249996173627
 30
0.0
 11
1926.413334358343
 21
219.1249996173627
 31
0.0
  0
LINE
  5
9EE
330
71
100
AcDbEntity
  8
0
100
AcDbLine
 10
2062.913334358344
 20
219.3749996173627
 30
0.0
 11
1926.413334358343
 21
219.3749996173627
 31
0.0
  0
LINE
  5
9EF
330
71
100
AcDbEntity
  8
0
100
AcDbLine
 10
1997.663334358342
 20
230.4999996173627
 30
0.0
 11
1991.663334358343
 21
230.4999996173627
 31
0.0
  0
VIEWPORT
  5
3B5
102
{ACAD_XDICTIONARY
360
A33
102
}
330
6D
100
AcDbEntity
 67
     1
  8
0
100
AcDbViewport
 10
2360.529598814432
 20
243.9940212561221
 30
0.0
 40
7546.642522079324
 41
3077.769091250106
 68
     1
 69
     1
 12
2360.529598814432
 22
243.9940212561221
 13
0.0
 23
0.0
 14
0.0
 24
0.0
 15
0.0
 25
0.0
 16
0.0
 26
0.0
 36
1.0
 17
0.0
 27
0.0
 37
0.0
 42
50.0
 43
0.0
 44
0.0
 45
3077.769091250106
 50
0.0
 51
0.0
 72
   100
 90
    32800
  1

281
     0
 71
     1
 74
     1
110
0.0
120
0.0
130
0.0
111
1.0
121
0.0
131
0.0
112
0.0
122
1.0
132
0.0
 79
     0
146
0.0
  0
ENDSEC
  0
SECTION
  2
OBJECTS
  0
DICTIONARY
  5
C
330
0
100
AcDbDictionary
281
     1
  3
ACAD_2007HEADERVARS_RT
350
9F9
  3
ACAD_CIP_PREVIOUS_PRODUCT_INFO
350
7A
  3
ACAD_COLOR
350
63
  3
ACAD_DETAILVIEWSTYLE
350
6B
  3
ACAD_GROUP
350
D
  3
ACAD_IMAGE_VARS
350
7B
  3
ACAD_LAYOUT
350
62
  3
ACAD_MATERIAL
350
10
  3
ACAD_MLEADERSTYLE
350
66
  3
ACAD_MLINESTYLE
350
5F
  3
ACAD_PLOTSETTINGS
350
61
  3
ACAD_PLOTSTYLENAME
350
E
  3
ACAD_SCALELIST
350
42
  3
ACAD_SECTIONVIEWSTYLE
350
68
  3
ACAD_TABLESTYLE
350
64
  3
ACAD_VISUALSTYLE
350
29
  3
ACDB_RECOMPOSE_DATA
350
9F7
  3
AcDbVariableDictionary
350
7C
  3
DWGPROPS
350
9F8
  3
REVIT_DICTIONARY
350
3D8
  0
DICTIONARY
  5
3F5
330
2
100
AcDbDictionary
280
     1
281
     1
  3
ACAD_LAYERSTATES
360
3F6
  0
DICTIONARY
  5
3DC
330
71
100
AcDbDictionary
280
     1
281
     1
  3
ACAD_SORTENTS
360
3DD
  0
DICTIONARY
  5
A33
330
3B5
100
AcDbDictionary
280
     1
281
     1
  3
ACAD_XREC_ROUNDTRIP
360
A34
  0
DICTIONARY
  5
9F9
102
{ACAD_REACTORS
330
C
102
}
330
C
100
AcDbDictionary
281
     1
  3
DIMARCSYM
350
9FA
  3
DIMTFILL
350
9FB
  0
XRECORD
  5
7A
102
{ACAD_REACTORS
330
C
102
}
330
C
100
AcDbXrecord
280
     1
300
ACD
300
2013
300
85946BDSPRM_2013_0F
  0
DICTIONARY
  5
63
102
{ACAD_REACTORS
330
C
102
}
330
C
100
AcDbDictionary
281
     1
  0
DICTIONARY
  5
6B
102
{ACAD_REACTORS
330
C
102
}
330
C
100
AcDbDictionary
281
     1
  3
Imperial24
350
6C
  0
DICTIONARY
  5
D
102
{ACAD_REACTORS
330
C
102
}
330
C
100
AcDbDictionary
281
     1
  0
RASTERVARIABLES
  5
7B
102
{ACAD_REACTORS
330
C
102
}
330
C
100
AcDbRasterVariables
 90
        0
 70
     0
 71
     1
 72
     5
  0
DICTIONARY
  5
62
102
{ACAD_REACTORS
330
C
102
}
330
C
100
AcDbDictionary
281
     1
  3
Layout1
350
70
  3
Model
350
74
  0
DICTIONARY
  5
10
102
{ACAD_REACTORS
330
C
102
}
330
C
100
AcDbDictionary
281
     1
  3
ByBlock
350
19
  3
ByLayer
350
11
  3
Global
350
21
  0
DICTIONARY
  5
66
102
{ACAD_REACTORS
330
C
102
}
330
C
100
AcDbDictionary
281
     1
  3
Standard
350
67
  0
DICTIONARY
  5
5F
102
{ACAD_REACTORS
330
C
102
}
330
C
100
AcDbDictionary
281
     1
  3
Standard
350
60
  0
DICTIONARY
  5
61
102
{ACAD_REACTORS
330
C
102
}
330
C
100
AcDbDictionary
281
     1
  0
ACDBDICTIONARYWDFLT
  5
E
102
{ACAD_REACTORS
330
C
102
}
330
C
100
AcDbDictionary
281
     1
  3
Normal
350
F
100
AcDbDictionaryWithDefault
340
F
  0
DICTIONARY
  5
42
102
{ACAD_REACTORS
330
C
102
}
330
C
100
AcDbDictionary
281
     1
  3
A0
350
43
  3
A1
350
44
  3
A2
350
45
  3
A3
350
46
  3
A4
350
47
  3
A5
350
48
  3
A6
350
49
  3
A7
350
4A
  3
A8
350
4B
  3
A9
350
4C
  3
B0
350
4D
  3
B1
350
4E
  3
B2
350
4F
  3
B3
350
50
  3
B4
350
51
  3
B5
350
52
  3
B6
350
53
  0
DICTIONARY
  5
68
102
{ACAD_REACTORS
330
C
102
}
330
C
100
AcDbDictionary
281
     1
  3
Imperial24
350
6A
  0
DICTIONARY
  5
64
102
{ACAD_REACTORS
330
C
102
}
330
C
100
AcDbDictionary
281
     1
  3
Standard
350
65
  0
DICTIONARY
  5
29
102
{ACAD_REACTORS
330
C
102
}
330
C
100
AcDbDictionary
281
     1
  3
2dWireframe
350
2F
  3
Basic
350
2E
  3
Brighten
350
35
  3
ColorChange
350
39
  3
Conceptual
350
32
  3
Dim
350
34
  3
EdgeColorOff
350
41
  3
Facepattern
350
38
  3
Flat
350
2A
  3
FlatWithEdges
350
2B
  3
Gouraud
350
2C
  3
GouraudWithEdges
350
2D
  3
Hidden
350
31
  3
JitterOff
350
3F
  3
Linepattern
350
37
  3
OverhangOff
350
40
  3
Realistic
350
33
  3
Shaded
350
3E
  3
Shaded with edges
350
3D
  3
Shades of Gray
350
3A
  3
Sketchy
350
3B
  3
Thicken
350
36
  3
Wireframe
350
30
  3
X-Ray
350
3C
  0
XRECORD
  5
9F7
102
{ACAD_REACTORS
330
C
102
}
330
C
100
AcDbXrecord
280
     1
 90
        1
330
65
  0
DICTIONARY
  5
7C
102
{ACAD_REACTORS
330
C
102
}
330
C
100
AcDbDictionary
281
     1
  3
CANNOSCALE
350
81
  3
CMLEADERSTYLE
350
7E
  3
CTABLESTYLE
350
7D
  3
CVIEWDETAILSTYLE
350
7F
  3
CVIEWSECTIONSTYLE
350
80
  3
DIMASSOC
350
72A
  3
HIDETEXT
350
729
  3
INDEXCTL
350
728
  3
LATITUDE
350
9F2
  3
LAYEREVAL
350
725
  3
LAYERNOTIFY
350
726
  3
LIGHTINGUNITS
350
724
  3
LOFTANG1
350
9F0
  3
LOFTANG2
350
9F1
  3
LONGITUDE
350
9F3
  3
MSLTSCALE
350
723
  3
SORTENTS
350
727
  3
TIMEZONE
350
9F4
  3
XCLIPFRAME
350
9F5
  0
XRECORD
  5
9F8
102
{ACAD_REACTORS
330
C
102
}
330
C
100
AcDbXrecord
280
     1
  1
DWGPROPS COOKIE
  2

  3

  4

  6

  7

  8
jcl
  9

300
=
301
=
302
=
303
=
304
=
305
=
306
=
307
=
308
=
309
=
 40
0.0219471296296296
 41
2457120.754960359
 42
2457122.634070475
  1

 90
        0
  0
DICTIONARY
  5
3D8
102
{ACAD_REACTORS
330
C
102
}
330
C
100
AcDbDictionary
281
     1
  3
REVIT_CATEGORY_MAPPING
350
3DA
  3
REVIT_SUB_CATEGORY_MAPPING
350
3DB
  3
REVIT_TYPE_MAPPING
350
3D9
  0
DICTIONARY
  5
3F6
102
{ACAD_REACTORS
330
3F5
102
}
330
3F5
100
AcDbDictionary
281
     1
  0
SORTENTSTABLE
  5
3DD
102
{ACAD_REACTORS
330
3DC
102
}
330
3DC
100
AcDbSortentsTable
330
71
331
466
  5
5C4
331
4A5
  5
58A
331
462
  5
5C0
331
4A1
  5
585
331
565
  5
539
331
5DF
  5
46D
331
4DF
  5
4B3
331
526
  5
4FA
331
5DB
  5
469
331
561
  5
535
331
55D
  5
531
331
59C
  5
428
331
5D7
  5
465
331
522
  5
4F6
331
559
  5
52D
331
598
  5
56C
331
49D
  5
583
331
45E
  5
5BC
331
499
  5
57C
331
45A
  5
5B8
331
456
  5
5B4
331
452
  5
5B0
331
51E
  5
4F5
331
4D7
  5
4AB
331
4D3
  5
4A7
331
51A
  5
4EE
331
555
  5
529
331
594
  5
568
331
5CF
  5
45D
331
590
  5
564
331
4CF
  5
4A3
331
516
  5
4EA
331
5CB
  5
459
331
551
  5
525
331
58C
  5
560
331
4CB
  5
49F
331
512
  5
4E6
331
54D
  5
521
331
549
  5
51D
331
588
  5
55E
331
44E
  5
5AC
331
489
  5
5FB
331
44A
  5
5A8
331
446
  5
5A4
331
485
  5
5E3
331
442
  5
5A0
331
481
  5
5DF
331
50E
  5
4E2
331
4C7
  5
49B
331
4C3
  5
497
331
545
  5
519
331
584
  5
558
331
4BF
  5
493
331
541
  5
515
331
57C
  5
550
331
4BB
  5
48F
331
53D
  5
511
331
539
  5
50D
331
578
  5
54C
331
5F2
  5
481
331
43E
  5
59C
331
47D
  5
5DB
331
479
  5
5D7
331
43A
  5
598
331
4B7
  5
48B
331
5EE
  5
47D
331
535
  5
509
331
574
  5
548
331
5AF
  5
43D
331
4B3
  5
487
331
4AF
  5
594
331
5AB
  5
438
331
5EA
  5
478
331
531
  5
505
331
570
  5
544
331
56C
  5
540
331
4AB
  5
590
331
5A7
  5
434
331
5E6
  5
474
331
52D
  5
503
331
529
  5
4FD
331
568
  5
53C
331
5A3
  5
42F
331
5E2
  5
470
331
469
  5
5C7
331
465
  5
5C3
331
4A4
  5
589
331
461
  5
5BF
331
5DE
  5
46C
331
564
  5
538
331
4DE
  5
4B2
331
525
  5
4F9
331
5DA
  5
468
331
560
  5
534
331
55C
  5
530
331
59B
  5
427
331
5D6
  5
464
331
558
  5
52C
331
49C
  5
582
331
45D
  5
5BB
331
459
  5
5B7
331
498
  5
57B
331
455
  5
5B3
331
451
  5
5AF
331
51D
  5
4F4
331
597
  5
56B
331
4D6
  5
4AA
331
4D2
  5
4A6
331
519
  5
4ED
331
554
  5
528
331
593
  5
567
331
5CE
  5
45C
331
58F
  5
563
331
4CE
  5
4A2
331
515
  5
4E9
331
5CA
  5
458
331
550
  5
524
331
54C
  5
520
331
4CA
  5
49E
331
511
  5
4E5
331
548
  5
51C
331
44D
  5
5AB
331
488
  5
5FA
331
449
  5
5A7
331
445
  5
5A3
331
484
  5
5E2
331
441
  5
59F
331
480
  5
5DE
331
50D
  5
4E1
331
587
  5
55D
331
4C6
  5
49A
331
4C2
  5
496
331
544
  5
518
331
57F
  5
553
331
4BE
  5
492
331
540
  5
514
331
57B
  5
54F
331
4BA
  5
48E
331
5F5
  5
484
331
53C
  5
510
331
538
  5
50C
331
5B2
  5
440
331
5F1
  5
480
331
43D
  5
59B
331
47C
  5
5DA
331
478
  5
5D6
331
439
  5
597
331
577
  5
54B
331
4B6
  5
48A
331
4B2
  5
486
331
5ED
  5
47C
331
534
  5
508
331
573
  5
547
331
5AE
  5
43B
331
4AE
  5
593
331
5AA
  5
437
331
5E9
  5
477
331
56F
  5
543
331
56B
  5
53F
331
4AA
  5
58F
331
5A6
  5
433
331
5E5
  5
473
331
52C
  5
502
331
528
  5
4FC
331
5A2
  5
42E
331
5E1
  5
46F
331
468
  5
5C6
331
4A7
  5
58C
331
6CA
  5
431
331
464
  5
5C2
331
4A3
  5
588
331
460
  5
5BE
331
567
  5
53B
331
5DD
  5
46B
331
563
  5
537
331
524
  5
4F8
331
5D9
  5
467
331
55F
  5
533
331
55B
  5
52F
331
59A
  5
426
331
5D5
  5
463
331
4D9
  5
4AD
331
5D1
  5
462
331
49B
  5
581
331
45C
  5
5BA
331
458
  5
5B6
331
497
  5
57A
331
454
  5
5B2
331
450
  5
5AE
331
51C
  5
4F3
331
557
  5
52B
331
596
  5
56A
331
4D5
  5
4A9
331
4D1
  5
4A5
331
518
  5
4EC
331
5CD
  5
45B
331
553
  5
527
331
592
  5
566
331
58E
  5
562
331
4CD
  5
4A1
331
514
  5
4E8
331
54F
  5
523
331
54B
  5
51F
331
4C9
  5
49D
331
510
  5
4E4
331
44C
  5
5AA
331
448
  5
5A6
331
487
  5
5F9
331
444
  5
5A2
331
483
  5
5E1
331
440
  5
59E
331
50C
  5
4E0
331
547
  5
51B
331
586
  5
55A
331
4C5
  5
499
331
4C1
  5
495
331
543
  5
517
331
57E
  5
552
331
4BD
  5
491
331
53F
  5
513
331
53B
  5
50F
331
57A
  5
54E
331
4B9
  5
48D
331
5B5
  5
443
331
5F4
  5
483
331
5B1
  5
43F
331
5F0
  5
47F
331
47F
  5
5DD
331
43C
  5
59A
331
477
  5
5D5
331
438
  5
596
331
537
  5
50B
331
576
  5
54A
331
4B5
  5
489
331
4B1
  5
485
331
5EC
  5
47B
331
533
  5
507
331
572
  5
546
331
5AD
  5
43A
331
56E
  5
542
331
4AD
  5
592
331
5A9
  5
436
331
5E8
  5
476
331
52F
  5
504
331
56A
  5
53E
331
4A9
  5
58E
331
5A5
  5
432
331
5E4
  5
472
331
52B
  5
500
331
5A1
  5
42D
331
5E0
  5
46E
331
467
  5
5C5
331
4A6
  5
58B
331
463
  5
5C1
331
4A2
  5
587
331
566
  5
53A
331
527
  5
4FB
331
5DC
  5
46A
331
562
  5
536
331
59D
  5
429
331
523
  5
4F7
331
5D8
  5
466
331
55E
  5
532
331
55A
  5
52E
331
599
  5
56D
331
4D8
  5
4AC
331
5D0
  5
461
331
45F
  5
5BD
331
49A
  5
57D
331
45B
  5
5B9
331
457
  5
5B5
331
453
  5
5B1
331
4D4
  5
4A8
331
51B
  5
4EF
331
556
  5
52A
331
595
  5
569
331
4D0
  5
4A4
331
517
  5
4EB
331
5CC
  5
45A
331
552
  5
526
331
591
  5
565
331
58D
  5
561
331
4CC
  5
4A0
331
513
  5
4E7
331
54E
  5
522
331
54A
  5
51E
331
589
  5
55F
331
4C8
  5
49C
331
44F
  5
5AD
331
48A
  5
5FC
331
44B
  5
5A9
331
447
  5
5A5
331
486
  5
5F7
331
443
  5
5A1
331
482
  5
5E0
331
50F
  5
4E3
331
546
  5
51A
331
585
  5
559
331
4C4
  5
498
331
4C0
  5
494
331
542
  5
516
331
57D
  5
551
331
4BC
  5
490
331
53E
  5
512
331
53A
  5
50E
331
579
  5
54D
331
5F3
  5
482
331
5B0
  5
43E
331
43F
  5
59D
331
47E
  5
5DC
331
43B
  5
599
331
476
  5
5D4
331
5EF
  5
47E
331
536
  5
50A
331
575
  5
549
331
4B4
  5
488
331
4B0
  5
595
331
5EB
  5
47A
331
532
  5
506
331
571
  5
545
331
5AC
  5
439
331
56D
  5
541
331
4AC
  5
591
331
5A8
  5
435
331
5E7
  5
475
331
52A
  5
4FE
331
569
  5
53D
331
4A8
  5
58D
331
5A4
  5
430
331
5E3
  5
471
331
5A0
  5
42C
  0
XRECORD
  5
A34
102
{ACAD_REACTORS
330
A33
102
}
330
A33
100
AcDbXrecord
280
     1
102
SHADEPLOT
 70
     0
  0
XRECORD
  5
9FA
102
{ACAD_REACTORS
330
9F9
102
}
330
9F9
100
AcDbXrecord
280
     1
 70
     2
  0
XRECORD
  5
9FB
102
{ACAD_REACTORS
330
9F9
102
}
330
9F9
100
AcDbXrecord
280
     1
 70
     1
  0
ACDBDETAILVIEWSTYLE
  5
6C
102
{ACAD_REACTORS
330
6B
102
}
330
6B
100
AcDbModelDocViewStyle
 70
     0
  3
Imperial24
290
     0
100
AcDbDetailViewStyle
 70
     0
 71
     0
 90
        3
 71
     1
340
55
 40
0.24
340
0
 40
0.24
300

 40
0.36
280
     3
 71
     2
340
5D
 90
       25
 71
     3
340
55
 40
0.24
 90
        1
 40
0.75
 90
        1
300
%<\AcVar ViewType \f "%tc1">% %<\AcVar ViewDetailId>%\PSCALE %<\AcVar ViewScale \f "%sn">%
 71
     4
340
5D
 90
       25
340
5D
 90
       25
280
     0
  0
LAYOUT
  5
70
102
{ACAD_XDICTIONARY
360
A2F
102
}
102
{ACAD_REACTORS
330
62
102
}
330
62
100
AcDbPlotSettings
  1

  2
\\USJESR-FS01\MD_ENGR_Copier
  4
Letter
  6

 40
7.143749713897705
 41
5.027099609375
 42
7.14373779296875
 43
5.027069091796875
 44
215.8999938964844
 45
279.3999938964844
 46
0.0
 47
0.0
 48
0.0
 49
0.0
140
0.0
141
0.0
142
1.0
143
240.5772734560848
 70
   688
 72
     0
 73
     1
 74
     1
  7

 75
     0
147
0.004156668606449
148
-12818.62022486862
149
22065.4239850904
100
AcDbLayout
  1
Layout1
 70
     1
 71
     1
 10
457.0559704444398
 20
-936.3798351776614
 11
3103.405920651643
 21
1108.526931389329
 12
0.0
 22
0.0
 32
0.0
 14
504.8202508019799
 24
-868.6532958552332
 34
0.0
 15
2516.357093359524
 25
1040.832099471579
 35
0.0
146
0.0
 13
0.0
 23
0.0
 33
0.0
 16
1.0
 26
0.0
 36
0.0
 17
0.0
 27
1.0
 37
0.0
 76
     0
330
6D
331
3B5
1001
ACAD_PSEXT
1000
\\USJESR-FS01\MD_ENGR_Copier
1000
SAVIN C6055 PCL 5c
1000
2nd Floor Left Rear - near room 230
1000

1070
     0
  0
LAYOUT
  5
74
102
{ACAD_XDICTIONARY
360
A31
102
}
102
{ACAD_REACTORS
330
62
102
}
330
62
100
AcDbPlotSettings
  1

  2

  4

  6

 40
0.0
 41
0.0
 42
0.0
 43
0.0
 44
0.0
 45
0.0
 46
0.0
 47
0.0
 48
0.0
 49
0.0
140
0.0
141
0.0
142
1.0
143
1.0
 70
  1712
 72
     0
 73
     0
 74
     0
  7

 75
     0
147
1.0
148
0.0
149
0.0
100
AcDbLayout
  1
Model
 70
     1
 71
     0
 10
0.0
 20
0.0
 11
12.0
 21
9.0
 12
0.0
 22
0.0
 32
0.0
 14
0.0
 24
0.0
 34
0.0
 15
0.0
 25
0.0
 35
0.0
146
0.0
 13
0.0
 23
0.0
 33
0.0
 16
1.0
 26
0.0
 36
0.0
 17
0.0
 27
1.0
 37
0.0
 76
     0
330
71
331
57
  0
MATERIAL
  5
19
102
{ACAD_XDICTIONARY
360
1A
102
}
102
{ACAD_REACTORS
330
10
102
}
330
10
100
AcDbMaterial
  1
ByBlock
 72
     0
 43
0.0208333333333333
 43
0.0
 43
0.0
 43
0.0
 43
0.0
 43
0.0208333333333333
 43
0.0
 43
0.0
 43
0.0
 43
0.0
 43
1.0
 43
0.0
 43
0.0
 43
0.0
 43
0.0
 43
1.0
 77
     0
 47
0.0208333333333333
 47
0.0
 47
0.0
 47
0.0
 47
0.0
 47
0.0208333333333333
 47
0.0
 47
0.0
 47
0.0
 47
0.0
 47
1.0
 47
0.0
 47
0.0
 47
0.0
 47
0.0
 47
1.0
171
     0
 49
0.0208333333333333
 49
0.0
 49
0.0
 49
0.0
 49
0.0
 49
0.0208333333333333
 49
0.0
 49
0.0
 49
0.0
 49
0.0
 49
1.0
 49
0.0
 49
0.0
 49
0.0
 49
0.0
 49
1.0
175
     0
142
0.0208333333333333
142
0.0
142
0.0
142
0.0
142
0.0
142
0.0208333333333333
142
0.0
142
0.0
142
0.0
142
0.0
142
1.0
142
0.0
142
0.0
142
0.0
142
0.0
142
1.0
179
     0
144
0.0208333333333333
144
0.0
144
0.0
144
0.0
144
0.0
144
0.0208333333333333
144
0.0
144
0.0
144
0.0
144
0.0
144
1.0
144
0.0
144
0.0
144
0.0
144
0.0
144
1.0
147
0.0208333333333333
147
0.0
147
0.0
147
0.0
147
0.0
147
0.0208333333333333
147
0.0
147
0.0
147
0.0
147
0.0
147
1.0
147
0.0
147
0.0
147
0.0
147
0.0
147
1.0
  0
MATERIAL
  5
11
102
{ACAD_XDICTIONARY
360
12
102
}
102
{ACAD_REACTORS
330
10
102
}
330
10
100
AcDbMaterial
  1
ByLayer
 72
     0
 43
0.0208333333333333
 43
0.0
 43
0.0
 43
0.0
 43
0.0
 43
0.0208333333333333
 43
0.0
 43
0.0
 43
0.0
 43
0.0
 43
1.0
 43
0.0
 43
0.0
 43
0.0
 43
0.0
 43
1.0
 77
     0
 47
0.0208333333333333
 47
0.0
 47
0.0
 47
0.0
 47
0.0
 47
0.0208333333333333
 47
0.0
 47
0.0
 47
0.0
 47
0.0
 47
1.0
 47
0.0
 47
0.0
 47
0.0
 47
0.0
 47
1.0
171
     0
 49
0.0208333333333333
 49
0.0
 49
0.0
 49
0.0
 49
0.0
 49
0.0208333333333333
 49
0.0
 49
0.0
 49
0.0
 49
0.0
 49
1.0
 49
0.0
 49
0.0
 49
0.0
 49
0.0
 49
1.0
175
     0
142
0.0208333333333333
142
0.0
142
0.0
142
0.0
142
0.0
142
0.0208333333333333
142
0.0
142
0.0
142
0.0
142
0.0
142
1.0
142
0.0
142
0.0
142
0.0
142
0.0
142
1.0
179
     0
144
0.0208333333333333
144
0.0
144
0.0
144
0.0
144
0.0
144
0.0208333333333333
144
0.0
144
0.0
144
0.0
144
0.0
144
1.0
144
0.0
144
0.0
144
0.0
144
0.0
144
1.0
147
0.0208333333333333
147
0.0
147
0.0
147
0.0
147
0.0
147
0.0208333333333333
147
0.0
147
0.0
147
0.0
147
0.0
147
1.0
147
0.0
147
0.0
147
0.0
147
0.0
147
1.0
  0
MATERIAL
  5
21
102
{ACAD_XDICTIONARY
360
22
102
}
102
{ACAD_REACTORS
330
10
102
}
330
10
100
AcDbMaterial
  1
Global
 72
     0
 43
0.0208333333333333
 43
0.0
 43
0.0
 43
0.0
 43
0.0
 43
0.0208333333333333
 43
0.0
 43
0.0
 43
0.0
 43
0.0
 43
1.0
 43
0.0
 43
0.0
 43
0.0
 43
0.0
 43
1.0
 77
     0
 47
0.0208333333333333
 47
0.0
 47
0.0
 47
0.0
 47
0.0
 47
0.0208333333333333
 47
0.0
 47
0.0
 47
0.0
 47
0.0
 47
1.0
 47
0.0
 47
0.0
 47
0.0
 47
0.0
 47
1.0
171
     0
 49
0.0208333333333333
 49
0.0
 49
0.0
 49
0.0
 49
0.0
 49
0.0208333333333333
 49
0.0
 49
0.0
 49
0.0
 49
0.0
 49
1.0
 49
0.0
 49
0.0
 49
0.0
 49
0.0
 49
1.0
175
     0
142
0.0208333333333333
142
0.0
142
0.0
142
0.0
142
0.0
142
0.0208333333333333
142
0.0
142
0.0
142
0.0
142
0.0
142
1.0
142
0.0
142
0.0
142
0.0
142
0.0
142
1.0
179
     0
144
0.0208333333333333
144
0.0
144
0.0
144
0.0
144
0.0
144
0.0208333333333333
144
0.0
144
0.0
144
0.0
144
0.0
144
1.0
144
0.0
144
0.0
144
0.0
144
0.0
144
1.0
147
0.0208333333333333
147
0.0
147
0.0
147
0.0
147
0.0
147
0.0208333333333333
147
0.0
147
0.0
147
0.0
147
0.0
147
1.0
147
0.0
147
0.0
147
0.0
147
0.0
147
1.0
  0
MLEADERSTYLE
  5
67
102
{ACAD_XDICTIONARY
360
A2D
102
}
102
{ACAD_REACTORS
330
66
102
}
330
66
100
AcDbMLeaderStyle
170
     2
171
     1
172
     0
 90
        2
 40
0.0
 41
0.0
173
     1
 91
-1056964608
340
5B
 92
       -2
290
     1
 42
0.09
291
     1
 43
0.36
  3
Standard
 44
0.18
300

342
55
174
     1
178
     6
175
     1
176
     0
 93
-1056964608
 45
0.18
292
     0
297
     0
 46
0.18
 94
-1056964608
 47
1.0
 49
1.0
140
1.0
293
     1
141
0.0
294
     1
177
     0
142
1.0
295
     0
296
     0
143
0.125
1001
ACAD_MLEADERVER
1070
     2
  0
MLINESTYLE
  5
60
102
{ACAD_REACTORS
330
5F
102
}
330
5F
100
AcDbMlineStyle
  2
STANDARD
 70
     0
  3

 62
   256
 51
90.0
 52
90.0
 71
     2
 49
0.5
 62
   256
  6
BYLAYER
 49
-0.5
 62
   256
  6
BYLAYER
  0
ACDBPLACEHOLDER
  5
F
102
{ACAD_REACTORS
330
E
102
}
330
E
  0
SCALE
  5
43
102
{ACAD_REACTORS
330
42
102
}
330
42
100
AcDbScale
 70
     0
300
1:1
140
1.0
141
1.0
290
     1
  0
SCALE
  5
44
102
{ACAD_REACTORS
330
42
102
}
330
42
100
AcDbScale
 70
     0
300
1/128" = 1'-0"
140
0.0078125
141
12.0
290
     0
  0
SCALE
  5
45
102
{ACAD_REACTORS
330
42
102
}
330
42
100
AcDbScale
 70
     0
300
1/64" = 1'-0"
140
0.015625
141
12.0
290
     0
  0
SCALE
  5
46
102
{ACAD_REACTORS
330
42
102
}
330
42
100
AcDbScale
 70
     0
300
1/32" = 1'-0"
140
0.03125
141
12.0
290
     0
  0
SCALE
  5
47
102
{ACAD_REACTORS
330
42
102
}
330
42
100
AcDbScale
 70
     0
300
1/16" = 1'-0"
140
0.0625
141
12.0
290
     0
  0
SCALE
  5
48
102
{ACAD_REACTORS
330
42
102
}
330
42
100
AcDbScale
 70
     0
300
3/32" = 1'-0"
140
0.09375
141
12.0
290
     0
  0
SCALE
  5
49
102
{ACAD_REACTORS
330
42
102
}
330
42
100
AcDbScale
 70
     0
300
1/8" = 1'-0"
140
0.125
141
12.0
290
     0
  0
SCALE
  5
4A
102
{ACAD_REACTORS
330
42
102
}
330
42
100
AcDbScale
 70
     0
300
3/16" = 1'-0"
140
0.1875
141
12.0
290
     0
  0
SCALE
  5
4B
102
{ACAD_REACTORS
330
42
102
}
330
42
100
AcDbScale
 70
     0
300
1/4" = 1'-0"
140
0.25
141
12.0
290
     0
  0
SCALE
  5
4C
102
{ACAD_REACTORS
330
42
102
}
330
42
100
AcDbScale
 70
     0
300
3/8" = 1'-0"
140
0.375
141
12.0
290
     0
  0
SCALE
  5
4D
102
{ACAD_REACTORS
330
42
102
}
330
42
100
AcDbScale
 70
     0
300
1/2" = 1'-0"
140
0.5
141
12.0
290
     0
  0
SCALE
  5
4E
102
{ACAD_REACTORS
330
42
102
}
330
42
100
AcDbScale
 70
     0
300
3/4" = 1'-0"
140
0.75
141
12.0
290
     0
  0
SCALE
  5
4F
102
{ACAD_REACTORS
330
42
102
}
330
42
100
AcDbScale
 70
     0
300
1" = 1'-0"
140
1.0
141
12.0
290
     0
  0
SCALE
  5
50
102
{ACAD_REACTORS
330
42
102
}
330
42
100
AcDbScale
 70
     0
300
1-1/2" = 1'-0"
140
1.5
141
12.0
290
     0
  0
SCALE
  5
51
102
{ACAD_REACTORS
330
42
102
}
330
42
100
AcDbScale
 70
     0
300
3" = 1'-0"
140
3.0
141
12.0
290
     0
  0
SCALE
  5
52
102
{ACAD_REACTORS
330
42
102
}
330
42
100
AcDbScale
 70
     0
300
6" = 1'-0"
140
6.0
141
12.0
290
     0
  0
SCALE
  5
53
102
{ACAD_REACTORS
330
42
102
}
330
42
100
AcDbScale
 70
     0
300
1'-0" = 1'-0"
140
12.0
141
12.0
290
     0
  0
ACDBSECTIONVIEWSTYLE
  5
6A
102
{ACAD_REACTORS
330
68
102
}
330
68
100
AcDbModelDocViewStyle
 70
     0
  3
Imperial24
290
     0
100
AcDbSectionViewStyle
 70
     0
 71
     0
 90
       78
 71
     1
340
55
 40
0.24
340
0
340
0
 40
0.24
300
I, O, Q, S, X, Z
 40
0.48
 90
        3
 40
0.18
 90
        1
 71
     2
340
69
 90
       25
340
5D
 90
       50
 40
0.24
 40
0.0
 40
0.24
 71
     3
340
55
 40
0.24
 90
        1
 40
0.75
 90
        1
300
%<\AcVar ViewType \f "%tc1">% %<\AcVar ViewSectionStartId>%-%<\AcVar ViewSectionEndId>%\PSCALE %<\AcVar ViewScale \f "%sn">%
 71
     4
300
ANSI31
 40
1.0
 90
        0
290
     0
290
     0
 90
        6
 40
0.0
 40
1.570796326794896
 40
0.2617993877991494
 40
1.308996938995747
 40
-0.2617993877991494
 40
1.832595714594044
  0
TABLESTYLE
  5
65
102
{ACAD_XDICTIONARY
360
3DF
102
}
102
{ACAD_REACTORS
330
64
102
}
330
64
100
AcDbTableStyle
  3
Standard
 70
     0
 71
     0
 40
0.06
 41
0.06
280
     0
281
     0
  7
Standard
140
0.18
170
     2
 62
     0
 63
     7
283
     0
274
    -2
284
     1
 64
     0
275
    -2
285
     1
 65
     0
276
    -2
286
     1
 66
     0
277
    -2
287
     1
 67
     0
278
    -2
288
     1
 68
     0
279
    -2
289
     1
 69
     0
  7
Standard
140
0.25
170
     5
 62
     0
 63
     7
283
     0
274
    -2
284
     1
 64
     0
275
    -2
285
     1
 65
     0
276
    -2
286
     1
 66
     0
277
    -2
287
     1
 67
     0
278
    -2
288
     1
 68
     0
279
    -2
289
     1
 69
     0
  7
Standard
140
0.18
170
     5
 62
     0
 63
     7
283
     0
274
    -2
284
     1
 64
     0
275
    -2
285
     1
 65
     0
276
    -2
286
     1
 66
     0
277
    -2
287
     1
 67
     0
278
    -2
288
     1
 68
     0
279
    -2
289
     1
 69
     0
  0
VISUALSTYLE
  5
2F
102
{ACAD_XDICTIONARY
360
A06
102
}
102
{ACAD_REACTORS
330
29
102
}
330
29
100
AcDbVisualStyle
  2

 70
     4
 71
     0
 72
     2
 73
     0
 90
        0
 40
-0.6
 41
-30.0
 62
     5
 63
     7
 74
     1
 91
        4
 64
     7
 65
   257
 75
     1
175
     1
 42
1.0
 92
        0
 66
   257
 43
1.0
 76
     1
 77
     6
 78
     2
 67
     7
 79
     5
170
     0
171
     0
290
     0
174
     0
 93
        1
 44
0.0
173
     0
291
     0
 45
0.0
1001
ACAD
1000
AcDbSavedByObjectVersion
1070
     0
  0
VISUALSTYLE
  5
2E
102
{ACAD_XDICTIONARY
360
A04
102
}
102
{ACAD_REACTORS
330
29
102
}
330
29
100
AcDbVisualStyle
  2

 70
     7
 71
     1
 72
     0
 73
     1
 90
        0
 40
-0.6
 41
-30.0
 62
     5
 63
     7
 74
     0
 91
        4
 64
     7
 65
   257
 75
     1
175
     1
 42
1.0
 92
        8
 66
     7
 43
1.0
 76
     1
 77
     6
 78
     2
 67
     7
 79
     5
170
     0
171
     0
290
     0
174
     0
 93
        1
 44
0.0
173
     0
291
     1
 45
0.0
1001
ACAD
1000
AcDbSavedByObjectVersion
1070
     0
  0
VISUALSTYLE
  5
35
102
{ACAD_XDICTIONARY
360
A12
102
}
102
{ACAD_REACTORS
330
29
102
}
330
29
100
AcDbVisualStyle
  2

 70
    12
 71
     2
 72
     2
 73
     0
 90
        0
 40
-0.6
 41
-30.0
 62
     5
 63
     7
 74
     1
 91
        4
 64
     7
 65
   257
 75
     1
175
     1
 42
1.0
 92
        8
 66
     7
 43
1.0
 76
     1
 77
     6
 78
     2
 67
     7
 79
     5
170
     0
171
     0
290
     0
174
     0
 93
        1
 44
50.0
173
     0
291
     1
 45
0.0
1001
ACAD
1000
AcDbSavedByObjectVersion
1070
     0
  0
VISUALSTYLE
  5
39
102
{ACAD_XDICTIONARY
360
A1A
102
}
102
{ACAD_REACTORS
330
29
102
}
330
29
100
AcDbVisualStyle
  2

 70
    16
 71
     2
 72
     2
 73
     3
 90
        0
 40
-0.6
 41
-30.0
 62
     5
 63
     8
 74
     1
 91
        4
 64
     7
 65
   257
 75
     1
175
     1
 42
1.0
 92
        8
 66
     8
 43
1.0
 76
     1
 77
     6
 78
     2
 67
     7
 79
     5
170
     0
171
     0
290
     0
174
     0
 93
        1
 44
0.0
173
     0
291
     1
 45
0.0
1001
ACAD
1000
AcDbSavedByObjectVersion
1070
     0
  0
VISUALSTYLE
  5
32
102
{ACAD_XDICTIONARY
360
A0C
102
}
102
{ACAD_REACTORS
330
29
102
}
330
29
100
AcDbVisualStyle
  2

 70
     9
 71
     3
 72
     2
 73
     0
 90
        0
 40
-0.6
 41
-30.0
 62
     5
 63
     7
 74
     2
 91
        2
 64
     7
 65
   257
 75
     1
175
     1
 42
179.0
 92
        8
 66
     7
 43
1.0
 76
     1
 77
     6
 78
     2
 67
     7
 79
     3
170
     0
171
     0
290
     0
174
     0
 93
        1
 44
0.0
173
     0
291
     0
 45
0.0
1001
ACAD
1000
AcDbSavedByObjectVersion
1070
     0
  0
VISUALSTYLE
  5
34
102
{ACAD_XDICTIONARY
360
A10
102
}
102
{ACAD_REACTORS
330
29
102
}
330
29
100
AcDbVisualStyle
  2

 70
    11
 71
     2
 72
     2
 73
     0
 90
        0
 40
-0.6
 41
-30.0
 62
     5
 63
     7
 74
     1
 91
        4
 64
     7
 65
   257
 75
     1
175
     1
 42
1.0
 92
        8
 66
     7
 43
1.0
 76
     1
 77
     6
 78
     2
 67
     7
 79
     5
170
     0
171
     0
290
     0
174
     0
 93
        1
 44
-50.0
173
     0
291
     1
 45
0.0
1001
ACAD
1000
AcDbSavedByObjectVersion
1070
     0
  0
VISUALSTYLE
  5
41
102
{ACAD_XDICTIONARY
360
A2A
102
}
102
{ACAD_REACTORS
330
29
102
}
330
29
100
AcDbVisualStyle
  2

 70
    22
 71
     2
 72
     2
 73
     0
 90
        0
 40
-0.6
 41
-30.0
 62
     5
 63
     7
 74
     1
 91
        4
 64
     7
 65
   257
 75
     1
175
     1
 42
1.0
 92
        8
 66
     7
 43
1.0
 76
     1
 77
     6
 78
     2
 67
     7
 79
     5
170
     0
171
     0
290
     0
174
     0
 93
        1
 44
0.0
173
     0
291
     1
 45
0.0
1001
ACAD
1000
AcDbSavedByObjectVersion
1070
     0
  0
VISUALSTYLE
  5
38
102
{ACAD_XDICTIONARY
360
A18
102
}
102
{ACAD_REACTORS
330
29
102
}
330
29
100
AcDbVisualStyle
  2

 70
    15
 71
     2
 72
     2
 73
     0
 90
        0
 40
-0.6
 41
-30.0
 62
     5
 63
     7
 74
     1
 91
        4
 64
     7
 65
   257
 75
     1
175
     1
 42
1.0
 92
        8
 66
     7
 43
1.0
 76
     1
 77
     6
 78
     2
 67
     7
 79
     5
170
     0
171
     0
290
     0
174
     0
 93
        1
 44
0.0
173
     0
291
     1
 45
0.0
1001
ACAD
1000
AcDbSavedByObjectVersion
1070
     0
  0
VISUALSTYLE
  5
2A
102
{ACAD_XDICTIONARY
360
9FC
102
}
102
{ACAD_REACTORS
330
29
102
}
330
29
100
AcDbVisualStyle
  2

 70
     0
 71
     2
 72
     1
 73
     1
 90
        2
 40
-0.6
 41
30.0
 62
     5
 63
     7
 74
     0
 91
        0
 64
     7
 65
   257
 75
     1
175
     1
 42
1.0
 92
        8
 66
     7
 43
1.0
 76
     1
 77
     6
 78
     2
 67
     7
 79
     5
170
     0
171
     0
290
     0
174
     0
 93
       13
 44
0.0
173
     0
291
     1
 45
0.0
1001
ACAD
1000
AcDbSavedByObjectVersion
1070
     0
  0
VISUALSTYLE
  5
2B
102
{ACAD_XDICTIONARY
360
9FE
102
}
102
{ACAD_REACTORS
330
29
102
}
330
29
100
AcDbVisualStyle
  2

 70
     1
 71
     2
 72
     1
 73
     1
 90
        2
 40
-0.6
 41
30.0
 62
     5
 63
     7
 74
     1
 91
        0
 64
     7
 65
   257
 75
     1
175
     1
 42
1.0
 92
        0
 66
   257
 43
1.0
 76
     1
 77
     6
 78
     2
 67
     7
 79
     5
170
     0
171
     0
290
     0
174
     0
 93
       13
 44
0.0
173
     0
291
     1
 45
0.0
1001
ACAD
1000
AcDbSavedByObjectVersion
1070
     0
  0
VISUALSTYLE
  5
2C
102
{ACAD_XDICTIONARY
360
A00
102
}
102
{ACAD_REACTORS
330
29
102
}
330
29
100
AcDbVisualStyle
  2

 70
     2
 71
     2
 72
     2
 73
     1
 90
        2
 40
-0.6
 41
30.0
 62
     5
 63
     7
 74
     0
 91
        0
 64
     7
 65
   257
 75
     1
175
     1
 42
1.0
 92
        0
 66
     7
 43
1.0
 76
     1
 77
     6
 78
     2
 67
     7
 79
     5
170
     0
171
     0
290
     0
174
     0
 93
       13
 44
0.0
173
     0
291
     1
 45
0.0
1001
ACAD
1000
AcDbSavedByObjectVersion
1070
     0
  0
VISUALSTYLE
  5
2D
102
{ACAD_XDICTIONARY
360
A02
102
}
102
{ACAD_REACTORS
330
29
102
}
330
29
100
AcDbVisualStyle
  2

 70
     3
 71
     2
 72
     2
 73
     1
 90
        2
 40
-0.6
 41
30.0
 62
     5
 63
     7
 74
     1
 91
        0
 64
     7
 65
   257
 75
     1
175
     1
 42
1.0
 92
        0
 66
   257
 43
1.0
 76
     1
 77
     6
 78
     2
 67
     7
 79
     5
170
     0
171
     0
290
     0
174
     0
 93
       13
 44
0.0
173
     0
291
     1
 45
0.0
1001
ACAD
1000
AcDbSavedByObjectVersion
1070
     0
  0
VISUALSTYLE
  5
31
102
{ACAD_XDICTIONARY
360
A0A
102
}
102
{ACAD_REACTORS
330
29
102
}
330
29
100
AcDbVisualStyle
  2

 70
     6
 71
     1
 72
     2
 73
     2
 90
        0
 40
-0.6
 41
-30.0
 62
     5
 63
     7
 74
     2
 91
        2
 64
     7
 65
   257
 75
     2
175
     1
 42
40.0
 92
        0
 66
   257
 43
1.0
 76
     1
 77
     6
 78
     2
 67
     7
 79
     3
170
     0
171
     0
290
     0
174
     0
 93
        1
 44
0.0
173
     0
291
     0
 45
0.0
1001
ACAD
1000
AcDbSavedByObjectVersion
1070
     0
  0
VISUALSTYLE
  5
3F
102
{ACAD_XDICTIONARY
360
A26
102
}
102
{ACAD_REACTORS
330
29
102
}
330
29
100
AcDbVisualStyle
  2

 70
    20
 71
     2
 72
     2
 73
     0
 90
        0
 40
-0.6
 41
-30.0
 62
     5
 63
     7
 74
     1
 91
        4
 64
     7
 65
   257
 75
     1
175
     1
 42
1.0
 92
       10
 66
     7
 43
1.0
 76
     1
 77
     6
 78
     2
 67
     7
 79
     5
170
     0
171
     0
290
     0
174
     0
 93
        1
 44
0.0
173
     0
291
     1
 45
0.0
1001
ACAD
1000
AcDbSavedByObjectVersion
1070
     0
  0
VISUALSTYLE
  5
37
102
{ACAD_XDICTIONARY
360
A16
102
}
102
{ACAD_REACTORS
330
29
102
}
330
29
100
AcDbVisualStyle
  2

 70
    14
 71
     2
 72
     2
 73
     0
 90
        0
 40
-0.6
 41
-30.0
 62
     5
 63
     7
 74
     1
 91
        4
 64
     7
 65
   257
 75
     7
175
     7
 42
1.0
 92
        8
 66
     7
 43
1.0
 76
     1
 77
     6
 78
     2
 67
     7
 79
     5
170
     0
171
     0
290
     0
174
     0
 93
        1
 44
0.0
173
     0
291
     1
 45
0.0
1001
ACAD
1000
AcDbSavedByObjectVersion
1070
     0
  0
VISUALSTYLE
  5
40
102
{ACAD_XDICTIONARY
360
A28
102
}
102
{ACAD_REACTORS
330
29
102
}
330
29
100
AcDbVisualStyle
  2

 70
    21
 71
     2
 72
     2
 73
     0
 90
        0
 40
-0.6
 41
-30.0
 62
     5
 63
     7
 74
     1
 91
        4
 64
     7
 65
   257
 75
     1
175
     1
 42
1.0
 92
        9
 66
     7
 43
1.0
 76
     1
 77
     6
 78
     2
 67
     7
 79
     5
170
     0
171
     0
290
     0
174
     0
 93
        1
 44
0.0
173
     0
291
     1
 45
0.0
1001
ACAD
1000
AcDbSavedByObjectVersion
1070
     0
  0
VISUALSTYLE
  5
33
102
{ACAD_XDICTIONARY
360
A0E
102
}
102
{ACAD_REACTORS
330
29
102
}
330
29
100
AcDbVisualStyle
  2

 70
     8
 71
     2
 72
     3
 73
     0
 90
        2
 40
-0.6
 41
30.0
 62
     5
 63
     7
 74
     0
 91
        0
 64
     7
 65
   257
 75
     1
175
     1
 42
1.0
 92
        8
 66
   257
 43
1.0
 76
     1
 77
     6
 78
     2
 67
     7
 79
     3
170
     0
171
     0
290
     0
174
     0
 93
       13
 44
0.0
173
     0
291
     0
 45
0.0
1001
ACAD
1000
AcDbSavedByObjectVersion
1070
     0
  0
VISUALSTYLE
  5
3E
102
{ACAD_XDICTIONARY
360
A24
102
}
102
{ACAD_REACTORS
330
29
102
}
330
29
100
AcDbVisualStyle
  2

 70
    27
 71
     2
 72
     2
 73
     1
 90
        2
 40
-0.6
 41
30.0
 62
     5
 63
     7
 74
     0
 91
        4
 64
     7
 65
   257
 75
     1
175
     1
 42
1.0
 92
        8
 66
   257
 43
1.0
 76
     1
 77
     6
 78
     2
 67
     8
 79
     3
170
     0
171
     0
290
     0
174
     0
 93
        5
 44
0.0
173
     0
291
     0
 45
0.0
1001
ACAD
1000
AcDbSavedByObjectVersion
1070
     0
  0
VISUALSTYLE
  5
3D
102
{ACAD_XDICTIONARY
360
A22
102
}
102
{ACAD_REACTORS
330
29
102
}
330
29
100
AcDbVisualStyle
  2

 70
    26
 71
     2
 72
     2
 73
     1
 90
        2
 40
-0.6
 41
30.0
 62
     5
 63
     7
 74
     1
 91
       10
 64
     7
 65
   257
 75
     2
175
     1
 42
1.0
 92
        8
 66
   257
 43
1.0
 76
     1
 77
     6
 78
     2
 67
     7
 79
     3
170
     0
171
     0
290
     0
174
     0
 93
        5
 44
0.0
173
     0
291
     0
 45
0.0
1001
ACAD
1000
AcDbSavedByObjectVersion
1070
     0
  0
VISUALSTYLE
  5
3A
102
{ACAD_XDICTIONARY
360
A1C
102
}
102
{ACAD_REACTORS
330
29
102
}
330
29
100
AcDbVisualStyle
  2

 70
    23
 71
     2
 72
     2
 73
     3
 90
        0
 40
-0.6
 41
-30.0
 62
     5
 63
     7
 74
     2
 91
        2
 64
     7
 65
     7
 75
     1
175
     1
 42
40.0
 92
        8
 66
     7
 43
1.0
 76
     1
 77
     6
 78
     2
 67
     7
 79
     3
170
     0
171
     0
290
     0
174
     0
 93
        1
 44
0.0
173
     0
291
     0
 45
0.0
1001
ACAD
1000
AcDbSavedByObjectVersion
1070
     0
  0
VISUALSTYLE
  5
3B
102
{ACAD_XDICTIONARY
360
A1E
102
}
102
{ACAD_REACTORS
330
29
102
}
330
29
100
AcDbVisualStyle
  2

 70
    24
 71
     1
 72
     2
 73
     2
 90
        0
 40
-0.6
 41
-30.0
 62
     5
 63
     7
 74
     2
 91
        2
 64
     7
 65
     7
 75
     1
175
     1
 42
40.0
 92
       11
 66
     7
 43
1.0
 76
     1
 77
     6
 78
     2
 67
     7
 79
     6
170
     0
171
     0
290
     0
174
     0
 93
        1
 44
0.0
173
     0
291
     0
 45
0.0
1001
ACAD
1000
AcDbSavedByObjectVersion
1070
     0
  0
VISUALSTYLE
  5
36
102
{ACAD_XDICTIONARY
360
A14
102
}
102
{ACAD_REACTORS
330
29
102
}
330
29
100
AcDbVisualStyle
  2

 70
    13
 71
     2
 72
     2
 73
     0
 90
        0
 40
-0.6
 41
-30.0
 62
     5
 63
     7
 74
     1
 91
        4
 64
     7
 65
   257
 75
     1
175
     1
 42
1.0
 92
       12
 66
     7
 43
1.0
 76
     1
 77
     6
 78
     2
 67
     7
 79
     5
170
     0
171
     0
290
     0
174
     0
 93
        1
 44
0.0
173
     0
291
     1
 45
0.0
1001
ACAD
1000
AcDbSavedByObjectVersion
1070
     0
  0
VISUALSTYLE
  5
30
102
{ACAD_XDICTIONARY
360
A08
102
}
102
{ACAD_REACTORS
330
29
102
}
330
29
100
AcDbVisualStyle
  2

 70
     5
 71
     0
 72
     2
 73
     0
 90
        0
 40
-0.6
 41
-30.0
 62
     5
 63
     7
 74
     1
 91
        4
 64
     7
 65
   257
 75
     1
175
     1
 42
1.0
 92
        0
 66
   257
 43
1.0
 76
     1
 77
     6
 78
     2
 67
     7
 79
     3
170
     0
171
     0
290
     0
174
     0
 93
        1
 44
0.0
173
     0
291
     0
 45
0.0
1001
ACAD
1000
AcDbSavedByObjectVersion
1070
     0
  0
VISUALSTYLE
  5
3C
102
{ACAD_XDICTIONARY
360
A20
102
}
102
{ACAD_REACTORS
330
29
102
}
330
29
100
AcDbVisualStyle
  2

 70
    25
 71
     2
 72
     2
 73
     1
 90
        1
 40
0.5
 41
-30.0
 62
     5
 63
     7
 74
     1
 91
        0
 64
     7
 65
   257
 75
     1
175
     1
 42
1.0
 92
        8
 66
     7
 43
1.0
 76
     1
 77
     6
 78
     2
 67
     7
 79
     3
170
     0
171
     0
290
     0
174
     0
 93
       13
 44
0.0
173
     0
291
     0
 45
0.0
1001
ACAD
1000
AcDbSavedByObjectVersion
1070
     0
  0
DICTIONARYVAR
  5
81
102
{ACAD_REACTORS
330
7C
102
}
330
7C
100
DictionaryVariables
280
     0
  1
1:1
  0
DICTIONARYVAR
  5
7E
102
{ACAD_REACTORS
330
7C
102
}
330
7C
100
DictionaryVariables
280
     0
  1
STANDARD
  0
DICTIONARYVAR
  5
7D
102
{ACAD_REACTORS
330
7C
102
}
330
7C
100
DictionaryVariables
280
     0
  1
STANDARD
  0
DICTIONARYVAR
  5
7F
102
{ACAD_REACTORS
330
7C
102
}
330
7C
100
DictionaryVariables
280
     0
  1
Imperial24
  0
DICTIONARYVAR
  5
80
102
{ACAD_REACTORS
330
7C
102
}
330
7C
100
DictionaryVariables
280
     0
  1
Imperial24
  0
DICTIONARYVAR
  5
72A
102
{ACAD_REACTORS
330
7C
102
}
330
7C
100
DictionaryVariables
280
     0
  1
2
  0
DICTIONARYVAR
  5
729
102
{ACAD_REACTORS
330
7C
102
}
330
7C
100
DictionaryVariables
280
     0
  1
1
  0
DICTIONARYVAR
  5
728
102
{ACAD_REACTORS
330
7C
102
}
330
7C
100
DictionaryVariables
280
     0
  1
0
  0
DICTIONARYVAR
  5
9F2
102
{ACAD_REACTORS
330
7C
102
}
330
7C
100
DictionaryVariables
280
     0
  1
0.000000
  0
DICTIONARYVAR
  5
725
102
{ACAD_REACTORS
330
7C
102
}
330
7C
100
DictionaryVariables
280
     0
  1
0
  0
DICTIONARYVAR
  5
726
102
{ACAD_REACTORS
330
7C
102
}
330
7C
100
DictionaryVariables
280
     0
  1
0
  0
DICTIONARYVAR
  5
724
102
{ACAD_REACTORS
330
7C
102
}
330
7C
100
DictionaryVariables
280
     0
  1
2
  0
DICTIONARYVAR
  5
9F0
102
{ACAD_REACTORS
330
7C
102
}
330
7C
100
DictionaryVariables
280
     0
  1
1.570796
  0
DICTIONARYVAR
  5
9F1
102
{ACAD_REACTORS
330
7C
102
}
330
7C
100
DictionaryVariables
280
     0
  1
1.570796
  0
DICTIONARYVAR
  5
9F3
102
{ACAD_REACTORS
330
7C
102
}
330
7C
100
DictionaryVariables
280
     0
  1
0.000000
  0
DICTIONARYVAR
  5
723
102
{ACAD_REACTORS
330
7C
102
}
330
7C
100
DictionaryVariables
280
     0
  1
1
  0
DICTIONARYVAR
  5
727
102
{ACAD_REACTORS
330
7C
102
}
330
7C
100
DictionaryVariables
280
     0
  1
127
  0
DICTIONARYVAR
  5
9F4
102
{ACAD_REACTORS
330
7C
102
}
330
7C
100
DictionaryVariables
280
     0
  1
0
  0
DICTIONARYVAR
  5
9F5
102
{ACAD_REACTORS
330
7C
102
}
330
7C
100
DictionaryVariables
280
     0
  1
2
  0
XRECORD
  5
3DA
102
{ACAD_REACTORS
330
3D8
102
}
330
3D8
100
AcDbXrecord
280
     1
  1
-2000051
  1
Lines
  1
-2000240
  1
Levels
  1
-2000260
  1
Dimensions
  1
-2000510
  1
Viewports
  1
-2000515
  1
View Titles
  1
-2000535
  1
Elevations
  1
-2001140
  1
Mechanical Equipment
  1
-2006020
  1
Level Heads
  0
XRECORD
  5
3DB
102
{ACAD_REACTORS
330
3D8
102
}
330
3D8
100
AcDbXrecord
280
     1
  1
161512
  1
MEP Hidden
  0
XRECORD
  5
3D9
102
{ACAD_REACTORS
330
3D8
102
}
330
3D8
100
AcDbXrecord
280
     1
  1
16
  1
Linear Dimension Style : Linear - 3/32" Arial
  1
27
  1
Level : 1/4" Head
  1
661158
  1
CCCT_-_BAC_-_PFI_-_1_Cell_-_S-Double_Connection_-_RH : PFI-1218N-2D3DS-H2
  1
75910
  1
Elevation : Building Elevation
  1
9835
  1
Viewport : Viewport 1
  0
DICTIONARY
  5
A2F
330
70
100
AcDbDictionary
280
     1
281
     1
  3
ACAD_XREC_ROUNDTRIP
360
A30
  0
DICTIONARY
  5
A31
330
74
100
AcDbDictionary
280
     1
281
     1
  3
ACAD_XREC_ROUNDTRIP
360
A32
  0
DICTIONARY
  5
1A
330
19
100
AcDbDictionary
280
     1
281
     1
  3
ACAD_XREC_ROUNDTRIP
360
73D
  3
BUMPTILE
360
1C
  3
DIFFUSETILE
360
1B
  3
OPACITYTILE
360
1F
  3
REFLECTIONTILE
360
1E
  3
REFRACTIONTILE
360
20
  3
SPECULARTILE
360
1D
  0
DICTIONARY
  5
12
330
11
100
AcDbDictionary
280
     1
281
     1
  3
ACAD_XREC_ROUNDTRIP
360
73C
  3
BUMPTILE
360
14
  3
DIFFUSETILE
360
13
  3
OPACITYTILE
360
17
  3
REFLECTIONTILE
360
16
  3
REFRACTIONTILE
360
18
  3
SPECULARTILE
360
15
  0
DICTIONARY
  5
22
330
21
100
AcDbDictionary
280
     1
281
     1
  3
ACAD_XREC_ROUNDTRIP
360
73E
  3
BUMPTILE
360
24
  3
DIFFUSETILE
360
23
  3
OPACITYTILE
360
27
  3
REFLECTIONTILE
360
26
  3
REFRACTIONTILE
360
28
  3
SPECULARTILE
360
25
  0
DICTIONARY
  5
A2D
330
67
100
AcDbDictionary
280
     1
281
     1
  3
ACAD_XREC_ROUNDTRIP
360
A2E
  0
DICTIONARY
  5
3DF
330
65
100
AcDbDictionary
280
     1
281
     1
  3
ACAD_ROUNDTRIP_2008_TABLESTYLE_CELLSTYLEMAP
360
9F6
  3
ACAD_XREC_ROUNDTRIP
360
A2C
  0
DICTIONARY
  5
A06
330
2F
100
AcDbDictionary
280
     1
281
     1
  3
ACAD_XREC_ROUNDTRIP
360
A07
  0
DICTIONARY
  5
A04
330
2E
100
AcDbDictionary
280
     1
281
     1
  3
ACAD_XREC_ROUNDTRIP
360
A05
  0
DICTIONARY
  5
A12
330
35
100
AcDbDictionary
280
     1
281
     1
  3
ACAD_XREC_ROUNDTRIP
360
A13
  0
DICTIONARY
  5
A1A
330
39
100
AcDbDictionary
280
     1
281
     1
  3
ACAD_XREC_ROUNDTRIP
360
A1B
  0
DICTIONARY
  5
A0C
330
32
100
AcDbDictionary
280
     1
281
     1
  3
ACAD_XREC_ROUNDTRIP
360
A0D
  0
DICTIONARY
  5
A10
330
34
100
AcDbDictionary
280
     1
281
     1
  3
ACAD_XREC_ROUNDTRIP
360
A11
  0
DICTIONARY
  5
A2A
330
41
100
AcDbDictionary
280
     1
281
     1
  3
ACAD_XREC_ROUNDTRIP
360
A2B
  0
DICTIONARY
  5
A18
330
38
100
AcDbDictionary
280
     1
281
     1
  3
ACAD_XREC_ROUNDTRIP
360
A19
  0
DICTIONARY
  5
9FC
330
2A
100
AcDbDictionary
280
     1
281
     1
  3
ACAD_XREC_ROUNDTRIP
360
9FD
  0
DICTIONARY
  5
9FE
330
2B
100
AcDbDictionary
280
     1
281
     1
  3
ACAD_XREC_ROUNDTRIP
360
9FF
  0
DICTIONARY
  5
A00
330
2C
100
AcDbDictionary
280
     1
281
     1
  3
ACAD_XREC_ROUNDTRIP
360
A01
  0
DICTIONARY
  5
A02
330
2D
100
AcDbDictionary
280
     1
281
     1
  3
ACAD_XREC_ROUNDTRIP
360
A03
  0
DICTIONARY
  5
A0A
330
31
100
AcDbDictionary
280
     1
281
     1
  3
ACAD_XREC_ROUNDTRIP
360
A0B
  0
DICTIONARY
  5
A26
330
3F
100
AcDbDictionary
280
     1
281
     1
  3
ACAD_XREC_ROUNDTRIP
360
A27
  0
DICTIONARY
  5
A16
330
37
100
AcDbDictionary
280
     1
281
     1
  3
ACAD_XREC_ROUNDTRIP
360
A17
  0
DICTIONARY
  5
A28
330
40
100
AcDbDictionary
280
     1
281
     1
  3
ACAD_XREC_ROUNDTRIP
360
A29
  0
DICTIONARY
  5
A0E
330
33
100
AcDbDictionary
280
     1
281
     1
  3
ACAD_XREC_ROUNDTRIP
360
A0F
  0
DICTIONARY
  5
A24
330
3E
100
AcDbDictionary
280
     1
281
     1
  3
ACAD_XREC_ROUNDTRIP
360
A25
  0
DICTIONARY
  5
A22
330
3D
100
AcDbDictionary
280
     1
281
     1
  3
ACAD_XREC_ROUNDTRIP
360
A23
  0
DICTIONARY
  5
A1C
330
3A
100
AcDbDictionary
280
     1
281
     1
  3
ACAD_XREC_ROUNDTRIP
360
A1D
  0
DICTIONARY
  5
A1E
330
3B
100
AcDbDictionary
280
     1
281
     1
  3
ACAD_XREC_ROUNDTRIP
360
A1F
  0
DICTIONARY
  5
A14
330
36
100
AcDbDictionary
280
     1
281
     1
  3
ACAD_XREC_ROUNDTRIP
360
A15
  0
DICTIONARY
  5
A08
330
30
100
AcDbDictionary
280
     1
281
     1
  3
ACAD_XREC_ROUNDTRIP
360
A09
  0
DICTIONARY
  5
A20
330
3C
100
AcDbDictionary
280
     1
281
     1
  3
ACAD_XREC_ROUNDTRIP
360
A21
  0
XRECORD
  5
A30
102
{ACAD_REACTORS
330
A2F
102
}
330
A2F
100
AcDbXrecord
280
     1
102
SHADEPLOT
 70
     0
102
SHADEPLOTRESLEVEL
 70
     2
102
SHADEPLOTCUSTOMDPI
 70
   300
  0
XRECORD
  5
A32
102
{ACAD_REACTORS
330
A31
102
}
330
A31
100
AcDbXrecord
280
     1
102
SHADEPLOT
 70
     0
102
SHADEPLOTRESLEVEL
 70
     2
102
SHADEPLOTCUSTOMDPI
 70
   300
  0
XRECORD
  5
73D
102
{ACAD_REACTORS
330
1A
102
}
330
1A
100
AcDbXrecord
280
     1
102
MATERIAL
148
0.0
149
0.0
149
0.0
 93
        0
 94
      127
282
     0
 72
     0
 77
     0
171
     0
175
     0
179
     0
273
     0
  0
XRECORD
  5
1C
102
{ACAD_REACTORS
330
1A
102
}
330
1A
100
AcDbXrecord
280
     1
270
     1
271
     1
  0
XRECORD
  5
1B
102
{ACAD_REACTORS
330
1A
102
}
330
1A
100
AcDbXrecord
280
     1
270
     1
271
     1
  0
XRECORD
  5
1F
102
{ACAD_REACTORS
330
1A
102
}
330
1A
100
AcDbXrecord
280
     1
270
     1
271
     1
  0
XRECORD
  5
1E
102
{ACAD_REACTORS
330
1A
102
}
330
1A
100
AcDbXrecord
280
     1
270
     1
271
     1
  0
XRECORD
  5
20
102
{ACAD_REACTORS
330
1A
102
}
330
1A
100
AcDbXrecord
280
     1
270
     1
271
     1
  0
XRECORD
  5
1D
102
{ACAD_REACTORS
330
1A
102
}
330
1A
100
AcDbXrecord
280
     1
270
     1
271
     1
  0
XRECORD
  5
73C
102
{ACAD_REACTORS
330
12
102
}
330
12
100
AcDbXrecord
280
     1
102
MATERIAL
148
0.0
149
0.0
149
0.0
 93
        0
 94
      127
282
     0
 72
     0
 77
     0
171
     0
175
     0
179
     0
273
     0
  0
XRECORD
  5
14
102
{ACAD_REACTORS
330
12
102
}
330
12
100
AcDbXrecord
280
     1
270
     1
271
     1
  0
XRECORD
  5
13
102
{ACAD_REACTORS
330
12
102
}
330
12
100
AcDbXrecord
280
     1
270
     1
271
     1
  0
XRECORD
  5
17
102
{ACAD_REACTORS
330
12
102
}
330
12
100
AcDbXrecord
280
     1
270
     1
271
     1
  0
XRECORD
  5
16
102
{ACAD_REACTORS
330
12
102
}
330
12
100
AcDbXrecord
280
     1
270
     1
271
     1
  0
XRECORD
  5
18
102
{ACAD_REACTORS
330
12
102
}
330
12
100
AcDbXrecord
280
     1
270
     1
271
     1
  0
XRECORD
  5
15
102
{ACAD_REACTORS
330
12
102
}
330
12
100
AcDbXrecord
280
     1
270
     1
271
     1
  0
XRECORD
  5
73E
102
{ACAD_REACTORS
330
22
102
}
330
22
100
AcDbXrecord
280
     1
102
MATERIAL
148
0.0
149
0.0
149
0.0
 93
        0
 94
      127
282
     0
 72
     0
 77
     0
171
     0
175
     0
179
     0
273
     0
  0
XRECORD
  5
24
102
{ACAD_REACTORS
330
22
102
}
330
22
100
AcDbXrecord
280
     1
270
     1
271
     1
  0
XRECORD
  5
23
102
{ACAD_REACTORS
330
22
102
}
330
22
100
AcDbXrecord
280
     1
270
     1
271
     1
  0
XRECORD
  5
27
102
{ACAD_REACTORS
330
22
102
}
330
22
100
AcDbXrecord
280
     1
270
     1
271
     1
  0
XRECORD
  5
26
102
{ACAD_REACTORS
330
22
102
}
330
22
100
AcDbXrecord
280
     1
270
     1
271
     1
  0
XRECORD
  5
28
102
{ACAD_REACTORS
330
22
102
}
330
22
100
AcDbXrecord
280
     1
270
     1
271
     1
  0
XRECORD
  5
25
102
{ACAD_REACTORS
330
22
102
}
330
22
100
AcDbXrecord
280
     1
270
     1
271
     1
  0
XRECORD
  5
A2E
102
{ACAD_REACTORS
330
A2D
102
}
330
A2D
100
AcDbXrecord
280
     1
102
ACAD_ROUNDTRIP_2012_MLEADER_STYLE
298
     1
  0
CELLSTYLEMAP
  5
9F6
102
{ACAD_REACTORS
330
3DF
102
}
330
3DF
100
AcDbCellStyleMap
 90
        3
300
CELLSTYLE
  1
TABLEFORMAT_BEGIN
 90
        5
170
     1
 91
        0
 92
    32768
 62
   257
 93
        1
300
CONTENTFORMAT
  1
CONTENTFORMAT_BEGIN
 90
        0
 91
        0
 92
      512
 93
        0
300

 40
0.0
140
1.0
 94
        5
 62
     0
340
55
144
0.25
309
CONTENTFORMAT_END
171
     1
301
MARGIN
  1
CELLMARGIN_BEGIN
 40
0.06
 40
0.06
 40
0.06
 40
0.06
 40
0.18
 40
0.18
309
CELLMARGIN_END
 94
        6
 95
        1
302
GRIDFORMAT
  1
GRIDFORMAT_BEGIN
 90
        0
 91
        1
 62
     0
 92
       -2
340
0
 93
        0
 40
0.045
309
GRIDFORMAT_END
 95
        2
302
GRIDFORMAT
  1
GRIDFORMAT_BEGIN
 90
        0
 91
        1
 62
     0
 92
       -2
340
0
 93
        0
 40
0.045
309
GRIDFORMAT_END
 95
        4
302
GRIDFORMAT
  1
GRIDFORMAT_BEGIN
 90
        0
 91
        1
 62
     0
 92
       -2
340
0
 93
        0
 40
0.045
309
GRIDFORMAT_END
 95
        8
302
GRIDFORMAT
  1
GRIDFORMAT_BEGIN
 90
        0
 91
        1
 62
     0
 92
       -2
340
0
 93
        0
 40
0.045
309
GRIDFORMAT_END
 95
       16
302
GRIDFORMAT
  1
GRIDFORMAT_BEGIN
 90
        0
 91
        1
 62
     0
 92
       -2
340
0
 93
        0
 40
0.045
309
GRIDFORMAT_END
 95
       32
302
GRIDFORMAT
  1
GRIDFORMAT_BEGIN
 90
        0
 91
        1
 62
     0
 92
       -2
340
0
 93
        0
 40
0.045
309
GRIDFORMAT_END
309
TABLEFORMAT_END
  1
CELLSTYLE_BEGIN
 90
        1
 91
        1
300
_TITLE
309
CELLSTYLE_END
300
CELLSTYLE
  1
TABLEFORMAT_BEGIN
 90
        5
170
     1
 91
        0
 92
        0
 62
   257
 93
        1
300
CONTENTFORMAT
  1
CONTENTFORMAT_BEGIN
 90
        0
 91
        0
 92
      512
 93
        0
300

 40
0.0
140
1.0
 94
        5
 62
     0
340
55
144
0.18
309
CONTENTFORMAT_END
171
     1
301
MARGIN
  1
CELLMARGIN_BEGIN
 40
0.06
 40
0.06
 40
0.06
 40
0.06
 40
0.18
 40
0.18
309
CELLMARGIN_END
 94
        6
 95
        1
302
GRIDFORMAT
  1
GRIDFORMAT_BEGIN
 90
        0
 91
        1
 62
     0
 92
       -2
340
0
 93
        0
 40
0.045
309
GRIDFORMAT_END
 95
        2
302
GRIDFORMAT
  1
GRIDFORMAT_BEGIN
 90
        0
 91
        1
 62
     0
 92
       -2
340
0
 93
        0
 40
0.045
309
GRIDFORMAT_END
 95
        4
302
GRIDFORMAT
  1
GRIDFORMAT_BEGIN
 90
        0
 91
        1
 62
     0
 92
       -2
340
0
 93
        0
 40
0.045
309
GRIDFORMAT_END
 95
        8
302
GRIDFORMAT
  1
GRIDFORMAT_BEGIN
 90
        0
 91
        1
 62
     0
 92
       -2
340
0
 93
        0
 40
0.045
309
GRIDFORMAT_END
 95
       16
302
GRIDFORMAT
  1
GRIDFORMAT_BEGIN
 90
        0
 91
        1
 62
     0
 92
       -2
340
0
 93
        0
 40
0.045
309
GRIDFORMAT_END
 95
       32
302
GRIDFORMAT
  1
GRIDFORMAT_BEGIN
 90
        0
 91
        1
 62
     0
 92
       -2
340
0
 93
        0
 40
0.045
309
GRIDFORMAT_END
309
TABLEFORMAT_END
  1
CELLSTYLE_BEGIN
 90
        2
 91
        1
300
_HEADER
309
CELLSTYLE_END
300
CELLSTYLE
  1
TABLEFORMAT_BEGIN
 90
        5
170
     1
 91
        0
 92
        0
 62
   257
 93
        1
300
CONTENTFORMAT
  1
CONTENTFORMAT_BEGIN
 90
        0
 91
        0
 92
      512
 93
        0
300

 40
0.0
140
1.0
 94
        2
 62
     0
340
55
144
0.18
309
CONTENTFORMAT_END
171
     1
301
MARGIN
  1
CELLMARGIN_BEGIN
 40
0.06
 40
0.06
 40
0.06
 40
0.06
 40
0.18
 40
0.18
309
CELLMARGIN_END
 94
        6
 95
        1
302
GRIDFORMAT
  1
GRIDFORMAT_BEGIN
 90
        0
 91
        1
 62
     0
 92
       -2
340
0
 93
        0
 40
0.045
309
GRIDFORMAT_END
 95
        2
302
GRIDFORMAT
  1
GRIDFORMAT_BEGIN
 90
        0
 91
        1
 62
     0
 92
       -2
340
0
 93
        0
 40
0.045
309
GRIDFORMAT_END
 95
        4
302
GRIDFORMAT
  1
GRIDFORMAT_BEGIN
 90
        0
 91
        1
 62
     0
 92
       -2
340
0
 93
        0
 40
0.045
309
GRIDFORMAT_END
 95
        8
302
GRIDFORMAT
  1
GRIDFORMAT_BEGIN
 90
        0
 91
        1
 62
     0
 92
       -2
340
0
 93
        0
 40
0.045
309
GRIDFORMAT_END
 95
       16
302
GRIDFORMAT
  1
GRIDFORMAT_BEGIN
 90
        0
 91
        1
 62
     0
 92
       -2
340
0
 93
        0
 40
0.045
309
GRIDFORMAT_END
 95
       32
302
GRIDFORMAT
  1
GRIDFORMAT_BEGIN
 90
        0
 91
        1
 62
     0
 92
       -2
340
0
 93
        0
 40
0.045
309
GRIDFORMAT_END
309
TABLEFORMAT_END
  1
CELLSTYLE_BEGIN
 90
        3
 91
        2
300
_DATA
309
CELLSTYLE_END
  0
XRECORD
  5
A2C
102
{ACAD_REACTORS
330
3DF
102
}
330
3DF
100
AcDbXrecord
280
     1
102
ACAD_ROUNDTRIP_PRE2007_TABLESTYLE
 90
      512
 91
        0
  1

 92
      512
 93
        0
  2

 94
      512
 95
        0
  3

  0
XRECORD
  5
A07
102
{ACAD_REACTORS
330
A06
102
}
330
A06
100
AcDbXrecord
280
     1
102
RTVSPost2010Prop28
280
     1
102
RTVSPost2010PropOp28
 70
     1
102
RTVSPost2010Prop29
280
     1
102
RTVSPost2010PropOp29
 70
     1
102
RTVSPost2010Prop30
280
     0
102
RTVSPost2010PropOp30
 70
     1
102
RTVSPost2010Prop31
280
     0
102
RTVSPost2010PropOp31
 70
     1
102
RTVSPost2010Prop32
280
     0
102
RTVSPost2010PropOp32
 70
     1
102
RTVSPost2010Prop33
280
     0
102
RTVSPost2010PropOp33
 70
     1
102
RTVSPost2010Prop34
280
     0
102
RTVSPost2010PropOp34
 70
     1
102
RTVSPost2010Prop35
280
     0
102
RTVSPost2010PropOp35
 70
     1
102
RTVSPost2010Prop36
280
     0
102
RTVSPost2010PropOp36
 70
     1
102
RTVSPost2010Prop37
 90
       50
102
RTVSPost2010PropOp37
 70
     1
102
RTVSPost2010Prop38
140
0.0
102
RTVSPost2010PropOp38
 70
     1
102
RTVSPost2010Prop39
140
1.0
102
RTVSPost2010PropOp39
 70
     1
102
RTVSPost2010Prop40
 90
        0
102
RTVSPost2010PropOp40
 70
     1
102
RTVSPost2010Prop41ColorIndex
 90
       18
102
RTVSPost2010Prop41ColorRGB
 90
-16777216
102
RTVSPost2010PropOp41
 70
     1
102
RTVSPost2010Prop42
 90
       50
102
RTVSPost2010PropOp42
 70
     1
102
RTVSPost2010Prop43
 90
        3
102
RTVSPost2010PropOp43
 70
     1
102
RTVSPost2010Prop44ColorIndex
 90
        5
102
RTVSPost2010Prop44ColorRGB
 90
      255
102
RTVSPost2010PropOp44
 70
     1
102
RTVSPost2010Prop45
280
     0
102
RTVSPost2010PropOp45
 70
     1
102
RTVSPost2010Prop46
 90
       50
102
RTVSPost2010PropOp46
 70
     1
102
RTVSPost2010Prop47
 90
       50
102
RTVSPost2010PropOp47
 70
     1
102
RTVSPost2010Prop48
 90
       50
102
RTVSPost2010PropOp48
 70
     1
102
RTVSPost2010Prop49
280
     0
102
RTVSPost2010PropOp49
 70
     1
102
RTVSPost2010Prop50
 90
       50
102
RTVSPost2010PropOp50
 70
     1
102
RTVSPost2010Prop51ColorIndex
 90
      256
102
RTVSPost2010Prop51ColorRGB
 90
-16777216
102
RTVSPost2010PropOp51
 70
     0
102
RTVSPost2010Prop52
140
1.0
102
RTVSPost2010PropOp52
 70
     0
102
RTVSPost2010Prop53
 90
        2
102
RTVSPost2010PropOp53
 70
     1
102
RTVSPost2010Prop54
  1
strokes_ogs.tif
102
RTVSPost2010PropOp54
 70
     1
102
RTVSPost2010Prop55
280
     0
102
RTVSPost2010PropOp55
 70
     1
102
RTVSPost2010Prop56
140
1.0
102
RTVSPost2010PropOp56
 70
     1
102
RTVSPost2010Prop57
140
1.0
102
RTVSPost2010PropOp57
 70
     1
102
RTVSPropertyOp0
 70
     1
102
RTVSPropertyOp1
 70
     1
102
RTVSPropertyOp2
 70
     1
102
RTVSPropertyOp3
 70
     1
102
RTVSPropertyOp4
 70
     1
102
RTVSPropertyOp5
 70
     1
102
RTVSPropertyOp6
 70
     1
102
RTVSPropertyOp7
 70
     1
102
RTVSPropertyOp8
 70
     1
102
RTVSPropertyOp9
 70
     1
102
RTVSPropertyOp10
 70
     1
102
RTVSPropertyOp11
 70
     1
102
RTVSPropertyOp12
 70
     1
102
RTVSPropertyOp13
 70
     1
102
RTVSPropertyOp14
 70
     1
102
RTVSPropertyOp15
 70
     1
102
RTVSPropertyOp16
 70
     1
102
RTVSPropertyOp17
 70
     1
102
RTVSPropertyOp18
 70
     1
102
RTVSPropertyOp19
 70
     1
102
RTVSPropertyOp20
 70
     1
102
RTVSPropertyOp21
 70
     1
102
RTVSPropertyOp22
 70
     1
102
RTVSPropertyOp23
 70
     1
102
RTVSPropertyOp24
 70
     1
102
RTVSPropertyOp25
 70
     1
102
RTVSPropertyOp26
 70
     1
102
RTVSPropertyOp27
 70
     1
102
RTVSPropertyOp28
 70
     1
102
RTVSPropertyOp29
 70
     1
102
RTVSPropertyOp30
 70
     1
102
RTVSPropertyOp31
 70
     1
102
RTVSPropertyOp32
 70
     1
102
RTVSPropertyOp33
 70
     1
102
RTVSPropertyOp34
 70
     1
102
RTVSPropertyOp35
 70
     1
102
RTVSPropertyOp36
 70
     1
102
RTVSPropertyOp37
 70
     1
102
RTVSPropertyOp38
 70
     1
102
RTVSPropertyOp39
 70
     1
102
RTVSPropertyOp40
 70
     1
102
RTVSPropertyOp41
 70
     1
102
RTVSPropertyOp42
 70
     1
102
RTVSPropertyOp43
 70
     1
102
RTVSPropertyOp44
 70
     1
102
RTVSPropertyOp45
 70
     1
102
RTVSPropertyOp46
 70
     1
102
RTVSPropertyOp47
 70
     1
102
RTVSPropertyOp48
 70
     1
102
RTVSPropertyOp49
 70
     1
102
RTVSPropertyOp50
 70
     1
102
RTVSPropertyOp51
 70
     0
102
RTVSPropertyOp52
 70
     0
102
RTVSPropertyOp53
 70
     1
102
RTVSPropertyOp54
 70
     1
102
RTVSPropertyOp55
 70
     1
102
RTVSPropertyOp56
 70
     1
102
RTVSPropertyOp57
 70
     1
102
RTVSPropertyOp58
 70
     1
102
RTVSPropertyOp59
 70
     1
102
RTVSPropertyOp60
 70
     1
102
RTVSPropertyOp61
 70
     1
102
RTVSPropertyOp62
 70
     1
  0
XRECORD
  5
A05
102
{ACAD_REACTORS
330
A04
102
}
330
A04
100
AcDbXrecord
280
     1
102
RTVSPost2010Prop28
280
     0
102
RTVSPost2010PropOp28
 70
     1
102
RTVSPost2010Prop29
280
     1
102
RTVSPost2010PropOp29
 70
     1
102
RTVSPost2010Prop30
280
     1
102
RTVSPost2010PropOp30
 70
     1
102
RTVSPost2010Prop31
280
     0
102
RTVSPost2010PropOp31
 70
     1
102
RTVSPost2010Prop32
280
     0
102
RTVSPost2010PropOp32
 70
     1
102
RTVSPost2010Prop33
280
     0
102
RTVSPost2010PropOp33
 70
     1
102
RTVSPost2010Prop34
280
     0
102
RTVSPost2010PropOp34
 70
     1
102
RTVSPost2010Prop35
280
     0
102
RTVSPost2010PropOp35
 70
     1
102
RTVSPost2010Prop36
280
     0
102
RTVSPost2010PropOp36
 70
     1
102
RTVSPost2010Prop37
 90
       50
102
RTVSPost2010PropOp37
 70
     1
102
RTVSPost2010Prop38
140
0.0
102
RTVSPost2010PropOp38
 70
     1
102
RTVSPost2010Prop39
140
1.0
102
RTVSPost2010PropOp39
 70
     1
102
RTVSPost2010Prop40
 90
        0
102
RTVSPost2010PropOp40
 70
     1
102
RTVSPost2010Prop41ColorIndex
 90
       18
102
RTVSPost2010Prop41ColorRGB
 90
-16777216
102
RTVSPost2010PropOp41
 70
     1
102
RTVSPost2010Prop42
 90
       50
102
RTVSPost2010PropOp42
 70
     1
102
RTVSPost2010Prop43
 90
        3
102
RTVSPost2010PropOp43
 70
     1
102
RTVSPost2010Prop44ColorIndex
 90
        5
102
RTVSPost2010Prop44ColorRGB
 90
      255
102
RTVSPost2010PropOp44
 70
     1
102
RTVSPost2010Prop45
280
     0
102
RTVSPost2010PropOp45
 70
     1
102
RTVSPost2010Prop46
 90
       50
102
RTVSPost2010PropOp46
 70
     1
102
RTVSPost2010Prop47
 90
       50
102
RTVSPost2010PropOp47
 70
     1
102
RTVSPost2010Prop48
 90
       50
102
RTVSPost2010PropOp48
 70
     1
102
RTVSPost2010Prop49
280
     0
102
RTVSPost2010PropOp49
 70
     1
102
RTVSPost2010Prop50
 90
       50
102
RTVSPost2010PropOp50
 70
     1
102
RTVSPost2010Prop51ColorIndex
 90
      256
102
RTVSPost2010Prop51ColorRGB
 90
-16777216
102
RTVSPost2010PropOp51
 70
     0
102
RTVSPost2010Prop52
140
1.0
102
RTVSPost2010PropOp52
 70
     0
102
RTVSPost2010Prop53
 90
        2
102
RTVSPost2010PropOp53
 70
     1
102
RTVSPost2010Prop54
  1
strokes_ogs.tif
102
RTVSPost2010PropOp54
 70
     1
102
RTVSPost2010Prop55
280
     0
102
RTVSPost2010PropOp55
 70
     1
102
RTVSPost2010Prop56
140
1.0
102
RTVSPost2010PropOp56
 70
     1
102
RTVSPost2010Prop57
140
1.0
102
RTVSPost2010PropOp57
 70
     1
102
RTVSPropertyOp0
 70
     1
102
RTVSPropertyOp1
 70
     1
102
RTVSPropertyOp2
 70
     1
102
RTVSPropertyOp3
 70
     1
102
RTVSPropertyOp4
 70
     1
102
RTVSPropertyOp5
 70
     1
102
RTVSPropertyOp6
 70
     1
102
RTVSPropertyOp7
 70
     1
102
RTVSPropertyOp8
 70
     1
102
RTVSPropertyOp9
 70
     1
102
RTVSPropertyOp10
 70
     1
102
RTVSPropertyOp11
 70
     1
102
RTVSPropertyOp12
 70
     1
102
RTVSPropertyOp13
 70
     1
102
RTVSPropertyOp14
 70
     1
102
RTVSPropertyOp15
 70
     1
102
RTVSPropertyOp16
 70
     1
102
RTVSPropertyOp17
 70
     1
102
RTVSPropertyOp18
 70
     1
102
RTVSPropertyOp19
 70
     1
102
RTVSPropertyOp20
 70
     1
102
RTVSPropertyOp21
 70
     1
102
RTVSPropertyOp22
 70
     1
102
RTVSPropertyOp23
 70
     1
102
RTVSPropertyOp24
 70
     1
102
RTVSPropertyOp25
 70
     1
102
RTVSPropertyOp26
 70
     1
102
RTVSPropertyOp27
 70
     1
102
RTVSPropertyOp28
 70
     1
102
RTVSPropertyOp29
 70
     1
102
RTVSPropertyOp30
 70
     1
102
RTVSPropertyOp31
 70
     1
102
RTVSPropertyOp32
 70
     1
102
RTVSPropertyOp33
 70
     1
102
RTVSPropertyOp34
 70
     1
102
RTVSPropertyOp35
 70
     1
102
RTVSPropertyOp36
 70
     1
102
RTVSPropertyOp37
 70
     1
102
RTVSPropertyOp38
 70
     1
102
RTVSPropertyOp39
 70
     1
102
RTVSPropertyOp40
 70
     1
102
RTVSPropertyOp41
 70
     1
102
RTVSPropertyOp42
 70
     1
102
RTVSPropertyOp43
 70
     1
102
RTVSPropertyOp44
 70
     1
102
RTVSPropertyOp45
 70
     1
102
RTVSPropertyOp46
 70
     1
102
RTVSPropertyOp47
 70
     1
102
RTVSPropertyOp48
 70
     1
102
RTVSPropertyOp49
 70
     1
102
RTVSPropertyOp50
 70
     1
102
RTVSPropertyOp51
 70
     0
102
RTVSPropertyOp52
 70
     0
102
RTVSPropertyOp53
 70
     1
102
RTVSPropertyOp54
 70
     1
102
RTVSPropertyOp55
 70
     1
102
RTVSPropertyOp56
 70
     1
102
RTVSPropertyOp57
 70
     1
102
RTVSPropertyOp58
 70
     1
102
RTVSPropertyOp59
 70
     1
102
RTVSPropertyOp60
 70
     1
102
RTVSPropertyOp61
 70
     1
102
RTVSPropertyOp62
 70
     1
  0
XRECORD
  5
A13
102
{ACAD_REACTORS
330
A12
102
}
330
A12
100
AcDbXrecord
280
     1
102
RTVSPost2010Prop28
280
     0
102
RTVSPost2010PropOp28
 70
     1
102
RTVSPost2010Prop29
280
     1
102
RTVSPost2010PropOp29
 70
     1
102
RTVSPost2010Prop30
280
     1
102
RTVSPost2010PropOp30
 70
     1
102
RTVSPost2010Prop31
280
     0
102
RTVSPost2010PropOp31
 70
     1
102
RTVSPost2010Prop32
280
     0
102
RTVSPost2010PropOp32
 70
     1
102
RTVSPost2010Prop33
280
     0
102
RTVSPost2010PropOp33
 70
     1
102
RTVSPost2010Prop34
280
     0
102
RTVSPost2010PropOp34
 70
     1
102
RTVSPost2010Prop35
280
     0
102
RTVSPost2010PropOp35
 70
     1
102
RTVSPost2010Prop36
280
     0
102
RTVSPost2010PropOp36
 70
     1
102
RTVSPost2010Prop37
 90
       50
102
RTVSPost2010PropOp37
 70
     1
102
RTVSPost2010Prop38
140
0.0
102
RTVSPost2010PropOp38
 70
     1
102
RTVSPost2010Prop39
140
1.0
102
RTVSPost2010PropOp39
 70
     1
102
RTVSPost2010Prop40
 90
        0
102
RTVSPost2010PropOp40
 70
     1
102
RTVSPost2010Prop41ColorIndex
 90
       18
102
RTVSPost2010Prop41ColorRGB
 90
-16777216
102
RTVSPost2010PropOp41
 70
     1
102
RTVSPost2010Prop42
 90
       50
102
RTVSPost2010PropOp42
 70
     1
102
RTVSPost2010Prop43
 90
        3
102
RTVSPost2010PropOp43
 70
     1
102
RTVSPost2010Prop44ColorIndex
 90
        5
102
RTVSPost2010Prop44ColorRGB
 90
      255
102
RTVSPost2010PropOp44
 70
     1
102
RTVSPost2010Prop45
280
     0
102
RTVSPost2010PropOp45
 70
     1
102
RTVSPost2010Prop46
 90
       50
102
RTVSPost2010PropOp46
 70
     1
102
RTVSPost2010Prop47
 90
       50
102
RTVSPost2010PropOp47
 70
     1
102
RTVSPost2010Prop48
 90
       50
102
RTVSPost2010PropOp48
 70
     1
102
RTVSPost2010Prop49
280
     0
102
RTVSPost2010PropOp49
 70
     1
102
RTVSPost2010Prop50
 90
       50
102
RTVSPost2010PropOp50
 70
     1
102
RTVSPost2010Prop51ColorIndex
 90
      256
102
RTVSPost2010Prop51ColorRGB
 90
-16777216
102
RTVSPost2010PropOp51
 70
     0
102
RTVSPost2010Prop52
140
1.0
102
RTVSPost2010PropOp52
 70
     0
102
RTVSPost2010Prop53
 90
        2
102
RTVSPost2010PropOp53
 70
     1
102
RTVSPost2010Prop54
  1
strokes_ogs.tif
102
RTVSPost2010PropOp54
 70
     1
102
RTVSPost2010Prop55
280
     0
102
RTVSPost2010PropOp55
 70
     1
102
RTVSPost2010Prop56
140
1.0
102
RTVSPost2010PropOp56
 70
     1
102
RTVSPost2010Prop57
140
1.0
102
RTVSPost2010PropOp57
 70
     1
102
RTVSPropertyOp0
 70
     1
102
RTVSPropertyOp1
 70
     1
102
RTVSPropertyOp2
 70
     1
102
RTVSPropertyOp3
 70
     1
102
RTVSPropertyOp4
 70
     1
102
RTVSPropertyOp5
 70
     1
102
RTVSPropertyOp6
 70
     1
102
RTVSPropertyOp7
 70
     1
102
RTVSPropertyOp8
 70
     1
102
RTVSPropertyOp9
 70
     1
102
RTVSPropertyOp10
 70
     1
102
RTVSPropertyOp11
 70
     1
102
RTVSPropertyOp12
 70
     1
102
RTVSPropertyOp13
 70
     1
102
RTVSPropertyOp14
 70
     1
102
RTVSPropertyOp15
 70
     1
102
RTVSPropertyOp16
 70
     1
102
RTVSPropertyOp17
 70
     1
102
RTVSPropertyOp18
 70
     1
102
RTVSPropertyOp19
 70
     1
102
RTVSPropertyOp20
 70
     1
102
RTVSPropertyOp21
 70
     1
102
RTVSPropertyOp22
 70
     1
102
RTVSPropertyOp23
 70
     1
102
RTVSPropertyOp24
 70
     1
102
RTVSPropertyOp25
 70
     1
102
RTVSPropertyOp26
 70
     1
102
RTVSPropertyOp27
 70
     1
102
RTVSPropertyOp28
 70
     1
102
RTVSPropertyOp29
 70
     1
102
RTVSPropertyOp30
 70
     1
102
RTVSPropertyOp31
 70
     1
102
RTVSPropertyOp32
 70
     1
102
RTVSPropertyOp33
 70
     1
102
RTVSPropertyOp34
 70
     1
102
RTVSPropertyOp35
 70
     1
102
RTVSPropertyOp36
 70
     1
102
RTVSPropertyOp37
 70
     1
102
RTVSPropertyOp38
 70
     1
102
RTVSPropertyOp39
 70
     1
102
RTVSPropertyOp40
 70
     1
102
RTVSPropertyOp41
 70
     1
102
RTVSPropertyOp42
 70
     1
102
RTVSPropertyOp43
 70
     1
102
RTVSPropertyOp44
 70
     1
102
RTVSPropertyOp45
 70
     1
102
RTVSPropertyOp46
 70
     1
102
RTVSPropertyOp47
 70
     1
102
RTVSPropertyOp48
 70
     1
102
RTVSPropertyOp49
 70
     1
102
RTVSPropertyOp50
 70
     1
102
RTVSPropertyOp51
 70
     0
102
RTVSPropertyOp52
 70
     0
102
RTVSPropertyOp53
 70
     1
102
RTVSPropertyOp54
 70
     1
102
RTVSPropertyOp55
 70
     1
102
RTVSPropertyOp56
 70
     1
102
RTVSPropertyOp57
 70
     1
102
RTVSPropertyOp58
 70
     1
102
RTVSPropertyOp59
 70
     1
102
RTVSPropertyOp60
 70
     1
102
RTVSPropertyOp61
 70
     1
102
RTVSPropertyOp62
 70
     1
  0
XRECORD
  5
A1B
102
{ACAD_REACTORS
330
A1A
102
}
330
A1A
100
AcDbXrecord
280
     1
102
RTVSPost2010Prop28
280
     0
102
RTVSPost2010PropOp28
 70
     1
102
RTVSPost2010Prop29
280
     1
102
RTVSPost2010PropOp29
 70
     1
102
RTVSPost2010Prop30
280
     1
102
RTVSPost2010PropOp30
 70
     1
102
RTVSPost2010Prop31
280
     0
102
RTVSPost2010PropOp31
 70
     1
102
RTVSPost2010Prop32
280
     0
102
RTVSPost2010PropOp32
 70
     1
102
RTVSPost2010Prop33
280
     0
102
RTVSPost2010PropOp33
 70
     1
102
RTVSPost2010Prop34
280
     0
102
RTVSPost2010PropOp34
 70
     1
102
RTVSPost2010Prop35
280
     0
102
RTVSPost2010PropOp35
 70
     1
102
RTVSPost2010Prop36
280
     0
102
RTVSPost2010PropOp36
 70
     1
102
RTVSPost2010Prop37
 90
       50
102
RTVSPost2010PropOp37
 70
     1
102
RTVSPost2010Prop38
140
0.0
102
RTVSPost2010PropOp38
 70
     1
102
RTVSPost2010Prop39
140
1.0
102
RTVSPost2010PropOp39
 70
     1
102
RTVSPost2010Prop40
 90
        0
102
RTVSPost2010PropOp40
 70
     1
102
RTVSPost2010Prop41ColorIndex
 90
       18
102
RTVSPost2010Prop41ColorRGB
 90
-16777216
102
RTVSPost2010PropOp41
 70
     1
102
RTVSPost2010Prop42
 90
       50
102
RTVSPost2010PropOp42
 70
     1
102
RTVSPost2010Prop43
 90
        3
102
RTVSPost2010PropOp43
 70
     1
102
RTVSPost2010Prop44ColorIndex
 90
        5
102
RTVSPost2010Prop44ColorRGB
 90
      255
102
RTVSPost2010PropOp44
 70
     1
102
RTVSPost2010Prop45
280
     0
102
RTVSPost2010PropOp45
 70
     1
102
RTVSPost2010Prop46
 90
       50
102
RTVSPost2010PropOp46
 70
     1
102
RTVSPost2010Prop47
 90
       50
102
RTVSPost2010PropOp47
 70
     1
102
RTVSPost2010Prop48
 90
       50
102
RTVSPost2010PropOp48
 70
     1
102
RTVSPost2010Prop49
280
     0
102
RTVSPost2010PropOp49
 70
     1
102
RTVSPost2010Prop50
 90
       50
102
RTVSPost2010PropOp50
 70
     1
102
RTVSPost2010Prop51ColorIndex
 90
      256
102
RTVSPost2010Prop51ColorRGB
 90
-16777216
102
RTVSPost2010PropOp51
 70
     0
102
RTVSPost2010Prop52
140
1.0
102
RTVSPost2010PropOp52
 70
     0
102
RTVSPost2010Prop53
 90
        2
102
RTVSPost2010PropOp53
 70
     1
102
RTVSPost2010Prop54
  1
strokes_ogs.tif
102
RTVSPost2010PropOp54
 70
     1
102
RTVSPost2010Prop55
280
     0
102
RTVSPost2010PropOp55
 70
     1
102
RTVSPost2010Prop56
140
1.0
102
RTVSPost2010PropOp56
 70
     1
102
RTVSPost2010Prop57
140
1.0
102
RTVSPost2010PropOp57
 70
     1
102
RTVSPropertyOp0
 70
     1
102
RTVSPropertyOp1
 70
     1
102
RTVSPropertyOp2
 70
     1
102
RTVSPropertyOp3
 70
     1
102
RTVSPropertyOp4
 70
     1
102
RTVSPropertyOp5
 70
     1
102
RTVSPropertyOp6
 70
     1
102
RTVSPropertyOp7
 70
     1
102
RTVSPropertyOp8
 70
     1
102
RTVSPropertyOp9
 70
     1
102
RTVSPropertyOp10
 70
     1
102
RTVSPropertyOp11
 70
     1
102
RTVSPropertyOp12
 70
     1
102
RTVSPropertyOp13
 70
     1
102
RTVSPropertyOp14
 70
     1
102
RTVSPropertyOp15
 70
     1
102
RTVSPropertyOp16
 70
     1
102
RTVSPropertyOp17
 70
     1
102
RTVSPropertyOp18
 70
     1
102
RTVSPropertyOp19
 70
     1
102
RTVSPropertyOp20
 70
     1
102
RTVSPropertyOp21
 70
     1
102
RTVSPropertyOp22
 70
     1
102
RTVSPropertyOp23
 70
     1
102
RTVSPropertyOp24
 70
     1
102
RTVSPropertyOp25
 70
     1
102
RTVSPropertyOp26
 70
     1
102
RTVSPropertyOp27
 70
     1
102
RTVSPropertyOp28
 70
     1
102
RTVSPropertyOp29
 70
     1
102
RTVSPropertyOp30
 70
     1
102
RTVSPropertyOp31
 70
     1
102
RTVSPropertyOp32
 70
     1
102
RTVSPropertyOp33
 70
     1
102
RTVSPropertyOp34
 70
     1
102
RTVSPropertyOp35
 70
     1
102
RTVSPropertyOp36
 70
     1
102
RTVSPropertyOp37
 70
     1
102
RTVSPropertyOp38
 70
     1
102
RTVSPropertyOp39
 70
     1
102
RTVSPropertyOp40
 70
     1
102
RTVSPropertyOp41
 70
     1
102
RTVSPropertyOp42
 70
     1
102
RTVSPropertyOp43
 70
     1
102
RTVSPropertyOp44
 70
     1
102
RTVSPropertyOp45
 70
     1
102
RTVSPropertyOp46
 70
     1
102
RTVSPropertyOp47
 70
     1
102
RTVSPropertyOp48
 70
     1
102
RTVSPropertyOp49
 70
     1
102
RTVSPropertyOp50
 70
     1
102
RTVSPropertyOp51
 70
     0
102
RTVSPropertyOp52
 70
     0
102
RTVSPropertyOp53
 70
     1
102
RTVSPropertyOp54
 70
     1
102
RTVSPropertyOp55
 70
     1
102
RTVSPropertyOp56
 70
     1
102
RTVSPropertyOp57
 70
     1
102
RTVSPropertyOp58
 70
     1
102
RTVSPropertyOp59
 70
     1
102
RTVSPropertyOp60
 70
     1
102
RTVSPropertyOp61
 70
     1
102
RTVSPropertyOp62
 70
     1
  0
XRECORD
  5
A0D
102
{ACAD_REACTORS
330
A0C
102
}
330
A0C
100
AcDbXrecord
280
     1
102
RTVSPost2010Prop28
280
     0
102
RTVSPost2010PropOp28
 70
     1
102
RTVSPost2010Prop29
280
     1
102
RTVSPost2010PropOp29
 70
     1
102
RTVSPost2010Prop30
280
     1
102
RTVSPost2010PropOp30
 70
     1
102
RTVSPost2010Prop31
280
     0
102
RTVSPost2010PropOp31
 70
     1
102
RTVSPost2010Prop32
280
     0
102
RTVSPost2010PropOp32
 70
     1
102
RTVSPost2010Prop33
280
     0
102
RTVSPost2010PropOp33
 70
     1
102
RTVSPost2010Prop34
280
     0
102
RTVSPost2010PropOp34
 70
     1
102
RTVSPost2010Prop35
280
     0
102
RTVSPost2010PropOp35
 70
     1
102
RTVSPost2010Prop36
280
     0
102
RTVSPost2010PropOp36
 70
     1
102
RTVSPost2010Prop37
 90
       50
102
RTVSPost2010PropOp37
 70
     1
102
RTVSPost2010Prop38
140
0.0
102
RTVSPost2010PropOp38
 70
     1
102
RTVSPost2010Prop39
140
1.0
102
RTVSPost2010PropOp39
 70
     1
102
RTVSPost2010Prop40
 90
        0
102
RTVSPost2010PropOp40
 70
     1
102
RTVSPost2010Prop41ColorIndex
 90
       18
102
RTVSPost2010Prop41ColorRGB
 90
-16777216
102
RTVSPost2010PropOp41
 70
     1
102
RTVSPost2010Prop42
 90
       50
102
RTVSPost2010PropOp42
 70
     1
102
RTVSPost2010Prop43
 90
        3
102
RTVSPost2010PropOp43
 70
     1
102
RTVSPost2010Prop44ColorIndex
 90
        5
102
RTVSPost2010Prop44ColorRGB
 90
      255
102
RTVSPost2010PropOp44
 70
     1
102
RTVSPost2010Prop45
280
     0
102
RTVSPost2010PropOp45
 70
     1
102
RTVSPost2010Prop46
 90
       50
102
RTVSPost2010PropOp46
 70
     1
102
RTVSPost2010Prop47
 90
       50
102
RTVSPost2010PropOp47
 70
     1
102
RTVSPost2010Prop48
 90
       50
102
RTVSPost2010PropOp48
 70
     1
102
RTVSPost2010Prop49
280
     0
102
RTVSPost2010PropOp49
 70
     1
102
RTVSPost2010Prop50
 90
       50
102
RTVSPost2010PropOp50
 70
     1
102
RTVSPost2010Prop51ColorIndex
 90
      256
102
RTVSPost2010Prop51ColorRGB
 90
-16777216
102
RTVSPost2010PropOp51
 70
     0
102
RTVSPost2010Prop52
140
1.0
102
RTVSPost2010PropOp52
 70
     0
102
RTVSPost2010Prop53
 90
        2
102
RTVSPost2010PropOp53
 70
     1
102
RTVSPost2010Prop54
  1
strokes_ogs.tif
102
RTVSPost2010PropOp54
 70
     1
102
RTVSPost2010Prop55
280
     0
102
RTVSPost2010PropOp55
 70
     1
102
RTVSPost2010Prop56
140
1.0
102
RTVSPost2010PropOp56
 70
     1
102
RTVSPost2010Prop57
140
1.0
102
RTVSPost2010PropOp57
 70
     1
102
RTVSPropertyOp0
 70
     1
102
RTVSPropertyOp1
 70
     1
102
RTVSPropertyOp2
 70
     1
102
RTVSPropertyOp3
 70
     1
102
RTVSPropertyOp4
 70
     1
102
RTVSPropertyOp5
 70
     1
102
RTVSPropertyOp6
 70
     1
102
RTVSPropertyOp7
 70
     1
102
RTVSPropertyOp8
 70
     1
102
RTVSPropertyOp9
 70
     1
102
RTVSPropertyOp10
 70
     1
102
RTVSPropertyOp11
 70
     1
102
RTVSPropertyOp12
 70
     1
102
RTVSPropertyOp13
 70
     1
102
RTVSPropertyOp14
 70
     1
102
RTVSPropertyOp15
 70
     1
102
RTVSPropertyOp16
 70
     1
102
RTVSPropertyOp17
 70
     1
102
RTVSPropertyOp18
 70
     1
102
RTVSPropertyOp19
 70
     1
102
RTVSPropertyOp20
 70
     1
102
RTVSPropertyOp21
 70
     1
102
RTVSPropertyOp22
 70
     1
102
RTVSPropertyOp23
 70
     1
102
RTVSPropertyOp24
 70
     1
102
RTVSPropertyOp25
 70
     1
102
RTVSPropertyOp26
 70
     1
102
RTVSPropertyOp27
 70
     1
102
RTVSPropertyOp28
 70
     1
102
RTVSPropertyOp29
 70
     1
102
RTVSPropertyOp30
 70
     1
102
RTVSPropertyOp31
 70
     1
102
RTVSPropertyOp32
 70
     1
102
RTVSPropertyOp33
 70
     1
102
RTVSPropertyOp34
 70
     1
102
RTVSPropertyOp35
 70
     1
102
RTVSPropertyOp36
 70
     1
102
RTVSPropertyOp37
 70
     1
102
RTVSPropertyOp38
 70
     1
102
RTVSPropertyOp39
 70
     1
102
RTVSPropertyOp40
 70
     1
102
RTVSPropertyOp41
 70
     1
102
RTVSPropertyOp42
 70
     1
102
RTVSPropertyOp43
 70
     1
102
RTVSPropertyOp44
 70
     1
102
RTVSPropertyOp45
 70
     1
102
RTVSPropertyOp46
 70
     1
102
RTVSPropertyOp47
 70
     1
102
RTVSPropertyOp48
 70
     1
102
RTVSPropertyOp49
 70
     1
102
RTVSPropertyOp50
 70
     1
102
RTVSPropertyOp51
 70
     0
102
RTVSPropertyOp52
 70
     0
102
RTVSPropertyOp53
 70
     1
102
RTVSPropertyOp54
 70
     1
102
RTVSPropertyOp55
 70
     1
102
RTVSPropertyOp56
 70
     1
102
RTVSPropertyOp57
 70
     1
102
RTVSPropertyOp58
 70
     1
102
RTVSPropertyOp59
 70
     1
102
RTVSPropertyOp60
 70
     1
102
RTVSPropertyOp61
 70
     1
102
RTVSPropertyOp62
 70
     1
  0
XRECORD
  5
A11
102
{ACAD_REACTORS
330
A10
102
}
330
A10
100
AcDbXrecord
280
     1
102
RTVSPost2010Prop28
280
     0
102
RTVSPost2010PropOp28
 70
     1
102
RTVSPost2010Prop29
280
     1
102
RTVSPost2010PropOp29
 70
     1
102
RTVSPost2010Prop30
280
     1
102
RTVSPost2010PropOp30
 70
     1
102
RTVSPost2010Prop31
280
     0
102
RTVSPost2010PropOp31
 70
     1
102
RTVSPost2010Prop32
280
     0
102
RTVSPost2010PropOp32
 70
     1
102
RTVSPost2010Prop33
280
     0
102
RTVSPost2010PropOp33
 70
     1
102
RTVSPost2010Prop34
280
     0
102
RTVSPost2010PropOp34
 70
     1
102
RTVSPost2010Prop35
280
     0
102
RTVSPost2010PropOp35
 70
     1
102
RTVSPost2010Prop36
280
     0
102
RTVSPost2010PropOp36
 70
     1
102
RTVSPost2010Prop37
 90
       50
102
RTVSPost2010PropOp37
 70
     1
102
RTVSPost2010Prop38
140
0.0
102
RTVSPost2010PropOp38
 70
     1
102
RTVSPost2010Prop39
140
1.0
102
RTVSPost2010PropOp39
 70
     1
102
RTVSPost2010Prop40
 90
        0
102
RTVSPost2010PropOp40
 70
     1
102
RTVSPost2010Prop41ColorIndex
 90
       18
102
RTVSPost2010Prop41ColorRGB
 90
-16777216
102
RTVSPost2010PropOp41
 70
     1
102
RTVSPost2010Prop42
 90
       50
102
RTVSPost2010PropOp42
 70
     1
102
RTVSPost2010Prop43
 90
        3
102
RTVSPost2010PropOp43
 70
     1
102
RTVSPost2010Prop44ColorIndex
 90
        5
102
RTVSPost2010Prop44ColorRGB
 90
      255
102
RTVSPost2010PropOp44
 70
     1
102
RTVSPost2010Prop45
280
     0
102
RTVSPost2010PropOp45
 70
     1
102
RTVSPost2010Prop46
 90
       50
102
RTVSPost2010PropOp46
 70
     1
102
RTVSPost2010Prop47
 90
       50
102
RTVSPost2010PropOp47
 70
     1
102
RTVSPost2010Prop48
 90
       50
102
RTVSPost2010PropOp48
 70
     1
102
RTVSPost2010Prop49
280
     0
102
RTVSPost2010PropOp49
 70
     1
102
RTVSPost2010Prop50
 90
       50
102
RTVSPost2010PropOp50
 70
     1
102
RTVSPost2010Prop51ColorIndex
 90
      256
102
RTVSPost2010Prop51ColorRGB
 90
-16777216
102
RTVSPost2010PropOp51
 70
     0
102
RTVSPost2010Prop52
140
1.0
102
RTVSPost2010PropOp52
 70
     0
102
RTVSPost2010Prop53
 90
        2
102
RTVSPost2010PropOp53
 70
     1
102
RTVSPost2010Prop54
  1
strokes_ogs.tif
102
RTVSPost2010PropOp54
 70
     1
102
RTVSPost2010Prop55
280
     0
102
RTVSPost2010PropOp55
 70
     1
102
RTVSPost2010Prop56
140
1.0
102
RTVSPost2010PropOp56
 70
     1
102
RTVSPost2010Prop57
140
1.0
102
RTVSPost2010PropOp57
 70
     1
102
RTVSPropertyOp0
 70
     1
102
RTVSPropertyOp1
 70
     1
102
RTVSPropertyOp2
 70
     1
102
RTVSPropertyOp3
 70
     1
102
RTVSPropertyOp4
 70
     1
102
RTVSPropertyOp5
 70
     1
102
RTVSPropertyOp6
 70
     1
102
RTVSPropertyOp7
 70
     1
102
RTVSPropertyOp8
 70
     1
102
RTVSPropertyOp9
 70
     1
102
RTVSPropertyOp10
 70
     1
102
RTVSPropertyOp11
 70
     1
102
RTVSPropertyOp12
 70
     1
102
RTVSPropertyOp13
 70
     1
102
RTVSPropertyOp14
 70
     1
102
RTVSPropertyOp15
 70
     1
102
RTVSPropertyOp16
 70
     1
102
RTVSPropertyOp17
 70
     1
102
RTVSPropertyOp18
 70
     1
102
RTVSPropertyOp19
 70
     1
102
RTVSPropertyOp20
 70
     1
102
RTVSPropertyOp21
 70
     1
102
RTVSPropertyOp22
 70
     1
102
RTVSPropertyOp23
 70
     1
102
RTVSPropertyOp24
 70
     1
102
RTVSPropertyOp25
 70
     1
102
RTVSPropertyOp26
 70
     1
102
RTVSPropertyOp27
 70
     1
102
RTVSPropertyOp28
 70
     1
102
RTVSPropertyOp29
 70
     1
102
RTVSPropertyOp30
 70
     1
102
RTVSPropertyOp31
 70
     1
102
RTVSPropertyOp32
 70
     1
102
RTVSPropertyOp33
 70
     1
102
RTVSPropertyOp34
 70
     1
102
RTVSPropertyOp35
 70
     1
102
RTVSPropertyOp36
 70
     1
102
RTVSPropertyOp37
 70
     1
102
RTVSPropertyOp38
 70
     1
102
RTVSPropertyOp39
 70
     1
102
RTVSPropertyOp40
 70
     1
102
RTVSPropertyOp41
 70
     1
102
RTVSPropertyOp42
 70
     1
102
RTVSPropertyOp43
 70
     1
102
RTVSPropertyOp44
 70
     1
102
RTVSPropertyOp45
 70
     1
102
RTVSPropertyOp46
 70
     1
102
RTVSPropertyOp47
 70
     1
102
RTVSPropertyOp48
 70
     1
102
RTVSPropertyOp49
 70
     1
102
RTVSPropertyOp50
 70
     1
102
RTVSPropertyOp51
 70
     0
102
RTVSPropertyOp52
 70
     0
102
RTVSPropertyOp53
 70
     1
102
RTVSPropertyOp54
 70
     1
102
RTVSPropertyOp55
 70
     1
102
RTVSPropertyOp56
 70
     1
102
RTVSPropertyOp57
 70
     1
102
RTVSPropertyOp58
 70
     1
102
RTVSPropertyOp59
 70
     1
102
RTVSPropertyOp60
 70
     1
102
RTVSPropertyOp61
 70
     1
102
RTVSPropertyOp62
 70
     1
  0
XRECORD
  5
A2B
102
{ACAD_REACTORS
330
A2A
102
}
330
A2A
100
AcDbXrecord
280
     1
102
RTVSPost2010Prop28
280
     0
102
RTVSPost2010PropOp28
 70
     0
102
RTVSPost2010Prop29
280
     1
102
RTVSPost2010PropOp29
 70
     0
102
RTVSPost2010Prop30
280
     1
102
RTVSPost2010PropOp30
 70
     0
102
RTVSPost2010Prop31
280
     0
102
RTVSPost2010PropOp31
 70
     0
102
RTVSPost2010Prop32
280
     0
102
RTVSPost2010PropOp32
 70
     0
102
RTVSPost2010Prop33
280
     0
102
RTVSPost2010PropOp33
 70
     0
102
RTVSPost2010Prop34
280
     0
102
RTVSPost2010PropOp34
 70
     0
102
RTVSPost2010Prop35
280
     0
102
RTVSPost2010PropOp35
 70
     0
102
RTVSPost2010Prop36
280
     0
102
RTVSPost2010PropOp36
 70
     0
102
RTVSPost2010Prop37
 90
       50
102
RTVSPost2010PropOp37
 70
     0
102
RTVSPost2010Prop38
140
0.0
102
RTVSPost2010PropOp38
 70
     0
102
RTVSPost2010Prop39
140
1.0
102
RTVSPost2010PropOp39
 70
     0
102
RTVSPost2010Prop40
 90
        0
102
RTVSPost2010PropOp40
 70
     0
102
RTVSPost2010Prop41ColorIndex
 90
       18
102
RTVSPost2010Prop41ColorRGB
 90
-16777216
102
RTVSPost2010PropOp41
 70
     0
102
RTVSPost2010Prop42
 90
       50
102
RTVSPost2010PropOp42
 70
     0
102
RTVSPost2010Prop43
 90
        3
102
RTVSPost2010PropOp43
 70
     0
102
RTVSPost2010Prop44ColorIndex
 90
        5
102
RTVSPost2010Prop44ColorRGB
 90
      255
102
RTVSPost2010PropOp44
 70
     0
102
RTVSPost2010Prop45
280
     0
102
RTVSPost2010PropOp45
 70
     0
102
RTVSPost2010Prop46
 90
       50
102
RTVSPost2010PropOp46
 70
     0
102
RTVSPost2010Prop47
 90
       50
102
RTVSPost2010PropOp47
 70
     0
102
RTVSPost2010Prop48
 90
       50
102
RTVSPost2010PropOp48
 70
     0
102
RTVSPost2010Prop49
280
     0
102
RTVSPost2010PropOp49
 70
     0
102
RTVSPost2010Prop50
 90
       50
102
RTVSPost2010PropOp50
 70
     0
102
RTVSPost2010Prop51ColorIndex
 90
      256
102
RTVSPost2010Prop51ColorRGB
 90
-16777216
102
RTVSPost2010PropOp51
 70
     0
102
RTVSPost2010Prop52
140
1.0
102
RTVSPost2010PropOp52
 70
     0
102
RTVSPost2010Prop53
 90
        2
102
RTVSPost2010PropOp53
 70
     0
102
RTVSPost2010Prop54
  1
strokes_ogs.tif
102
RTVSPost2010PropOp54
 70
     0
102
RTVSPost2010Prop55
280
     0
102
RTVSPost2010PropOp55
 70
     0
102
RTVSPost2010Prop56
140
1.0
102
RTVSPost2010PropOp56
 70
     0
102
RTVSPost2010Prop57
140
1.0
102
RTVSPost2010PropOp57
 70
     0
102
RTVSPropertyOp0
 70
     0
102
RTVSPropertyOp1
 70
     0
102
RTVSPropertyOp2
 70
     0
102
RTVSPropertyOp3
 70
     0
102
RTVSPropertyOp4
 70
     0
102
RTVSPropertyOp5
 70
     0
102
RTVSPropertyOp6
 70
     0
102
RTVSPropertyOp7
 70
     0
102
RTVSPropertyOp8
 70
     0
102
RTVSPropertyOp9
 70
     0
102
RTVSPropertyOp10
 70
     0
102
RTVSPropertyOp11
 70
     0
102
RTVSPropertyOp12
 70
     0
102
RTVSPropertyOp13
 70
     0
102
RTVSPropertyOp14
 70
     2
102
RTVSPropertyOp15
 70
     0
102
RTVSPropertyOp16
 70
     0
102
RTVSPropertyOp17
 70
     0
102
RTVSPropertyOp18
 70
     0
102
RTVSPropertyOp19
 70
     0
102
RTVSPropertyOp20
 70
     0
102
RTVSPropertyOp21
 70
     0
102
RTVSPropertyOp22
 70
     0
102
RTVSPropertyOp23
 70
     0
102
RTVSPropertyOp24
 70
     0
102
RTVSPropertyOp25
 70
     0
102
RTVSPropertyOp26
 70
     0
102
RTVSPropertyOp27
 70
     0
102
RTVSPropertyOp28
 70
     0
102
RTVSPropertyOp29
 70
     0
102
RTVSPropertyOp30
 70
     0
102
RTVSPropertyOp31
 70
     0
102
RTVSPropertyOp32
 70
     0
102
RTVSPropertyOp33
 70
     0
102
RTVSPropertyOp34
 70
     0
102
RTVSPropertyOp35
 70
     0
102
RTVSPropertyOp36
 70
     0
102
RTVSPropertyOp37
 70
     0
102
RTVSPropertyOp38
 70
     0
102
RTVSPropertyOp39
 70
     0
102
RTVSPropertyOp40
 70
     0
102
RTVSPropertyOp41
 70
     0
102
RTVSPropertyOp42
 70
     0
102
RTVSPropertyOp43
 70
     0
102
RTVSPropertyOp44
 70
     0
102
RTVSPropertyOp45
 70
     0
102
RTVSPropertyOp46
 70
     0
102
RTVSPropertyOp47
 70
     0
102
RTVSPropertyOp48
 70
     0
102
RTVSPropertyOp49
 70
     0
102
RTVSPropertyOp50
 70
     0
102
RTVSPropertyOp51
 70
     0
102
RTVSPropertyOp52
 70
     0
102
RTVSPropertyOp53
 70
     0
102
RTVSPropertyOp54
 70
     0
102
RTVSPropertyOp55
 70
     0
102
RTVSPropertyOp56
 70
     0
102
RTVSPropertyOp57
 70
     0
102
RTVSPropertyOp58
 70
     1
102
RTVSPropertyOp59
 70
     1
102
RTVSPropertyOp60
 70
     1
102
RTVSPropertyOp61
 70
     1
102
RTVSPropertyOp62
 70
     1
  0
XRECORD
  5
A19
102
{ACAD_REACTORS
330
A18
102
}
330
A18
100
AcDbXrecord
280
     1
102
RTVSPost2010Prop28
280
     0
102
RTVSPost2010PropOp28
 70
     1
102
RTVSPost2010Prop29
280
     1
102
RTVSPost2010PropOp29
 70
     1
102
RTVSPost2010Prop30
280
     1
102
RTVSPost2010PropOp30
 70
     1
102
RTVSPost2010Prop31
280
     0
102
RTVSPost2010PropOp31
 70
     1
102
RTVSPost2010Prop32
280
     0
102
RTVSPost2010PropOp32
 70
     1
102
RTVSPost2010Prop33
280
     0
102
RTVSPost2010PropOp33
 70
     1
102
RTVSPost2010Prop34
280
     0
102
RTVSPost2010PropOp34
 70
     1
102
RTVSPost2010Prop35
280
     0
102
RTVSPost2010PropOp35
 70
     1
102
RTVSPost2010Prop36
280
     0
102
RTVSPost2010PropOp36
 70
     1
102
RTVSPost2010Prop37
 90
       50
102
RTVSPost2010PropOp37
 70
     1
102
RTVSPost2010Prop38
140
0.0
102
RTVSPost2010PropOp38
 70
     1
102
RTVSPost2010Prop39
140
1.0
102
RTVSPost2010PropOp39
 70
     1
102
RTVSPost2010Prop40
 90
        0
102
RTVSPost2010PropOp40
 70
     1
102
RTVSPost2010Prop41ColorIndex
 90
       18
102
RTVSPost2010Prop41ColorRGB
 90
-16777216
102
RTVSPost2010PropOp41
 70
     1
102
RTVSPost2010Prop42
 90
       50
102
RTVSPost2010PropOp42
 70
     1
102
RTVSPost2010Prop43
 90
        3
102
RTVSPost2010PropOp43
 70
     1
102
RTVSPost2010Prop44ColorIndex
 90
        5
102
RTVSPost2010Prop44ColorRGB
 90
      255
102
RTVSPost2010PropOp44
 70
     1
102
RTVSPost2010Prop45
280
     0
102
RTVSPost2010PropOp45
 70
     1
102
RTVSPost2010Prop46
 90
       50
102
RTVSPost2010PropOp46
 70
     1
102
RTVSPost2010Prop47
 90
       50
102
RTVSPost2010PropOp47
 70
     1
102
RTVSPost2010Prop48
 90
       50
102
RTVSPost2010PropOp48
 70
     1
102
RTVSPost2010Prop49
280
     0
102
RTVSPost2010PropOp49
 70
     1
102
RTVSPost2010Prop50
 90
       50
102
RTVSPost2010PropOp50
 70
     1
102
RTVSPost2010Prop51ColorIndex
 90
      256
102
RTVSPost2010Prop51ColorRGB
 90
-16777216
102
RTVSPost2010PropOp51
 70
     0
102
RTVSPost2010Prop52
140
1.0
102
RTVSPost2010PropOp52
 70
     0
102
RTVSPost2010Prop53
 90
        2
102
RTVSPost2010PropOp53
 70
     1
102
RTVSPost2010Prop54
  1
strokes_ogs.tif
102
RTVSPost2010PropOp54
 70
     1
102
RTVSPost2010Prop55
280
     0
102
RTVSPost2010PropOp55
 70
     1
102
RTVSPost2010Prop56
140
1.0
102
RTVSPost2010PropOp56
 70
     1
102
RTVSPost2010Prop57
140
1.0
102
RTVSPost2010PropOp57
 70
     1
102
RTVSPropertyOp0
 70
     1
102
RTVSPropertyOp1
 70
     1
102
RTVSPropertyOp2
 70
     1
102
RTVSPropertyOp3
 70
     1
102
RTVSPropertyOp4
 70
     1
102
RTVSPropertyOp5
 70
     1
102
RTVSPropertyOp6
 70
     1
102
RTVSPropertyOp7
 70
     1
102
RTVSPropertyOp8
 70
     1
102
RTVSPropertyOp9
 70
     1
102
RTVSPropertyOp10
 70
     1
102
RTVSPropertyOp11
 70
     1
102
RTVSPropertyOp12
 70
     1
102
RTVSPropertyOp13
 70
     1
102
RTVSPropertyOp14
 70
     1
102
RTVSPropertyOp15
 70
     1
102
RTVSPropertyOp16
 70
     1
102
RTVSPropertyOp17
 70
     1
102
RTVSPropertyOp18
 70
     1
102
RTVSPropertyOp19
 70
     1
102
RTVSPropertyOp20
 70
     1
102
RTVSPropertyOp21
 70
     1
102
RTVSPropertyOp22
 70
     1
102
RTVSPropertyOp23
 70
     1
102
RTVSPropertyOp24
 70
     1
102
RTVSPropertyOp25
 70
     1
102
RTVSPropertyOp26
 70
     1
102
RTVSPropertyOp27
 70
     1
102
RTVSPropertyOp28
 70
     1
102
RTVSPropertyOp29
 70
     1
102
RTVSPropertyOp30
 70
     1
102
RTVSPropertyOp31
 70
     1
102
RTVSPropertyOp32
 70
     1
102
RTVSPropertyOp33
 70
     1
102
RTVSPropertyOp34
 70
     1
102
RTVSPropertyOp35
 70
     1
102
RTVSPropertyOp36
 70
     1
102
RTVSPropertyOp37
 70
     1
102
RTVSPropertyOp38
 70
     1
102
RTVSPropertyOp39
 70
     1
102
RTVSPropertyOp40
 70
     1
102
RTVSPropertyOp41
 70
     1
102
RTVSPropertyOp42
 70
     1
102
RTVSPropertyOp43
 70
     1
102
RTVSPropertyOp44
 70
     1
102
RTVSPropertyOp45
 70
     1
102
RTVSPropertyOp46
 70
     1
102
RTVSPropertyOp47
 70
     1
102
RTVSPropertyOp48
 70
     1
102
RTVSPropertyOp49
 70
     1
102
RTVSPropertyOp50
 70
     1
102
RTVSPropertyOp51
 70
     0
102
RTVSPropertyOp52
 70
     0
102
RTVSPropertyOp53
 70
     1
102
RTVSPropertyOp54
 70
     1
102
RTVSPropertyOp55
 70
     1
102
RTVSPropertyOp56
 70
     1
102
RTVSPropertyOp57
 70
     1
102
RTVSPropertyOp58
 70
     1
102
RTVSPropertyOp59
 70
     1
102
RTVSPropertyOp60
 70
     1
102
RTVSPropertyOp61
 70
     1
102
RTVSPropertyOp62
 70
     1
  0
XRECORD
  5
9FD
102
{ACAD_REACTORS
330
9FC
102
}
330
9FC
100
AcDbXrecord
280
     1
102
RTVSPost2010Prop28
280
     0
102
RTVSPost2010PropOp28
 70
     1
102
RTVSPost2010Prop29
280
     1
102
RTVSPost2010PropOp29
 70
     1
102
RTVSPost2010Prop30
280
     1
102
RTVSPost2010PropOp30
 70
     1
102
RTVSPost2010Prop31
280
     0
102
RTVSPost2010PropOp31
 70
     1
102
RTVSPost2010Prop32
280
     0
102
RTVSPost2010PropOp32
 70
     1
102
RTVSPost2010Prop33
280
     0
102
RTVSPost2010PropOp33
 70
     1
102
RTVSPost2010Prop34
280
     0
102
RTVSPost2010PropOp34
 70
     1
102
RTVSPost2010Prop35
280
     0
102
RTVSPost2010PropOp35
 70
     1
102
RTVSPost2010Prop36
280
     0
102
RTVSPost2010PropOp36
 70
     1
102
RTVSPost2010Prop37
 90
       50
102
RTVSPost2010PropOp37
 70
     1
102
RTVSPost2010Prop38
140
0.0
102
RTVSPost2010PropOp38
 70
     1
102
RTVSPost2010Prop39
140
1.0
102
RTVSPost2010PropOp39
 70
     1
102
RTVSPost2010Prop40
 90
        0
102
RTVSPost2010PropOp40
 70
     1
102
RTVSPost2010Prop41ColorIndex
 90
       18
102
RTVSPost2010Prop41ColorRGB
 90
-16777216
102
RTVSPost2010PropOp41
 70
     1
102
RTVSPost2010Prop42
 90
       50
102
RTVSPost2010PropOp42
 70
     1
102
RTVSPost2010Prop43
 90
        3
102
RTVSPost2010PropOp43
 70
     1
102
RTVSPost2010Prop44ColorIndex
 90
        5
102
RTVSPost2010Prop44ColorRGB
 90
      255
102
RTVSPost2010PropOp44
 70
     1
102
RTVSPost2010Prop45
280
     0
102
RTVSPost2010PropOp45
 70
     1
102
RTVSPost2010Prop46
 90
       50
102
RTVSPost2010PropOp46
 70
     1
102
RTVSPost2010Prop47
 90
       50
102
RTVSPost2010PropOp47
 70
     1
102
RTVSPost2010Prop48
 90
       50
102
RTVSPost2010PropOp48
 70
     1
102
RTVSPost2010Prop49
280
     0
102
RTVSPost2010PropOp49
 70
     1
102
RTVSPost2010Prop50
 90
       50
102
RTVSPost2010PropOp50
 70
     1
102
RTVSPost2010Prop51ColorIndex
 90
      256
102
RTVSPost2010Prop51ColorRGB
 90
-16777216
102
RTVSPost2010PropOp51
 70
     0
102
RTVSPost2010Prop52
140
1.0
102
RTVSPost2010PropOp52
 70
     0
102
RTVSPost2010Prop53
 90
        2
102
RTVSPost2010PropOp53
 70
     1
102
RTVSPost2010Prop54
  1
strokes_ogs.tif
102
RTVSPost2010PropOp54
 70
     1
102
RTVSPost2010Prop55
280
     0
102
RTVSPost2010PropOp55
 70
     1
102
RTVSPost2010Prop56
140
1.0
102
RTVSPost2010PropOp56
 70
     1
102
RTVSPost2010Prop57
140
1.0
102
RTVSPost2010PropOp57
 70
     1
102
RTVSPropertyOp0
 70
     1
102
RTVSPropertyOp1
 70
     1
102
RTVSPropertyOp2
 70
     1
102
RTVSPropertyOp3
 70
     1
102
RTVSPropertyOp4
 70
     1
102
RTVSPropertyOp5
 70
     1
102
RTVSPropertyOp6
 70
     1
102
RTVSPropertyOp7
 70
     1
102
RTVSPropertyOp8
 70
     1
102
RTVSPropertyOp9
 70
     1
102
RTVSPropertyOp10
 70
     1
102
RTVSPropertyOp11
 70
     1
102
RTVSPropertyOp12
 70
     1
102
RTVSPropertyOp13
 70
     1
102
RTVSPropertyOp14
 70
     1
102
RTVSPropertyOp15
 70
     1
102
RTVSPropertyOp16
 70
     1
102
RTVSPropertyOp17
 70
     1
102
RTVSPropertyOp18
 70
     1
102
RTVSPropertyOp19
 70
     1
102
RTVSPropertyOp20
 70
     1
102
RTVSPropertyOp21
 70
     1
102
RTVSPropertyOp22
 70
     1
102
RTVSPropertyOp23
 70
     1
102
RTVSPropertyOp24
 70
     1
102
RTVSPropertyOp25
 70
     1
102
RTVSPropertyOp26
 70
     1
102
RTVSPropertyOp27
 70
     1
102
RTVSPropertyOp28
 70
     1
102
RTVSPropertyOp29
 70
     1
102
RTVSPropertyOp30
 70
     1
102
RTVSPropertyOp31
 70
     1
102
RTVSPropertyOp32
 70
     1
102
RTVSPropertyOp33
 70
     1
102
RTVSPropertyOp34
 70
     1
102
RTVSPropertyOp35
 70
     1
102
RTVSPropertyOp36
 70
     1
102
RTVSPropertyOp37
 70
     1
102
RTVSPropertyOp38
 70
     1
102
RTVSPropertyOp39
 70
     1
102
RTVSPropertyOp40
 70
     1
102
RTVSPropertyOp41
 70
     1
102
RTVSPropertyOp42
 70
     1
102
RTVSPropertyOp43
 70
     1
102
RTVSPropertyOp44
 70
     1
102
RTVSPropertyOp45
 70
     1
102
RTVSPropertyOp46
 70
     1
102
RTVSPropertyOp47
 70
     1
102
RTVSPropertyOp48
 70
     1
102
RTVSPropertyOp49
 70
     1
102
RTVSPropertyOp50
 70
     1
102
RTVSPropertyOp51
 70
     0
102
RTVSPropertyOp52
 70
     0
102
RTVSPropertyOp53
 70
     1
102
RTVSPropertyOp54
 70
     1
102
RTVSPropertyOp55
 70
     1
102
RTVSPropertyOp56
 70
     1
102
RTVSPropertyOp57
 70
     1
102
RTVSPropertyOp58
 70
     1
102
RTVSPropertyOp59
 70
     1
102
RTVSPropertyOp60
 70
     1
102
RTVSPropertyOp61
 70
     1
102
RTVSPropertyOp62
 70
     1
  0
XRECORD
  5
9FF
102
{ACAD_REACTORS
330
9FE
102
}
330
9FE
100
AcDbXrecord
280
     1
102
RTVSPost2010Prop28
280
     0
102
RTVSPost2010PropOp28
 70
     1
102
RTVSPost2010Prop29
280
     1
102
RTVSPost2010PropOp29
 70
     1
102
RTVSPost2010Prop30
280
     1
102
RTVSPost2010PropOp30
 70
     1
102
RTVSPost2010Prop31
280
     0
102
RTVSPost2010PropOp31
 70
     1
102
RTVSPost2010Prop32
280
     0
102
RTVSPost2010PropOp32
 70
     1
102
RTVSPost2010Prop33
280
     0
102
RTVSPost2010PropOp33
 70
     1
102
RTVSPost2010Prop34
280
     0
102
RTVSPost2010PropOp34
 70
     1
102
RTVSPost2010Prop35
280
     0
102
RTVSPost2010PropOp35
 70
     1
102
RTVSPost2010Prop36
280
     0
102
RTVSPost2010PropOp36
 70
     1
102
RTVSPost2010Prop37
 90
       50
102
RTVSPost2010PropOp37
 70
     1
102
RTVSPost2010Prop38
140
0.0
102
RTVSPost2010PropOp38
 70
     1
102
RTVSPost2010Prop39
140
1.0
102
RTVSPost2010PropOp39
 70
     1
102
RTVSPost2010Prop40
 90
        0
102
RTVSPost2010PropOp40
 70
     1
102
RTVSPost2010Prop41ColorIndex
 90
       18
102
RTVSPost2010Prop41ColorRGB
 90
-16777216
102
RTVSPost2010PropOp41
 70
     1
102
RTVSPost2010Prop42
 90
       50
102
RTVSPost2010PropOp42
 70
     1
102
RTVSPost2010Prop43
 90
        3
102
RTVSPost2010PropOp43
 70
     1
102
RTVSPost2010Prop44ColorIndex
 90
        5
102
RTVSPost2010Prop44ColorRGB
 90
      255
102
RTVSPost2010PropOp44
 70
     1
102
RTVSPost2010Prop45
280
     0
102
RTVSPost2010PropOp45
 70
     1
102
RTVSPost2010Prop46
 90
       50
102
RTVSPost2010PropOp46
 70
     1
102
RTVSPost2010Prop47
 90
       50
102
RTVSPost2010PropOp47
 70
     1
102
RTVSPost2010Prop48
 90
       50
102
RTVSPost2010PropOp48
 70
     1
102
RTVSPost2010Prop49
280
     0
102
RTVSPost2010PropOp49
 70
     1
102
RTVSPost2010Prop50
 90
       50
102
RTVSPost2010PropOp50
 70
     1
102
RTVSPost2010Prop51ColorIndex
 90
      256
102
RTVSPost2010Prop51ColorRGB
 90
-16777216
102
RTVSPost2010PropOp51
 70
     0
102
RTVSPost2010Prop52
140
1.0
102
RTVSPost2010PropOp52
 70
     0
102
RTVSPost2010Prop53
 90
        2
102
RTVSPost2010PropOp53
 70
     1
102
RTVSPost2010Prop54
  1
strokes_ogs.tif
102
RTVSPost2010PropOp54
 70
     1
102
RTVSPost2010Prop55
280
     0
102
RTVSPost2010PropOp55
 70
     1
102
RTVSPost2010Prop56
140
1.0
102
RTVSPost2010PropOp56
 70
     1
102
RTVSPost2010Prop57
140
1.0
102
RTVSPost2010PropOp57
 70
     1
102
RTVSPropertyOp0
 70
     1
102
RTVSPropertyOp1
 70
     1
102
RTVSPropertyOp2
 70
     1
102
RTVSPropertyOp3
 70
     1
102
RTVSPropertyOp4
 70
     1
102
RTVSPropertyOp5
 70
     1
102
RTVSPropertyOp6
 70
     1
102
RTVSPropertyOp7
 70
     1
102
RTVSPropertyOp8
 70
     1
102
RTVSPropertyOp9
 70
     1
102
RTVSPropertyOp10
 70
     1
102
RTVSPropertyOp11
 70
     1
102
RTVSPropertyOp12
 70
     1
102
RTVSPropertyOp13
 70
     1
102
RTVSPropertyOp14
 70
     1
102
RTVSPropertyOp15
 70
     1
102
RTVSPropertyOp16
 70
     1
102
RTVSPropertyOp17
 70
     1
102
RTVSPropertyOp18
 70
     1
102
RTVSPropertyOp19
 70
     1
102
RTVSPropertyOp20
 70
     1
102
RTVSPropertyOp21
 70
     1
102
RTVSPropertyOp22
 70
     1
102
RTVSPropertyOp23
 70
     1
102
RTVSPropertyOp24
 70
     1
102
RTVSPropertyOp25
 70
     1
102
RTVSPropertyOp26
 70
     1
102
RTVSPropertyOp27
 70
     1
102
RTVSPropertyOp28
 70
     1
102
RTVSPropertyOp29
 70
     1
102
RTVSPropertyOp30
 70
     1
102
RTVSPropertyOp31
 70
     1
102
RTVSPropertyOp32
 70
     1
102
RTVSPropertyOp33
 70
     1
102
RTVSPropertyOp34
 70
     1
102
RTVSPropertyOp35
 70
     1
102
RTVSPropertyOp36
 70
     1
102
RTVSPropertyOp37
 70
     1
102
RTVSPropertyOp38
 70
     1
102
RTVSPropertyOp39
 70
     1
102
RTVSPropertyOp40
 70
     1
102
RTVSPropertyOp41
 70
     1
102
RTVSPropertyOp42
 70
     1
102
RTVSPropertyOp43
 70
     1
102
RTVSPropertyOp44
 70
     1
102
RTVSPropertyOp45
 70
     1
102
RTVSPropertyOp46
 70
     1
102
RTVSPropertyOp47
 70
     1
102
RTVSPropertyOp48
 70
     1
102
RTVSPropertyOp49
 70
     1
102
RTVSPropertyOp50
 70
     1
102
RTVSPropertyOp51
 70
     0
102
RTVSPropertyOp52
 70
     0
102
RTVSPropertyOp53
 70
     1
102
RTVSPropertyOp54
 70
     1
102
RTVSPropertyOp55
 70
     1
102
RTVSPropertyOp56
 70
     1
102
RTVSPropertyOp57
 70
     1
102
RTVSPropertyOp58
 70
     1
102
RTVSPropertyOp59
 70
     1
102
RTVSPropertyOp60
 70
     1
102
RTVSPropertyOp61
 70
     1
102
RTVSPropertyOp62
 70
     1
  0
XRECORD
  5
A01
102
{ACAD_REACTORS
330
A00
102
}
330
A00
100
AcDbXrecord
280
     1
102
RTVSPost2010Prop28
280
     0
102
RTVSPost2010PropOp28
 70
     1
102
RTVSPost2010Prop29
280
     1
102
RTVSPost2010PropOp29
 70
     1
102
RTVSPost2010Prop30
280
     1
102
RTVSPost2010PropOp30
 70
     1
102
RTVSPost2010Prop31
280
     0
102
RTVSPost2010PropOp31
 70
     1
102
RTVSPost2010Prop32
280
     0
102
RTVSPost2010PropOp32
 70
     1
102
RTVSPost2010Prop33
280
     0
102
RTVSPost2010PropOp33
 70
     1
102
RTVSPost2010Prop34
280
     0
102
RTVSPost2010PropOp34
 70
     1
102
RTVSPost2010Prop35
280
     0
102
RTVSPost2010PropOp35
 70
     1
102
RTVSPost2010Prop36
280
     0
102
RTVSPost2010PropOp36
 70
     1
102
RTVSPost2010Prop37
 90
       50
102
RTVSPost2010PropOp37
 70
     1
102
RTVSPost2010Prop38
140
0.0
102
RTVSPost2010PropOp38
 70
     1
102
RTVSPost2010Prop39
140
1.0
102
RTVSPost2010PropOp39
 70
     1
102
RTVSPost2010Prop40
 90
        0
102
RTVSPost2010PropOp40
 70
     1
102
RTVSPost2010Prop41ColorIndex
 90
       18
102
RTVSPost2010Prop41ColorRGB
 90
-16777216
102
RTVSPost2010PropOp41
 70
     1
102
RTVSPost2010Prop42
 90
       50
102
RTVSPost2010PropOp42
 70
     1
102
RTVSPost2010Prop43
 90
        3
102
RTVSPost2010PropOp43
 70
     1
102
RTVSPost2010Prop44ColorIndex
 90
        5
102
RTVSPost2010Prop44ColorRGB
 90
      255
102
RTVSPost2010PropOp44
 70
     1
102
RTVSPost2010Prop45
280
     0
102
RTVSPost2010PropOp45
 70
     1
102
RTVSPost2010Prop46
 90
       50
102
RTVSPost2010PropOp46
 70
     1
102
RTVSPost2010Prop47
 90
       50
102
RTVSPost2010PropOp47
 70
     1
102
RTVSPost2010Prop48
 90
       50
102
RTVSPost2010PropOp48
 70
     1
102
RTVSPost2010Prop49
280
     0
102
RTVSPost2010PropOp49
 70
     1
102
RTVSPost2010Prop50
 90
       50
102
RTVSPost2010PropOp50
 70
     1
102
RTVSPost2010Prop51ColorIndex
 90
      256
102
RTVSPost2010Prop51ColorRGB
 90
-16777216
102
RTVSPost2010PropOp51
 70
     0
102
RTVSPost2010Prop52
140
1.0
102
RTVSPost2010PropOp52
 70
     0
102
RTVSPost2010Prop53
 90
        2
102
RTVSPost2010PropOp53
 70
     1
102
RTVSPost2010Prop54
  1
strokes_ogs.tif
102
RTVSPost2010PropOp54
 70
     1
102
RTVSPost2010Prop55
280
     0
102
RTVSPost2010PropOp55
 70
     1
102
RTVSPost2010Prop56
140
1.0
102
RTVSPost2010PropOp56
 70
     1
102
RTVSPost2010Prop57
140
1.0
102
RTVSPost2010PropOp57
 70
     1
102
RTVSPropertyOp0
 70
     1
102
RTVSPropertyOp1
 70
     1
102
RTVSPropertyOp2
 70
     1
102
RTVSPropertyOp3
 70
     1
102
RTVSPropertyOp4
 70
     1
102
RTVSPropertyOp5
 70
     1
102
RTVSPropertyOp6
 70
     1
102
RTVSPropertyOp7
 70
     1
102
RTVSPropertyOp8
 70
     1
102
RTVSPropertyOp9
 70
     1
102
RTVSPropertyOp10
 70
     1
102
RTVSPropertyOp11
 70
     1
102
RTVSPropertyOp12
 70
     1
102
RTVSPropertyOp13
 70
     1
102
RTVSPropertyOp14
 70
     1
102
RTVSPropertyOp15
 70
     1
102
RTVSPropertyOp16
 70
     1
102
RTVSPropertyOp17
 70
     1
102
RTVSPropertyOp18
 70
     1
102
RTVSPropertyOp19
 70
     1
102
RTVSPropertyOp20
 70
     1
102
RTVSPropertyOp21
 70
     1
102
RTVSPropertyOp22
 70
     1
102
RTVSPropertyOp23
 70
     1
102
RTVSPropertyOp24
 70
     1
102
RTVSPropertyOp25
 70
     1
102
RTVSPropertyOp26
 70
     1
102
RTVSPropertyOp27
 70
     1
102
RTVSPropertyOp28
 70
     1
102
RTVSPropertyOp29
 70
     1
102
RTVSPropertyOp30
 70
     1
102
RTVSPropertyOp31
 70
     1
102
RTVSPropertyOp32
 70
     1
102
RTVSPropertyOp33
 70
     1
102
RTVSPropertyOp34
 70
     1
102
RTVSPropertyOp35
 70
     1
102
RTVSPropertyOp36
 70
     1
102
RTVSPropertyOp37
 70
     1
102
RTVSPropertyOp38
 70
     1
102
RTVSPropertyOp39
 70
     1
102
RTVSPropertyOp40
 70
     1
102
RTVSPropertyOp41
 70
     1
102
RTVSPropertyOp42
 70
     1
102
RTVSPropertyOp43
 70
     1
102
RTVSPropertyOp44
 70
     1
102
RTVSPropertyOp45
 70
     1
102
RTVSPropertyOp46
 70
     1
102
RTVSPropertyOp47
 70
     1
102
RTVSPropertyOp48
 70
     1
102
RTVSPropertyOp49
 70
     1
102
RTVSPropertyOp50
 70
     1
102
RTVSPropertyOp51
 70
     0
102
RTVSPropertyOp52
 70
     0
102
RTVSPropertyOp53
 70
     1
102
RTVSPropertyOp54
 70
     1
102
RTVSPropertyOp55
 70
     1
102
RTVSPropertyOp56
 70
     1
102
RTVSPropertyOp57
 70
     1
102
RTVSPropertyOp58
 70
     1
102
RTVSPropertyOp59
 70
     1
102
RTVSPropertyOp60
 70
     1
102
RTVSPropertyOp61
 70
     1
102
RTVSPropertyOp62
 70
     1
  0
XRECORD
  5
A03
102
{ACAD_REACTORS
330
A02
102
}
330
A02
100
AcDbXrecord
280
     1
102
RTVSPost2010Prop28
280
     0
102
RTVSPost2010PropOp28
 70
     1
102
RTVSPost2010Prop29
280
     1
102
RTVSPost2010PropOp29
 70
     1
102
RTVSPost2010Prop30
280
     1
102
RTVSPost2010PropOp30
 70
     1
102
RTVSPost2010Prop31
280
     0
102
RTVSPost2010PropOp31
 70
     1
102
RTVSPost2010Prop32
280
     0
102
RTVSPost2010PropOp32
 70
     1
102
RTVSPost2010Prop33
280
     0
102
RTVSPost2010PropOp33
 70
     1
102
RTVSPost2010Prop34
280
     0
102
RTVSPost2010PropOp34
 70
     1
102
RTVSPost2010Prop35
280
     0
102
RTVSPost2010PropOp35
 70
     1
102
RTVSPost2010Prop36
280
     0
102
RTVSPost2010PropOp36
 70
     1
102
RTVSPost2010Prop37
 90
       50
102
RTVSPost2010PropOp37
 70
     1
102
RTVSPost2010Prop38
140
0.0
102
RTVSPost2010PropOp38
 70
     1
102
RTVSPost2010Prop39
140
1.0
102
RTVSPost2010PropOp39
 70
     1
102
RTVSPost2010Prop40
 90
        0
102
RTVSPost2010PropOp40
 70
     1
102
RTVSPost2010Prop41ColorIndex
 90
       18
102
RTVSPost2010Prop41ColorRGB
 90
-16777216
102
RTVSPost2010PropOp41
 70
     1
102
RTVSPost2010Prop42
 90
       50
102
RTVSPost2010PropOp42
 70
     1
102
RTVSPost2010Prop43
 90
        3
102
RTVSPost2010PropOp43
 70
     1
102
RTVSPost2010Prop44ColorIndex
 90
        5
102
RTVSPost2010Prop44ColorRGB
 90
      255
102
RTVSPost2010PropOp44
 70
     1
102
RTVSPost2010Prop45
280
     0
102
RTVSPost2010PropOp45
 70
     1
102
RTVSPost2010Prop46
 90
       50
102
RTVSPost2010PropOp46
 70
     1
102
RTVSPost2010Prop47
 90
       50
102
RTVSPost2010PropOp47
 70
     1
102
RTVSPost2010Prop48
 90
       50
102
RTVSPost2010PropOp48
 70
     1
102
RTVSPost2010Prop49
280
     0
102
RTVSPost2010PropOp49
 70
     1
102
RTVSPost2010Prop50
 90
       50
102
RTVSPost2010PropOp50
 70
     1
102
RTVSPost2010Prop51ColorIndex
 90
      256
102
RTVSPost2010Prop51ColorRGB
 90
-16777216
102
RTVSPost2010PropOp51
 70
     0
102
RTVSPost2010Prop52
140
1.0
102
RTVSPost2010PropOp52
 70
     0
102
RTVSPost2010Prop53
 90
        2
102
RTVSPost2010PropOp53
 70
     1
102
RTVSPost2010Prop54
  1
strokes_ogs.tif
102
RTVSPost2010PropOp54
 70
     1
102
RTVSPost2010Prop55
280
     0
102
RTVSPost2010PropOp55
 70
     1
102
RTVSPost2010Prop56
140
1.0
102
RTVSPost2010PropOp56
 70
     1
102
RTVSPost2010Prop57
140
1.0
102
RTVSPost2010PropOp57
 70
     1
102
RTVSPropertyOp0
 70
     1
102
RTVSPropertyOp1
 70
     1
102
RTVSPropertyOp2
 70
     1
102
RTVSPropertyOp3
 70
     1
102
RTVSPropertyOp4
 70
     1
102
RTVSPropertyOp5
 70
     1
102
RTVSPropertyOp6
 70
     1
102
RTVSPropertyOp7
 70
     1
102
RTVSPropertyOp8
 70
     1
102
RTVSPropertyOp9
 70
     1
102
RTVSPropertyOp10
 70
     1
102
RTVSPropertyOp11
 70
     1
102
RTVSPropertyOp12
 70
     1
102
RTVSPropertyOp13
 70
     1
102
RTVSPropertyOp14
 70
     1
102
RTVSPropertyOp15
 70
     1
102
RTVSPropertyOp16
 70
     1
102
RTVSPropertyOp17
 70
     1
102
RTVSPropertyOp18
 70
     1
102
RTVSPropertyOp19
 70
     1
102
RTVSPropertyOp20
 70
     1
102
RTVSPropertyOp21
 70
     1
102
RTVSPropertyOp22
 70
     1
102
RTVSPropertyOp23
 70
     1
102
RTVSPropertyOp24
 70
     1
102
RTVSPropertyOp25
 70
     1
102
RTVSPropertyOp26
 70
     1
102
RTVSPropertyOp27
 70
     1
102
RTVSPropertyOp28
 70
     1
102
RTVSPropertyOp29
 70
     1
102
RTVSPropertyOp30
 70
     1
102
RTVSPropertyOp31
 70
     1
102
RTVSPropertyOp32
 70
     1
102
RTVSPropertyOp33
 70
     1
102
RTVSPropertyOp34
 70
     1
102
RTVSPropertyOp35
 70
     1
102
RTVSPropertyOp36
 70
     1
102
RTVSPropertyOp37
 70
     1
102
RTVSPropertyOp38
 70
     1
102
RTVSPropertyOp39
 70
     1
102
RTVSPropertyOp40
 70
     1
102
RTVSPropertyOp41
 70
     1
102
RTVSPropertyOp42
 70
     1
102
RTVSPropertyOp43
 70
     1
102
RTVSPropertyOp44
 70
     1
102
RTVSPropertyOp45
 70
     1
102
RTVSPropertyOp46
 70
     1
102
RTVSPropertyOp47
 70
     1
102
RTVSPropertyOp48
 70
     1
102
RTVSPropertyOp49
 70
     1
102
RTVSPropertyOp50
 70
     1
102
RTVSPropertyOp51
 70
     0
102
RTVSPropertyOp52
 70
     0
102
RTVSPropertyOp53
 70
     1
102
RTVSPropertyOp54
 70
     1
102
RTVSPropertyOp55
 70
     1
102
RTVSPropertyOp56
 70
     1
102
RTVSPropertyOp57
 70
     1
102
RTVSPropertyOp58
 70
     1
102
RTVSPropertyOp59
 70
     1
102
RTVSPropertyOp60
 70
     1
102
RTVSPropertyOp61
 70
     1
102
RTVSPropertyOp62
 70
     1
  0
XRECORD
  5
A0B
102
{ACAD_REACTORS
330
A0A
102
}
330
A0A
100
AcDbXrecord
280
     1
102
RTVSPost2010Prop28
280
     0
102
RTVSPost2010PropOp28
 70
     1
102
RTVSPost2010Prop29
280
     1
102
RTVSPost2010PropOp29
 70
     1
102
RTVSPost2010Prop30
280
     1
102
RTVSPost2010PropOp30
 70
     1
102
RTVSPost2010Prop31
280
     0
102
RTVSPost2010PropOp31
 70
     1
102
RTVSPost2010Prop32
280
     0
102
RTVSPost2010PropOp32
 70
     1
102
RTVSPost2010Prop33
280
     0
102
RTVSPost2010PropOp33
 70
     1
102
RTVSPost2010Prop34
280
     0
102
RTVSPost2010PropOp34
 70
     1
102
RTVSPost2010Prop35
280
     0
102
RTVSPost2010PropOp35
 70
     1
102
RTVSPost2010Prop36
280
     0
102
RTVSPost2010PropOp36
 70
     1
102
RTVSPost2010Prop37
 90
       50
102
RTVSPost2010PropOp37
 70
     1
102
RTVSPost2010Prop38
140
0.0
102
RTVSPost2010PropOp38
 70
     1
102
RTVSPost2010Prop39
140
1.0
102
RTVSPost2010PropOp39
 70
     1
102
RTVSPost2010Prop40
 90
        0
102
RTVSPost2010PropOp40
 70
     1
102
RTVSPost2010Prop41ColorIndex
 90
       18
102
RTVSPost2010Prop41ColorRGB
 90
-16777216
102
RTVSPost2010PropOp41
 70
     1
102
RTVSPost2010Prop42
 90
       50
102
RTVSPost2010PropOp42
 70
     1
102
RTVSPost2010Prop43
 90
        3
102
RTVSPost2010PropOp43
 70
     1
102
RTVSPost2010Prop44ColorIndex
 90
        5
102
RTVSPost2010Prop44ColorRGB
 90
      255
102
RTVSPost2010PropOp44
 70
     1
102
RTVSPost2010Prop45
280
     0
102
RTVSPost2010PropOp45
 70
     1
102
RTVSPost2010Prop46
 90
       50
102
RTVSPost2010PropOp46
 70
     1
102
RTVSPost2010Prop47
 90
       50
102
RTVSPost2010PropOp47
 70
     1
102
RTVSPost2010Prop48
 90
       50
102
RTVSPost2010PropOp48
 70
     1
102
RTVSPost2010Prop49
280
     0
102
RTVSPost2010PropOp49
 70
     1
102
RTVSPost2010Prop50
 90
       50
102
RTVSPost2010PropOp50
 70
     1
102
RTVSPost2010Prop51ColorIndex
 90
      256
102
RTVSPost2010Prop51ColorRGB
 90
-16777216
102
RTVSPost2010PropOp51
 70
     0
102
RTVSPost2010Prop52
140
1.0
102
RTVSPost2010PropOp52
 70
     0
102
RTVSPost2010Prop53
 90
        2
102
RTVSPost2010PropOp53
 70
     1
102
RTVSPost2010Prop54
  1
strokes_ogs.tif
102
RTVSPost2010PropOp54
 70
     1
102
RTVSPost2010Prop55
280
     0
102
RTVSPost2010PropOp55
 70
     1
102
RTVSPost2010Prop56
140
1.0
102
RTVSPost2010PropOp56
 70
     1
102
RTVSPost2010Prop57
140
1.0
102
RTVSPost2010PropOp57
 70
     1
102
RTVSPropertyOp0
 70
     1
102
RTVSPropertyOp1
 70
     1
102
RTVSPropertyOp2
 70
     1
102
RTVSPropertyOp3
 70
     1
102
RTVSPropertyOp4
 70
     1
102
RTVSPropertyOp5
 70
     1
102
RTVSPropertyOp6
 70
     1
102
RTVSPropertyOp7
 70
     1
102
RTVSPropertyOp8
 70
     1
102
RTVSPropertyOp9
 70
     1
102
RTVSPropertyOp10
 70
     1
102
RTVSPropertyOp11
 70
     1
102
RTVSPropertyOp12
 70
     1
102
RTVSPropertyOp13
 70
     1
102
RTVSPropertyOp14
 70
     1
102
RTVSPropertyOp15
 70
     1
102
RTVSPropertyOp16
 70
     1
102
RTVSPropertyOp17
 70
     1
102
RTVSPropertyOp18
 70
     1
102
RTVSPropertyOp19
 70
     1
102
RTVSPropertyOp20
 70
     1
102
RTVSPropertyOp21
 70
     1
102
RTVSPropertyOp22
 70
     1
102
RTVSPropertyOp23
 70
     1
102
RTVSPropertyOp24
 70
     1
102
RTVSPropertyOp25
 70
     1
102
RTVSPropertyOp26
 70
     1
102
RTVSPropertyOp27
 70
     1
102
RTVSPropertyOp28
 70
     1
102
RTVSPropertyOp29
 70
     1
102
RTVSPropertyOp30
 70
     1
102
RTVSPropertyOp31
 70
     1
102
RTVSPropertyOp32
 70
     1
102
RTVSPropertyOp33
 70
     1
102
RTVSPropertyOp34
 70
     1
102
RTVSPropertyOp35
 70
     1
102
RTVSPropertyOp36
 70
     1
102
RTVSPropertyOp37
 70
     1
102
RTVSPropertyOp38
 70
     1
102
RTVSPropertyOp39
 70
     1
102
RTVSPropertyOp40
 70
     1
102
RTVSPropertyOp41
 70
     1
102
RTVSPropertyOp42
 70
     1
102
RTVSPropertyOp43
 70
     1
102
RTVSPropertyOp44
 70
     1
102
RTVSPropertyOp45
 70
     1
102
RTVSPropertyOp46
 70
     1
102
RTVSPropertyOp47
 70
     1
102
RTVSPropertyOp48
 70
     1
102
RTVSPropertyOp49
 70
     1
102
RTVSPropertyOp50
 70
     1
102
RTVSPropertyOp51
 70
     0
102
RTVSPropertyOp52
 70
     0
102
RTVSPropertyOp53
 70
     1
102
RTVSPropertyOp54
 70
     1
102
RTVSPropertyOp55
 70
     1
102
RTVSPropertyOp56
 70
     1
102
RTVSPropertyOp57
 70
     1
102
RTVSPropertyOp58
 70
     1
102
RTVSPropertyOp59
 70
     1
102
RTVSPropertyOp60
 70
     1
102
RTVSPropertyOp61
 70
     1
102
RTVSPropertyOp62
 70
     1
  0
XRECORD
  5
A27
102
{ACAD_REACTORS
330
A26
102
}
330
A26
100
AcDbXrecord
280
     1
102
RTVSPost2010Prop28
280
     0
102
RTVSPost2010PropOp28
 70
     0
102
RTVSPost2010Prop29
280
     1
102
RTVSPost2010PropOp29
 70
     0
102
RTVSPost2010Prop30
280
     1
102
RTVSPost2010PropOp30
 70
     0
102
RTVSPost2010Prop31
280
     0
102
RTVSPost2010PropOp31
 70
     0
102
RTVSPost2010Prop32
280
     0
102
RTVSPost2010PropOp32
 70
     0
102
RTVSPost2010Prop33
280
     0
102
RTVSPost2010PropOp33
 70
     0
102
RTVSPost2010Prop34
280
     0
102
RTVSPost2010PropOp34
 70
     0
102
RTVSPost2010Prop35
280
     0
102
RTVSPost2010PropOp35
 70
     0
102
RTVSPost2010Prop36
280
     0
102
RTVSPost2010PropOp36
 70
     0
102
RTVSPost2010Prop37
 90
       50
102
RTVSPost2010PropOp37
 70
     0
102
RTVSPost2010Prop38
140
0.0
102
RTVSPost2010PropOp38
 70
     0
102
RTVSPost2010Prop39
140
1.0
102
RTVSPost2010PropOp39
 70
     0
102
RTVSPost2010Prop40
 90
        0
102
RTVSPost2010PropOp40
 70
     0
102
RTVSPost2010Prop41ColorIndex
 90
       18
102
RTVSPost2010Prop41ColorRGB
 90
-16777216
102
RTVSPost2010PropOp41
 70
     0
102
RTVSPost2010Prop42
 90
       50
102
RTVSPost2010PropOp42
 70
     0
102
RTVSPost2010Prop43
 90
        3
102
RTVSPost2010PropOp43
 70
     0
102
RTVSPost2010Prop44ColorIndex
 90
        5
102
RTVSPost2010Prop44ColorRGB
 90
      255
102
RTVSPost2010PropOp44
 70
     0
102
RTVSPost2010Prop45
280
     0
102
RTVSPost2010PropOp45
 70
     0
102
RTVSPost2010Prop46
 90
       50
102
RTVSPost2010PropOp46
 70
     0
102
RTVSPost2010Prop47
 90
       50
102
RTVSPost2010PropOp47
 70
     0
102
RTVSPost2010Prop48
 90
       50
102
RTVSPost2010PropOp48
 70
     0
102
RTVSPost2010Prop49
280
     0
102
RTVSPost2010PropOp49
 70
     0
102
RTVSPost2010Prop50
 90
       50
102
RTVSPost2010PropOp50
 70
     0
102
RTVSPost2010Prop51ColorIndex
 90
      256
102
RTVSPost2010Prop51ColorRGB
 90
-16777216
102
RTVSPost2010PropOp51
 70
     0
102
RTVSPost2010Prop52
140
1.0
102
RTVSPost2010PropOp52
 70
     0
102
RTVSPost2010Prop53
 90
        2
102
RTVSPost2010PropOp53
 70
     0
102
RTVSPost2010Prop54
  1
strokes_ogs.tif
102
RTVSPost2010PropOp54
 70
     0
102
RTVSPost2010Prop55
280
     0
102
RTVSPost2010PropOp55
 70
     0
102
RTVSPost2010Prop56
140
1.0
102
RTVSPost2010PropOp56
 70
     0
102
RTVSPost2010Prop57
140
1.0
102
RTVSPost2010PropOp57
 70
     0
102
RTVSPropertyOp0
 70
     0
102
RTVSPropertyOp1
 70
     0
102
RTVSPropertyOp2
 70
     0
102
RTVSPropertyOp3
 70
     0
102
RTVSPropertyOp4
 70
     0
102
RTVSPropertyOp5
 70
     0
102
RTVSPropertyOp6
 70
     0
102
RTVSPropertyOp7
 70
     0
102
RTVSPropertyOp8
 70
     0
102
RTVSPropertyOp9
 70
     0
102
RTVSPropertyOp10
 70
     0
102
RTVSPropertyOp11
 70
     0
102
RTVSPropertyOp12
 70
     0
102
RTVSPropertyOp13
 70
     0
102
RTVSPropertyOp14
 70
     2
102
RTVSPropertyOp15
 70
     0
102
RTVSPropertyOp16
 70
     0
102
RTVSPropertyOp17
 70
     0
102
RTVSPropertyOp18
 70
     0
102
RTVSPropertyOp19
 70
     0
102
RTVSPropertyOp20
 70
     0
102
RTVSPropertyOp21
 70
     0
102
RTVSPropertyOp22
 70
     0
102
RTVSPropertyOp23
 70
     0
102
RTVSPropertyOp24
 70
     0
102
RTVSPropertyOp25
 70
     0
102
RTVSPropertyOp26
 70
     0
102
RTVSPropertyOp27
 70
     0
102
RTVSPropertyOp28
 70
     0
102
RTVSPropertyOp29
 70
     0
102
RTVSPropertyOp30
 70
     0
102
RTVSPropertyOp31
 70
     0
102
RTVSPropertyOp32
 70
     0
102
RTVSPropertyOp33
 70
     0
102
RTVSPropertyOp34
 70
     0
102
RTVSPropertyOp35
 70
     0
102
RTVSPropertyOp36
 70
     0
102
RTVSPropertyOp37
 70
     0
102
RTVSPropertyOp38
 70
     0
102
RTVSPropertyOp39
 70
     0
102
RTVSPropertyOp40
 70
     0
102
RTVSPropertyOp41
 70
     0
102
RTVSPropertyOp42
 70
     0
102
RTVSPropertyOp43
 70
     0
102
RTVSPropertyOp44
 70
     0
102
RTVSPropertyOp45
 70
     0
102
RTVSPropertyOp46
 70
     0
102
RTVSPropertyOp47
 70
     0
102
RTVSPropertyOp48
 70
     0
102
RTVSPropertyOp49
 70
     0
102
RTVSPropertyOp50
 70
     0
102
RTVSPropertyOp51
 70
     0
102
RTVSPropertyOp52
 70
     0
102
RTVSPropertyOp53
 70
     0
102
RTVSPropertyOp54
 70
     0
102
RTVSPropertyOp55
 70
     0
102
RTVSPropertyOp56
 70
     0
102
RTVSPropertyOp57
 70
     0
102
RTVSPropertyOp58
 70
     1
102
RTVSPropertyOp59
 70
     1
102
RTVSPropertyOp60
 70
     1
102
RTVSPropertyOp61
 70
     1
102
RTVSPropertyOp62
 70
     1
  0
XRECORD
  5
A17
102
{ACAD_REACTORS
330
A16
102
}
330
A16
100
AcDbXrecord
280
     1
102
RTVSPost2010Prop28
280
     0
102
RTVSPost2010PropOp28
 70
     1
102
RTVSPost2010Prop29
280
     1
102
RTVSPost2010PropOp29
 70
     1
102
RTVSPost2010Prop30
280
     1
102
RTVSPost2010PropOp30
 70
     1
102
RTVSPost2010Prop31
280
     0
102
RTVSPost2010PropOp31
 70
     1
102
RTVSPost2010Prop32
280
     0
102
RTVSPost2010PropOp32
 70
     1
102
RTVSPost2010Prop33
280
     0
102
RTVSPost2010PropOp33
 70
     1
102
RTVSPost2010Prop34
280
     0
102
RTVSPost2010PropOp34
 70
     1
102
RTVSPost2010Prop35
280
     0
102
RTVSPost2010PropOp35
 70
     1
102
RTVSPost2010Prop36
280
     0
102
RTVSPost2010PropOp36
 70
     1
102
RTVSPost2010Prop37
 90
       50
102
RTVSPost2010PropOp37
 70
     1
102
RTVSPost2010Prop38
140
0.0
102
RTVSPost2010PropOp38
 70
     1
102
RTVSPost2010Prop39
140
1.0
102
RTVSPost2010PropOp39
 70
     1
102
RTVSPost2010Prop40
 90
        0
102
RTVSPost2010PropOp40
 70
     1
102
RTVSPost2010Prop41ColorIndex
 90
       18
102
RTVSPost2010Prop41ColorRGB
 90
-16777216
102
RTVSPost2010PropOp41
 70
     1
102
RTVSPost2010Prop42
 90
       50
102
RTVSPost2010PropOp42
 70
     1
102
RTVSPost2010Prop43
 90
        3
102
RTVSPost2010PropOp43
 70
     1
102
RTVSPost2010Prop44ColorIndex
 90
        5
102
RTVSPost2010Prop44ColorRGB
 90
      255
102
RTVSPost2010PropOp44
 70
     1
102
RTVSPost2010Prop45
280
     0
102
RTVSPost2010PropOp45
 70
     1
102
RTVSPost2010Prop46
 90
       50
102
RTVSPost2010PropOp46
 70
     1
102
RTVSPost2010Prop47
 90
       50
102
RTVSPost2010PropOp47
 70
     1
102
RTVSPost2010Prop48
 90
       50
102
RTVSPost2010PropOp48
 70
     1
102
RTVSPost2010Prop49
280
     0
102
RTVSPost2010PropOp49
 70
     1
102
RTVSPost2010Prop50
 90
       50
102
RTVSPost2010PropOp50
 70
     1
102
RTVSPost2010Prop51ColorIndex
 90
      256
102
RTVSPost2010Prop51ColorRGB
 90
-16777216
102
RTVSPost2010PropOp51
 70
     0
102
RTVSPost2010Prop52
140
1.0
102
RTVSPost2010PropOp52
 70
     0
102
RTVSPost2010Prop53
 90
        2
102
RTVSPost2010PropOp53
 70
     1
102
RTVSPost2010Prop54
  1
strokes_ogs.tif
102
RTVSPost2010PropOp54
 70
     1
102
RTVSPost2010Prop55
280
     0
102
RTVSPost2010PropOp55
 70
     1
102
RTVSPost2010Prop56
140
1.0
102
RTVSPost2010PropOp56
 70
     1
102
RTVSPost2010Prop57
140
1.0
102
RTVSPost2010PropOp57
 70
     1
102
RTVSPropertyOp0
 70
     1
102
RTVSPropertyOp1
 70
     1
102
RTVSPropertyOp2
 70
     1
102
RTVSPropertyOp3
 70
     1
102
RTVSPropertyOp4
 70
     1
102
RTVSPropertyOp5
 70
     1
102
RTVSPropertyOp6
 70
     1
102
RTVSPropertyOp7
 70
     1
102
RTVSPropertyOp8
 70
     1
102
RTVSPropertyOp9
 70
     1
102
RTVSPropertyOp10
 70
     1
102
RTVSPropertyOp11
 70
     1
102
RTVSPropertyOp12
 70
     1
102
RTVSPropertyOp13
 70
     1
102
RTVSPropertyOp14
 70
     1
102
RTVSPropertyOp15
 70
     1
102
RTVSPropertyOp16
 70
     1
102
RTVSPropertyOp17
 70
     1
102
RTVSPropertyOp18
 70
     1
102
RTVSPropertyOp19
 70
     1
102
RTVSPropertyOp20
 70
     1
102
RTVSPropertyOp21
 70
     1
102
RTVSPropertyOp22
 70
     1
102
RTVSPropertyOp23
 70
     1
102
RTVSPropertyOp24
 70
     1
102
RTVSPropertyOp25
 70
     1
102
RTVSPropertyOp26
 70
     1
102
RTVSPropertyOp27
 70
     1
102
RTVSPropertyOp28
 70
     1
102
RTVSPropertyOp29
 70
     1
102
RTVSPropertyOp30
 70
     1
102
RTVSPropertyOp31
 70
     1
102
RTVSPropertyOp32
 70
     1
102
RTVSPropertyOp33
 70
     1
102
RTVSPropertyOp34
 70
     1
102
RTVSPropertyOp35
 70
     1
102
RTVSPropertyOp36
 70
     1
102
RTVSPropertyOp37
 70
     1
102
RTVSPropertyOp38
 70
     1
102
RTVSPropertyOp39
 70
     1
102
RTVSPropertyOp40
 70
     1
102
RTVSPropertyOp41
 70
     1
102
RTVSPropertyOp42
 70
     1
102
RTVSPropertyOp43
 70
     1
102
RTVSPropertyOp44
 70
     1
102
RTVSPropertyOp45
 70
     1
102
RTVSPropertyOp46
 70
     1
102
RTVSPropertyOp47
 70
     1
102
RTVSPropertyOp48
 70
     1
102
RTVSPropertyOp49
 70
     1
102
RTVSPropertyOp50
 70
     1
102
RTVSPropertyOp51
 70
     0
102
RTVSPropertyOp52
 70
     0
102
RTVSPropertyOp53
 70
     1
102
RTVSPropertyOp54
 70
     1
102
RTVSPropertyOp55
 70
     1
102
RTVSPropertyOp56
 70
     1
102
RTVSPropertyOp57
 70
     1
102
RTVSPropertyOp58
 70
     1
102
RTVSPropertyOp59
 70
     1
102
RTVSPropertyOp60
 70
     1
102
RTVSPropertyOp61
 70
     1
102
RTVSPropertyOp62
 70
     1
  0
XRECORD
  5
A29
102
{ACAD_REACTORS
330
A28
102
}
330
A28
100
AcDbXrecord
280
     1
102
RTVSPost2010Prop28
280
     0
102
RTVSPost2010PropOp28
 70
     0
102
RTVSPost2010Prop29
280
     1
102
RTVSPost2010PropOp29
 70
     0
102
RTVSPost2010Prop30
280
     1
102
RTVSPost2010PropOp30
 70
     0
102
RTVSPost2010Prop31
280
     0
102
RTVSPost2010PropOp31
 70
     0
102
RTVSPost2010Prop32
280
     0
102
RTVSPost2010PropOp32
 70
     0
102
RTVSPost2010Prop33
280
     0
102
RTVSPost2010PropOp33
 70
     0
102
RTVSPost2010Prop34
280
     0
102
RTVSPost2010PropOp34
 70
     0
102
RTVSPost2010Prop35
280
     0
102
RTVSPost2010PropOp35
 70
     0
102
RTVSPost2010Prop36
280
     0
102
RTVSPost2010PropOp36
 70
     0
102
RTVSPost2010Prop37
 90
       50
102
RTVSPost2010PropOp37
 70
     0
102
RTVSPost2010Prop38
140
0.0
102
RTVSPost2010PropOp38
 70
     0
102
RTVSPost2010Prop39
140
1.0
102
RTVSPost2010PropOp39
 70
     0
102
RTVSPost2010Prop40
 90
        0
102
RTVSPost2010PropOp40
 70
     0
102
RTVSPost2010Prop41ColorIndex
 90
       18
102
RTVSPost2010Prop41ColorRGB
 90
-16777216
102
RTVSPost2010PropOp41
 70
     0
102
RTVSPost2010Prop42
 90
       50
102
RTVSPost2010PropOp42
 70
     0
102
RTVSPost2010Prop43
 90
        3
102
RTVSPost2010PropOp43
 70
     0
102
RTVSPost2010Prop44ColorIndex
 90
        5
102
RTVSPost2010Prop44ColorRGB
 90
      255
102
RTVSPost2010PropOp44
 70
     0
102
RTVSPost2010Prop45
280
     0
102
RTVSPost2010PropOp45
 70
     0
102
RTVSPost2010Prop46
 90
       50
102
RTVSPost2010PropOp46
 70
     0
102
RTVSPost2010Prop47
 90
       50
102
RTVSPost2010PropOp47
 70
     0
102
RTVSPost2010Prop48
 90
       50
102
RTVSPost2010PropOp48
 70
     0
102
RTVSPost2010Prop49
280
     0
102
RTVSPost2010PropOp49
 70
     0
102
RTVSPost2010Prop50
 90
       50
102
RTVSPost2010PropOp50
 70
     0
102
RTVSPost2010Prop51ColorIndex
 90
      256
102
RTVSPost2010Prop51ColorRGB
 90
-16777216
102
RTVSPost2010PropOp51
 70
     0
102
RTVSPost2010Prop52
140
1.0
102
RTVSPost2010PropOp52
 70
     0
102
RTVSPost2010Prop53
 90
        2
102
RTVSPost2010PropOp53
 70
     0
102
RTVSPost2010Prop54
  1
strokes_ogs.tif
102
RTVSPost2010PropOp54
 70
     0
102
RTVSPost2010Prop55
280
     0
102
RTVSPost2010PropOp55
 70
     0
102
RTVSPost2010Prop56
140
1.0
102
RTVSPost2010PropOp56
 70
     0
102
RTVSPost2010Prop57
140
1.0
102
RTVSPost2010PropOp57
 70
     0
102
RTVSPropertyOp0
 70
     0
102
RTVSPropertyOp1
 70
     0
102
RTVSPropertyOp2
 70
     0
102
RTVSPropertyOp3
 70
     0
102
RTVSPropertyOp4
 70
     0
102
RTVSPropertyOp5
 70
     0
102
RTVSPropertyOp6
 70
     0
102
RTVSPropertyOp7
 70
     0
102
RTVSPropertyOp8
 70
     0
102
RTVSPropertyOp9
 70
     0
102
RTVSPropertyOp10
 70
     0
102
RTVSPropertyOp11
 70
     0
102
RTVSPropertyOp12
 70
     0
102
RTVSPropertyOp13
 70
     0
102
RTVSPropertyOp14
 70
     2
102
RTVSPropertyOp15
 70
     0
102
RTVSPropertyOp16
 70
     0
102
RTVSPropertyOp17
 70
     0
102
RTVSPropertyOp18
 70
     0
102
RTVSPropertyOp19
 70
     0
102
RTVSPropertyOp20
 70
     0
102
RTVSPropertyOp21
 70
     0
102
RTVSPropertyOp22
 70
     0
102
RTVSPropertyOp23
 70
     0
102
RTVSPropertyOp24
 70
     0
102
RTVSPropertyOp25
 70
     0
102
RTVSPropertyOp26
 70
     0
102
RTVSPropertyOp27
 70
     0
102
RTVSPropertyOp28
 70
     0
102
RTVSPropertyOp29
 70
     0
102
RTVSPropertyOp30
 70
     0
102
RTVSPropertyOp31
 70
     0
102
RTVSPropertyOp32
 70
     0
102
RTVSPropertyOp33
 70
     0
102
RTVSPropertyOp34
 70
     0
102
RTVSPropertyOp35
 70
     0
102
RTVSPropertyOp36
 70
     0
102
RTVSPropertyOp37
 70
     0
102
RTVSPropertyOp38
 70
     0
102
RTVSPropertyOp39
 70
     0
102
RTVSPropertyOp40
 70
     0
102
RTVSPropertyOp41
 70
     0
102
RTVSPropertyOp42
 70
     0
102
RTVSPropertyOp43
 70
     0
102
RTVSPropertyOp44
 70
     0
102
RTVSPropertyOp45
 70
     0
102
RTVSPropertyOp46
 70
     0
102
RTVSPropertyOp47
 70
     0
102
RTVSPropertyOp48
 70
     0
102
RTVSPropertyOp49
 70
     0
102
RTVSPropertyOp50
 70
     0
102
RTVSPropertyOp51
 70
     0
102
RTVSPropertyOp52
 70
     0
102
RTVSPropertyOp53
 70
     0
102
RTVSPropertyOp54
 70
     0
102
RTVSPropertyOp55
 70
     0
102
RTVSPropertyOp56
 70
     0
102
RTVSPropertyOp57
 70
     0
102
RTVSPropertyOp58
 70
     1
102
RTVSPropertyOp59
 70
     1
102
RTVSPropertyOp60
 70
     1
102
RTVSPropertyOp61
 70
     1
102
RTVSPropertyOp62
 70
     1
  0
XRECORD
  5
A0F
102
{ACAD_REACTORS
330
A0E
102
}
330
A0E
100
AcDbXrecord
280
     1
102
RTVSPost2010Prop28
280
     0
102
RTVSPost2010PropOp28
 70
     1
102
RTVSPost2010Prop29
280
     1
102
RTVSPost2010PropOp29
 70
     1
102
RTVSPost2010Prop30
280
     1
102
RTVSPost2010PropOp30
 70
     1
102
RTVSPost2010Prop31
280
     0
102
RTVSPost2010PropOp31
 70
     1
102
RTVSPost2010Prop32
280
     0
102
RTVSPost2010PropOp32
 70
     1
102
RTVSPost2010Prop33
280
     0
102
RTVSPost2010PropOp33
 70
     1
102
RTVSPost2010Prop34
280
     0
102
RTVSPost2010PropOp34
 70
     1
102
RTVSPost2010Prop35
280
     0
102
RTVSPost2010PropOp35
 70
     1
102
RTVSPost2010Prop36
280
     0
102
RTVSPost2010PropOp36
 70
     1
102
RTVSPost2010Prop37
 90
       50
102
RTVSPost2010PropOp37
 70
     1
102
RTVSPost2010Prop38
140
0.0
102
RTVSPost2010PropOp38
 70
     1
102
RTVSPost2010Prop39
140
1.0
102
RTVSPost2010PropOp39
 70
     1
102
RTVSPost2010Prop40
 90
        0
102
RTVSPost2010PropOp40
 70
     1
102
RTVSPost2010Prop41ColorIndex
 90
       18
102
RTVSPost2010Prop41ColorRGB
 90
-16777216
102
RTVSPost2010PropOp41
 70
     1
102
RTVSPost2010Prop42
 90
       50
102
RTVSPost2010PropOp42
 70
     1
102
RTVSPost2010Prop43
 90
        3
102
RTVSPost2010PropOp43
 70
     1
102
RTVSPost2010Prop44ColorIndex
 90
        5
102
RTVSPost2010Prop44ColorRGB
 90
      255
102
RTVSPost2010PropOp44
 70
     1
102
RTVSPost2010Prop45
280
     0
102
RTVSPost2010PropOp45
 70
     1
102
RTVSPost2010Prop46
 90
       50
102
RTVSPost2010PropOp46
 70
     1
102
RTVSPost2010Prop47
 90
       50
102
RTVSPost2010PropOp47
 70
     1
102
RTVSPost2010Prop48
 90
       50
102
RTVSPost2010PropOp48
 70
     1
102
RTVSPost2010Prop49
280
     0
102
RTVSPost2010PropOp49
 70
     1
102
RTVSPost2010Prop50
 90
       50
102
RTVSPost2010PropOp50
 70
     1
102
RTVSPost2010Prop51ColorIndex
 90
      256
102
RTVSPost2010Prop51ColorRGB
 90
-16777216
102
RTVSPost2010PropOp51
 70
     0
102
RTVSPost2010Prop52
140
1.0
102
RTVSPost2010PropOp52
 70
     0
102
RTVSPost2010Prop53
 90
        2
102
RTVSPost2010PropOp53
 70
     1
102
RTVSPost2010Prop54
  1
strokes_ogs.tif
102
RTVSPost2010PropOp54
 70
     1
102
RTVSPost2010Prop55
280
     0
102
RTVSPost2010PropOp55
 70
     1
102
RTVSPost2010Prop56
140
1.0
102
RTVSPost2010PropOp56
 70
     1
102
RTVSPost2010Prop57
140
1.0
102
RTVSPost2010PropOp57
 70
     1
102
RTVSPropertyOp0
 70
     1
102
RTVSPropertyOp1
 70
     1
102
RTVSPropertyOp2
 70
     1
102
RTVSPropertyOp3
 70
     1
102
RTVSPropertyOp4
 70
     1
102
RTVSPropertyOp5
 70
     1
102
RTVSPropertyOp6
 70
     1
102
RTVSPropertyOp7
 70
     1
102
RTVSPropertyOp8
 70
     1
102
RTVSPropertyOp9
 70
     1
102
RTVSPropertyOp10
 70
     1
102
RTVSPropertyOp11
 70
     1
102
RTVSPropertyOp12
 70
     1
102
RTVSPropertyOp13
 70
     1
102
RTVSPropertyOp14
 70
     1
102
RTVSPropertyOp15
 70
     1
102
RTVSPropertyOp16
 70
     1
102
RTVSPropertyOp17
 70
     1
102
RTVSPropertyOp18
 70
     1
102
RTVSPropertyOp19
 70
     1
102
RTVSPropertyOp20
 70
     1
102
RTVSPropertyOp21
 70
     1
102
RTVSPropertyOp22
 70
     1
102
RTVSPropertyOp23
 70
     1
102
RTVSPropertyOp24
 70
     1
102
RTVSPropertyOp25
 70
     1
102
RTVSPropertyOp26
 70
     1
102
RTVSPropertyOp27
 70
     1
102
RTVSPropertyOp28
 70
     1
102
RTVSPropertyOp29
 70
     1
102
RTVSPropertyOp30
 70
     1
102
RTVSPropertyOp31
 70
     1
102
RTVSPropertyOp32
 70
     1
102
RTVSPropertyOp33
 70
     1
102
RTVSPropertyOp34
 70
     1
102
RTVSPropertyOp35
 70
     1
102
RTVSPropertyOp36
 70
     1
102
RTVSPropertyOp37
 70
     1
102
RTVSPropertyOp38
 70
     1
102
RTVSPropertyOp39
 70
     1
102
RTVSPropertyOp40
 70
     1
102
RTVSPropertyOp41
 70
     1
102
RTVSPropertyOp42
 70
     1
102
RTVSPropertyOp43
 70
     1
102
RTVSPropertyOp44
 70
     1
102
RTVSPropertyOp45
 70
     1
102
RTVSPropertyOp46
 70
     1
102
RTVSPropertyOp47
 70
     1
102
RTVSPropertyOp48
 70
     1
102
RTVSPropertyOp49
 70
     1
102
RTVSPropertyOp50
 70
     1
102
RTVSPropertyOp51
 70
     0
102
RTVSPropertyOp52
 70
     0
102
RTVSPropertyOp53
 70
     1
102
RTVSPropertyOp54
 70
     1
102
RTVSPropertyOp55
 70
     1
102
RTVSPropertyOp56
 70
     1
102
RTVSPropertyOp57
 70
     1
102
RTVSPropertyOp58
 70
     1
102
RTVSPropertyOp59
 70
     1
102
RTVSPropertyOp60
 70
     1
102
RTVSPropertyOp61
 70
     1
102
RTVSPropertyOp62
 70
     1
  0
XRECORD
  5
A25
102
{ACAD_REACTORS
330
A24
102
}
330
A24
100
AcDbXrecord
280
     1
102
RTVSPost2010Prop28
280
     0
102
RTVSPost2010PropOp28
 70
     1
102
RTVSPost2010Prop29
280
     1
102
RTVSPost2010PropOp29
 70
     1
102
RTVSPost2010Prop30
280
     1
102
RTVSPost2010PropOp30
 70
     1
102
RTVSPost2010Prop31
280
     0
102
RTVSPost2010PropOp31
 70
     1
102
RTVSPost2010Prop32
280
     0
102
RTVSPost2010PropOp32
 70
     1
102
RTVSPost2010Prop33
280
     0
102
RTVSPost2010PropOp33
 70
     1
102
RTVSPost2010Prop34
280
     0
102
RTVSPost2010PropOp34
 70
     1
102
RTVSPost2010Prop35
280
     0
102
RTVSPost2010PropOp35
 70
     1
102
RTVSPost2010Prop36
280
     0
102
RTVSPost2010PropOp36
 70
     1
102
RTVSPost2010Prop37
 90
       50
102
RTVSPost2010PropOp37
 70
     1
102
RTVSPost2010Prop38
140
0.0
102
RTVSPost2010PropOp38
 70
     1
102
RTVSPost2010Prop39
140
1.0
102
RTVSPost2010PropOp39
 70
     1
102
RTVSPost2010Prop40
 90
        0
102
RTVSPost2010PropOp40
 70
     1
102
RTVSPost2010Prop41ColorIndex
 90
       18
102
RTVSPost2010Prop41ColorRGB
 90
-16777216
102
RTVSPost2010PropOp41
 70
     1
102
RTVSPost2010Prop42
 90
       50
102
RTVSPost2010PropOp42
 70
     1
102
RTVSPost2010Prop43
 90
        3
102
RTVSPost2010PropOp43
 70
     1
102
RTVSPost2010Prop44ColorIndex
 90
        5
102
RTVSPost2010Prop44ColorRGB
 90
      255
102
RTVSPost2010PropOp44
 70
     1
102
RTVSPost2010Prop45
280
     0
102
RTVSPost2010PropOp45
 70
     1
102
RTVSPost2010Prop46
 90
       50
102
RTVSPost2010PropOp46
 70
     1
102
RTVSPost2010Prop47
 90
       50
102
RTVSPost2010PropOp47
 70
     1
102
RTVSPost2010Prop48
 90
       50
102
RTVSPost2010PropOp48
 70
     1
102
RTVSPost2010Prop49
280
     0
102
RTVSPost2010PropOp49
 70
     1
102
RTVSPost2010Prop50
 90
       50
102
RTVSPost2010PropOp50
 70
     1
102
RTVSPost2010Prop51ColorIndex
 90
      256
102
RTVSPost2010Prop51ColorRGB
 90
-16777216
102
RTVSPost2010PropOp51
 70
     0
102
RTVSPost2010Prop52
140
1.0
102
RTVSPost2010PropOp52
 70
     0
102
RTVSPost2010Prop53
 90
        2
102
RTVSPost2010PropOp53
 70
     1
102
RTVSPost2010Prop54
  1
strokes_ogs.tif
102
RTVSPost2010PropOp54
 70
     1
102
RTVSPost2010Prop55
280
     0
102
RTVSPost2010PropOp55
 70
     1
102
RTVSPost2010Prop56
140
1.0
102
RTVSPost2010PropOp56
 70
     1
102
RTVSPost2010Prop57
140
1.0
102
RTVSPost2010PropOp57
 70
     1
102
RTVSPropertyOp0
 70
     1
102
RTVSPropertyOp1
 70
     1
102
RTVSPropertyOp2
 70
     1
102
RTVSPropertyOp3
 70
     1
102
RTVSPropertyOp4
 70
     1
102
RTVSPropertyOp5
 70
     1
102
RTVSPropertyOp6
 70
     1
102
RTVSPropertyOp7
 70
     1
102
RTVSPropertyOp8
 70
     1
102
RTVSPropertyOp9
 70
     1
102
RTVSPropertyOp10
 70
     1
102
RTVSPropertyOp11
 70
     1
102
RTVSPropertyOp12
 70
     1
102
RTVSPropertyOp13
 70
     1
102
RTVSPropertyOp14
 70
     1
102
RTVSPropertyOp15
 70
     1
102
RTVSPropertyOp16
 70
     1
102
RTVSPropertyOp17
 70
     1
102
RTVSPropertyOp18
 70
     1
102
RTVSPropertyOp19
 70
     1
102
RTVSPropertyOp20
 70
     1
102
RTVSPropertyOp21
 70
     1
102
RTVSPropertyOp22
 70
     1
102
RTVSPropertyOp23
 70
     1
102
RTVSPropertyOp24
 70
     1
102
RTVSPropertyOp25
 70
     1
102
RTVSPropertyOp26
 70
     1
102
RTVSPropertyOp27
 70
     1
102
RTVSPropertyOp28
 70
     1
102
RTVSPropertyOp29
 70
     1
102
RTVSPropertyOp30
 70
     1
102
RTVSPropertyOp31
 70
     1
102
RTVSPropertyOp32
 70
     1
102
RTVSPropertyOp33
 70
     1
102
RTVSPropertyOp34
 70
     1
102
RTVSPropertyOp35
 70
     1
102
RTVSPropertyOp36
 70
     1
102
RTVSPropertyOp37
 70
     1
102
RTVSPropertyOp38
 70
     1
102
RTVSPropertyOp39
 70
     1
102
RTVSPropertyOp40
 70
     1
102
RTVSPropertyOp41
 70
     1
102
RTVSPropertyOp42
 70
     1
102
RTVSPropertyOp43
 70
     1
102
RTVSPropertyOp44
 70
     1
102
RTVSPropertyOp45
 70
     1
102
RTVSPropertyOp46
 70
     1
102
RTVSPropertyOp47
 70
     1
102
RTVSPropertyOp48
 70
     1
102
RTVSPropertyOp49
 70
     1
102
RTVSPropertyOp50
 70
     1
102
RTVSPropertyOp51
 70
     0
102
RTVSPropertyOp52
 70
     0
102
RTVSPropertyOp53
 70
     1
102
RTVSPropertyOp54
 70
     1
102
RTVSPropertyOp55
 70
     1
102
RTVSPropertyOp56
 70
     1
102
RTVSPropertyOp57
 70
     1
102
RTVSPropertyOp58
 70
     1
102
RTVSPropertyOp59
 70
     1
102
RTVSPropertyOp60
 70
     1
102
RTVSPropertyOp61
 70
     1
102
RTVSPropertyOp62
 70
     1
  0
XRECORD
  5
A23
102
{ACAD_REACTORS
330
A22
102
}
330
A22
100
AcDbXrecord
280
     1
102
RTVSPost2010Prop28
280
     0
102
RTVSPost2010PropOp28
 70
     1
102
RTVSPost2010Prop29
280
     1
102
RTVSPost2010PropOp29
 70
     1
102
RTVSPost2010Prop30
280
     1
102
RTVSPost2010PropOp30
 70
     1
102
RTVSPost2010Prop31
280
     0
102
RTVSPost2010PropOp31
 70
     1
102
RTVSPost2010Prop32
280
     0
102
RTVSPost2010PropOp32
 70
     1
102
RTVSPost2010Prop33
280
     0
102
RTVSPost2010PropOp33
 70
     1
102
RTVSPost2010Prop34
280
     0
102
RTVSPost2010PropOp34
 70
     1
102
RTVSPost2010Prop35
280
     0
102
RTVSPost2010PropOp35
 70
     1
102
RTVSPost2010Prop36
280
     0
102
RTVSPost2010PropOp36
 70
     1
102
RTVSPost2010Prop37
 90
       50
102
RTVSPost2010PropOp37
 70
     1
102
RTVSPost2010Prop38
140
0.0
102
RTVSPost2010PropOp38
 70
     1
102
RTVSPost2010Prop39
140
1.0
102
RTVSPost2010PropOp39
 70
     1
102
RTVSPost2010Prop40
 90
        0
102
RTVSPost2010PropOp40
 70
     1
102
RTVSPost2010Prop41ColorIndex
 90
       18
102
RTVSPost2010Prop41ColorRGB
 90
-16777216
102
RTVSPost2010PropOp41
 70
     1
102
RTVSPost2010Prop42
 90
       50
102
RTVSPost2010PropOp42
 70
     1
102
RTVSPost2010Prop43
 90
        3
102
RTVSPost2010PropOp43
 70
     1
102
RTVSPost2010Prop44ColorIndex
 90
        5
102
RTVSPost2010Prop44ColorRGB
 90
      255
102
RTVSPost2010PropOp44
 70
     1
102
RTVSPost2010Prop45
280
     0
102
RTVSPost2010PropOp45
 70
     1
102
RTVSPost2010Prop46
 90
       50
102
RTVSPost2010PropOp46
 70
     1
102
RTVSPost2010Prop47
 90
       50
102
RTVSPost2010PropOp47
 70
     1
102
RTVSPost2010Prop48
 90
       50
102
RTVSPost2010PropOp48
 70
     1
102
RTVSPost2010Prop49
280
     0
102
RTVSPost2010PropOp49
 70
     1
102
RTVSPost2010Prop50
 90
       50
102
RTVSPost2010PropOp50
 70
     1
102
RTVSPost2010Prop51ColorIndex
 90
      256
102
RTVSPost2010Prop51ColorRGB
 90
-16777216
102
RTVSPost2010PropOp51
 70
     0
102
RTVSPost2010Prop52
140
1.0
102
RTVSPost2010PropOp52
 70
     0
102
RTVSPost2010Prop53
 90
        2
102
RTVSPost2010PropOp53
 70
     1
102
RTVSPost2010Prop54
  1
strokes_ogs.tif
102
RTVSPost2010PropOp54
 70
     1
102
RTVSPost2010Prop55
280
     0
102
RTVSPost2010PropOp55
 70
     1
102
RTVSPost2010Prop56
140
1.0
102
RTVSPost2010PropOp56
 70
     1
102
RTVSPost2010Prop57
140
1.0
102
RTVSPost2010PropOp57
 70
     1
102
RTVSPropertyOp0
 70
     1
102
RTVSPropertyOp1
 70
     1
102
RTVSPropertyOp2
 70
     1
102
RTVSPropertyOp3
 70
     1
102
RTVSPropertyOp4
 70
     1
102
RTVSPropertyOp5
 70
     1
102
RTVSPropertyOp6
 70
     1
102
RTVSPropertyOp7
 70
     1
102
RTVSPropertyOp8
 70
     1
102
RTVSPropertyOp9
 70
     1
102
RTVSPropertyOp10
 70
     1
102
RTVSPropertyOp11
 70
     1
102
RTVSPropertyOp12
 70
     1
102
RTVSPropertyOp13
 70
     1
102
RTVSPropertyOp14
 70
     1
102
RTVSPropertyOp15
 70
     1
102
RTVSPropertyOp16
 70
     1
102
RTVSPropertyOp17
 70
     1
102
RTVSPropertyOp18
 70
     1
102
RTVSPropertyOp19
 70
     1
102
RTVSPropertyOp20
 70
     1
102
RTVSPropertyOp21
 70
     1
102
RTVSPropertyOp22
 70
     1
102
RTVSPropertyOp23
 70
     1
102
RTVSPropertyOp24
 70
     1
102
RTVSPropertyOp25
 70
     1
102
RTVSPropertyOp26
 70
     1
102
RTVSPropertyOp27
 70
     1
102
RTVSPropertyOp28
 70
     1
102
RTVSPropertyOp29
 70
     1
102
RTVSPropertyOp30
 70
     1
102
RTVSPropertyOp31
 70
     1
102
RTVSPropertyOp32
 70
     1
102
RTVSPropertyOp33
 70
     1
102
RTVSPropertyOp34
 70
     1
102
RTVSPropertyOp35
 70
     1
102
RTVSPropertyOp36
 70
     1
102
RTVSPropertyOp37
 70
     1
102
RTVSPropertyOp38
 70
     1
102
RTVSPropertyOp39
 70
     1
102
RTVSPropertyOp40
 70
     1
102
RTVSPropertyOp41
 70
     1
102
RTVSPropertyOp42
 70
     1
102
RTVSPropertyOp43
 70
     1
102
RTVSPropertyOp44
 70
     1
102
RTVSPropertyOp45
 70
     1
102
RTVSPropertyOp46
 70
     1
102
RTVSPropertyOp47
 70
     1
102
RTVSPropertyOp48
 70
     1
102
RTVSPropertyOp49
 70
     1
102
RTVSPropertyOp50
 70
     1
102
RTVSPropertyOp51
 70
     0
102
RTVSPropertyOp52
 70
     0
102
RTVSPropertyOp53
 70
     1
102
RTVSPropertyOp54
 70
     1
102
RTVSPropertyOp55
 70
     1
102
RTVSPropertyOp56
 70
     1
102
RTVSPropertyOp57
 70
     1
102
RTVSPropertyOp58
 70
     1
102
RTVSPropertyOp59
 70
     1
102
RTVSPropertyOp60
 70
     1
102
RTVSPropertyOp61
 70
     1
102
RTVSPropertyOp62
 70
     1
  0
XRECORD
  5
A1D
102
{ACAD_REACTORS
330
A1C
102
}
330
A1C
100
AcDbXrecord
280
     1
102
RTVSPost2010Prop28
280
     0
102
RTVSPost2010PropOp28
 70
     1
102
RTVSPost2010Prop29
280
     1
102
RTVSPost2010PropOp29
 70
     1
102
RTVSPost2010Prop30
280
     1
102
RTVSPost2010PropOp30
 70
     1
102
RTVSPost2010Prop31
280
     0
102
RTVSPost2010PropOp31
 70
     1
102
RTVSPost2010Prop32
280
     0
102
RTVSPost2010PropOp32
 70
     1
102
RTVSPost2010Prop33
280
     0
102
RTVSPost2010PropOp33
 70
     1
102
RTVSPost2010Prop34
280
     0
102
RTVSPost2010PropOp34
 70
     1
102
RTVSPost2010Prop35
280
     0
102
RTVSPost2010PropOp35
 70
     1
102
RTVSPost2010Prop36
280
     0
102
RTVSPost2010PropOp36
 70
     1
102
RTVSPost2010Prop37
 90
       50
102
RTVSPost2010PropOp37
 70
     1
102
RTVSPost2010Prop38
140
0.0
102
RTVSPost2010PropOp38
 70
     1
102
RTVSPost2010Prop39
140
1.0
102
RTVSPost2010PropOp39
 70
     1
102
RTVSPost2010Prop40
 90
        0
102
RTVSPost2010PropOp40
 70
     1
102
RTVSPost2010Prop41ColorIndex
 90
       18
102
RTVSPost2010Prop41ColorRGB
 90
-16777216
102
RTVSPost2010PropOp41
 70
     1
102
RTVSPost2010Prop42
 90
       50
102
RTVSPost2010PropOp42
 70
     1
102
RTVSPost2010Prop43
 90
        3
102
RTVSPost2010PropOp43
 70
     1
102
RTVSPost2010Prop44ColorIndex
 90
        5
102
RTVSPost2010Prop44ColorRGB
 90
      255
102
RTVSPost2010PropOp44
 70
     1
102
RTVSPost2010Prop45
280
     0
102
RTVSPost2010PropOp45
 70
     1
102
RTVSPost2010Prop46
 90
       50
102
RTVSPost2010PropOp46
 70
     1
102
RTVSPost2010Prop47
 90
       50
102
RTVSPost2010PropOp47
 70
     1
102
RTVSPost2010Prop48
 90
       50
102
RTVSPost2010PropOp48
 70
     1
102
RTVSPost2010Prop49
280
     0
102
RTVSPost2010PropOp49
 70
     1
102
RTVSPost2010Prop50
 90
       50
102
RTVSPost2010PropOp50
 70
     1
102
RTVSPost2010Prop51ColorIndex
 90
      256
102
RTVSPost2010Prop51ColorRGB
 90
-16777216
102
RTVSPost2010PropOp51
 70
     0
102
RTVSPost2010Prop52
140
1.0
102
RTVSPost2010PropOp52
 70
     0
102
RTVSPost2010Prop53
 90
        2
102
RTVSPost2010PropOp53
 70
     1
102
RTVSPost2010Prop54
  1
strokes_ogs.tif
102
RTVSPost2010PropOp54
 70
     1
102
RTVSPost2010Prop55
280
     0
102
RTVSPost2010PropOp55
 70
     1
102
RTVSPost2010Prop56
140
1.0
102
RTVSPost2010PropOp56
 70
     1
102
RTVSPost2010Prop57
140
1.0
102
RTVSPost2010PropOp57
 70
     1
102
RTVSPropertyOp0
 70
     1
102
RTVSPropertyOp1
 70
     1
102
RTVSPropertyOp2
 70
     1
102
RTVSPropertyOp3
 70
     1
102
RTVSPropertyOp4
 70
     1
102
RTVSPropertyOp5
 70
     1
102
RTVSPropertyOp6
 70
     1
102
RTVSPropertyOp7
 70
     1
102
RTVSPropertyOp8
 70
     1
102
RTVSPropertyOp9
 70
     1
102
RTVSPropertyOp10
 70
     1
102
RTVSPropertyOp11
 70
     1
102
RTVSPropertyOp12
 70
     1
102
RTVSPropertyOp13
 70
     1
102
RTVSPropertyOp14
 70
     1
102
RTVSPropertyOp15
 70
     1
102
RTVSPropertyOp16
 70
     1
102
RTVSPropertyOp17
 70
     1
102
RTVSPropertyOp18
 70
     1
102
RTVSPropertyOp19
 70
     1
102
RTVSPropertyOp20
 70
     1
102
RTVSPropertyOp21
 70
     1
102
RTVSPropertyOp22
 70
     1
102
RTVSPropertyOp23
 70
     1
102
RTVSPropertyOp24
 70
     1
102
RTVSPropertyOp25
 70
     1
102
RTVSPropertyOp26
 70
     1
102
RTVSPropertyOp27
 70
     1
102
RTVSPropertyOp28
 70
     1
102
RTVSPropertyOp29
 70
     1
102
RTVSPropertyOp30
 70
     1
102
RTVSPropertyOp31
 70
     1
102
RTVSPropertyOp32
 70
     1
102
RTVSPropertyOp33
 70
     1
102
RTVSPropertyOp34
 70
     1
102
RTVSPropertyOp35
 70
     1
102
RTVSPropertyOp36
 70
     1
102
RTVSPropertyOp37
 70
     1
102
RTVSPropertyOp38
 70
     1
102
RTVSPropertyOp39
 70
     1
102
RTVSPropertyOp40
 70
     1
102
RTVSPropertyOp41
 70
     1
102
RTVSPropertyOp42
 70
     1
102
RTVSPropertyOp43
 70
     1
102
RTVSPropertyOp44
 70
     1
102
RTVSPropertyOp45
 70
     1
102
RTVSPropertyOp46
 70
     1
102
RTVSPropertyOp47
 70
     1
102
RTVSPropertyOp48
 70
     1
102
RTVSPropertyOp49
 70
     1
102
RTVSPropertyOp50
 70
     1
102
RTVSPropertyOp51
 70
     0
102
RTVSPropertyOp52
 70
     0
102
RTVSPropertyOp53
 70
     1
102
RTVSPropertyOp54
 70
     1
102
RTVSPropertyOp55
 70
     1
102
RTVSPropertyOp56
 70
     1
102
RTVSPropertyOp57
 70
     1
102
RTVSPropertyOp58
 70
     1
102
RTVSPropertyOp59
 70
     1
102
RTVSPropertyOp60
 70
     1
102
RTVSPropertyOp61
 70
     1
102
RTVSPropertyOp62
 70
     1
  0
XRECORD
  5
A1F
102
{ACAD_REACTORS
330
A1E
102
}
330
A1E
100
AcDbXrecord
280
     1
102
RTVSPost2010Prop28
280
     0
102
RTVSPost2010PropOp28
 70
     1
102
RTVSPost2010Prop29
280
     1
102
RTVSPost2010PropOp29
 70
     1
102
RTVSPost2010Prop30
280
     1
102
RTVSPost2010PropOp30
 70
     1
102
RTVSPost2010Prop31
280
     0
102
RTVSPost2010PropOp31
 70
     1
102
RTVSPost2010Prop32
280
     0
102
RTVSPost2010PropOp32
 70
     1
102
RTVSPost2010Prop33
280
     0
102
RTVSPost2010PropOp33
 70
     1
102
RTVSPost2010Prop34
280
     0
102
RTVSPost2010PropOp34
 70
     1
102
RTVSPost2010Prop35
280
     0
102
RTVSPost2010PropOp35
 70
     1
102
RTVSPost2010Prop36
280
     0
102
RTVSPost2010PropOp36
 70
     1
102
RTVSPost2010Prop37
 90
       50
102
RTVSPost2010PropOp37
 70
     1
102
RTVSPost2010Prop38
140
0.0
102
RTVSPost2010PropOp38
 70
     1
102
RTVSPost2010Prop39
140
1.0
102
RTVSPost2010PropOp39
 70
     1
102
RTVSPost2010Prop40
 90
        0
102
RTVSPost2010PropOp40
 70
     1
102
RTVSPost2010Prop41ColorIndex
 90
       18
102
RTVSPost2010Prop41ColorRGB
 90
-16777216
102
RTVSPost2010PropOp41
 70
     1
102
RTVSPost2010Prop42
 90
       50
102
RTVSPost2010PropOp42
 70
     1
102
RTVSPost2010Prop43
 90
        3
102
RTVSPost2010PropOp43
 70
     1
102
RTVSPost2010Prop44ColorIndex
 90
        5
102
RTVSPost2010Prop44ColorRGB
 90
      255
102
RTVSPost2010PropOp44
 70
     1
102
RTVSPost2010Prop45
280
     0
102
RTVSPost2010PropOp45
 70
     1
102
RTVSPost2010Prop46
 90
       50
102
RTVSPost2010PropOp46
 70
     1
102
RTVSPost2010Prop47
 90
       50
102
RTVSPost2010PropOp47
 70
     1
102
RTVSPost2010Prop48
 90
       50
102
RTVSPost2010PropOp48
 70
     1
102
RTVSPost2010Prop49
280
     0
102
RTVSPost2010PropOp49
 70
     1
102
RTVSPost2010Prop50
 90
       50
102
RTVSPost2010PropOp50
 70
     1
102
RTVSPost2010Prop51ColorIndex
 90
      256
102
RTVSPost2010Prop51ColorRGB
 90
-16777216
102
RTVSPost2010PropOp51
 70
     0
102
RTVSPost2010Prop52
140
1.0
102
RTVSPost2010PropOp52
 70
     0
102
RTVSPost2010Prop53
 90
        2
102
RTVSPost2010PropOp53
 70
     1
102
RTVSPost2010Prop54
  1
strokes_ogs.tif
102
RTVSPost2010PropOp54
 70
     1
102
RTVSPost2010Prop55
280
     0
102
RTVSPost2010PropOp55
 70
     1
102
RTVSPost2010Prop56
140
1.0
102
RTVSPost2010PropOp56
 70
     1
102
RTVSPost2010Prop57
140
1.0
102
RTVSPost2010PropOp57
 70
     1
102
RTVSPropertyOp0
 70
     1
102
RTVSPropertyOp1
 70
     1
102
RTVSPropertyOp2
 70
     1
102
RTVSPropertyOp3
 70
     1
102
RTVSPropertyOp4
 70
     1
102
RTVSPropertyOp5
 70
     1
102
RTVSPropertyOp6
 70
     1
102
RTVSPropertyOp7
 70
     1
102
RTVSPropertyOp8
 70
     1
102
RTVSPropertyOp9
 70
     1
102
RTVSPropertyOp10
 70
     1
102
RTVSPropertyOp11
 70
     1
102
RTVSPropertyOp12
 70
     1
102
RTVSPropertyOp13
 70
     1
102
RTVSPropertyOp14
 70
     1
102
RTVSPropertyOp15
 70
     1
102
RTVSPropertyOp16
 70
     1
102
RTVSPropertyOp17
 70
     1
102
RTVSPropertyOp18
 70
     1
102
RTVSPropertyOp19
 70
     1
102
RTVSPropertyOp20
 70
     1
102
RTVSPropertyOp21
 70
     1
102
RTVSPropertyOp22
 70
     1
102
RTVSPropertyOp23
 70
     1
102
RTVSPropertyOp24
 70
     1
102
RTVSPropertyOp25
 70
     1
102
RTVSPropertyOp26
 70
     1
102
RTVSPropertyOp27
 70
     1
102
RTVSPropertyOp28
 70
     1
102
RTVSPropertyOp29
 70
     1
102
RTVSPropertyOp30
 70
     1
102
RTVSPropertyOp31
 70
     1
102
RTVSPropertyOp32
 70
     1
102
RTVSPropertyOp33
 70
     1
102
RTVSPropertyOp34
 70
     1
102
RTVSPropertyOp35
 70
     1
102
RTVSPropertyOp36
 70
     1
102
RTVSPropertyOp37
 70
     1
102
RTVSPropertyOp38
 70
     1
102
RTVSPropertyOp39
 70
     1
102
RTVSPropertyOp40
 70
     1
102
RTVSPropertyOp41
 70
     1
102
RTVSPropertyOp42
 70
     1
102
RTVSPropertyOp43
 70
     1
102
RTVSPropertyOp44
 70
     1
102
RTVSPropertyOp45
 70
     1
102
RTVSPropertyOp46
 70
     1
102
RTVSPropertyOp47
 70
     1
102
RTVSPropertyOp48
 70
     1
102
RTVSPropertyOp49
 70
     1
102
RTVSPropertyOp50
 70
     1
102
RTVSPropertyOp51
 70
     0
102
RTVSPropertyOp52
 70
     0
102
RTVSPropertyOp53
 70
     1
102
RTVSPropertyOp54
 70
     1
102
RTVSPropertyOp55
 70
     1
102
RTVSPropertyOp56
 70
     1
102
RTVSPropertyOp57
 70
     1
102
RTVSPropertyOp58
 70
     1
102
RTVSPropertyOp59
 70
     1
102
RTVSPropertyOp60
 70
     1
102
RTVSPropertyOp61
 70
     1
102
RTVSPropertyOp62
 70
     1
  0
XRECORD
  5
A15
102
{ACAD_REACTORS
330
A14
102
}
330
A14
100
AcDbXrecord
280
     1
102
RTVSPost2010Prop28
280
     0
102
RTVSPost2010PropOp28
 70
     1
102
RTVSPost2010Prop29
280
     1
102
RTVSPost2010PropOp29
 70
     1
102
RTVSPost2010Prop30
280
     1
102
RTVSPost2010PropOp30
 70
     1
102
RTVSPost2010Prop31
280
     0
102
RTVSPost2010PropOp31
 70
     1
102
RTVSPost2010Prop32
280
     0
102
RTVSPost2010PropOp32
 70
     1
102
RTVSPost2010Prop33
280
     0
102
RTVSPost2010PropOp33
 70
     1
102
RTVSPost2010Prop34
280
     0
102
RTVSPost2010PropOp34
 70
     1
102
RTVSPost2010Prop35
280
     0
102
RTVSPost2010PropOp35
 70
     1
102
RTVSPost2010Prop36
280
     0
102
RTVSPost2010PropOp36
 70
     1
102
RTVSPost2010Prop37
 90
       50
102
RTVSPost2010PropOp37
 70
     1
102
RTVSPost2010Prop38
140
0.0
102
RTVSPost2010PropOp38
 70
     1
102
RTVSPost2010Prop39
140
1.0
102
RTVSPost2010PropOp39
 70
     1
102
RTVSPost2010Prop40
 90
        0
102
RTVSPost2010PropOp40
 70
     1
102
RTVSPost2010Prop41ColorIndex
 90
       18
102
RTVSPost2010Prop41ColorRGB
 90
-16777216
102
RTVSPost2010PropOp41
 70
     1
102
RTVSPost2010Prop42
 90
       50
102
RTVSPost2010PropOp42
 70
     1
102
RTVSPost2010Prop43
 90
        3
102
RTVSPost2010PropOp43
 70
     1
102
RTVSPost2010Prop44ColorIndex
 90
        5
102
RTVSPost2010Prop44ColorRGB
 90
      255
102
RTVSPost2010PropOp44
 70
     1
102
RTVSPost2010Prop45
280
     0
102
RTVSPost2010PropOp45
 70
     1
102
RTVSPost2010Prop46
 90
       50
102
RTVSPost2010PropOp46
 70
     1
102
RTVSPost2010Prop47
 90
       50
102
RTVSPost2010PropOp47
 70
     1
102
RTVSPost2010Prop48
 90
       50
102
RTVSPost2010PropOp48
 70
     1
102
RTVSPost2010Prop49
280
     0
102
RTVSPost2010PropOp49
 70
     1
102
RTVSPost2010Prop50
 90
       50
102
RTVSPost2010PropOp50
 70
     1
102
RTVSPost2010Prop51ColorIndex
 90
      256
102
RTVSPost2010Prop51ColorRGB
 90
-16777216
102
RTVSPost2010PropOp51
 70
     0
102
RTVSPost2010Prop52
140
1.0
102
RTVSPost2010PropOp52
 70
     0
102
RTVSPost2010Prop53
 90
        2
102
RTVSPost2010PropOp53
 70
     1
102
RTVSPost2010Prop54
  1
strokes_ogs.tif
102
RTVSPost2010PropOp54
 70
     1
102
RTVSPost2010Prop55
280
     0
102
RTVSPost2010PropOp55
 70
     1
102
RTVSPost2010Prop56
140
1.0
102
RTVSPost2010PropOp56
 70
     1
102
RTVSPost2010Prop57
140
1.0
102
RTVSPost2010PropOp57
 70
     1
102
RTVSPropertyOp0
 70
     1
102
RTVSPropertyOp1
 70
     1
102
RTVSPropertyOp2
 70
     1
102
RTVSPropertyOp3
 70
     1
102
RTVSPropertyOp4
 70
     1
102
RTVSPropertyOp5
 70
     1
102
RTVSPropertyOp6
 70
     1
102
RTVSPropertyOp7
 70
     1
102
RTVSPropertyOp8
 70
     1
102
RTVSPropertyOp9
 70
     1
102
RTVSPropertyOp10
 70
     1
102
RTVSPropertyOp11
 70
     1
102
RTVSPropertyOp12
 70
     1
102
RTVSPropertyOp13
 70
     1
102
RTVSPropertyOp14
 70
     1
102
RTVSPropertyOp15
 70
     1
102
RTVSPropertyOp16
 70
     1
102
RTVSPropertyOp17
 70
     1
102
RTVSPropertyOp18
 70
     1
102
RTVSPropertyOp19
 70
     1
102
RTVSPropertyOp20
 70
     1
102
RTVSPropertyOp21
 70
     1
102
RTVSPropertyOp22
 70
     1
102
RTVSPropertyOp23
 70
     1
102
RTVSPropertyOp24
 70
     1
102
RTVSPropertyOp25
 70
     1
102
RTVSPropertyOp26
 70
     1
102
RTVSPropertyOp27
 70
     1
102
RTVSPropertyOp28
 70
     1
102
RTVSPropertyOp29
 70
     1
102
RTVSPropertyOp30
 70
     1
102
RTVSPropertyOp31
 70
     1
102
RTVSPropertyOp32
 70
     1
102
RTVSPropertyOp33
 70
     1
102
RTVSPropertyOp34
 70
     1
102
RTVSPropertyOp35
 70
     1
102
RTVSPropertyOp36
 70
     1
102
RTVSPropertyOp37
 70
     1
102
RTVSPropertyOp38
 70
     1
102
RTVSPropertyOp39
 70
     1
102
RTVSPropertyOp40
 70
     1
102
RTVSPropertyOp41
 70
     1
102
RTVSPropertyOp42
 70
     1
102
RTVSPropertyOp43
 70
     1
102
RTVSPropertyOp44
 70
     1
102
RTVSPropertyOp45
 70
     1
102
RTVSPropertyOp46
 70
     1
102
RTVSPropertyOp47
 70
     1
102
RTVSPropertyOp48
 70
     1
102
RTVSPropertyOp49
 70
     1
102
RTVSPropertyOp50
 70
     1
102
RTVSPropertyOp51
 70
     0
102
RTVSPropertyOp52
 70
     0
102
RTVSPropertyOp53
 70
     1
102
RTVSPropertyOp54
 70
     1
102
RTVSPropertyOp55
 70
     1
102
RTVSPropertyOp56
 70
     1
102
RTVSPropertyOp57
 70
     1
102
RTVSPropertyOp58
 70
     1
102
RTVSPropertyOp59
 70
     1
102
RTVSPropertyOp60
 70
     1
102
RTVSPropertyOp61
 70
     1
102
RTVSPropertyOp62
 70
     1
  0
XRECORD
  5
A09
102
{ACAD_REACTORS
330
A08
102
}
330
A08
100
AcDbXrecord
280
     1
102
RTVSPost2010Prop28
280
     0
102
RTVSPost2010PropOp28
 70
     1
102
RTVSPost2010Prop29
280
     1
102
RTVSPost2010PropOp29
 70
     1
102
RTVSPost2010Prop30
280
     1
102
RTVSPost2010PropOp30
 70
     1
102
RTVSPost2010Prop31
280
     0
102
RTVSPost2010PropOp31
 70
     1
102
RTVSPost2010Prop32
280
     0
102
RTVSPost2010PropOp32
 70
     1
102
RTVSPost2010Prop33
280
     0
102
RTVSPost2010PropOp33
 70
     1
102
RTVSPost2010Prop34
280
     0
102
RTVSPost2010PropOp34
 70
     1
102
RTVSPost2010Prop35
280
     0
102
RTVSPost2010PropOp35
 70
     1
102
RTVSPost2010Prop36
280
     0
102
RTVSPost2010PropOp36
 70
     1
102
RTVSPost2010Prop37
 90
       50
102
RTVSPost2010PropOp37
 70
     1
102
RTVSPost2010Prop38
140
0.0
102
RTVSPost2010PropOp38
 70
     1
102
RTVSPost2010Prop39
140
1.0
102
RTVSPost2010PropOp39
 70
     1
102
RTVSPost2010Prop40
 90
        0
102
RTVSPost2010PropOp40
 70
     1
102
RTVSPost2010Prop41ColorIndex
 90
       18
102
RTVSPost2010Prop41ColorRGB
 90
-16777216
102
RTVSPost2010PropOp41
 70
     1
102
RTVSPost2010Prop42
 90
       50
102
RTVSPost2010PropOp42
 70
     1
102
RTVSPost2010Prop43
 90
        3
102
RTVSPost2010PropOp43
 70
     1
102
RTVSPost2010Prop44ColorIndex
 90
        5
102
RTVSPost2010Prop44ColorRGB
 90
      255
102
RTVSPost2010PropOp44
 70
     1
102
RTVSPost2010Prop45
280
     0
102
RTVSPost2010PropOp45
 70
     1
102
RTVSPost2010Prop46
 90
       50
102
RTVSPost2010PropOp46
 70
     1
102
RTVSPost2010Prop47
 90
       50
102
RTVSPost2010PropOp47
 70
     1
102
RTVSPost2010Prop48
 90
       50
102
RTVSPost2010PropOp48
 70
     1
102
RTVSPost2010Prop49
280
     0
102
RTVSPost2010PropOp49
 70
     1
102
RTVSPost2010Prop50
 90
       50
102
RTVSPost2010PropOp50
 70
     1
102
RTVSPost2010Prop51ColorIndex
 90
      256
102
RTVSPost2010Prop51ColorRGB
 90
-16777216
102
RTVSPost2010PropOp51
 70
     0
102
RTVSPost2010Prop52
140
1.0
102
RTVSPost2010PropOp52
 70
     0
102
RTVSPost2010Prop53
 90
        2
102
RTVSPost2010PropOp53
 70
     1
102
RTVSPost2010Prop54
  1
strokes_ogs.tif
102
RTVSPost2010PropOp54
 70
     1
102
RTVSPost2010Prop55
280
     0
102
RTVSPost2010PropOp55
 70
     1
102
RTVSPost2010Prop56
140
1.0
102
RTVSPost2010PropOp56
 70
     1
102
RTVSPost2010Prop57
140
1.0
102
RTVSPost2010PropOp57
 70
     1
102
RTVSPropertyOp0
 70
     1
102
RTVSPropertyOp1
 70
     1
102
RTVSPropertyOp2
 70
     1
102
RTVSPropertyOp3
 70
     1
102
RTVSPropertyOp4
 70
     1
102
RTVSPropertyOp5
 70
     1
102
RTVSPropertyOp6
 70
     1
102
RTVSPropertyOp7
 70
     1
102
RTVSPropertyOp8
 70
     1
102
RTVSPropertyOp9
 70
     1
102
RTVSPropertyOp10
 70
     1
102
RTVSPropertyOp11
 70
     1
102
RTVSPropertyOp12
 70
     1
102
RTVSPropertyOp13
 70
     1
102
RTVSPropertyOp14
 70
     1
102
RTVSPropertyOp15
 70
     1
102
RTVSPropertyOp16
 70
     1
102
RTVSPropertyOp17
 70
     1
102
RTVSPropertyOp18
 70
     1
102
RTVSPropertyOp19
 70
     1
102
RTVSPropertyOp20
 70
     1
102
RTVSPropertyOp21
 70
     1
102
RTVSPropertyOp22
 70
     1
102
RTVSPropertyOp23
 70
     1
102
RTVSPropertyOp24
 70
     1
102
RTVSPropertyOp25
 70
     1
102
RTVSPropertyOp26
 70
     1
102
RTVSPropertyOp27
 70
     1
102
RTVSPropertyOp28
 70
     1
102
RTVSPropertyOp29
 70
     1
102
RTVSPropertyOp30
 70
     1
102
RTVSPropertyOp31
 70
     1
102
RTVSPropertyOp32
 70
     1
102
RTVSPropertyOp33
 70
     1
102
RTVSPropertyOp34
 70
     1
102
RTVSPropertyOp35
 70
     1
102
RTVSPropertyOp36
 70
     1
102
RTVSPropertyOp37
 70
     1
102
RTVSPropertyOp38
 70
     1
102
RTVSPropertyOp39
 70
     1
102
RTVSPropertyOp40
 70
     1
102
RTVSPropertyOp41
 70
     1
102
RTVSPropertyOp42
 70
     1
102
RTVSPropertyOp43
 70
     1
102
RTVSPropertyOp44
 70
     1
102
RTVSPropertyOp45
 70
     1
102
RTVSPropertyOp46
 70
     1
102
RTVSPropertyOp47
 70
     1
102
RTVSPropertyOp48
 70
     1
102
RTVSPropertyOp49
 70
     1
102
RTVSPropertyOp50
 70
     1
102
RTVSPropertyOp51
 70
     0
102
RTVSPropertyOp52
 70
     0
102
RTVSPropertyOp53
 70
     1
102
RTVSPropertyOp54
 70
     1
102
RTVSPropertyOp55
 70
     1
102
RTVSPropertyOp56
 70
     1
102
RTVSPropertyOp57
 70
     1
102
RTVSPropertyOp58
 70
     1
102
RTVSPropertyOp59
 70
     1
102
RTVSPropertyOp60
 70
     1
102
RTVSPropertyOp61
 70
     1
102
RTVSPropertyOp62
 70
     1
  0
XRECORD
  5
A21
102
{ACAD_REACTORS
330
A20
102
}
330
A20
100
AcDbXrecord
280
     1
102
RTVSPost2010Prop28
280
     0
102
RTVSPost2010PropOp28
 70
     1
102
RTVSPost2010Prop29
280
     1
102
RTVSPost2010PropOp29
 70
     1
102
RTVSPost2010Prop30
280
     1
102
RTVSPost2010PropOp30
 70
     1
102
RTVSPost2010Prop31
280
     0
102
RTVSPost2010PropOp31
 70
     1
102
RTVSPost2010Prop32
280
     0
102
RTVSPost2010PropOp32
 70
     1
102
RTVSPost2010Prop33
280
     0
102
RTVSPost2010PropOp33
 70
     1
102
RTVSPost2010Prop34
280
     0
102
RTVSPost2010PropOp34
 70
     1
102
RTVSPost2010Prop35
280
     0
102
RTVSPost2010PropOp35
 70
     1
102
RTVSPost2010Prop36
280
     0
102
RTVSPost2010PropOp36
 70
     1
102
RTVSPost2010Prop37
 90
       50
102
RTVSPost2010PropOp37
 70
     1
102
RTVSPost2010Prop38
140
0.0
102
RTVSPost2010PropOp38
 70
     1
102
RTVSPost2010Prop39
140
1.0
102
RTVSPost2010PropOp39
 70
     1
102
RTVSPost2010Prop40
 90
        0
102
RTVSPost2010PropOp40
 70
     1
102
RTVSPost2010Prop41ColorIndex
 90
       18
102
RTVSPost2010Prop41ColorRGB
 90
-16777216
102
RTVSPost2010PropOp41
 70
     1
102
RTVSPost2010Prop42
 90
       50
102
RTVSPost2010PropOp42
 70
     1
102
RTVSPost2010Prop43
 90
        3
102
RTVSPost2010PropOp43
 70
     1
102
RTVSPost2010Prop44ColorIndex
 90
        5
102
RTVSPost2010Prop44ColorRGB
 90
      255
102
RTVSPost2010PropOp44
 70
     1
102
RTVSPost2010Prop45
280
     0
102
RTVSPost2010PropOp45
 70
     1
102
RTVSPost2010Prop46
 90
       50
102
RTVSPost2010PropOp46
 70
     1
102
RTVSPost2010Prop47
 90
       50
102
RTVSPost2010PropOp47
 70
     1
102
RTVSPost2010Prop48
 90
       50
102
RTVSPost2010PropOp48
 70
     1
102
RTVSPost2010Prop49
280
     0
102
RTVSPost2010PropOp49
 70
     1
102
RTVSPost2010Prop50
 90
       50
102
RTVSPost2010PropOp50
 70
     1
102
RTVSPost2010Prop51ColorIndex
 90
      256
102
RTVSPost2010Prop51ColorRGB
 90
-16777216
102
RTVSPost2010PropOp51
 70
     0
102
RTVSPost2010Prop52
140
1.0
102
RTVSPost2010PropOp52
 70
     0
102
RTVSPost2010Prop53
 90
        2
102
RTVSPost2010PropOp53
 70
     1
102
RTVSPost2010Prop54
  1
strokes_ogs.tif
102
RTVSPost2010PropOp54
 70
     1
102
RTVSPost2010Prop55
280
     0
102
RTVSPost2010PropOp55
 70
     1
102
RTVSPost2010Prop56
140
1.0
102
RTVSPost2010PropOp56
 70
     1
102
RTVSPost2010Prop57
140
1.0
102
RTVSPost2010PropOp57
 70
     1
102
RTVSPropertyOp0
 70
     1
102
RTVSPropertyOp1
 70
     1
102
RTVSPropertyOp2
 70
     1
102
RTVSPropertyOp3
 70
     1
102
RTVSPropertyOp4
 70
     1
102
RTVSPropertyOp5
 70
     1
102
RTVSPropertyOp6
 70
     1
102
RTVSPropertyOp7
 70
     1
102
RTVSPropertyOp8
 70
     1
102
RTVSPropertyOp9
 70
     1
102
RTVSPropertyOp10
 70
     1
102
RTVSPropertyOp11
 70
     1
102
RTVSPropertyOp12
 70
     1
102
RTVSPropertyOp13
 70
     1
102
RTVSPropertyOp14
 70
     1
102
RTVSPropertyOp15
 70
     1
102
RTVSPropertyOp16
 70
     1
102
RTVSPropertyOp17
 70
     1
102
RTVSPropertyOp18
 70
     1
102
RTVSPropertyOp19
 70
     1
102
RTVSPropertyOp20
 70
     1
102
RTVSPropertyOp21
 70
     1
102
RTVSPropertyOp22
 70
     1
102
RTVSPropertyOp23
 70
     1
102
RTVSPropertyOp24
 70
     1
102
RTVSPropertyOp25
 70
     1
102
RTVSPropertyOp26
 70
     1
102
RTVSPropertyOp27
 70
     1
102
RTVSPropertyOp28
 70
     1
102
RTVSPropertyOp29
 70
     1
102
RTVSPropertyOp30
 70
     1
102
RTVSPropertyOp31
 70
     1
102
RTVSPropertyOp32
 70
     1
102
RTVSPropertyOp33
 70
     1
102
RTVSPropertyOp34
 70
     1
102
RTVSPropertyOp35
 70
     1
102
RTVSPropertyOp36
 70
     1
102
RTVSPropertyOp37
 70
     1
102
RTVSPropertyOp38
 70
     1
102
RTVSPropertyOp39
 70
     1
102
RTVSPropertyOp40
 70
     1
102
RTVSPropertyOp41
 70
     1
102
RTVSPropertyOp42
 70
     1
102
RTVSPropertyOp43
 70
     1
102
RTVSPropertyOp44
 70
     1
102
RTVSPropertyOp45
 70
     1
102
RTVSPropertyOp46
 70
     1
102
RTVSPropertyOp47
 70
     1
102
RTVSPropertyOp48
 70
     1
102
RTVSPropertyOp49
 70
     1
102
RTVSPropertyOp50
 70
     1
102
RTVSPropertyOp51
 70
     0
102
RTVSPropertyOp52
 70
     0
102
RTVSPropertyOp53
 70
     1
102
RTVSPropertyOp54
 70
     1
102
RTVSPropertyOp55
 70
     1
102
RTVSPropertyOp56
 70
     1
102
RTVSPropertyOp57
 70
     1
102
RTVSPropertyOp58
 70
     1
102
RTVSPropertyOp59
 70
     1
102
RTVSPropertyOp60
 70
     1
102
RTVSPropertyOp61
 70
     1
102
RTVSPropertyOp62
 70
     1
  0
ENDSEC
  0
EOF
