  0
SECTION
  2
HEADER
  9
$ACADVER
  1
AC1015
  9
$ACADMAINTVER
 70
    20
  9
$DWGCODEPAGE
  3
ANSI_1252
  9
$INSBASE
 10
0.0
 20
0.0
 30
0.0
  9
$EXTMIN
 10
-0.0290981518080571
 20
-0.0118694843495177
 30
-0.0000000000000022
  9
$EXTMAX
 10
577.6094550362159
 20
448.6197566310091
 30
0.0000000000000132
  9
$LIMMIN
 10
0.0
 20
0.0
  9
$LIMMAX
 10
12.0
 20
9.0
  9
$ORTHOMODE
 70
     1
  9
$REGENMODE
 70
     1
  9
$FILLMODE
 70
     1
  9
$QTEXTMODE
 70
     0
  9
$MIRRTEXT
 70
     0
  9
$LTSCALE
 40
1.0
  9
$ATTMODE
 70
     1
  9
$TEXTSIZE
 40
0.2
  9
$TRACEWID
 40
0.05
  9
$TEXTSTYLE
  7
Standard
  9
$CLAYER
  8
0
  9
$CELTYPE
  6
ByLayer
  9
$CECOLOR
 62
   256
  9
$CELTSCALE
 40
1.0
  9
$DISPSILH
 70
     0
  9
$DIMSCALE
 40
1.0
  9
$DIMASZ
 40
0.18
  9
$DIMEXO
 40
0.0625
  9
$DIMDLI
 40
0.38
  9
$DIMRND
 40
0.0
  9
$DIMDLE
 40
0.0
  9
$DIMEXE
 40
0.18
  9
$DIMTP
 40
0.0
  9
$DIMTM
 40
0.0
  9
$DIMTXT
 40
0.18
  9
$DIMCEN
 40
0.09
  9
$DIMTSZ
 40
0.0
  9
$DIMTOL
 70
     0
  9
$DIMLIM
 70
     0
  9
$DIMTIH
 70
     1
  9
$DIMTOH
 70
     1
  9
$DIMSE1
 70
     0
  9
$DIMSE2
 70
     0
  9
$DIMTAD
 70
     0
  9
$DIMZIN
 70
     0
  9
$DIMBLK
  1

  9
$DIMASO
 70
     1
  9
$DIMSHO
 70
     1
  9
$DIMPOST
  1

  9
$DIMAPOST
  1

  9
$DIMALT
 70
     0
  9
$DIMALTD
 70
     2
  9
$DIMALTF
 40
25.4
  9
$DIMLFAC
 40
1.0
  9
$DIMTOFL
 70
     0
  9
$DIMTVP
 40
0.0
  9
$DIMTIX
 70
     0
  9
$DIMSOXD
 70
     0
  9
$DIMSAH
 70
     0
  9
$DIMBLK1
  1

  9
$DIMBLK2
  1

  9
$DIMSTYLE
  2
Standard
  9
$DIMCLRD
 70
     0
  9
$DIMCLRE
 70
     0
  9
$DIMCLRT
 70
     0
  9
$DIMTFAC
 40
1.0
  9
$DIMGAP
 40
0.09
  9
$DIMJUST
 70
     0
  9
$DIMSD1
 70
     0
  9
$DIMSD2
 70
     0
  9
$DIMTOLJ
 70
     1
  9
$DIMTZIN
 70
     0
  9
$DIMALTZ
 70
     0
  9
$DIMALTTZ
 70
     0
  9
$DIMUPT
 70
     0
  9
$DIMDEC
 70
     4
  9
$DIMTDEC
 70
     4
  9
$DIMALTU
 70
     2
  9
$DIMALTTD
 70
     2
  9
$DIMTXSTY
  7
Standard
  9
$DIMAUNIT
 70
     0
  9
$DIMADEC
 70
     0
  9
$DIMALTRND
 40
0.0
  9
$DIMAZIN
 70
     0
  9
$DIMDSEP
 70
    46
  9
$DIMATFIT
 70
     3
  9
$DIMFRAC
 70
     0
  9
$DIMLDRBLK
  1

  9
$DIMLUNIT
 70
     2
  9
$DIMLWD
 70
    -2
  9
$DIMLWE
 70
    -2
  9
$DIMTMOVE
 70
     0
  9
$LUNITS
 70
     3
  9
$LUPREC
 70
     4
  9
$SKETCHINC
 40
0.1
  9
$FILLETRAD
 40
0.0
  9
$AUNITS
 70
     0
  9
$AUPREC
 70
     4
  9
$MENU
  1
.
  9
$ELEVATION
 40
0.0
  9
$PELEVATION
 40
0.0
  9
$THICKNESS
 40
0.0
  9
$LIMCHECK
 70
     0
  9
$CHAMFERA
 40
0.0
  9
$CHAMFERB
 40
0.0
  9
$CHAMFERC
 40
0.0
  9
$CHAMFERD
 40
0.0
  9
$SKPOLY
 70
     0
  9
$TDCREATE
 40
2455692.664443762
  9
$TDUCREATE
 40
2455692.831110428
  9
$TDUPDATE
 40
2456504.430702037
  9
$TDUUPDATE
 40
2456504.597368704
  9
$TDINDWG
 40
0.0027596991
  9
$TDUSRTIMER
 40
0.0027594907
  9
$USRTIMER
 70
     1
  9
$ANGBASE
 50
0.0
  9
$ANGDIR
 70
     0
  9
$PDMODE
 70
     0
  9
$PDSIZE
 40
0.0
  9
$PLINEWID
 40
0.0
  9
$SPLFRAME
 70
     0
  9
$SPLINETYPE
 70
     6
  9
$SPLINESEGS
 70
     8
  9
$HANDSEED
  5
3C0
  9
$SURFTAB1
 70
     6
  9
$SURFTAB2
 70
     6
  9
$SURFTYPE
 70
     6
  9
$SURFU
 70
     6
  9
$SURFV
 70
     6
  9
$UCSBASE
  2

  9
$UCSNAME
  2

  9
$UCSORG
 10
0.0
 20
0.0
 30
0.0
  9
$UCSXDIR
 10
1.0
 20
0.0
 30
0.0
  9
$UCSYDIR
 10
0.0
 20
1.0
 30
0.0
  9
$UCSORTHOREF
  2

  9
$UCSORTHOVIEW
 70
     0
  9
$UCSORGTOP
 10
0.0
 20
0.0
 30
0.0
  9
$UCSORGBOTTOM
 10
0.0
 20
0.0
 30
0.0
  9
$UCSORGLEFT
 10
0.0
 20
0.0
 30
0.0
  9
$UCSORGRIGHT
 10
0.0
 20
0.0
 30
0.0
  9
$UCSORGFRONT
 10
0.0
 20
0.0
 30
0.0
  9
$UCSORGBACK
 10
0.0
 20
0.0
 30
0.0
  9
$PUCSBASE
  2

  9
$PUCSNAME
  2

  9
$PUCSORG
 10
0.0
 20
0.0
 30
0.0
  9
$PUCSXDIR
 10
1.0
 20
0.0
 30
0.0
  9
$PUCSYDIR
 10
0.0
 20
1.0
 30
0.0
  9
$PUCSORTHOREF
  2

  9
$PUCSORTHOVIEW
 70
     0
  9
$PUCSORGTOP
 10
0.0
 20
0.0
 30
0.0
  9
$PUCSORGBOTTOM
 10
0.0
 20
0.0
 30
0.0
  9
$PUCSORGLEFT
 10
0.0
 20
0.0
 30
0.0
  9
$PUCSORGRIGHT
 10
0.0
 20
0.0
 30
0.0
  9
$PUCSORGFRONT
 10
0.0
 20
0.0
 30
0.0
  9
$PUCSORGBACK
 10
0.0
 20
0.0
 30
0.0
  9
$USERI1
 70
     0
  9
$USERI2
 70
     0
  9
$USERI3
 70
     0
  9
$USERI4
 70
     0
  9
$USERI5
 70
     0
  9
$USERR1
 40
0.0
  9
$USERR2
 40
0.0
  9
$USERR3
 40
0.0
  9
$USERR4
 40
0.0
  9
$USERR5
 40
0.0
  9
$WORLDVIEW
 70
     1
  9
$SHADEDGE
 70
     3
  9
$SHADEDIF
 70
    70
  9
$TILEMODE
 70
     1
  9
$MAXACTVP
 70
    64
  9
$PINSBASE
 10
0.0
 20
0.0
 30
0.0
  9
$PLIMCHECK
 70
     0
  9
$PEXTMIN
 10
1.000000000000000E+20
 20
1.000000000000000E+20
 30
1.000000000000000E+20
  9
$PEXTMAX
 10
-1.000000000000000E+20
 20
-1.000000000000000E+20
 30
-1.000000000000000E+20
  9
$PLIMMIN
 10
0.0
 20
0.0
  9
$PLIMMAX
 10
12.0
 20
9.0
  9
$UNITMODE
 70
     0
  9
$VISRETAIN
 70
     1
  9
$PLINEGEN
 70
     0
  9
$PSLTSCALE
 70
     1
  9
$TREEDEPTH
 70
  3020
  9
$CMLSTYLE
  2
Standard
  9
$CMLJUST
 70
     0
  9
$CMLSCALE
 40
1.0
  9
$PROXYGRAPHICS
 70
     1
  9
$MEASUREMENT
 70
     0
  9
$CELWEIGHT
370
    -1
  9
$ENDCAPS
280
     0
  9
$JOINSTYLE
280
     0
  9
$LWDISPLAY
290
     1
  9
$INSUNITS
 70
     1
  9
$HYPERLINKBASE
  1

  9
$STYLESHEET
  1

  9
$XEDIT
290
     1
  9
$CEPSNTYPE
380
     0
  9
$PSTYLEMODE
290
     1
  9
$FINGERPRINTGUID
  2
{AC5C47BC-17B1-4A30-A691-D8CF429D9461}
  9
$VERSIONGUID
  2
{1275C6DC-B45F-433F-A93D-3CE1861502F7}
  9
$EXTNAMES
290
     1
  9
$PSVPSCALE
 40
0.0
  9
$OLESTARTUP
290
     0
  0
ENDSEC
  0
SECTION
  2
CLASSES
  0
CLASS
  1
ACDBDICTIONARYWDFLT
  2
AcDbDictionaryWithDefault
  3
ObjectDBX Classes
 90
        0
280
     0
281
     0
  0
CLASS
  1
MATERIAL
  2
AcDbMaterial
  3
ObjectDBX Classes
 90
     1153
280
     0
281
     0
  0
CLASS
  1
VISUALSTYLE
  2
AcDbVisualStyle
  3
ObjectDBX Classes
 90
     4095
280
     0
281
     0
  0
CLASS
  1
SCALE
  2
AcDbScale
  3
ObjectDBX Classes
 90
     1153
280
     0
281
     0
  0
CLASS
  1
TABLESTYLE
  2
AcDbTableStyle
  3
ObjectDBX Classes
 90
     4095
280
     0
281
     0
  0
CLASS
  1
MLEADERSTYLE
  2
AcDbMLeaderStyle
  3
ACDB_MLEADERSTYLE_CLASS
 90
     4095
280
     0
281
     0
  0
CLASS
  1
EXACXREFPANELOBJECT
  2
ExAcXREFPanelObject
  3
EXAC_ESW
 90
     1025
280
     0
281
     0
  0
CLASS
  1
NPOCOLLECTION
  2
AcDbImpNonPersistentObjectsCollection
  3
ObjectDBX Classes
 90
     1153
280
     0
281
     0
  0
CLASS
  1
EXACTERMXREFMAP
  2
ExAcTermXrefMap
  3
EXAC_SERVICE
 90
    33793
280
     0
281
     0
  0
CLASS
  1
VAACTERMXREFMAP
  2
VaAcTermXrefMap
  3
VAAC_ADDIN
 90
    33793
280
     0
281
     0
  0
CLASS
  1
SORTENTSTABLE
  2
AcDbSortentsTable
  3
ObjectDBX Classes
 90
        0
280
     0
281
     0
  0
CLASS
  1
DICTIONARYVAR
  2
AcDbDictionaryVar
  3
ObjectDBX Classes
 90
        0
280
     0
281
     0
  0
CLASS
  1
CELLSTYLEMAP
  2
AcDbCellStyleMap
  3
ObjectDBX Classes
 90
     1152
280
     0
281
     0
  0
CLASS
  1
ACDBPLACEHOLDER
  2
AcDbPlaceHolder
  3
ObjectDBX Classes
 90
        0
280
     0
281
     0
  0
CLASS
  1
LAYOUT
  2
AcDbLayout
  3
ObjectDBX Classes
 90
        0
280
     0
281
     0
  0
ENDSEC
  0
SECTION
  2
TABLES
  0
TABLE
  2
VPORT
  5
8
330
0
100
AcDbSymbolTable
 70
     1
  0
VPORT
  5
57
330
8
100
AcDbSymbolTableRecord
100
AcDbViewportTableRecord
  2
*Active
 70
     0
 10
0.0
 20
0.0
 11
1.0
 21
1.0
 12
288.7901784422039
 22
224.3039435733298
 13
0.0
 23
0.0
 14
0.5
 24
0.5
 15
0.000125
 25
0.000125
 16
0.0
 26
0.0
 36
1.0
 17
0.0
 27
0.0
 37
0.0
 40
451.645948351296
 41
1.76457399103139
 42
50.0
 43
0.0
 44
0.0
 50
0.0
 51
0.0
 71
     0
 72
  1000
 73
     1
 74
     2
 75
     0
 76
     1
 77
     0
 78
     0
281
     0
 65
     1
110
0.0
120
0.0
130
0.0
111
1.0
121
0.0
131
0.0
112
0.0
122
1.0
132
0.0
 79
     0
146
0.0
  0
ENDTAB
  0
TABLE
  2
LTYPE
  5
5
330
0
100
AcDbSymbolTable
 70
     6
  0
LTYPE
  5
5B
330
5
100
AcDbSymbolTableRecord
100
AcDbLinetypeTableRecord
  2
ByBlock
 70
     0
  3

 72
    65
 73
     0
 40
0.0
  0
LTYPE
  5
5C
330
5
100
AcDbSymbolTableRecord
100
AcDbLinetypeTableRecord
  2
ByLayer
 70
     0
  3

 72
    65
 73
     0
 40
0.0
  0
LTYPE
  5
5D
330
5
100
AcDbSymbolTableRecord
100
AcDbLinetypeTableRecord
  2
Continuous
 70
     0
  3
Solid line
 72
    65
 73
     0
 40
0.0
  0
LTYPE
  5
78
330
5
100
AcDbSymbolTableRecord
100
AcDbLinetypeTableRecord
  2
DGN7
 70
     0
  3
internal stroke component
 72
    65
 73
     4
 40
3.839999999999998
 49
1.919999999999999
 74
     0
 49
-0.72
 74
     0
 49
0.48
 74
     0
 49
-0.72
 74
     0
  0
LTYPE
  5
1D7
330
5
100
AcDbSymbolTableRecord
100
AcDbLinetypeTableRecord
  2
Schematic-Elevation-East-Mech-Default$0$DGN7
 70
     0
  3
internal stroke component
 72
    65
 73
     4
 40
4.615999999999998
 49
2.307999999999998
 74
     0
 49
-0.8655000000000001
 74
     0
 49
0.5770000000000001
 74
     0
 49
-0.8655000000000001
 74
     0
  0
LTYPE
  5
15C
330
5
100
AcDbSymbolTableRecord
100
AcDbLinetypeTableRecord
  2
Schematic-Elevation-South-Mech-Default$0$DGN7
 70
     0
  3
internal stroke component
 72
    65
 73
     4
 40
4.615999999999998
 49
2.307999999999998
 74
     0
 49
-0.8655000000000001
 74
     0
 49
0.5770000000000001
 74
     0
 49
-0.8655000000000001
 74
     0
  0
LTYPE
  5
EC
330
5
100
AcDbSymbolTableRecord
100
AcDbLinetypeTableRecord
  2
Schematic-FloorPlan-1-Mech-Default$0$DGN7
 70
     0
  3
internal stroke component
 72
    65
 73
     4
 40
32.18507600000001
 49
16.092538
 74
     0
 49
-6.034701749999999
 74
     0
 49
4.0231345
 74
     0
 49
-6.034701749999999
 74
     0
  0
LTYPE
  5
374
330
5
100
AcDbSymbolTableRecord
100
AcDbLinetypeTableRecord
  2
Hidden 1_16_
 70
     0
  3

 72
    65
 73
     2
 40
0.09375
 49
0.0625
 74
     0
 49
-0.03125
 74
     0
  0
ENDTAB
  0
TABLE
  2
LAYER
  5
2
330
0
100
AcDbSymbolTable
 70
     6
  0
LAYER
  5
54
330
2
100
AcDbSymbolTableRecord
100
AcDbLayerTableRecord
  2
0
 70
     0
 62
     7
  6
Continuous
370
    -3
390
F
  0
LAYER
  5
7E
330
2
100
AcDbSymbolTableRecord
100
AcDbLayerTableRecord
  2
Schematic-Elevation-East-Mech-Default$0$Mechan IntVol
 70
     0
 62
     7
  6
Continuous
370
    -3
390
F
1001
AcAecLayerStandard
1000

1000

  0
LAYER
  5
84
330
2
100
AcDbSymbolTableRecord
100
AcDbLayerTableRecord
  2
Schematic-Elevation-South-Mech-Default$0$Mechan IntVol
 70
     0
 62
     7
  6
Continuous
370
    -3
390
F
1001
AcAecLayerStandard
1000

1000

  0
LAYER
  5
89
330
2
100
AcDbSymbolTableRecord
100
AcDbLayerTableRecord
  2
Schematic-FloorPlan-1-Mech-Default$0$Mechan IntVol
 70
     0
 62
     7
  6
Continuous
370
    -3
390
F
1001
AcAecLayerStandard
1000

1000

  0
LAYER
  5
8A
330
2
100
AcDbSymbolTableRecord
100
AcDbLayerTableRecord
  2
Schematic-FloorPlan-1-Mech-Default$0$Elevations
 70
     0
 62
     7
  6
Continuous
370
    -3
390
F
1001
AcAecLayerStandard
1000

1000

  0
LAYER
  5
375
330
2
100
AcDbSymbolTableRecord
100
AcDbLayerTableRecord
  2
M-EQPT
 70
     0
 62
     2
  6
Continuous
370
    70
390
F
  0
ENDTAB
  0
TABLE
  2
STYLE
  5
3
330
0
100
AcDbSymbolTable
 70
     9
  0
STYLE
  5
55
330
3
100
AcDbSymbolTableRecord
100
AcDbTextStyleTableRecord
  2
Standard
 70
     0
 40
0.0
 41
1.0
 50
0.0
 71
     0
 42
0.2
  3
txt
  4

  0
STYLE
  5
5A
330
3
100
AcDbSymbolTableRecord
100
AcDbTextStyleTableRecord
  2
Annotative
 70
     0
 40
0.0
 41
1.0
 50
0.0
 71
     0
 42
0.2
  3
txt
  4

1001
AcadAnnotative
1000
AnnotativeData
1002
{
1070
     1
1070
     1
1002
}
  0
STYLE
  5
1D9
330
3
100
AcDbSymbolTableRecord
100
AcDbTextStyleTableRecord
  2
Schematic-Elevation-East-Mech-Default$0$Standard
 70
     0
 40
0.0
 41
1.0
 50
0.0
 71
     0
 42
0.2
  3
txt
  4

  0
STYLE
  5
220
330
3
100
AcDbSymbolTableRecord
100
AcDbTextStyleTableRecord
  2
Schematic-Elevation-East-Mech-Default$0$Annotative
 70
     0
 40
0.0
 41
1.0
 50
0.0
 71
     0
 42
0.2
  3
txt
  4

1001
AcadAnnotative
1000
AnnotativeData
1002
{
1070
     1
1070
     1
1002
}
  0
STYLE
  5
15E
330
3
100
AcDbSymbolTableRecord
100
AcDbTextStyleTableRecord
  2
Schematic-Elevation-South-Mech-Default$0$Standard
 70
     0
 40
0.0
 41
1.0
 50
0.0
 71
     0
 42
0.2
  3
txt
  4

  0
STYLE
  5
18C
330
3
100
AcDbSymbolTableRecord
100
AcDbTextStyleTableRecord
  2
Schematic-Elevation-South-Mech-Default$0$Annotative
 70
     0
 40
0.0
 41
1.0
 50
0.0
 71
     0
 42
0.2
  3
txt
  4

1001
AcadAnnotative
1000
AnnotativeData
1002
{
1070
     1
1070
     1
1002
}
  0
STYLE
  5
EE
330
3
100
AcDbSymbolTableRecord
100
AcDbTextStyleTableRecord
  2
Schematic-FloorPlan-1-Mech-Default$0$Standard
 70
     0
 40
0.0
 41
1.0
 50
0.0
 71
     0
 42
0.2
  3
txt
  4

  0
STYLE
  5
12A
330
3
100
AcDbSymbolTableRecord
100
AcDbTextStyleTableRecord
  2
Schematic-FloorPlan-1-Mech-Default$0$Annotative
 70
     0
 40
0.0
 41
1.0
 50
0.0
 71
     0
 42
0.2
  3
txt
  4

1001
AcadAnnotative
1000
AnnotativeData
1002
{
1070
     1
1070
     1
1002
}
  0
STYLE
  5
CF
330
3
100
AcDbSymbolTableRecord
100
AcDbTextStyleTableRecord
  2
Schematic-FloorPlan-1-Mech-Default$0$dgn003
 70
     0
 40
0.0
 41
1.0
 50
0.0
 71
     0
 42
0.2
  3
dgn003.shx
  4

  0
ENDTAB
  0
TABLE
  2
VIEW
  5
6
330
0
100
AcDbSymbolTable
 70
     0
  0
ENDTAB
  0
TABLE
  2
UCS
  5
7
330
0
100
AcDbSymbolTable
 70
     0
  0
ENDTAB
  0
TABLE
  2
APPID
  5
9
330
0
100
AcDbSymbolTable
 70
     6
  0
APPID
  5
56
330
9
100
AcDbSymbolTableRecord
100
AcDbRegAppTableRecord
  2
ACAD
 70
     0
  0
APPID
  5
5E
330
9
100
AcDbSymbolTableRecord
100
AcDbRegAppTableRecord
  2
AcadAnnotative
 70
     0
  0
APPID
  5
7F
330
9
100
AcDbSymbolTableRecord
100
AcDbRegAppTableRecord
  2
AcAecLayerStandard
 70
     0
  0
APPID
  5
2EB
330
9
100
AcDbSymbolTableRecord
100
AcDbRegAppTableRecord
  2
ACAD_EXEMPT_FROM_CAD_STANDARDS
 70
     0
  0
APPID
  5
33E
330
9
100
AcDbSymbolTableRecord
100
AcDbRegAppTableRecord
  2
ACAD_MLEADERVER
 70
     0
  0
APPID
  5
376
330
9
100
AcDbSymbolTableRecord
100
AcDbRegAppTableRecord
  2
REVIT
 70
     0
  0
ENDTAB
  0
TABLE
  2
DIMSTYLE
  5
A
330
0
100
AcDbSymbolTable
 70
     8
100
AcDbDimStyleTable
 71
     1
340
58
  0
DIMSTYLE
105
58
330
A
100
AcDbSymbolTableRecord
100
AcDbDimStyleTableRecord
  2
Standard
 70
     0
340
55
  0
DIMSTYLE
105
59
330
A
100
AcDbSymbolTableRecord
100
AcDbDimStyleTableRecord
  2
Annotative
 70
     0
340
55
1001
AcadAnnotative
1000
AnnotativeData
1002
{
1070
     1
1070
     1
1002
}
  0
DIMSTYLE
105
221
330
A
100
AcDbSymbolTableRecord
100
AcDbDimStyleTableRecord
  2
Schematic-Elevation-East-Mech-Default$0$Standard
 70
     0
340
1D9
  0
DIMSTYLE
105
222
330
A
100
AcDbSymbolTableRecord
100
AcDbDimStyleTableRecord
  2
Schematic-Elevation-East-Mech-Default$0$Annotative
 70
     0
340
1D9
1001
AcadAnnotative
1000
AnnotativeData
1002
{
1070
     1
1070
     1
1002
}
  0
DIMSTYLE
105
18D
330
A
100
AcDbSymbolTableRecord
100
AcDbDimStyleTableRecord
  2
Schematic-Elevation-South-Mech-Default$0$Standard
 70
     0
340
15E
  0
DIMSTYLE
105
18E
330
A
100
AcDbSymbolTableRecord
100
AcDbDimStyleTableRecord
  2
Schematic-Elevation-South-Mech-Default$0$Annotative
 70
     0
340
15E
1001
AcadAnnotative
1000
AnnotativeData
1002
{
1070
     1
1070
     1
1002
}
  0
DIMSTYLE
105
12B
330
A
100
AcDbSymbolTableRecord
100
AcDbDimStyleTableRecord
  2
Schematic-FloorPlan-1-Mech-Default$0$Standard
 70
     0
340
EE
  0
DIMSTYLE
105
12C
330
A
100
AcDbSymbolTableRecord
100
AcDbDimStyleTableRecord
  2
Schematic-FloorPlan-1-Mech-Default$0$Annotative
 70
     0
340
EE
1001
AcadAnnotative
1000
AnnotativeData
1002
{
1070
     1
1070
     1
1002
}
  0
ENDTAB
  0
TABLE
  2
BLOCK_RECORD
  5
1
330
0
100
AcDbSymbolTable
 70
    12
  0
BLOCK_RECORD
  5
6C
102
{ACAD_XDICTIONARY
360
8C
102
}
330
1
100
AcDbSymbolTableRecord
100
AcDbBlockTableRecord
  2
*Model_Space
340
6F
  0
BLOCK_RECORD
  5
68
330
1
100
AcDbSymbolTableRecord
100
AcDbBlockTableRecord
  2
*Paper_Space
340
6B
  0
BLOCK_RECORD
  5
70
330
1
100
AcDbSymbolTableRecord
100
AcDbBlockTableRecord
  2
*Paper_Space0
340
73
  0
BLOCK_RECORD
  5
7B
330
1
100
AcDbSymbolTableRecord
100
AcDbBlockTableRecord
  2
Schematic-Elevation-East-Mech-Default
340
0
  0
BLOCK_RECORD
  5
1DA
330
1
100
AcDbSymbolTableRecord
100
AcDbBlockTableRecord
  2
Schematic-Elevation-East-Mech-Default$0$COO0
340
0
  0
BLOCK_RECORD
  5
190
330
1
100
AcDbSymbolTableRecord
100
AcDbBlockTableRecord
  2
Schematic-Elevation-East-Mech-Default$0$COO01
340
0
102
{BLKREFS
331
18F
102
}
  0
BLOCK_RECORD
  5
81
330
1
100
AcDbSymbolTableRecord
100
AcDbBlockTableRecord
  2
Schematic-Elevation-South-Mech-Default
340
0
  0
BLOCK_RECORD
  5
15F
330
1
100
AcDbSymbolTableRecord
100
AcDbBlockTableRecord
  2
Schematic-Elevation-South-Mech-Default$0$COO0
340
0
  0
BLOCK_RECORD
  5
12E
330
1
100
AcDbSymbolTableRecord
100
AcDbBlockTableRecord
  2
Schematic-Elevation-South-Mech-Default$0$COO01
340
0
102
{BLKREFS
331
12D
102
}
  0
BLOCK_RECORD
  5
86
330
1
100
AcDbSymbolTableRecord
100
AcDbBlockTableRecord
  2
Schematic-FloorPlan-1-Mech-Default
340
0
  0
BLOCK_RECORD
  5
EF
330
1
100
AcDbSymbolTableRecord
100
AcDbBlockTableRecord
  2
Schematic-FloorPlan-1-Mech-Default$0$COO0
340
0
  0
BLOCK_RECORD
  5
8F
330
1
100
AcDbSymbolTableRecord
100
AcDbBlockTableRecord
  2
Schematic-FloorPlan-1-Mech-Default$0$COO01
340
0
102
{BLKREFS
331
8E
102
}
  0
BLOCK_RECORD
  5
34E
330
1
100
AcDbSymbolTableRecord
100
AcDbBlockTableRecord
  2
Cooling_Tower_-_rth - Mech0
340
0
102
{BLKREFS
331
378
102
}
  0
ENDTAB
  0
ENDSEC
  0
SECTION
  2
BLOCKS
  0
BLOCK
  5
6D
330
6C
100
AcDbEntity
  8
0
100
AcDbBlockBegin
  2
*Model_Space
 70
     0
 10
0.0
 20
0.0
 30
0.0
  3
*Model_Space
  1

  0
ENDBLK
  5
6E
330
6C
100
AcDbEntity
  8
0
100
AcDbBlockEnd
  0
BLOCK
  5
69
330
68
100
AcDbEntity
 67
     1
  8
0
100
AcDbBlockBegin
  2
*Paper_Space
 70
     0
 10
0.0
 20
0.0
 30
0.0
  3
*Paper_Space
  1

  0
ENDBLK
  5
6A
330
68
100
AcDbEntity
 67
     1
  8
0
100
AcDbBlockEnd
  0
BLOCK
  5
71
330
70
100
AcDbEntity
 67
     1
  8
0
100
AcDbBlockBegin
  2
*Paper_Space0
 70
     0
 10
0.0
 20
0.0
 30
0.0
  3
*Paper_Space0
  1

  0
ENDBLK
  5
72
330
70
100
AcDbEntity
 67
     1
  8
0
100
AcDbBlockEnd
  0
BLOCK
  5
7C
330
7B
100
AcDbEntity
  8
0
100
AcDbBlockBegin
  2
Schematic-Elevation-East-Mech-Default
 70
     0
 10
0.0
 20
0.0
 30
0.0
  3
Schematic-Elevation-East-Mech-Default
  1
L:\DSGN\Revit Content\BAC Web Site Support\Series 3000\Schematic-Elevation-East-Mech-Default.dwg
  0
INSERT
  5
18F
330
7B
100
AcDbEntity
  8
Schematic-Elevation-East-Mech-Default$0$Mechan IntVol
  6
Continuous
370
     0
100
AcDbBlockReference
  2
Schematic-Elevation-East-Mech-Default$0$COO01
 10
0.0
 20
0.0
 30
0.0
  0
ENDBLK
  5
7D
330
7B
100
AcDbEntity
  8
0
100
AcDbBlockEnd
  0
BLOCK
  5
1DB
330
1DA
100
AcDbEntity
  8
0
100
AcDbBlockBegin
  2
Schematic-Elevation-East-Mech-Default$0$COO0
 70
     0
 10
0.0
 20
0.0
 30
0.0
  3
Schematic-Elevation-East-Mech-Default$0$COO0
  1

  0
LINE
  5
1DC
330
1DA
100
AcDbEntity
  8
Schematic-Elevation-East-Mech-Default$0$Mechan IntVol
  6
Continuous
370
     0
100
AcDbLine
 10
193.409375
 20
217.5
 30
0.0
 11
193.409375
 21
0.0
 31
0.0
  0
LINE
  5
1DD
330
1DA
100
AcDbEntity
  8
Schematic-Elevation-East-Mech-Default$0$Mechan IntVol
  6
Continuous
370
     0
100
AcDbLine
 10
193.409375
 20
0.0
 30
0.0
 11
26.284375
 21
0.0
 31
0.0
  0
LINE
  5
1DE
330
1DA
100
AcDbEntity
  8
Schematic-Elevation-East-Mech-Default$0$Mechan IntVol
  6
Continuous
370
     0
100
AcDbLine
 10
26.284375
 20
0.0
 30
0.0
 11
26.284375
 21
217.5
 31
0.0
  0
LINE
  5
1DF
330
1DA
100
AcDbEntity
  8
Schematic-Elevation-East-Mech-Default$0$Mechan IntVol
  6
Continuous
370
     0
100
AcDbLine
 10
26.284375
 20
217.5
 30
0.0
 11
31.846875
 21
217.5
 31
0.0
  0
LINE
  5
1E0
330
1DA
100
AcDbEntity
  8
Schematic-Elevation-East-Mech-Default$0$Mechan IntVol
  6
Continuous
370
     0
100
AcDbLine
 10
31.846875
 20
217.5
 30
0.0
 11
31.846875
 21
223.5
 31
0.0
  0
LINE
  5
1E1
330
1DA
100
AcDbEntity
  8
Schematic-Elevation-East-Mech-Default$0$Mechan IntVol
  6
Continuous
370
     0
100
AcDbLine
 10
31.846875
 20
223.5
 30
0.0
 11
109.846875
 21
236.875
 31
0.0
  0
LINE
  5
1E2
330
1DA
100
AcDbEntity
  8
Schematic-Elevation-East-Mech-Default$0$Mechan IntVol
  6
Continuous
370
     0
100
AcDbLine
 10
109.846875
 20
236.875
 30
0.0
 11
187.846875
 21
223.5
 31
0.0
  0
LINE
  5
1E3
330
1DA
100
AcDbEntity
  8
Schematic-Elevation-East-Mech-Default$0$Mechan IntVol
  6
Continuous
370
     0
100
AcDbLine
 10
187.846875
 20
223.5
 30
0.0
 11
187.846875
 21
217.5
 31
0.0
  0
LINE
  5
1E4
330
1DA
100
AcDbEntity
  8
Schematic-Elevation-East-Mech-Default$0$Mechan IntVol
  6
Continuous
370
     0
100
AcDbLine
 10
187.846875
 20
217.5
 30
0.0
 11
193.409375
 21
217.5
 31
0.0
  0
LINE
  5
1E5
330
1DA
100
AcDbEntity
  8
Schematic-Elevation-East-Mech-Default$0$Mechan IntVol
  6
Continuous
370
     0
100
AcDbLine
 10
31.846875
 20
223.5
 30
0.0
 11
31.846875
 21
217.5
 31
0.0
  0
LINE
  5
1E6
330
1DA
100
AcDbEntity
  8
Schematic-Elevation-East-Mech-Default$0$Mechan IntVol
  6
Continuous
370
     0
100
AcDbLine
 10
109.846875
 20
236.875
 30
0.0
 11
31.846875
 21
223.5
 31
0.0
  0
LINE
  5
1E7
330
1DA
100
AcDbEntity
  8
Schematic-Elevation-East-Mech-Default$0$Mechan IntVol
  6
Continuous
370
     0
100
AcDbLine
 10
187.846875
 20
223.5
 30
0.0
 11
109.846875
 21
236.875
 31
0.0
  0
LINE
  5
1E8
330
1DA
100
AcDbEntity
  8
Schematic-Elevation-East-Mech-Default$0$Mechan IntVol
  6
Continuous
370
     0
100
AcDbLine
 10
187.846875
 20
217.5
 30
0.0
 11
187.846875
 21
223.5
 31
0.0
  0
LINE
  5
1E9
330
1DA
100
AcDbEntity
  8
Schematic-Elevation-East-Mech-Default$0$Mechan IntVol
  6
Continuous
370
     0
100
AcDbLine
 10
26.284375
 20
217.5
 30
0.0
 11
26.284375
 21
0.0
 31
0.0
  0
LINE
  5
1EA
330
1DA
100
AcDbEntity
  8
Schematic-Elevation-East-Mech-Default$0$Mechan IntVol
  6
Continuous
370
     0
100
AcDbLine
 10
26.284375
 20
0.0
 30
0.0
 11
193.409375
 21
0.0
 31
0.0
  0
LINE
  5
1EB
330
1DA
100
AcDbEntity
  8
Schematic-Elevation-East-Mech-Default$0$Mechan IntVol
  6
Continuous
370
     0
100
AcDbLine
 10
193.409375
 20
0.0
 30
0.0
 11
193.409375
 21
217.5
 31
0.0
  0
LINE
  5
1EC
330
1DA
100
AcDbEntity
  8
Schematic-Elevation-East-Mech-Default$0$Mechan IntVol
  6
Continuous
370
     0
100
AcDbLine
 10
193.409375
 20
217.5
 30
0.0
 11
26.284375
 21
217.5
 31
0.0
  0
LINE
  5
1ED
330
1DA
100
AcDbEntity
  8
Schematic-Elevation-East-Mech-Default$0$Mechan IntVol
  6
Continuous
370
     0
100
AcDbLine
 10
187.846875
 20
223.5
 30
0.0
 11
31.846875
 21
223.5
 31
0.0
  0
LINE
  5
1EE
330
1DA
100
AcDbEntity
  8
Schematic-Elevation-East-Mech-Default$0$Mechan IntVol
  6
Continuous
370
     0
100
AcDbLine
 10
28.534375
 20
207.5
 30
0.0
 11
28.534375
 21
217.5
 31
0.0
  0
LINE
  5
1EF
330
1DA
100
AcDbEntity
  8
Schematic-Elevation-East-Mech-Default$0$Mechan IntVol
  6
Continuous
370
     0
100
AcDbLine
 10
191.159375
 20
207.5
 30
0.0
 11
28.534375
 21
207.5
 31
0.0
  0
LINE
  5
1F0
330
1DA
100
AcDbEntity
  8
Schematic-Elevation-East-Mech-Default$0$Mechan IntVol
  6
Continuous
370
     0
100
AcDbLine
 10
191.159375
 20
217.5
 30
0.0
 11
191.159375
 21
207.5
 31
0.0
  0
LINE
  5
1F1
330
1DA
100
AcDbEntity
  8
Schematic-Elevation-East-Mech-Default$0$Mechan IntVol
  6
Continuous
370
     0
100
AcDbLine
 10
28.534375
 20
27.0
 30
0.0
 11
28.534375
 21
199.5
 31
0.0
  0
LINE
  5
1F2
330
1DA
100
AcDbEntity
  8
Schematic-Elevation-East-Mech-Default$0$Mechan IntVol
  6
Continuous
370
     0
100
AcDbLine
 10
28.534375
 20
199.5
 30
0.0
 11
191.159375
 21
199.5
 31
0.0
  0
LINE
  5
1F3
330
1DA
100
AcDbEntity
  8
Schematic-Elevation-East-Mech-Default$0$Mechan IntVol
  6
Continuous
370
     0
100
AcDbLine
 10
191.159375
 20
199.5
 30
0.0
 11
191.159375
 21
27.0
 31
0.0
  0
LINE
  5
1F4
330
1DA
100
AcDbEntity
  8
Schematic-Elevation-East-Mech-Default$0$Mechan IntVol
  6
Continuous
370
     0
100
AcDbLine
 10
191.159375
 20
27.0
 30
0.0
 11
28.534375
 21
27.0
 31
0.0
  0
LINE
  5
1F5
330
1DA
100
AcDbEntity
  8
Schematic-Elevation-East-Mech-Default$0$Mechan IntVol
  6
Continuous
370
     0
100
AcDbLine
 10
191.159375
 20
27.0
 30
0.0
 11
28.534375
 21
199.5
 31
0.0
  0
LINE
  5
1F6
330
1DA
100
AcDbEntity
  8
Schematic-Elevation-East-Mech-Default$0$Mechan IntVol
  6
Continuous
370
     0
100
AcDbLine
 10
191.159375
 20
199.5
 30
0.0
 11
28.534375
 21
27.0
 31
0.0
  0
LINE
  5
1F7
330
1DA
100
AcDbEntity
  8
Schematic-Elevation-East-Mech-Default$0$Mechan IntVol
  6
Continuous
370
     0
100
AcDbLine
 10
109.846875
 20
223.5
 30
0.0
 11
109.846875
 21
236.875
 31
0.0
  0
LINE
  5
1F8
330
1DA
100
AcDbEntity
  8
Schematic-Elevation-East-Mech-Default$0$Mechan IntVol
  6
Continuous
370
     0
100
AcDbLine
 10
109.846875
 20
236.875
 30
0.0
 11
59.93075000000001
 21
223.5
 31
0.0
  0
LINE
  5
1F9
330
1DA
100
AcDbEntity
  8
Schematic-Elevation-East-Mech-Default$0$Mechan IntVol
  6
Continuous
370
     0
100
AcDbLine
 10
109.846875
 20
236.875
 30
0.0
 11
159.763125
 21
223.5
 31
0.0
  0
LINE
  5
1FA
330
1DA
100
AcDbEntity
  8
Schematic-Elevation-East-Mech-Default$0$Mechan IntVol
  6
Continuous
370
     0
100
AcDbLine
 10
83.846875
 20
232.416625
 30
0.0
 11
135.846875
 21
232.416625
 31
0.0
  0
LINE
  5
1FB
330
1DA
100
AcDbEntity
  8
Schematic-Elevation-East-Mech-Default$0$Mechan IntVol
  6
Continuous
370
     0
100
AcDbLine
 10
161.846875
 20
227.958375
 30
0.0
 11
57.846875
 21
227.958375
 31
0.0
  0
LINE
  5
1FC
330
1DA
100
AcDbEntity
  8
Schematic-Elevation-East-Mech-Default$0$Mechan IntVol
  6
Continuous
370
     0
100
AcDbLine
 10
26.284375
 20
217.5
 30
0.0
 11
28.534375
 21
217.5
 31
0.0
  0
LINE
  5
1FD
330
1DA
100
AcDbEntity
  8
Schematic-Elevation-East-Mech-Default$0$Mechan IntVol
  6
Continuous
370
     0
100
AcDbLine
 10
191.159375
 20
217.5
 30
0.0
 11
193.409375
 21
217.5
 31
0.0
  0
LINE
  5
1FE
330
1DA
100
AcDbEntity
  8
Schematic-Elevation-East-Mech-Default$0$Mechan IntVol
  6
Continuous
370
     0
100
AcDbLine
 10
193.409375
 20
0.0
 30
0.0
 11
26.284375
 21
0.0
 31
0.0
  0
LINE
  5
1FF
330
1DA
100
AcDbEntity
  8
Schematic-Elevation-East-Mech-Default$0$Mechan IntVol
  6
Continuous
370
     0
100
AcDbLine
 10
191.159375
 20
217.5
 30
0.0
 11
191.159375
 21
207.5
 31
0.0
  0
LINE
  5
200
330
1DA
100
AcDbEntity
  8
Schematic-Elevation-East-Mech-Default$0$Mechan IntVol
  6
Continuous
370
     0
100
AcDbLine
 10
191.159375
 20
207.5
 30
0.0
 11
28.534375
 21
207.5
 31
0.0
  0
LINE
  5
201
330
1DA
100
AcDbEntity
  8
Schematic-Elevation-East-Mech-Default$0$Mechan IntVol
  6
Continuous
370
     0
100
AcDbLine
 10
28.534375
 20
207.5
 30
0.0
 11
28.534375
 21
217.5
 31
0.0
  0
LINE
  5
202
330
1DA
100
AcDbEntity
  8
Schematic-Elevation-East-Mech-Default$0$Mechan IntVol
  6
Continuous
370
     0
100
AcDbLine
 10
26.284375
 20
217.5
 30
0.0
 11
26.284375
 21
0.0
 31
0.0
  0
LINE
  5
203
330
1DA
100
AcDbEntity
  8
Schematic-Elevation-East-Mech-Default$0$Mechan IntVol
  6
Continuous
370
     0
100
AcDbLine
 10
28.534375
 20
21.0
 30
0.0
 11
28.534375
 21
199.5
 31
0.0
  0
LINE
  5
204
330
1DA
100
AcDbEntity
  8
Schematic-Elevation-East-Mech-Default$0$Mechan IntVol
  6
Continuous
370
     0
100
AcDbLine
 10
28.534375
 20
199.5
 30
0.0
 11
191.159375
 21
199.5
 31
0.0
  0
LINE
  5
205
330
1DA
100
AcDbEntity
  8
Schematic-Elevation-East-Mech-Default$0$Mechan IntVol
  6
Continuous
370
     0
100
AcDbLine
 10
191.159375
 20
199.5
 30
0.0
 11
191.159375
 21
21.0
 31
0.0
  0
LINE
  5
206
330
1DA
100
AcDbEntity
  8
Schematic-Elevation-East-Mech-Default$0$Mechan IntVol
  6
Continuous
370
     0
100
AcDbLine
 10
191.159375
 20
21.0
 30
0.0
 11
28.534375
 21
21.0
 31
0.0
  0
LINE
  5
207
330
1DA
100
AcDbEntity
  8
Schematic-Elevation-East-Mech-Default$0$Mechan IntVol
  6
Continuous
370
     0
100
AcDbLine
 10
193.409375
 20
217.5
 30
0.0
 11
193.409375
 21
0.0
 31
0.0
  0
LINE
  5
208
330
1DA
100
AcDbEntity
  8
Schematic-Elevation-East-Mech-Default$0$Mechan IntVol
  6
Continuous
370
     0
100
AcDbLine
 10
193.471875
 20
179.3435
 30
0.0
 11
193.471875
 21
170.3435
 31
0.0
  0
LINE
  5
209
330
1DA
100
AcDbEntity
  8
Schematic-Elevation-East-Mech-Default$0$Mechan IntVol
  6
Continuous
370
     0
100
AcDbLine
 10
193.471875
 20
188.3435
 30
0.0
 11
193.471875
 21
170.3435
 31
0.0
  0
LINE
  5
20A
330
1DA
100
AcDbEntity
  8
Schematic-Elevation-East-Mech-Default$0$Mechan IntVol
  6
Continuous
370
     0
100
AcDbLine
 10
26.221875
 20
170.3435
 30
0.0
 11
26.221875
 21
188.3435
 31
0.0
  0
LINE
  5
20B
330
1DA
100
AcDbEntity
  8
Schematic-Elevation-East-Mech-Default$0$Mechan IntVol
  6
Continuous
370
     0
100
AcDbLine
 10
26.221875
 20
179.3435
 30
0.0
 11
26.221875
 21
188.3435
 31
0.0
  0
LINE
  5
20C
330
1DA
100
AcDbEntity
  8
Schematic-Elevation-East-Mech-Default$0$Mechan IntVol
  6
Continuous
370
     0
100
AcDbLine
 10
26.034375
 20
34.0
 30
0.0
 11
26.034375
 21
35.0
 31
0.0
  0
LINE
  5
20D
330
1DA
100
AcDbEntity
  8
Schematic-Elevation-East-Mech-Default$0$Mechan IntVol
  6
Continuous
370
     0
100
AcDbLine
 10
26.034375
 20
33.0
 30
0.0
 11
26.034375
 21
35.0
 31
0.0
  0
LINE
  5
20E
330
1DA
100
AcDbEntity
  8
Schematic-Elevation-East-Mech-Default$0$Mechan IntVol
  6
Continuous
370
     0
100
AcDbLine
 10
26.034375
 20
11.502625
 30
0.0
 11
26.034375
 21
16.625
 31
0.0
  0
LINE
  5
20F
330
1DA
100
AcDbEntity
  8
Schematic-Elevation-East-Mech-Default$0$Mechan IntVol
  6
Continuous
370
     0
100
AcDbLine
 10
26.034375
 20
3.953999999999999
 30
0.0
 11
26.034375
 21
15.396375
 31
0.0
  0
LINE
  5
210
330
1DA
100
AcDbEntity
  8
Schematic-Elevation-East-Mech-Default$0$Mechan IntVol
  6
Continuous
370
     0
100
AcDbLine
 10
26.034375
 20
10.0
 30
0.0
 11
26.034375
 21
11.5
 31
0.0
  0
LINE
  5
211
330
1DA
100
AcDbEntity
  8
Schematic-Elevation-East-Mech-Default$0$Mechan IntVol
  6
Continuous
370
     0
100
AcDbLine
 10
26.034375
 20
8.5
 30
0.0
 11
26.034375
 21
11.5
 31
0.0
  0
LINE
  5
212
330
1DA
100
AcDbEntity
  8
Schematic-Elevation-East-Mech-Default$0$Mechan IntVol
  6
Continuous
370
     0
100
AcDbLine
 10
26.034375
 20
3.0
 30
0.0
 11
26.034375
 21
4.0
 31
0.0
  0
LINE
  5
213
330
1DA
100
AcDbEntity
  8
Schematic-Elevation-East-Mech-Default$0$Mechan IntVol
  6
Continuous
370
     0
100
AcDbLine
 10
26.034375
 20
2.0
 30
0.0
 11
26.034375
 21
4.0
 31
0.0
  0
LINE
  5
214
330
1DA
100
AcDbEntity
  8
Schematic-Elevation-East-Mech-Default$0$Mechan IntVol
  6
Continuous
370
     0
100
AcDbLine
 10
193.409375
 20
170.3435
 30
0.0
 11
193.471875
 21
170.3435
 31
0.0
  0
LINE
  5
215
330
1DA
100
AcDbEntity
  8
Schematic-Elevation-East-Mech-Default$0$Mechan IntVol
  6
Continuous
370
     0
100
AcDbLine
 10
193.471875
 20
188.3435
 30
0.0
 11
193.409375
 21
188.3435
 31
0.0
  0
LINE
  5
216
330
1DA
100
AcDbEntity
  8
Schematic-Elevation-East-Mech-Default$0$Mechan IntVol
  6
Continuous
370
     0
100
AcDbLine
 10
26.221875
 20
170.3435
 30
0.0
 11
26.284375
 21
170.3435
 31
0.0
  0
LINE
  5
217
330
1DA
100
AcDbEntity
  8
Schematic-Elevation-East-Mech-Default$0$Mechan IntVol
  6
Continuous
370
     0
100
AcDbLine
 10
26.284375
 20
188.3435
 30
0.0
 11
26.221875
 21
188.3435
 31
0.0
  0
LINE
  5
218
330
1DA
100
AcDbEntity
  8
Schematic-Elevation-East-Mech-Default$0$Mechan IntVol
  6
Continuous
370
     0
100
AcDbLine
 10
26.034375
 20
33.0
 30
0.0
 11
26.284375
 21
33.0
 31
0.0
  0
LINE
  5
219
330
1DA
100
AcDbEntity
  8
Schematic-Elevation-East-Mech-Default$0$Mechan IntVol
  6
Continuous
370
     0
100
AcDbLine
 10
26.284375
 20
35.0
 30
0.0
 11
26.034375
 21
35.0
 31
0.0
  0
LINE
  5
21A
330
1DA
100
AcDbEntity
  8
Schematic-Elevation-East-Mech-Default$0$Mechan IntVol
  6
Continuous
370
     0
100
AcDbLine
 10
26.284375
 20
16.625
 30
0.0
 11
26.034375
 21
16.625
 31
0.0
  0
LINE
  5
21B
330
1DA
100
AcDbEntity
  8
Schematic-Elevation-East-Mech-Default$0$Mechan IntVol
  6
Continuous
370
     0
100
AcDbLine
 10
26.034375
 20
8.5
 30
0.0
 11
26.284375
 21
8.5
 31
0.0
  0
LINE
  5
21C
330
1DA
100
AcDbEntity
  8
Schematic-Elevation-East-Mech-Default$0$Mechan IntVol
  6
Continuous
370
     0
100
AcDbLine
 10
26.284375
 20
11.5
 30
0.0
 11
26.034375
 21
11.5
 31
0.0
  0
LINE
  5
21D
330
1DA
100
AcDbEntity
  8
Schematic-Elevation-East-Mech-Default$0$Mechan IntVol
  6
Continuous
370
     0
100
AcDbLine
 10
26.034375
 20
2.0
 30
0.0
 11
26.284375
 21
2.0
 31
0.0
  0
LINE
  5
21E
330
1DA
100
AcDbEntity
  8
Schematic-Elevation-East-Mech-Default$0$Mechan IntVol
  6
Continuous
370
     0
100
AcDbLine
 10
26.284375
 20
4.0
 30
0.0
 11
26.034375
 21
4.0
 31
0.0
  0
ENDBLK
  5
21F
330
1DA
100
AcDbEntity
  8
0
100
AcDbBlockEnd
  0
BLOCK
  5
191
330
190
100
AcDbEntity
  8
0
100
AcDbBlockBegin
  2
Schematic-Elevation-East-Mech-Default$0$COO01
 70
     0
 10
0.0
 20
0.0
 30
0.0
  3
Schematic-Elevation-East-Mech-Default$0$COO01
  1

  0
LINE
  5
192
330
190
100
AcDbEntity
  8
0
  6
Continuous
370
     0
100
AcDbLine
 10
193.409375
 20
217.5
 30
0.0
 11
193.409375
 21
0.0
 31
0.0
  0
LINE
  5
193
330
190
100
AcDbEntity
  8
0
  6
Continuous
370
     0
100
AcDbLine
 10
193.409375
 20
0.0
 30
0.0
 11
26.284375
 21
0.0
 31
0.0
  0
LINE
  5
194
330
190
100
AcDbEntity
  8
0
  6
Continuous
370
     0
100
AcDbLine
 10
26.284375
 20
0.0
 30
0.0
 11
26.284375
 21
217.5
 31
0.0
  0
LINE
  5
195
330
190
100
AcDbEntity
  8
0
  6
Continuous
370
     0
100
AcDbLine
 10
26.284375
 20
217.5
 30
0.0
 11
31.846875
 21
217.5
 31
0.0
  0
LINE
  5
196
330
190
100
AcDbEntity
  8
0
  6
Continuous
370
     0
100
AcDbLine
 10
31.846875
 20
217.5
 30
0.0
 11
31.846875
 21
223.5
 31
0.0
  0
LINE
  5
197
330
190
100
AcDbEntity
  8
0
  6
Continuous
370
     0
100
AcDbLine
 10
31.846875
 20
223.5
 30
0.0
 11
109.846875
 21
236.875
 31
0.0
  0
LINE
  5
198
330
190
100
AcDbEntity
  8
0
  6
Continuous
370
     0
100
AcDbLine
 10
109.846875
 20
236.875
 30
0.0
 11
187.846875
 21
223.5
 31
0.0
  0
LINE
  5
199
330
190
100
AcDbEntity
  8
0
  6
Continuous
370
     0
100
AcDbLine
 10
187.846875
 20
223.5
 30
0.0
 11
187.846875
 21
217.5
 31
0.0
  0
LINE
  5
19A
330
190
100
AcDbEntity
  8
0
  6
Continuous
370
     0
100
AcDbLine
 10
187.846875
 20
217.5
 30
0.0
 11
193.409375
 21
217.5
 31
0.0
  0
LINE
  5
19B
330
190
100
AcDbEntity
  8
0
  6
Continuous
370
     0
100
AcDbLine
 10
31.846875
 20
223.5
 30
0.0
 11
31.846875
 21
217.5
 31
0.0
  0
LINE
  5
19C
330
190
100
AcDbEntity
  8
0
  6
Continuous
370
     0
100
AcDbLine
 10
109.846875
 20
236.875
 30
0.0
 11
31.846875
 21
223.5
 31
0.0
  0
LINE
  5
19D
330
190
100
AcDbEntity
  8
0
  6
Continuous
370
     0
100
AcDbLine
 10
187.846875
 20
223.5
 30
0.0
 11
109.846875
 21
236.875
 31
0.0
  0
LINE
  5
19E
330
190
100
AcDbEntity
  8
0
  6
Continuous
370
     0
100
AcDbLine
 10
187.846875
 20
217.5
 30
0.0
 11
187.846875
 21
223.5
 31
0.0
  0
LINE
  5
19F
330
190
100
AcDbEntity
  8
0
  6
Continuous
370
     0
100
AcDbLine
 10
26.284375
 20
217.5
 30
0.0
 11
26.284375
 21
0.0
 31
0.0
  0
LINE
  5
1A0
330
190
100
AcDbEntity
  8
0
  6
Continuous
370
     0
100
AcDbLine
 10
26.284375
 20
0.0
 30
0.0
 11
193.409375
 21
0.0
 31
0.0
  0
LINE
  5
1A1
330
190
100
AcDbEntity
  8
0
  6
Continuous
370
     0
100
AcDbLine
 10
193.409375
 20
0.0
 30
0.0
 11
193.409375
 21
217.5
 31
0.0
  0
LINE
  5
1A2
330
190
100
AcDbEntity
  8
0
  6
Continuous
370
     0
100
AcDbLine
 10
193.409375
 20
217.5
 30
0.0
 11
26.284375
 21
217.5
 31
0.0
  0
LINE
  5
1A3
330
190
100
AcDbEntity
  8
0
  6
Continuous
370
     0
100
AcDbLine
 10
187.846875
 20
223.5
 30
0.0
 11
31.846875
 21
223.5
 31
0.0
  0
LINE
  5
1A4
330
190
100
AcDbEntity
  8
0
  6
Continuous
370
     0
100
AcDbLine
 10
28.534375
 20
207.5
 30
0.0
 11
28.534375
 21
217.5
 31
0.0
  0
LINE
  5
1A5
330
190
100
AcDbEntity
  8
0
  6
Continuous
370
     0
100
AcDbLine
 10
191.159375
 20
207.5
 30
0.0
 11
28.534375
 21
207.5
 31
0.0
  0
LINE
  5
1A6
330
190
100
AcDbEntity
  8
0
  6
Continuous
370
     0
100
AcDbLine
 10
191.159375
 20
217.5
 30
0.0
 11
191.159375
 21
207.5
 31
0.0
  0
LINE
  5
1A7
330
190
100
AcDbEntity
  8
0
  6
Continuous
370
     0
100
AcDbLine
 10
28.534375
 20
27.0
 30
0.0
 11
28.534375
 21
199.5
 31
0.0
  0
LINE
  5
1A8
330
190
100
AcDbEntity
  8
0
  6
Continuous
370
     0
100
AcDbLine
 10
28.534375
 20
199.5
 30
0.0
 11
191.159375
 21
199.5
 31
0.0
  0
LINE
  5
1A9
330
190
100
AcDbEntity
  8
0
  6
Continuous
370
     0
100
AcDbLine
 10
191.159375
 20
199.5
 30
0.0
 11
191.159375
 21
27.0
 31
0.0
  0
LINE
  5
1AA
330
190
100
AcDbEntity
  8
0
  6
Continuous
370
     0
100
AcDbLine
 10
191.159375
 20
27.0
 30
0.0
 11
28.534375
 21
27.0
 31
0.0
  0
LINE
  5
1AB
330
190
100
AcDbEntity
  8
0
  6
Continuous
370
     0
100
AcDbLine
 10
191.159375
 20
27.0
 30
0.0
 11
28.534375
 21
199.5
 31
0.0
  0
LINE
  5
1AC
330
190
100
AcDbEntity
  8
0
  6
Continuous
370
     0
100
AcDbLine
 10
191.159375
 20
199.5
 30
0.0
 11
28.534375
 21
27.0
 31
0.0
  0
LINE
  5
1AD
330
190
100
AcDbEntity
  8
0
  6
Continuous
370
     0
100
AcDbLine
 10
109.846875
 20
223.5
 30
0.0
 11
109.846875
 21
236.875
 31
0.0
  0
LINE
  5
1AE
330
190
100
AcDbEntity
  8
0
  6
Continuous
370
     0
100
AcDbLine
 10
109.846875
 20
236.875
 30
0.0
 11
59.93075000000001
 21
223.5
 31
0.0
  0
LINE
  5
1AF
330
190
100
AcDbEntity
  8
0
  6
Continuous
370
     0
100
AcDbLine
 10
109.846875
 20
236.875
 30
0.0
 11
159.763125
 21
223.5
 31
0.0
  0
LINE
  5
1B0
330
190
100
AcDbEntity
  8
0
  6
Continuous
370
     0
100
AcDbLine
 10
83.846875
 20
232.416625
 30
0.0
 11
135.846875
 21
232.416625
 31
0.0
  0
LINE
  5
1B1
330
190
100
AcDbEntity
  8
0
  6
Continuous
370
     0
100
AcDbLine
 10
161.846875
 20
227.958375
 30
0.0
 11
57.846875
 21
227.958375
 31
0.0
  0
LINE
  5
1B2
330
190
100
AcDbEntity
  8
0
  6
Continuous
370
     0
100
AcDbLine
 10
26.284375
 20
217.5
 30
0.0
 11
28.534375
 21
217.5
 31
0.0
  0
LINE
  5
1B3
330
190
100
AcDbEntity
  8
0
  6
Continuous
370
     0
100
AcDbLine
 10
191.159375
 20
217.5
 30
0.0
 11
193.409375
 21
217.5
 31
0.0
  0
LINE
  5
1B4
330
190
100
AcDbEntity
  8
0
  6
Continuous
370
     0
100
AcDbLine
 10
193.409375
 20
0.0
 30
0.0
 11
26.284375
 21
0.0
 31
0.0
  0
LINE
  5
1B5
330
190
100
AcDbEntity
  8
0
  6
Continuous
370
     0
100
AcDbLine
 10
191.159375
 20
217.5
 30
0.0
 11
191.159375
 21
207.5
 31
0.0
  0
LINE
  5
1B6
330
190
100
AcDbEntity
  8
0
  6
Continuous
370
     0
100
AcDbLine
 10
191.159375
 20
207.5
 30
0.0
 11
28.534375
 21
207.5
 31
0.0
  0
LINE
  5
1B7
330
190
100
AcDbEntity
  8
0
  6
Continuous
370
     0
100
AcDbLine
 10
28.534375
 20
207.5
 30
0.0
 11
28.534375
 21
217.5
 31
0.0
  0
LINE
  5
1B8
330
190
100
AcDbEntity
  8
0
  6
Continuous
370
     0
100
AcDbLine
 10
26.284375
 20
217.5
 30
0.0
 11
26.284375
 21
0.0
 31
0.0
  0
LINE
  5
1B9
330
190
100
AcDbEntity
  8
0
  6
Continuous
370
     0
100
AcDbLine
 10
28.534375
 20
21.0
 30
0.0
 11
28.534375
 21
199.5
 31
0.0
  0
LINE
  5
1BA
330
190
100
AcDbEntity
  8
0
  6
Continuous
370
     0
100
AcDbLine
 10
28.534375
 20
199.5
 30
0.0
 11
191.159375
 21
199.5
 31
0.0
  0
LINE
  5
1BB
330
190
100
AcDbEntity
  8
0
  6
Continuous
370
     0
100
AcDbLine
 10
191.159375
 20
199.5
 30
0.0
 11
191.159375
 21
21.0
 31
0.0
  0
LINE
  5
1BC
330
190
100
AcDbEntity
  8
0
  6
Continuous
370
     0
100
AcDbLine
 10
191.159375
 20
21.0
 30
0.0
 11
28.534375
 21
21.0
 31
0.0
  0
LINE
  5
1BD
330
190
100
AcDbEntity
  8
0
  6
Continuous
370
     0
100
AcDbLine
 10
193.409375
 20
217.5
 30
0.0
 11
193.409375
 21
0.0
 31
0.0
  0
LINE
  5
1BE
330
190
100
AcDbEntity
  8
0
  6
Continuous
370
     0
100
AcDbLine
 10
193.471875
 20
179.3435
 30
0.0
 11
193.471875
 21
170.3435
 31
0.0
  0
LINE
  5
1BF
330
190
100
AcDbEntity
  8
0
  6
Continuous
370
     0
100
AcDbLine
 10
193.471875
 20
188.3435
 30
0.0
 11
193.471875
 21
170.3435
 31
0.0
  0
LINE
  5
1C0
330
190
100
AcDbEntity
  8
0
  6
Continuous
370
     0
100
AcDbLine
 10
26.221875
 20
170.3435
 30
0.0
 11
26.221875
 21
188.3435
 31
0.0
  0
LINE
  5
1C1
330
190
100
AcDbEntity
  8
0
  6
Continuous
370
     0
100
AcDbLine
 10
26.221875
 20
179.3435
 30
0.0
 11
26.221875
 21
188.3435
 31
0.0
  0
LINE
  5
1C2
330
190
100
AcDbEntity
  8
0
  6
Continuous
370
     0
100
AcDbLine
 10
26.034375
 20
34.0
 30
0.0
 11
26.034375
 21
35.0
 31
0.0
  0
LINE
  5
1C3
330
190
100
AcDbEntity
  8
0
  6
Continuous
370
     0
100
AcDbLine
 10
26.034375
 20
33.0
 30
0.0
 11
26.034375
 21
35.0
 31
0.0
  0
LINE
  5
1C4
330
190
100
AcDbEntity
  8
0
  6
Continuous
370
     0
100
AcDbLine
 10
26.034375
 20
11.502625
 30
0.0
 11
26.034375
 21
16.625
 31
0.0
  0
LINE
  5
1C5
330
190
100
AcDbEntity
  8
0
  6
Continuous
370
     0
100
AcDbLine
 10
26.034375
 20
3.953999999999999
 30
0.0
 11
26.034375
 21
15.396375
 31
0.0
  0
LINE
  5
1C6
330
190
100
AcDbEntity
  8
0
  6
Continuous
370
     0
100
AcDbLine
 10
26.034375
 20
10.0
 30
0.0
 11
26.034375
 21
11.5
 31
0.0
  0
LINE
  5
1C7
330
190
100
AcDbEntity
  8
0
  6
Continuous
370
     0
100
AcDbLine
 10
26.034375
 20
8.5
 30
0.0
 11
26.034375
 21
11.5
 31
0.0
  0
LINE
  5
1C8
330
190
100
AcDbEntity
  8
0
  6
Continuous
370
     0
100
AcDbLine
 10
26.034375
 20
3.0
 30
0.0
 11
26.034375
 21
4.0
 31
0.0
  0
LINE
  5
1C9
330
190
100
AcDbEntity
  8
0
  6
Continuous
370
     0
100
AcDbLine
 10
26.034375
 20
2.0
 30
0.0
 11
26.034375
 21
4.0
 31
0.0
  0
LINE
  5
1CA
330
190
100
AcDbEntity
  8
0
  6
Continuous
370
     0
100
AcDbLine
 10
193.409375
 20
170.3435
 30
0.0
 11
193.471875
 21
170.3435
 31
0.0
  0
LINE
  5
1CB
330
190
100
AcDbEntity
  8
0
  6
Continuous
370
     0
100
AcDbLine
 10
193.471875
 20
188.3435
 30
0.0
 11
193.409375
 21
188.3435
 31
0.0
  0
LINE
  5
1CC
330
190
100
AcDbEntity
  8
0
  6
Continuous
370
     0
100
AcDbLine
 10
26.221875
 20
170.3435
 30
0.0
 11
26.284375
 21
170.3435
 31
0.0
  0
LINE
  5
1CD
330
190
100
AcDbEntity
  8
0
  6
Continuous
370
     0
100
AcDbLine
 10
26.284375
 20
188.3435
 30
0.0
 11
26.221875
 21
188.3435
 31
0.0
  0
LINE
  5
1CE
330
190
100
AcDbEntity
  8
0
  6
Continuous
370
     0
100
AcDbLine
 10
26.034375
 20
33.0
 30
0.0
 11
26.284375
 21
33.0
 31
0.0
  0
LINE
  5
1CF
330
190
100
AcDbEntity
  8
0
  6
Continuous
370
     0
100
AcDbLine
 10
26.284375
 20
35.0
 30
0.0
 11
26.034375
 21
35.0
 31
0.0
  0
LINE
  5
1D0
330
190
100
AcDbEntity
  8
0
  6
Continuous
370
     0
100
AcDbLine
 10
26.284375
 20
16.625
 30
0.0
 11
26.034375
 21
16.625
 31
0.0
  0
LINE
  5
1D1
330
190
100
AcDbEntity
  8
0
  6
Continuous
370
     0
100
AcDbLine
 10
26.034375
 20
8.5
 30
0.0
 11
26.284375
 21
8.5
 31
0.0
  0
LINE
  5
1D2
330
190
100
AcDbEntity
  8
0
  6
Continuous
370
     0
100
AcDbLine
 10
26.284375
 20
11.5
 30
0.0
 11
26.034375
 21
11.5
 31
0.0
  0
LINE
  5
1D3
330
190
100
AcDbEntity
  8
0
  6
Continuous
370
     0
100
AcDbLine
 10
26.034375
 20
2.0
 30
0.0
 11
26.284375
 21
2.0
 31
0.0
  0
LINE
  5
1D4
330
190
100
AcDbEntity
  8
0
  6
Continuous
370
     0
100
AcDbLine
 10
26.284375
 20
4.0
 30
0.0
 11
26.034375
 21
4.0
 31
0.0
  0
ENDBLK
  5
1D5
330
190
100
AcDbEntity
  8
0
100
AcDbBlockEnd
  0
BLOCK
  5
82
330
81
100
AcDbEntity
  8
0
100
AcDbBlockBegin
  2
Schematic-Elevation-South-Mech-Default
 70
     0
 10
0.0
 20
0.0
 30
0.0
  3
Schematic-Elevation-South-Mech-Default
  1
L:\DSGN\Revit Content\BAC Web Site Support\Series 3000\Schematic-Elevation-South-Mech-Default.dwg
  0
INSERT
  5
12D
330
81
100
AcDbEntity
  8
Schematic-Elevation-South-Mech-Default$0$Mechan IntVol
  6
Continuous
370
     0
100
AcDbBlockReference
  2
Schematic-Elevation-South-Mech-Default$0$COO01
 10
0.0
 20
0.0
 30
0.0
  0
ENDBLK
  5
83
330
81
100
AcDbEntity
  8
0
100
AcDbBlockEnd
  0
BLOCK
  5
160
330
15F
100
AcDbEntity
  8
0
100
AcDbBlockBegin
  2
Schematic-Elevation-South-Mech-Default$0$COO0
 70
     0
 10
0.0
 20
0.0
 30
0.0
  3
Schematic-Elevation-South-Mech-Default$0$COO0
  1

  0
LINE
  5
161
330
15F
100
AcDbEntity
  8
Schematic-Elevation-South-Mech-Default$0$Mechan IntVol
  6
Continuous
370
     0
100
AcDbLine
 10
293.905625
 20
0.0
 30
0.0
 11
5.405624999999998
 21
0.0
 31
0.0
  0
LINE
  5
162
330
15F
100
AcDbEntity
  8
Schematic-Elevation-South-Mech-Default$0$Mechan IntVol
  6
Continuous
370
     0
100
AcDbLine
 10
5.405624999999998
 20
0.0
 30
0.0
 11
5.405624999999998
 21
217.5
 31
0.0
  0
LINE
  5
163
330
15F
100
AcDbEntity
  8
Schematic-Elevation-South-Mech-Default$0$Mechan IntVol
  6
Continuous
370
     0
100
AcDbLine
 10
5.405624999999998
 20
217.5
 30
0.0
 11
71.655625
 21
217.5
 31
0.0
  0
LINE
  5
164
330
15F
100
AcDbEntity
  8
Schematic-Elevation-South-Mech-Default$0$Mechan IntVol
  6
Continuous
370
     0
100
AcDbLine
 10
71.655625
 20
217.5
 30
0.0
 11
71.655625
 21
223.5
 31
0.0
  0
LINE
  5
165
330
15F
100
AcDbEntity
  8
Schematic-Elevation-South-Mech-Default$0$Mechan IntVol
  6
Continuous
370
     0
100
AcDbLine
 10
71.655625
 20
223.5
 30
0.0
 11
149.655625
 21
236.875
 31
0.0
  0
LINE
  5
166
330
15F
100
AcDbEntity
  8
Schematic-Elevation-South-Mech-Default$0$Mechan IntVol
  6
Continuous
370
     0
100
AcDbLine
 10
149.655625
 20
236.875
 30
0.0
 11
227.655625
 21
223.5
 31
0.0
  0
LINE
  5
167
330
15F
100
AcDbEntity
  8
Schematic-Elevation-South-Mech-Default$0$Mechan IntVol
  6
Continuous
370
     0
100
AcDbLine
 10
227.655625
 20
223.5
 30
0.0
 11
227.655625
 21
217.5
 31
0.0
  0
LINE
  5
168
330
15F
100
AcDbEntity
  8
Schematic-Elevation-South-Mech-Default$0$Mechan IntVol
  6
Continuous
370
     0
100
AcDbLine
 10
227.655625
 20
217.5
 30
0.0
 11
293.905625
 21
217.5
 31
0.0
  0
LINE
  5
169
330
15F
100
AcDbEntity
  8
Schematic-Elevation-South-Mech-Default$0$Mechan IntVol
  6
Continuous
370
     0
100
AcDbLine
 10
293.905625
 20
217.5
 30
0.0
 11
293.905625
 21
0.0
 31
0.0
  0
LINE
  5
16A
330
15F
100
AcDbEntity
  8
Schematic-Elevation-South-Mech-Default$0$Mechan IntVol
  6
Continuous
370
     0
100
AcDbLine
 10
227.655625
 20
217.5
 30
0.0
 11
227.655625
 21
223.5
 31
0.0
  0
LINE
  5
16B
330
15F
100
AcDbEntity
  8
Schematic-Elevation-South-Mech-Default$0$Mechan IntVol
  6
Continuous
370
     0
100
AcDbLine
 10
71.655625
 20
217.5
 30
0.0
 11
71.655625
 21
223.5
 31
0.0
  0
LINE
  5
16C
330
15F
100
AcDbEntity
  8
Schematic-Elevation-South-Mech-Default$0$Mechan IntVol
  6
Continuous
370
     0
100
AcDbLine
 10
149.655625
 20
236.875
 30
0.0
 11
227.655625
 21
223.5
 31
0.0
  0
LINE
  5
16D
330
15F
100
AcDbEntity
  8
Schematic-Elevation-South-Mech-Default$0$Mechan IntVol
  6
Continuous
370
     0
100
AcDbLine
 10
71.655625
 20
223.5
 30
0.0
 11
149.655625
 21
236.875
 31
0.0
  0
LINE
  5
16E
330
15F
100
AcDbEntity
  8
Schematic-Elevation-South-Mech-Default$0$Mechan IntVol
  6
Continuous
370
     0
100
AcDbLine
 10
293.905625
 20
217.5
 30
0.0
 11
293.905625
 21
0.0
 31
0.0
  0
LINE
  5
16F
330
15F
100
AcDbEntity
  8
Schematic-Elevation-South-Mech-Default$0$Mechan IntVol
  6
Continuous
370
     0
100
AcDbLine
 10
293.905625
 20
0.0
 30
0.0
 11
5.405624999999998
 21
0.0
 31
0.0
  0
LINE
  5
170
330
15F
100
AcDbEntity
  8
Schematic-Elevation-South-Mech-Default$0$Mechan IntVol
  6
Continuous
370
     0
100
AcDbLine
 10
5.405624999999998
 20
0.0
 30
0.0
 11
5.405624999999998
 21
217.5
 31
0.0
  0
LINE
  5
171
330
15F
100
AcDbEntity
  8
Schematic-Elevation-South-Mech-Default$0$Mechan IntVol
  6
Continuous
370
     0
100
AcDbLine
 10
5.405624999999998
 20
217.5
 30
0.0
 11
293.905625
 21
217.5
 31
0.0
  0
LINE
  5
172
330
15F
100
AcDbEntity
  8
Schematic-Elevation-South-Mech-Default$0$Mechan IntVol
  6
Continuous
370
     0
100
AcDbLine
 10
132.780625
 20
66.75
 30
0.0
 11
132.780625
 21
27.0
 31
0.0
  0
LINE
  5
173
330
15F
100
AcDbEntity
  8
Schematic-Elevation-South-Mech-Default$0$Mechan IntVol
  6
Continuous
370
     0
100
AcDbLine
 10
177.330625
 20
66.75
 30
0.0
 11
132.780625
 21
66.75
 31
0.0
  0
LINE
  5
174
330
15F
100
AcDbEntity
  8
Schematic-Elevation-South-Mech-Default$0$Mechan IntVol
  6
Continuous
370
     0
100
AcDbLine
 10
177.330625
 20
27.0
 30
0.0
 11
177.330625
 21
66.75
 31
0.0
  0
LINE
  5
175
330
15F
100
AcDbEntity
  8
Schematic-Elevation-South-Mech-Default$0$Mechan IntVol
  6
Continuous
370
     0
100
AcDbLine
 10
149.655625
 20
236.875
 30
0.0
 11
186.403125
 21
223.5
 31
0.0
  0
LINE
  5
176
330
15F
100
AcDbEntity
  8
Schematic-Elevation-South-Mech-Default$0$Mechan IntVol
  6
Continuous
370
     0
100
AcDbLine
 10
149.655625
 20
236.875
 30
0.0
 11
112.908125
 21
223.5
 31
0.0
  0
LINE
  5
177
330
15F
100
AcDbEntity
  8
Schematic-Elevation-South-Mech-Default$0$Mechan IntVol
  6
Continuous
370
     0
100
AcDbLine
 10
201.655625
 20
227.958375
 30
0.0
 11
97.65562500000001
 21
227.958375
 31
0.0
  0
LINE
  5
178
330
15F
100
AcDbEntity
  8
Schematic-Elevation-South-Mech-Default$0$Mechan IntVol
  6
Continuous
370
     0
100
AcDbLine
 10
123.655625
 20
232.416625
 30
0.0
 11
175.655625
 21
232.416625
 31
0.0
  0
LINE
  5
179
330
15F
100
AcDbEntity
  8
Schematic-Elevation-South-Mech-Default$0$Mechan IntVol
  6
Continuous
370
     0
100
AcDbLine
 10
5.405624999999998
 20
27.0
 30
0.0
 11
293.905625
 21
27.0
 31
0.0
  0
LINE
  5
17A
330
15F
100
AcDbEntity
  8
Schematic-Elevation-South-Mech-Default$0$Mechan IntVol
  6
Continuous
370
     0
100
AcDbLine
 10
227.655625
 20
223.5
 30
0.0
 11
71.655625
 21
223.5
 31
0.0
  0
ARC
  5
17B
330
15F
100
AcDbEntity
  8
Schematic-Elevation-South-Mech-Default$0$Mechan IntVol
  6
Continuous
370
     0
100
AcDbCircle
 10
126.6555893918521
 20
34.0
 30
0.0
 40
0.9999999999999934
100
AcDbArc
 50
0.0
 51
179.9999972222221
  0
ARC
  5
17C
330
15F
100
AcDbEntity
  8
Schematic-Elevation-South-Mech-Default$0$Mechan IntVol
  6
Continuous
370
     0
100
AcDbCircle
 10
126.6555893918521
 20
34.0
 30
0.0
 40
1.000000000000001
100
AcDbArc
 50
180.0
 51
359.9999972222222
  0
LINE
  5
17D
330
15F
100
AcDbEntity
  8
Schematic-Elevation-South-Mech-Default$0$Mechan IntVol
  6
Continuous
370
     0
100
AcDbLine
 10
45.28062499999999
 20
217.75
 30
0.0
 11
55.280625
 21
217.75
 31
0.0
  0
LINE
  5
17E
330
15F
100
AcDbEntity
  8
Schematic-Elevation-South-Mech-Default$0$Mechan IntVol
  6
Continuous
370
     0
100
AcDbLine
 10
50.280625
 20
217.75
 30
0.0
 11
55.280625
 21
217.75
 31
0.0
  0
LINE
  5
17F
330
15F
100
AcDbEntity
  8
Schematic-Elevation-South-Mech-Default$0$Mechan IntVol
  6
Continuous
370
     0
100
AcDbLine
 10
244.030625
 20
217.75
 30
0.0
 11
254.030625
 21
217.75
 31
0.0
  0
LINE
  5
180
330
15F
100
AcDbEntity
  8
Schematic-Elevation-South-Mech-Default$0$Mechan IntVol
  6
Continuous
370
     0
100
AcDbLine
 10
249.030625
 20
217.75
 30
0.0
 11
254.030625
 21
217.75
 31
0.0
  0
ARC
  5
181
330
15F
100
AcDbEntity
  8
Schematic-Elevation-South-Mech-Default$0$Mechan IntVol
  6
Continuous
370
     0
100
AcDbCircle
 10
149.6555893918517
 20
9.625000000000996
 30
0.0
 40
6.999999999999985
100
AcDbArc
 50
0.0000027777777678
 51
180.0
  0
ARC
  5
182
330
15F
100
AcDbEntity
  8
Schematic-Elevation-South-Mech-Default$0$Mechan IntVol
  6
Continuous
370
     0
100
AcDbCircle
 10
149.6555893918517
 20
9.625000000000996
 30
0.0
 40
6.999999999999992
100
AcDbArc
 50
179.9999999999999
 51
359.9999972222221
  0
ARC
  5
183
330
15F
100
AcDbEntity
  8
Schematic-Elevation-South-Mech-Default$0$Mechan IntVol
  6
Continuous
370
     0
100
AcDbCircle
 10
166.9055893918525
 20
10.0
 30
0.0
 40
1.5
100
AcDbArc
 50
0.0000027777777678
 51
180.0
  0
ARC
  5
184
330
15F
100
AcDbEntity
  8
Schematic-Elevation-South-Mech-Default$0$Mechan IntVol
  6
Continuous
370
     0
100
AcDbCircle
 10
166.9055893918525
 20
10.0
 30
0.0
 40
1.500000000000001
100
AcDbArc
 50
180.0
 51
359.9999972222223
  0
ARC
  5
185
330
15F
100
AcDbEntity
  8
Schematic-Elevation-South-Mech-Default$0$Mechan IntVol
  6
Continuous
370
     0
100
AcDbCircle
 10
166.9055893918525
 20
3.0
 30
0.0
 40
0.9999999999999856
100
AcDbArc
 50
0.0000027777777678
 51
180.0
  0
ARC
  5
186
330
15F
100
AcDbEntity
  8
Schematic-Elevation-South-Mech-Default$0$Mechan IntVol
  6
Continuous
370
     0
100
AcDbCircle
 10
166.9055893918525
 20
3.0
 30
0.0
 40
0.9999999999999944
100
AcDbArc
 50
180.0
 51
359.9999972222222
  0
LINE
  5
187
330
15F
100
AcDbEntity
  8
Schematic-Elevation-South-Mech-Default$0$Mechan IntVol
  6
Continuous
370
     0
100
AcDbLine
 10
45.28062499999999
 20
217.75
 30
0.0
 11
45.28062499999999
 21
217.5
 31
0.0
  0
LINE
  5
188
330
15F
100
AcDbEntity
  8
Schematic-Elevation-South-Mech-Default$0$Mechan IntVol
  6
Continuous
370
     0
100
AcDbLine
 10
55.280625
 20
217.5
 30
0.0
 11
55.280625
 21
217.75
 31
0.0
  0
LINE
  5
189
330
15F
100
AcDbEntity
  8
Schematic-Elevation-South-Mech-Default$0$Mechan IntVol
  6
Continuous
370
     0
100
AcDbLine
 10
244.030625
 20
217.75
 30
0.0
 11
244.030625
 21
217.5
 31
0.0
  0
LINE
  5
18A
330
15F
100
AcDbEntity
  8
Schematic-Elevation-South-Mech-Default$0$Mechan IntVol
  6
Continuous
370
     0
100
AcDbLine
 10
254.030625
 20
217.5
 30
0.0
 11
254.030625
 21
217.75
 31
0.0
  0
ENDBLK
  5
18B
330
15F
100
AcDbEntity
  8
0
100
AcDbBlockEnd
  0
BLOCK
  5
12F
330
12E
100
AcDbEntity
  8
0
100
AcDbBlockBegin
  2
Schematic-Elevation-South-Mech-Default$0$COO01
 70
     0
 10
0.0
 20
0.0
 30
0.0
  3
Schematic-Elevation-South-Mech-Default$0$COO01
  1

  0
LINE
  5
130
330
12E
100
AcDbEntity
  8
0
  6
Continuous
370
     0
100
AcDbLine
 10
293.905625
 20
0.0
 30
0.0
 11
5.405624999999998
 21
0.0
 31
0.0
  0
LINE
  5
131
330
12E
100
AcDbEntity
  8
0
  6
Continuous
370
     0
100
AcDbLine
 10
5.405624999999998
 20
0.0
 30
0.0
 11
5.405624999999998
 21
217.5
 31
0.0
  0
LINE
  5
132
330
12E
100
AcDbEntity
  8
0
  6
Continuous
370
     0
100
AcDbLine
 10
5.405624999999998
 20
217.5
 30
0.0
 11
71.655625
 21
217.5
 31
0.0
  0
LINE
  5
133
330
12E
100
AcDbEntity
  8
0
  6
Continuous
370
     0
100
AcDbLine
 10
71.655625
 20
217.5
 30
0.0
 11
71.655625
 21
223.5
 31
0.0
  0
LINE
  5
134
330
12E
100
AcDbEntity
  8
0
  6
Continuous
370
     0
100
AcDbLine
 10
71.655625
 20
223.5
 30
0.0
 11
149.655625
 21
236.875
 31
0.0
  0
LINE
  5
135
330
12E
100
AcDbEntity
  8
0
  6
Continuous
370
     0
100
AcDbLine
 10
149.655625
 20
236.875
 30
0.0
 11
227.655625
 21
223.5
 31
0.0
  0
LINE
  5
136
330
12E
100
AcDbEntity
  8
0
  6
Continuous
370
     0
100
AcDbLine
 10
227.655625
 20
223.5
 30
0.0
 11
227.655625
 21
217.5
 31
0.0
  0
LINE
  5
137
330
12E
100
AcDbEntity
  8
0
  6
Continuous
370
     0
100
AcDbLine
 10
227.655625
 20
217.5
 30
0.0
 11
293.905625
 21
217.5
 31
0.0
  0
LINE
  5
138
330
12E
100
AcDbEntity
  8
0
  6
Continuous
370
     0
100
AcDbLine
 10
293.905625
 20
217.5
 30
0.0
 11
293.905625
 21
0.0
 31
0.0
  0
LINE
  5
139
330
12E
100
AcDbEntity
  8
0
  6
Continuous
370
     0
100
AcDbLine
 10
227.655625
 20
217.5
 30
0.0
 11
227.655625
 21
223.5
 31
0.0
  0
LINE
  5
13A
330
12E
100
AcDbEntity
  8
0
  6
Continuous
370
     0
100
AcDbLine
 10
71.655625
 20
217.5
 30
0.0
 11
71.655625
 21
223.5
 31
0.0
  0
LINE
  5
13B
330
12E
100
AcDbEntity
  8
0
  6
Continuous
370
     0
100
AcDbLine
 10
149.655625
 20
236.875
 30
0.0
 11
227.655625
 21
223.5
 31
0.0
  0
LINE
  5
13C
330
12E
100
AcDbEntity
  8
0
  6
Continuous
370
     0
100
AcDbLine
 10
71.655625
 20
223.5
 30
0.0
 11
149.655625
 21
236.875
 31
0.0
  0
LINE
  5
13D
330
12E
100
AcDbEntity
  8
0
  6
Continuous
370
     0
100
AcDbLine
 10
293.905625
 20
217.5
 30
0.0
 11
293.905625
 21
0.0
 31
0.0
  0
LINE
  5
13E
330
12E
100
AcDbEntity
  8
0
  6
Continuous
370
     0
100
AcDbLine
 10
293.905625
 20
0.0
 30
0.0
 11
5.405624999999998
 21
0.0
 31
0.0
  0
LINE
  5
13F
330
12E
100
AcDbEntity
  8
0
  6
Continuous
370
     0
100
AcDbLine
 10
5.405624999999998
 20
0.0
 30
0.0
 11
5.405624999999998
 21
217.5
 31
0.0
  0
LINE
  5
140
330
12E
100
AcDbEntity
  8
0
  6
Continuous
370
     0
100
AcDbLine
 10
5.405624999999998
 20
217.5
 30
0.0
 11
293.905625
 21
217.5
 31
0.0
  0
LINE
  5
141
330
12E
100
AcDbEntity
  8
0
  6
Continuous
370
     0
100
AcDbLine
 10
132.780625
 20
66.75
 30
0.0
 11
132.780625
 21
27.0
 31
0.0
  0
LINE
  5
142
330
12E
100
AcDbEntity
  8
0
  6
Continuous
370
     0
100
AcDbLine
 10
177.330625
 20
66.75
 30
0.0
 11
132.780625
 21
66.75
 31
0.0
  0
LINE
  5
143
330
12E
100
AcDbEntity
  8
0
  6
Continuous
370
     0
100
AcDbLine
 10
177.330625
 20
27.0
 30
0.0
 11
177.330625
 21
66.75
 31
0.0
  0
LINE
  5
144
330
12E
100
AcDbEntity
  8
0
  6
Continuous
370
     0
100
AcDbLine
 10
149.655625
 20
236.875
 30
0.0
 11
186.403125
 21
223.5
 31
0.0
  0
LINE
  5
145
330
12E
100
AcDbEntity
  8
0
  6
Continuous
370
     0
100
AcDbLine
 10
149.655625
 20
236.875
 30
0.0
 11
112.908125
 21
223.5
 31
0.0
  0
LINE
  5
146
330
12E
100
AcDbEntity
  8
0
  6
Continuous
370
     0
100
AcDbLine
 10
201.655625
 20
227.958375
 30
0.0
 11
97.65562500000001
 21
227.958375
 31
0.0
  0
LINE
  5
147
330
12E
100
AcDbEntity
  8
0
  6
Continuous
370
     0
100
AcDbLine
 10
123.655625
 20
232.416625
 30
0.0
 11
175.655625
 21
232.416625
 31
0.0
  0
LINE
  5
148
330
12E
100
AcDbEntity
  8
0
  6
Continuous
370
     0
100
AcDbLine
 10
5.405624999999998
 20
27.0
 30
0.0
 11
293.905625
 21
27.0
 31
0.0
  0
LINE
  5
149
330
12E
100
AcDbEntity
  8
0
  6
Continuous
370
     0
100
AcDbLine
 10
227.655625
 20
223.5
 30
0.0
 11
71.655625
 21
223.5
 31
0.0
  0
ARC
  5
14A
330
12E
100
AcDbEntity
  8
0
  6
Continuous
370
     0
100
AcDbCircle
 10
126.6555893918521
 20
34.0
 30
0.0
 40
0.9999999999999934
100
AcDbArc
 50
0.0
 51
179.9999972222221
  0
ARC
  5
14B
330
12E
100
AcDbEntity
  8
0
  6
Continuous
370
     0
100
AcDbCircle
 10
126.6555893918521
 20
34.0
 30
0.0
 40
1.000000000000001
100
AcDbArc
 50
180.0
 51
359.9999972222222
  0
LINE
  5
14C
330
12E
100
AcDbEntity
  8
0
  6
Continuous
370
     0
100
AcDbLine
 10
45.28062499999999
 20
217.75
 30
0.0
 11
55.280625
 21
217.75
 31
0.0
  0
LINE
  5
14D
330
12E
100
AcDbEntity
  8
0
  6
Continuous
370
     0
100
AcDbLine
 10
50.280625
 20
217.75
 30
0.0
 11
55.280625
 21
217.75
 31
0.0
  0
LINE
  5
14E
330
12E
100
AcDbEntity
  8
0
  6
Continuous
370
     0
100
AcDbLine
 10
244.030625
 20
217.75
 30
0.0
 11
254.030625
 21
217.75
 31
0.0
  0
LINE
  5
14F
330
12E
100
AcDbEntity
  8
0
  6
Continuous
370
     0
100
AcDbLine
 10
249.030625
 20
217.75
 30
0.0
 11
254.030625
 21
217.75
 31
0.0
  0
ARC
  5
150
330
12E
100
AcDbEntity
  8
0
  6
Continuous
370
     0
100
AcDbCircle
 10
149.6555893918517
 20
9.625000000000996
 30
0.0
 40
6.999999999999985
100
AcDbArc
 50
0.0000027777777678
 51
180.0
  0
ARC
  5
151
330
12E
100
AcDbEntity
  8
0
  6
Continuous
370
     0
100
AcDbCircle
 10
149.6555893918517
 20
9.625000000000996
 30
0.0
 40
6.999999999999992
100
AcDbArc
 50
179.9999999999999
 51
359.9999972222221
  0
ARC
  5
152
330
12E
100
AcDbEntity
  8
0
  6
Continuous
370
     0
100
AcDbCircle
 10
166.9055893918525
 20
10.0
 30
0.0
 40
1.5
100
AcDbArc
 50
0.0000027777777678
 51
180.0
  0
ARC
  5
153
330
12E
100
AcDbEntity
  8
0
  6
Continuous
370
     0
100
AcDbCircle
 10
166.9055893918525
 20
10.0
 30
0.0
 40
1.500000000000001
100
AcDbArc
 50
180.0
 51
359.9999972222223
  0
ARC
  5
154
330
12E
100
AcDbEntity
  8
0
  6
Continuous
370
     0
100
AcDbCircle
 10
166.9055893918525
 20
3.0
 30
0.0
 40
0.9999999999999856
100
AcDbArc
 50
0.0000027777777678
 51
180.0
  0
ARC
  5
155
330
12E
100
AcDbEntity
  8
0
  6
Continuous
370
     0
100
AcDbCircle
 10
166.9055893918525
 20
3.0
 30
0.0
 40
0.9999999999999944
100
AcDbArc
 50
180.0
 51
359.9999972222222
  0
LINE
  5
156
330
12E
100
AcDbEntity
  8
0
  6
Continuous
370
     0
100
AcDbLine
 10
45.28062499999999
 20
217.75
 30
0.0
 11
45.28062499999999
 21
217.5
 31
0.0
  0
LINE
  5
157
330
12E
100
AcDbEntity
  8
0
  6
Continuous
370
     0
100
AcDbLine
 10
55.280625
 20
217.5
 30
0.0
 11
55.280625
 21
217.75
 31
0.0
  0
LINE
  5
158
330
12E
100
AcDbEntity
  8
0
  6
Continuous
370
     0
100
AcDbLine
 10
244.030625
 20
217.75
 30
0.0
 11
244.030625
 21
217.5
 31
0.0
  0
LINE
  5
159
330
12E
100
AcDbEntity
  8
0
  6
Continuous
370
     0
100
AcDbLine
 10
254.030625
 20
217.5
 30
0.0
 11
254.030625
 21
217.75
 31
0.0
  0
ENDBLK
  5
15A
330
12E
100
AcDbEntity
  8
0
100
AcDbBlockEnd
  0
BLOCK
  5
87
330
86
100
AcDbEntity
  8
0
100
AcDbBlockBegin
  2
Schematic-FloorPlan-1-Mech-Default
 70
     0
 10
0.0
 20
0.0
 30
0.0
  3
Schematic-FloorPlan-1-Mech-Default
  1
L:\DSGN\Revit Content\BAC Web Site Support\Series 3000\Schematic-FloorPlan-1-Mech-Default.dwg
  0
INSERT
  5
8E
330
86
100
AcDbEntity
  8
Schematic-FloorPlan-1-Mech-Default$0$Mechan IntVol
  6
Continuous
370
     0
100
AcDbBlockReference
  2
Schematic-FloorPlan-1-Mech-Default$0$COO01
 10
108.69025
 20
128.284375
 30
0.0
  0
LINE
  5
CA
330
86
100
AcDbEntity
  8
Schematic-FloorPlan-1-Mech-Default$0$Elevations
  6
Continuous
370
     0
100
AcDbLine
 10
967.7245
 20
77.713125
 30
0.0
 11
967.7245
 21
78.21312500000002
 31
0.0
  0
LINE
  5
CB
330
86
100
AcDbEntity
  8
Schematic-FloorPlan-1-Mech-Default$0$Elevations
  6
Continuous
370
     0
100
AcDbLine
 10
967.7245
 20
78.21312500000002
 30
0.0
 11
968.2244999999999
 21
78.21312500000002
 31
0.0
  0
LINE
  5
CC
330
86
100
AcDbEntity
  8
Schematic-FloorPlan-1-Mech-Default$0$Elevations
  6
Continuous
370
     0
100
AcDbLine
 10
968.2244999999999
 20
78.21312500000002
 30
0.0
 11
968.2244999999999
 21
77.713125
 31
0.0
  0
LINE
  5
CD
330
86
100
AcDbEntity
  8
Schematic-FloorPlan-1-Mech-Default$0$Elevations
  6
Continuous
370
     0
100
AcDbLine
 10
968.2244999999999
 20
77.713125
 30
0.0
 11
967.7245
 21
77.713125
 31
0.0
  0
TEXT
  5
CE
330
86
100
AcDbEntity
  8
Schematic-FloorPlan-1-Mech-Default$0$Elevations
  6
Continuous
370
     0
100
AcDbText
 10
967.896625
 20
77.91849999999998
 30
0.0
 40
0.09375
  1
A3
 41
0.8307680000000001
  7
Schematic-FloorPlan-1-Mech-Default$0$dgn003
 11
967.896625
 21
78.01224999999998
 31
0.0
100
AcDbText
 73
     3
  0
TEXT
  5
D0
330
86
100
AcDbEntity
  8
Schematic-FloorPlan-1-Mech-Default$0$Elevations
  6
Continuous
370
     0
100
AcDbText
 10
967.5641249999999
 20
77.91849999999998
 30
0.0
 40
0.09375
  1
1
 41
0.7538480000000001
  7
Schematic-FloorPlan-1-Mech-Default$0$dgn003
 11
967.5641249999999
 21
78.01224999999998
 31
0.0
100
AcDbText
 73
     3
  0
LINE
  5
D1
330
86
100
AcDbEntity
  8
Schematic-FloorPlan-1-Mech-Default$0$Elevations
  6
Continuous
370
     0
100
AcDbLine
 10
967.7245
 20
77.713125
 30
0.0
 11
967.4744999999999
 21
77.963125
 31
0.0
  0
LINE
  5
D2
330
86
100
AcDbEntity
  8
Schematic-FloorPlan-1-Mech-Default$0$Elevations
  6
Continuous
370
     0
100
AcDbLine
 10
967.4744999999999
 20
77.963125
 30
0.0
 11
967.7245
 21
78.21312500000002
 31
0.0
  0
LINE
  5
D3
330
86
100
AcDbEntity
  8
Schematic-FloorPlan-1-Mech-Default$0$Elevations
  6
Continuous
370
     0
100
AcDbLine
 10
-49.59925
 20
-810.85425
 30
0.0
 11
-49.59925
 21
-810.3542499999999
 31
0.0
  0
LINE
  5
D4
330
86
100
AcDbEntity
  8
Schematic-FloorPlan-1-Mech-Default$0$Elevations
  6
Continuous
370
     0
100
AcDbLine
 10
-49.59925
 20
-810.3542499999999
 30
0.0
 11
-49.09925
 21
-810.3542499999999
 31
0.0
  0
LINE
  5
D5
330
86
100
AcDbEntity
  8
Schematic-FloorPlan-1-Mech-Default$0$Elevations
  6
Continuous
370
     0
100
AcDbLine
 10
-49.09925
 20
-810.3542499999999
 30
0.0
 11
-49.09925
 21
-810.85425
 31
0.0
  0
LINE
  5
D6
330
86
100
AcDbEntity
  8
Schematic-FloorPlan-1-Mech-Default$0$Elevations
  6
Continuous
370
     0
100
AcDbLine
 10
-49.09925
 20
-810.85425
 30
0.0
 11
-49.59925
 21
-810.85425
 31
0.0
  0
TEXT
  5
D7
330
86
100
AcDbEntity
  8
Schematic-FloorPlan-1-Mech-Default$0$Elevations
  6
Continuous
370
     0
100
AcDbText
 10
-49.42712499999999
 20
-810.6489999999999
 30
0.0
 40
0.09375
  1
A3
 41
0.8307680000000001
  7
Schematic-FloorPlan-1-Mech-Default$0$dgn003
 11
-49.42712499999999
 21
-810.5552499999998
 31
0.0
100
AcDbText
 73
     3
  0
LINE
  5
D8
330
86
100
AcDbEntity
  8
Schematic-FloorPlan-1-Mech-Default$0$Elevations
  6
Continuous
370
     0
100
AcDbLine
 10
-1043.062375
 20
76.321375
 30
0.0
 11
-1043.062375
 21
76.821375
 31
0.0
  0
LINE
  5
D9
330
86
100
AcDbEntity
  8
Schematic-FloorPlan-1-Mech-Default$0$Elevations
  6
Continuous
370
     0
100
AcDbLine
 10
-1043.062375
 20
76.821375
 30
0.0
 11
-1042.562375
 21
76.821375
 31
0.0
  0
LINE
  5
DA
330
86
100
AcDbEntity
  8
Schematic-FloorPlan-1-Mech-Default$0$Elevations
  6
Continuous
370
     0
100
AcDbLine
 10
-1042.562375
 20
76.821375
 30
0.0
 11
-1042.562375
 21
76.321375
 31
0.0
  0
LINE
  5
DB
330
86
100
AcDbEntity
  8
Schematic-FloorPlan-1-Mech-Default$0$Elevations
  6
Continuous
370
     0
100
AcDbLine
 10
-1042.562375
 20
76.321375
 30
0.0
 11
-1043.062375
 21
76.321375
 31
0.0
  0
TEXT
  5
DC
330
86
100
AcDbEntity
  8
Schematic-FloorPlan-1-Mech-Default$0$Elevations
  6
Continuous
370
     0
100
AcDbText
 10
-1042.834
 20
76.52662499999999
 30
0.0
 40
0.09375
  1
-
 41
0.4615360000000001
  7
Schematic-FloorPlan-1-Mech-Default$0$dgn003
 11
-1042.834
 21
76.620375
 31
0.0
100
AcDbText
 73
     3
  0
LINE
  5
DD
330
86
100
AcDbEntity
  8
Schematic-FloorPlan-1-Mech-Default$0$Elevations
  6
Continuous
370
     0
100
AcDbLine
 10
-49.776375
 20
876.73175
 30
0.0
 11
-49.776375
 21
877.2317499999997
 31
0.0
  0
LINE
  5
DE
330
86
100
AcDbEntity
  8
Schematic-FloorPlan-1-Mech-Default$0$Elevations
  6
Continuous
370
     0
100
AcDbLine
 10
-49.776375
 20
877.2317499999997
 30
0.0
 11
-49.276375
 21
877.2317499999997
 31
0.0
  0
LINE
  5
DF
330
86
100
AcDbEntity
  8
Schematic-FloorPlan-1-Mech-Default$0$Elevations
  6
Continuous
370
     0
100
AcDbLine
 10
-49.276375
 20
877.2317499999997
 30
0.0
 11
-49.276375
 21
876.73175
 31
0.0
  0
LINE
  5
E0
330
86
100
AcDbEntity
  8
Schematic-FloorPlan-1-Mech-Default$0$Elevations
  6
Continuous
370
     0
100
AcDbLine
 10
-49.276375
 20
876.73175
 30
0.0
 11
-49.776375
 21
876.73175
 31
0.0
  0
TEXT
  5
E1
330
86
100
AcDbEntity
  8
Schematic-FloorPlan-1-Mech-Default$0$Elevations
  6
Continuous
370
     0
100
AcDbText
 10
-49.548
 20
876.9369999999998
 30
0.0
 40
0.09375
  1
-
 41
0.4615360000000001
  7
Schematic-FloorPlan-1-Mech-Default$0$dgn003
 11
-49.548
 21
877.0307499999999
 31
0.0
100
AcDbText
 73
     3
  0
TEXT
  5
E2
330
86
100
AcDbEntity
  8
Schematic-FloorPlan-1-Mech-Default$0$Elevations
  6
Continuous
370
     0
100
AcDbText
 10
-49.548
 20
876.5620000000001
 30
0.0
 40
0.09375
  1
-
 41
0.4615360000000001
  7
Schematic-FloorPlan-1-Mech-Default$0$dgn003
 11
-49.548
 21
876.6557500000001
 31
0.0
100
AcDbText
 73
     3
  0
LINE
  5
E3
330
86
100
AcDbEntity
  8
Schematic-FloorPlan-1-Mech-Default$0$Elevations
  6
Continuous
370
     0
100
AcDbLine
 10
-49.276375
 20
876.73175
 30
0.0
 11
-49.526375
 21
876.4817500000001
 31
0.0
  0
LINE
  5
E4
330
86
100
AcDbEntity
  8
Schematic-FloorPlan-1-Mech-Default$0$Elevations
  6
Continuous
370
     0
100
AcDbLine
 10
-49.526375
 20
876.4817500000001
 30
0.0
 11
-49.776375
 21
876.73175
 31
0.0
  0
TEXT
  5
E5
330
86
100
AcDbEntity
  8
Schematic-FloorPlan-1-Mech-Default$0$Elevations
  6
Continuous
370
     0
100
AcDbText
 10
-1042.459
 20
76.52662499999999
 30
0.0
 40
0.09375
  1
-
 41
0.4615360000000001
  7
Schematic-FloorPlan-1-Mech-Default$0$dgn003
 11
-1042.459
 21
76.620375
 31
0.0
100
AcDbText
 73
     3
  0
LINE
  5
E6
330
86
100
AcDbEntity
  8
Schematic-FloorPlan-1-Mech-Default$0$Elevations
  6
Continuous
370
     0
100
AcDbLine
 10
-1042.562375
 20
76.821375
 30
0.0
 11
-1042.312375
 21
76.57137500000001
 31
0.0
  0
LINE
  5
E7
330
86
100
AcDbEntity
  8
Schematic-FloorPlan-1-Mech-Default$0$Elevations
  6
Continuous
370
     0
100
AcDbLine
 10
-1042.312375
 20
76.57137500000001
 30
0.0
 11
-1042.562375
 21
76.321375
 31
0.0
  0
TEXT
  5
E8
330
86
100
AcDbEntity
  8
Schematic-FloorPlan-1-Mech-Default$0$Elevations
  6
Continuous
370
     0
100
AcDbText
 10
-49.3845
 20
-810.2739999999998
 30
0.0
 40
0.09375
  1
2
 41
0.7538480000000001
  7
Schematic-FloorPlan-1-Mech-Default$0$dgn003
 11
-49.3845
 21
-810.1802499999999
 31
0.0
100
AcDbText
 73
     3
  0
LINE
  5
E9
330
86
100
AcDbEntity
  8
Schematic-FloorPlan-1-Mech-Default$0$Elevations
  6
Continuous
370
     0
100
AcDbLine
 10
-49.59925
 20
-810.3542499999999
 30
0.0
 11
-49.34924999999999
 21
-810.10425
 31
0.0
  0
LINE
  5
EA
330
86
100
AcDbEntity
  8
Schematic-FloorPlan-1-Mech-Default$0$Elevations
  6
Continuous
370
     0
100
AcDbLine
 10
-49.34924999999999
 20
-810.10425
 30
0.0
 11
-49.09925
 21
-810.3542499999999
 31
0.0
  0
ENDBLK
  5
88
330
86
100
AcDbEntity
  8
0
100
AcDbBlockEnd
  0
BLOCK
  5
F0
330
EF
100
AcDbEntity
  8
0
100
AcDbBlockBegin
  2
Schematic-FloorPlan-1-Mech-Default$0$COO0
 70
     0
 10
0.0
 20
0.0
 30
0.0
  3
Schematic-FloorPlan-1-Mech-Default$0$COO0
  1

  0
LINE
  5
F1
330
EF
100
AcDbEntity
  8
Schematic-FloorPlan-1-Mech-Default$0$Mechan IntVol
  6
Continuous
370
     0
100
AcDbLine
 10
-103.28475
 20
65.125
 30
0.0
 11
-103.28475
 21
-102.0
 31
0.0
  0
LINE
  5
F2
330
EF
100
AcDbEntity
  8
Schematic-FloorPlan-1-Mech-Default$0$Mechan IntVol
  6
Continuous
370
     0
100
AcDbLine
 10
-103.28475
 20
-102.0
 30
0.0
 11
185.21525
 21
-102.0
 31
0.0
  0
LINE
  5
F3
330
EF
100
AcDbEntity
  8
Schematic-FloorPlan-1-Mech-Default$0$Mechan IntVol
  6
Continuous
370
     0
100
AcDbLine
 10
185.21525
 20
-102.0
 30
0.0
 11
185.21525
 21
65.125
 31
0.0
  0
LINE
  5
F4
330
EF
100
AcDbEntity
  8
Schematic-FloorPlan-1-Mech-Default$0$Mechan IntVol
  6
Continuous
370
     0
100
AcDbLine
 10
185.21525
 20
65.125
 30
0.0
 11
-103.28475
 21
65.125
 31
0.0
  0
ARC
  5
F5
330
EF
100
AcDbEntity
  8
Schematic-FloorPlan-1-Mech-Default$0$Mechan IntVol
  6
Continuous
370
     0
100
AcDbCircle
 10
40.96530133170722
 20
-18.43750000000868
 30
0.0
 40
78.00000000000007
100
AcDbArc
 50
0.0
 51
359.9999972222223
  0
LINE
  5
F6
330
EF
100
AcDbEntity
  8
Schematic-FloorPlan-1-Mech-Default$0$Mechan IntVol
  6
Continuous
370
     0
100
AcDbLine
 10
185.21525
 20
65.125
 30
0.0
 11
185.21525
 21
-102.0
 31
0.0
  0
LINE
  5
F7
330
EF
100
AcDbEntity
  8
Schematic-FloorPlan-1-Mech-Default$0$Mechan IntVol
  6
Continuous
370
     0
100
AcDbLine
 10
185.21525
 20
-102.0
 30
0.0
 11
-103.28475
 21
-102.0
 31
0.0
  0
LINE
  5
F8
330
EF
100
AcDbEntity
  8
Schematic-FloorPlan-1-Mech-Default$0$Mechan IntVol
  6
Continuous
370
     0
100
AcDbLine
 10
-103.28475
 20
-102.0
 30
0.0
 11
-103.28475
 21
65.125
 31
0.0
  0
LINE
  5
F9
330
EF
100
AcDbEntity
  8
Schematic-FloorPlan-1-Mech-Default$0$Mechan IntVol
  6
Continuous
370
     0
100
AcDbLine
 10
-103.28475
 20
65.125
 30
0.0
 11
185.21525
 21
65.125
 31
0.0
  0
ARC
  5
FA
330
EF
100
AcDbEntity
  8
Schematic-FloorPlan-1-Mech-Default$0$Mechan IntVol
  6
Continuous
370
     0
100
AcDbCircle
 10
40.96530133170737
 20
-18.43750000000868
 30
0.0
 40
76.00000000000298
100
AcDbArc
 50
0.0
 51
359.9999972222223
  0
ARC
  5
FB
330
EF
100
AcDbEntity
  8
Schematic-FloorPlan-1-Mech-Default$0$Mechan IntVol
  6
Continuous
370
     0
100
AcDbCircle
 10
140.3403013317042
 20
-18.43750000000402
 30
0.0
 40
4.999999999999992
100
AcDbArc
 50
0.0
 51
359.9999972222223
  0
ARC
  5
FC
330
EF
100
AcDbEntity
  8
Schematic-FloorPlan-1-Mech-Default$0$Mechan IntVol
  6
Continuous
370
     0
100
AcDbCircle
 10
-58.40969866829569
 20
-18.43750000000402
 30
0.0
 40
5.000000000000006
100
AcDbArc
 50
0.0
 51
359.9999972222223
  0
LINE
  5
FD
330
EF
100
AcDbEntity
  8
Schematic-FloorPlan-1-Mech-Default$0$Mechan IntVol
  6
Continuous
370
     0
100
AcDbLine
 10
182.21525
 20
62.875
 30
0.0
 11
182.21525
 21
-99.75000000000001
 31
0.0
  0
LINE
  5
FE
330
EF
100
AcDbEntity
  8
Schematic-FloorPlan-1-Mech-Default$0$Mechan IntVol
  6
Continuous
370
     0
100
AcDbLine
 10
182.21525
 20
-99.75000000000001
 30
0.0
 11
132.34025
 21
-99.75000000000001
 31
0.0
  0
LINE
  5
FF
330
EF
100
AcDbEntity
  8
Schematic-FloorPlan-1-Mech-Default$0$Mechan IntVol
  6
Continuous
370
     0
100
AcDbLine
 10
132.34025
 20
-99.75000000000001
 30
0.0
 11
132.34025
 21
62.875
 31
0.0
  0
LINE
  5
100
330
EF
100
AcDbEntity
  8
Schematic-FloorPlan-1-Mech-Default$0$Mechan IntVol
  6
Continuous
370
     0
100
AcDbLine
 10
132.34025
 20
62.875
 30
0.0
 11
182.21525
 21
62.875
 31
0.0
  0
LINE
  5
101
330
EF
100
AcDbEntity
  8
Schematic-FloorPlan-1-Mech-Default$0$Mechan IntVol
  6
Continuous
370
     0
100
AcDbLine
 10
-50.40975
 20
62.875
 30
0.0
 11
-50.40975
 21
-99.75000000000001
 31
0.0
  0
LINE
  5
102
330
EF
100
AcDbEntity
  8
Schematic-FloorPlan-1-Mech-Default$0$Mechan IntVol
  6
Continuous
370
     0
100
AcDbLine
 10
-50.40975
 20
-99.75000000000001
 30
0.0
 11
-100.28475
 21
-99.75000000000001
 31
0.0
  0
LINE
  5
103
330
EF
100
AcDbEntity
  8
Schematic-FloorPlan-1-Mech-Default$0$Mechan IntVol
  6
Continuous
370
     0
100
AcDbLine
 10
-100.28475
 20
-99.75000000000001
 30
0.0
 11
-100.28475
 21
62.875
 31
0.0
  0
LINE
  5
104
330
EF
100
AcDbEntity
  8
Schematic-FloorPlan-1-Mech-Default$0$Mechan IntVol
  6
Continuous
370
     0
100
AcDbLine
 10
-100.28475
 20
62.875
 30
0.0
 11
-50.40975
 21
62.875
 31
0.0
  0
LINE
  5
105
330
EF
100
AcDbEntity
  8
Schematic-FloorPlan-1-Mech-Default$0$Mechan IntVol
  6
Continuous
370
     0
100
AcDbLine
 10
40.96524999999998
 20
-18.4375
 30
0.0
 11
87.14074999999999
 21
-78.801625
 31
0.0
  0
LINE
  5
106
330
EF
100
AcDbEntity
  8
Schematic-FloorPlan-1-Mech-Default$0$Mechan IntVol
  6
Continuous
370
     0
100
AcDbLine
 10
40.96524999999998
 20
-18.4375
 30
0.0
 11
-5.21025
 21
-78.801625
 31
0.0
  0
LINE
  5
107
330
EF
100
AcDbEntity
  8
Schematic-FloorPlan-1-Mech-Default$0$Mechan IntVol
  6
Continuous
370
     0
100
AcDbLine
 10
40.96524999999998
 20
-18.4375
 30
0.0
 11
87.14074999999999
 21
41.92662499999999
 31
0.0
  0
LINE
  5
108
330
EF
100
AcDbEntity
  8
Schematic-FloorPlan-1-Mech-Default$0$Mechan IntVol
  6
Continuous
370
     0
100
AcDbLine
 10
40.96524999999998
 20
-18.4375
 30
0.0
 11
-5.21025
 21
41.92662499999999
 31
0.0
  0
LINE
  5
109
330
EF
100
AcDbEntity
  8
Schematic-FloorPlan-1-Mech-Default$0$Mechan IntVol
  6
Continuous
370
     0
100
AcDbLine
 10
-35.03475
 20
-18.4375
 30
0.0
 11
116.96525
 21
-18.4375
 31
0.0
  0
ARC
  5
10A
330
EF
100
AcDbEntity
  8
Schematic-FloorPlan-1-Mech-Default$0$Mechan IntVol
  6
Continuous
370
     0
100
AcDbCircle
 10
40.96530133170722
 20
-18.43750000000868
 30
0.0
 40
62.39999999999975
100
AcDbArc
 50
0.0
 51
359.9999972222223
  0
ARC
  5
10B
330
EF
100
AcDbEntity
  8
Schematic-FloorPlan-1-Mech-Default$0$Mechan IntVol
  6
Continuous
370
     0
100
AcDbCircle
 10
40.96530133170722
 20
-18.43750000000868
 30
0.0
 40
46.79999999999976
100
AcDbArc
 50
0.0
 51
359.9999972222223
  0
ARC
  5
10C
330
EF
100
AcDbEntity
  8
Schematic-FloorPlan-1-Mech-Default$0$Mechan IntVol
  6
Continuous
370
     0
100
AcDbCircle
 10
40.96530133170722
 20
-18.43750000000868
 30
0.0
 40
31.20000000000264
100
AcDbArc
 50
0.0
 51
359.9999972222223
  0
ARC
  5
10D
330
EF
100
AcDbEntity
  8
Schematic-FloorPlan-1-Mech-Default$0$Mechan IntVol
  6
Continuous
370
     0
100
AcDbCircle
 10
40.96530133170722
 20
-18.43750000000868
 30
0.0
 40
15.5999999999971
100
AcDbArc
 50
0.0
 51
359.9999972222223
  0
LINE
  5
10E
330
EF
100
AcDbEntity
  8
Schematic-FloorPlan-1-Mech-Default$0$Mechan IntVol
  6
Continuous
370
     0
100
AcDbLine
 10
182.21525
 20
-75.97912499999998
 30
0.0
 11
132.34025
 21
-75.97912499999998
 31
0.0
  0
LINE
  5
10F
330
EF
100
AcDbEntity
  8
Schematic-FloorPlan-1-Mech-Default$0$Mechan IntVol
  6
Continuous
370
     0
100
AcDbLine
 10
132.34025
 20
-52.208375
 30
0.0
 11
182.21525
 21
-52.208375
 31
0.0
  0
LINE
  5
110
330
EF
100
AcDbEntity
  8
Schematic-FloorPlan-1-Mech-Default$0$Mechan IntVol
  6
Continuous
370
     0
100
AcDbLine
 10
182.21525
 20
15.333375
 30
0.0
 11
132.34025
 21
15.333375
 31
0.0
  0
LINE
  5
111
330
EF
100
AcDbEntity
  8
Schematic-FloorPlan-1-Mech-Default$0$Mechan IntVol
  6
Continuous
370
     0
100
AcDbLine
 10
132.34025
 20
39.10412500000001
 30
0.0
 11
182.21525
 21
39.10412500000001
 31
0.0
  0
LINE
  5
112
330
EF
100
AcDbEntity
  8
Schematic-FloorPlan-1-Mech-Default$0$Mechan IntVol
  6
Continuous
370
     0
100
AcDbLine
 10
-50.40975
 20
-75.97912499999998
 30
0.0
 11
-100.28475
 21
-75.97912499999998
 31
0.0
  0
LINE
  5
113
330
EF
100
AcDbEntity
  8
Schematic-FloorPlan-1-Mech-Default$0$Mechan IntVol
  6
Continuous
370
     0
100
AcDbLine
 10
-100.28475
 20
-52.208375
 30
0.0
 11
-50.40975
 21
-52.208375
 31
0.0
  0
LINE
  5
114
330
EF
100
AcDbEntity
  8
Schematic-FloorPlan-1-Mech-Default$0$Mechan IntVol
  6
Continuous
370
     0
100
AcDbLine
 10
-50.40975
 20
15.333375
 30
0.0
 11
-100.28475
 21
15.333375
 31
0.0
  0
LINE
  5
115
330
EF
100
AcDbEntity
  8
Schematic-FloorPlan-1-Mech-Default$0$Mechan IntVol
  6
Continuous
370
     0
100
AcDbLine
 10
-100.28475
 20
39.10412500000001
 30
0.0
 11
-50.40975
 21
39.10412500000001
 31
0.0
  0
LINE
  5
116
330
EF
100
AcDbEntity
  8
Schematic-FloorPlan-1-Mech-Default$0$Mechan IntVol
  6
Continuous
370
     0
100
AcDbLine
 10
132.34025
 20
-28.4375
 30
0.0
 11
182.21525
 21
-28.4375
 31
0.0
  0
LINE
  5
117
330
EF
100
AcDbEntity
  8
Schematic-FloorPlan-1-Mech-Default$0$Mechan IntVol
  6
Continuous
370
     0
100
AcDbLine
 10
132.34025
 20
-8.4375
 30
0.0
 11
182.21525
 21
-8.4375
 31
0.0
  0
LINE
  5
118
330
EF
100
AcDbEntity
  8
Schematic-FloorPlan-1-Mech-Default$0$Mechan IntVol
  6
Continuous
370
     0
100
AcDbLine
 10
-100.28475
 20
-28.4375
 30
0.0
 11
-50.40975
 21
-28.4375
 31
0.0
  0
LINE
  5
119
330
EF
100
AcDbEntity
  8
Schematic-FloorPlan-1-Mech-Default$0$Mechan IntVol
  6
Continuous
370
     0
100
AcDbLine
 10
-100.28475
 20
-8.4375
 30
0.0
 11
-50.40975
 21
-8.4375
 31
0.0
  0
LINE
  5
11A
330
EF
100
AcDbEntity
  8
Schematic-FloorPlan-1-Mech-Default$0$Mechan IntVol
  6
Continuous
370
     0
100
AcDbLine
 10
49.81
 20
65.1875
 30
0.0
 11
40.81
 21
65.1875
 31
0.0
  0
LINE
  5
11B
330
EF
100
AcDbEntity
  8
Schematic-FloorPlan-1-Mech-Default$0$Mechan IntVol
  6
Continuous
370
     0
100
AcDbLine
 10
32.120625
 20
-102.0625
 30
0.0
 11
41.12062499999999
 21
-102.0625
 31
0.0
  0
LINE
  5
11C
330
EF
100
AcDbEntity
  8
Schematic-FloorPlan-1-Mech-Default$0$Mechan IntVol
  6
Continuous
370
     0
100
AcDbLine
 10
16.96525
 20
-102.25
 30
0.0
 11
17.96525
 21
-102.25
 31
0.0
  0
LINE
  5
11D
330
EF
100
AcDbEntity
  8
Schematic-FloorPlan-1-Mech-Default$0$Mechan IntVol
  6
Continuous
370
     0
100
AcDbLine
 10
33.96525
 20
-102.25
 30
0.0
 11
40.96524999999998
 21
-102.25
 31
0.0
  0
LINE
  5
11E
330
EF
100
AcDbEntity
  8
Schematic-FloorPlan-1-Mech-Default$0$Mechan IntVol
  6
Continuous
370
     0
100
AcDbLine
 10
56.71524999999999
 20
-102.25
 30
0.0
 11
58.21525000000001
 21
-102.25
 31
0.0
  0
LINE
  5
11F
330
EF
100
AcDbEntity
  8
Schematic-FloorPlan-1-Mech-Default$0$Mechan IntVol
  6
Continuous
370
     0
100
AcDbLine
 10
47.96524999999999
 20
-102.25
 30
0.0
 11
47.96524999999999
 21
-102.0625
 31
0.0
  0
LINE
  5
120
330
EF
100
AcDbEntity
  8
Schematic-FloorPlan-1-Mech-Default$0$Mechan IntVol
  6
Continuous
370
     0
100
AcDbLine
 10
33.96525
 20
-102.0625
 30
0.0
 11
33.96525
 21
-102.25
 31
0.0
  0
LINE
  5
121
330
EF
100
AcDbEntity
  8
Schematic-FloorPlan-1-Mech-Default$0$Mechan IntVol
  6
Continuous
370
     0
100
AcDbLine
 10
49.81
 20
65.125
 30
0.0
 11
49.81
 21
65.1875
 31
0.0
  0
LINE
  5
122
330
EF
100
AcDbEntity
  8
Schematic-FloorPlan-1-Mech-Default$0$Mechan IntVol
  6
Continuous
370
     0
100
AcDbLine
 10
31.81
 20
65.1875
 30
0.0
 11
31.81
 21
65.125
 31
0.0
  0
LINE
  5
123
330
EF
100
AcDbEntity
  8
Schematic-FloorPlan-1-Mech-Default$0$Mechan IntVol
  6
Continuous
370
     0
100
AcDbLine
 10
32.120625
 20
-102.0
 30
0.0
 11
32.120625
 21
-102.0625
 31
0.0
  0
LINE
  5
124
330
EF
100
AcDbEntity
  8
Schematic-FloorPlan-1-Mech-Default$0$Mechan IntVol
  6
Continuous
370
     0
100
AcDbLine
 10
50.12062499999999
 20
-102.0625
 30
0.0
 11
50.12062499999999
 21
-102.0
 31
0.0
  0
LINE
  5
125
330
EF
100
AcDbEntity
  8
Schematic-FloorPlan-1-Mech-Default$0$Mechan IntVol
  6
Continuous
370
     0
100
AcDbLine
 10
18.96525
 20
-102.25
 30
0.0
 11
18.96525
 21
-102.0
 31
0.0
  0
LINE
  5
126
330
EF
100
AcDbEntity
  8
Schematic-FloorPlan-1-Mech-Default$0$Mechan IntVol
  6
Continuous
370
     0
100
AcDbLine
 10
16.96525
 20
-102.0
 30
0.0
 11
16.96525
 21
-102.25
 31
0.0
  0
LINE
  5
127
330
EF
100
AcDbEntity
  8
Schematic-FloorPlan-1-Mech-Default$0$Mechan IntVol
  6
Continuous
370
     0
100
AcDbLine
 10
59.71524999999999
 20
-102.25
 30
0.0
 11
59.71524999999999
 21
-102.0
 31
0.0
  0
LINE
  5
128
330
EF
100
AcDbEntity
  8
Schematic-FloorPlan-1-Mech-Default$0$Mechan IntVol
  6
Continuous
370
     0
100
AcDbLine
 10
56.71524999999999
 20
-102.0
 30
0.0
 11
56.71524999999999
 21
-102.25
 31
0.0
  0
ENDBLK
  5
129
330
EF
100
AcDbEntity
  8
0
100
AcDbBlockEnd
  0
BLOCK
  5
90
330
8F
100
AcDbEntity
  8
0
100
AcDbBlockBegin
  2
Schematic-FloorPlan-1-Mech-Default$0$COO01
 70
     0
 10
0.0
 20
0.0
 30
0.0
  3
Schematic-FloorPlan-1-Mech-Default$0$COO01
  1

  0
LINE
  5
91
330
8F
100
AcDbEntity
  8
0
  6
Continuous
370
     0
100
AcDbLine
 10
-103.28475
 20
65.125
 30
0.0
 11
-103.28475
 21
-102.0
 31
0.0
  0
LINE
  5
92
330
8F
100
AcDbEntity
  8
0
  6
Continuous
370
     0
100
AcDbLine
 10
-103.28475
 20
-102.0
 30
0.0
 11
185.21525
 21
-102.0
 31
0.0
  0
LINE
  5
93
330
8F
100
AcDbEntity
  8
0
  6
Continuous
370
     0
100
AcDbLine
 10
185.21525
 20
-102.0
 30
0.0
 11
185.21525
 21
65.125
 31
0.0
  0
LINE
  5
94
330
8F
100
AcDbEntity
  8
0
  6
Continuous
370
     0
100
AcDbLine
 10
185.21525
 20
65.125
 30
0.0
 11
-103.28475
 21
65.125
 31
0.0
  0
ARC
  5
95
330
8F
100
AcDbEntity
  8
0
  6
Continuous
370
     0
100
AcDbCircle
 10
40.96530133170722
 20
-18.43750000000868
 30
0.0
 40
78.00000000000007
100
AcDbArc
 50
0.0
 51
359.9999972222223
  0
LINE
  5
96
330
8F
100
AcDbEntity
  8
0
  6
Continuous
370
     0
100
AcDbLine
 10
185.21525
 20
65.125
 30
0.0
 11
185.21525
 21
-102.0
 31
0.0
  0
LINE
  5
97
330
8F
100
AcDbEntity
  8
0
  6
Continuous
370
     0
100
AcDbLine
 10
185.21525
 20
-102.0
 30
0.0
 11
-103.28475
 21
-102.0
 31
0.0
  0
LINE
  5
98
330
8F
100
AcDbEntity
  8
0
  6
Continuous
370
     0
100
AcDbLine
 10
-103.28475
 20
-102.0
 30
0.0
 11
-103.28475
 21
65.125
 31
0.0
  0
LINE
  5
99
330
8F
100
AcDbEntity
  8
0
  6
Continuous
370
     0
100
AcDbLine
 10
-103.28475
 20
65.125
 30
0.0
 11
185.21525
 21
65.125
 31
0.0
  0
ARC
  5
9A
330
8F
100
AcDbEntity
  8
0
  6
Continuous
370
     0
100
AcDbCircle
 10
40.96530133170737
 20
-18.43750000000868
 30
0.0
 40
76.00000000000298
100
AcDbArc
 50
0.0
 51
359.9999972222223
  0
ARC
  5
9B
330
8F
100
AcDbEntity
  8
0
  6
Continuous
370
     0
100
AcDbCircle
 10
140.3403013317042
 20
-18.43750000000402
 30
0.0
 40
4.999999999999992
100
AcDbArc
 50
0.0
 51
359.9999972222223
  0
ARC
  5
9C
330
8F
100
AcDbEntity
  8
0
  6
Continuous
370
     0
100
AcDbCircle
 10
-58.40969866829569
 20
-18.43750000000402
 30
0.0
 40
5.000000000000006
100
AcDbArc
 50
0.0
 51
359.9999972222223
  0
LINE
  5
9D
330
8F
100
AcDbEntity
  8
0
  6
Continuous
370
     0
100
AcDbLine
 10
182.21525
 20
62.875
 30
0.0
 11
182.21525
 21
-99.75000000000001
 31
0.0
  0
LINE
  5
9E
330
8F
100
AcDbEntity
  8
0
  6
Continuous
370
     0
100
AcDbLine
 10
182.21525
 20
-99.75000000000001
 30
0.0
 11
132.34025
 21
-99.75000000000001
 31
0.0
  0
LINE
  5
9F
330
8F
100
AcDbEntity
  8
0
  6
Continuous
370
     0
100
AcDbLine
 10
132.34025
 20
-99.75000000000001
 30
0.0
 11
132.34025
 21
62.875
 31
0.0
  0
LINE
  5
A0
330
8F
100
AcDbEntity
  8
0
  6
Continuous
370
     0
100
AcDbLine
 10
132.34025
 20
62.875
 30
0.0
 11
182.21525
 21
62.875
 31
0.0
  0
LINE
  5
A1
330
8F
100
AcDbEntity
  8
0
  6
Continuous
370
     0
100
AcDbLine
 10
-50.40975
 20
62.875
 30
0.0
 11
-50.40975
 21
-99.75000000000001
 31
0.0
  0
LINE
  5
A2
330
8F
100
AcDbEntity
  8
0
  6
Continuous
370
     0
100
AcDbLine
 10
-50.40975
 20
-99.75000000000001
 30
0.0
 11
-100.28475
 21
-99.75000000000001
 31
0.0
  0
LINE
  5
A3
330
8F
100
AcDbEntity
  8
0
  6
Continuous
370
     0
100
AcDbLine
 10
-100.28475
 20
-99.75000000000001
 30
0.0
 11
-100.28475
 21
62.875
 31
0.0
  0
LINE
  5
A4
330
8F
100
AcDbEntity
  8
0
  6
Continuous
370
     0
100
AcDbLine
 10
-100.28475
 20
62.875
 30
0.0
 11
-50.40975
 21
62.875
 31
0.0
  0
LINE
  5
A5
330
8F
100
AcDbEntity
  8
0
  6
Continuous
370
     0
100
AcDbLine
 10
40.96524999999998
 20
-18.4375
 30
0.0
 11
87.14074999999999
 21
-78.801625
 31
0.0
  0
LINE
  5
A6
330
8F
100
AcDbEntity
  8
0
  6
Continuous
370
     0
100
AcDbLine
 10
40.96524999999998
 20
-18.4375
 30
0.0
 11
-5.21025
 21
-78.801625
 31
0.0
  0
LINE
  5
A7
330
8F
100
AcDbEntity
  8
0
  6
Continuous
370
     0
100
AcDbLine
 10
40.96524999999998
 20
-18.4375
 30
0.0
 11
87.14074999999999
 21
41.92662499999999
 31
0.0
  0
LINE
  5
A8
330
8F
100
AcDbEntity
  8
0
  6
Continuous
370
     0
100
AcDbLine
 10
40.96524999999998
 20
-18.4375
 30
0.0
 11
-5.21025
 21
41.92662499999999
 31
0.0
  0
LINE
  5
A9
330
8F
100
AcDbEntity
  8
0
  6
Continuous
370
     0
100
AcDbLine
 10
-35.03475
 20
-18.4375
 30
0.0
 11
116.96525
 21
-18.4375
 31
0.0
  0
ARC
  5
AA
330
8F
100
AcDbEntity
  8
0
  6
Continuous
370
     0
100
AcDbCircle
 10
40.96530133170722
 20
-18.43750000000868
 30
0.0
 40
62.39999999999975
100
AcDbArc
 50
0.0
 51
359.9999972222223
  0
ARC
  5
AB
330
8F
100
AcDbEntity
  8
0
  6
Continuous
370
     0
100
AcDbCircle
 10
40.96530133170722
 20
-18.43750000000868
 30
0.0
 40
46.79999999999976
100
AcDbArc
 50
0.0
 51
359.9999972222223
  0
ARC
  5
AC
330
8F
100
AcDbEntity
  8
0
  6
Continuous
370
     0
100
AcDbCircle
 10
40.96530133170722
 20
-18.43750000000868
 30
0.0
 40
31.20000000000264
100
AcDbArc
 50
0.0
 51
359.9999972222223
  0
ARC
  5
AD
330
8F
100
AcDbEntity
  8
0
  6
Continuous
370
     0
100
AcDbCircle
 10
40.96530133170722
 20
-18.43750000000868
 30
0.0
 40
15.5999999999971
100
AcDbArc
 50
0.0
 51
359.9999972222223
  0
LINE
  5
AE
330
8F
100
AcDbEntity
  8
0
  6
Continuous
370
     0
100
AcDbLine
 10
182.21525
 20
-75.97912499999998
 30
0.0
 11
132.34025
 21
-75.97912499999998
 31
0.0
  0
LINE
  5
AF
330
8F
100
AcDbEntity
  8
0
  6
Continuous
370
     0
100
AcDbLine
 10
132.34025
 20
-52.208375
 30
0.0
 11
182.21525
 21
-52.208375
 31
0.0
  0
LINE
  5
B0
330
8F
100
AcDbEntity
  8
0
  6
Continuous
370
     0
100
AcDbLine
 10
182.21525
 20
15.333375
 30
0.0
 11
132.34025
 21
15.333375
 31
0.0
  0
LINE
  5
B1
330
8F
100
AcDbEntity
  8
0
  6
Continuous
370
     0
100
AcDbLine
 10
132.34025
 20
39.10412500000001
 30
0.0
 11
182.21525
 21
39.10412500000001
 31
0.0
  0
LINE
  5
B2
330
8F
100
AcDbEntity
  8
0
  6
Continuous
370
     0
100
AcDbLine
 10
-50.40975
 20
-75.97912499999998
 30
0.0
 11
-100.28475
 21
-75.97912499999998
 31
0.0
  0
LINE
  5
B3
330
8F
100
AcDbEntity
  8
0
  6
Continuous
370
     0
100
AcDbLine
 10
-100.28475
 20
-52.208375
 30
0.0
 11
-50.40975
 21
-52.208375
 31
0.0
  0
LINE
  5
B4
330
8F
100
AcDbEntity
  8
0
  6
Continuous
370
     0
100
AcDbLine
 10
-50.40975
 20
15.333375
 30
0.0
 11
-100.28475
 21
15.333375
 31
0.0
  0
LINE
  5
B5
330
8F
100
AcDbEntity
  8
0
  6
Continuous
370
     0
100
AcDbLine
 10
-100.28475
 20
39.10412500000001
 30
0.0
 11
-50.40975
 21
39.10412500000001
 31
0.0
  0
LINE
  5
B6
330
8F
100
AcDbEntity
  8
0
  6
Continuous
370
     0
100
AcDbLine
 10
132.34025
 20
-28.4375
 30
0.0
 11
182.21525
 21
-28.4375
 31
0.0
  0
LINE
  5
B7
330
8F
100
AcDbEntity
  8
0
  6
Continuous
370
     0
100
AcDbLine
 10
132.34025
 20
-8.4375
 30
0.0
 11
182.21525
 21
-8.4375
 31
0.0
  0
LINE
  5
B8
330
8F
100
AcDbEntity
  8
0
  6
Continuous
370
     0
100
AcDbLine
 10
-100.28475
 20
-28.4375
 30
0.0
 11
-50.40975
 21
-28.4375
 31
0.0
  0
LINE
  5
B9
330
8F
100
AcDbEntity
  8
0
  6
Continuous
370
     0
100
AcDbLine
 10
-100.28475
 20
-8.4375
 30
0.0
 11
-50.40975
 21
-8.4375
 31
0.0
  0
LINE
  5
BA
330
8F
100
AcDbEntity
  8
0
  6
Continuous
370
     0
100
AcDbLine
 10
49.81
 20
65.1875
 30
0.0
 11
40.81
 21
65.1875
 31
0.0
  0
LINE
  5
BB
330
8F
100
AcDbEntity
  8
0
  6
Continuous
370
     0
100
AcDbLine
 10
32.120625
 20
-102.0625
 30
0.0
 11
41.12062499999999
 21
-102.0625
 31
0.0
  0
LINE
  5
BC
330
8F
100
AcDbEntity
  8
0
  6
Continuous
370
     0
100
AcDbLine
 10
16.96525
 20
-102.25
 30
0.0
 11
17.96525
 21
-102.25
 31
0.0
  0
LINE
  5
BD
330
8F
100
AcDbEntity
  8
0
  6
Continuous
370
     0
100
AcDbLine
 10
33.96525
 20
-102.25
 30
0.0
 11
40.96524999999998
 21
-102.25
 31
0.0
  0
LINE
  5
BE
330
8F
100
AcDbEntity
  8
0
  6
Continuous
370
     0
100
AcDbLine
 10
56.71524999999999
 20
-102.25
 30
0.0
 11
58.21525000000001
 21
-102.25
 31
0.0
  0
LINE
  5
BF
330
8F
100
AcDbEntity
  8
0
  6
Continuous
370
     0
100
AcDbLine
 10
47.96524999999999
 20
-102.25
 30
0.0
 11
47.96524999999999
 21
-102.0625
 31
0.0
  0
LINE
  5
C0
330
8F
100
AcDbEntity
  8
0
  6
Continuous
370
     0
100
AcDbLine
 10
33.96525
 20
-102.0625
 30
0.0
 11
33.96525
 21
-102.25
 31
0.0
  0
LINE
  5
C1
330
8F
100
AcDbEntity
  8
0
  6
Continuous
370
     0
100
AcDbLine
 10
49.81
 20
65.125
 30
0.0
 11
49.81
 21
65.1875
 31
0.0
  0
LINE
  5
C2
330
8F
100
AcDbEntity
  8
0
  6
Continuous
370
     0
100
AcDbLine
 10
31.81
 20
65.1875
 30
0.0
 11
31.81
 21
65.125
 31
0.0
  0
LINE
  5
C3
330
8F
100
AcDbEntity
  8
0
  6
Continuous
370
     0
100
AcDbLine
 10
32.120625
 20
-102.0
 30
0.0
 11
32.120625
 21
-102.0625
 31
0.0
  0
LINE
  5
C4
330
8F
100
AcDbEntity
  8
0
  6
Continuous
370
     0
100
AcDbLine
 10
50.12062499999999
 20
-102.0625
 30
0.0
 11
50.12062499999999
 21
-102.0
 31
0.0
  0
LINE
  5
C5
330
8F
100
AcDbEntity
  8
0
  6
Continuous
370
     0
100
AcDbLine
 10
18.96525
 20
-102.25
 30
0.0
 11
18.96525
 21
-102.0
 31
0.0
  0
LINE
  5
C6
330
8F
100
AcDbEntity
  8
0
  6
Continuous
370
     0
100
AcDbLine
 10
16.96525
 20
-102.0
 30
0.0
 11
16.96525
 21
-102.25
 31
0.0
  0
LINE
  5
C7
330
8F
100
AcDbEntity
  8
0
  6
Continuous
370
     0
100
AcDbLine
 10
59.71524999999999
 20
-102.25
 30
0.0
 11
59.71524999999999
 21
-102.0
 31
0.0
  0
LINE
  5
C8
330
8F
100
AcDbEntity
  8
0
  6
Continuous
370
     0
100
AcDbLine
 10
56.71524999999999
 20
-102.0
 30
0.0
 11
56.71524999999999
 21
-102.25
 31
0.0
  0
ENDBLK
  5
C9
330
8F
100
AcDbEntity
  8
0
100
AcDbBlockEnd
  0
BLOCK
  5
34F
330
34E
100
AcDbEntity
  8
0
100
AcDbBlockBegin
  2
Cooling_Tower_-_rth - Mech0
 70
     0
 10
0.0
 20
0.0
 30
0.0
  3
Cooling_Tower_-_rth - Mech0
  1

  0
LINE
  5
350
330
34E
100
AcDbEntity
  8
M-EQPT
100
AcDbLine
 10
-88.63571790265231
 20
217.7500000000032
 30
0.0
 11
-88.63571790265231
 21
227.1250000000022
 31
0.0
  0
LINE
  5
351
330
34E
100
AcDbEntity
  8
M-EQPT
100
AcDbLine
 10
-244.6357179026527
 20
227.1250000000022
 30
0.0
 11
-244.6357179026527
 21
217.7500000000032
 31
0.0
  0
LINE
  5
352
330
34E
100
AcDbEntity
  8
M-EQPT
100
AcDbLine
 10
-88.6357179026524
 20
227.1250000000022
 30
0.0
 11
-166.6357179026526
 21
240.2500000000015
 31
0.0
  0
LINE
  5
353
330
34E
100
AcDbEntity
  8
M-EQPT
100
AcDbLine
 10
-166.6357179026526
 20
240.2500000000015
 30
0.0
 11
-244.6357179026527
 21
227.1250000000022
 31
0.0
  0
LINE
  5
354
330
34E
100
AcDbEntity
  8
M-EQPT
100
AcDbLine
 10
-88.63571790265238
 20
227.125000000002
 30
0.0
 11
-88.87616438728199
 21
227.1250000000021
 31
0.0
  0
LINE
  5
355
330
34E
100
AcDbEntity
  8
M-EQPT
100
AcDbLine
 10
-88.87616587146842
 20
227.1250000000021
 30
0.0
 11
-89.59602703937534
 21
227.1250000000021
 31
0.0
  0
LINE
  5
356
330
34E
100
AcDbEntity
  8
M-EQPT
100
AcDbLine
 10
-89.59602733623162
 20
227.1250000000021
 30
0.0
 11
-92.4533096316304
 21
227.1250000000023
 31
0.0
  0
LINE
  5
357
330
34E
100
AcDbEntity
  8
M-EQPT
100
AcDbLine
 10
-92.45331059061177
 20
227.1250000000023
 30
0.0
 11
-94.57311410947395
 21
227.1250000000024
 31
0.0
  0
LINE
  5
358
330
34E
100
AcDbEntity
  8
M-EQPT
100
AcDbLine
 10
-94.57311436677199
 20
227.1250000000024
 30
0.0
 11
-97.13720864892572
 21
227.1250000000025
 31
0.0
  0
LINE
  5
359
330
34E
100
AcDbEntity
  8
M-EQPT
100
AcDbLine
 10
-97.13720901595968
 20
227.1250000000025
 30
0.0
 11
-100.1297842701207
 21
227.1250000000025
 31
0.0
  0
LINE
  5
35A
330
34E
100
AcDbEntity
  8
M-EQPT
100
AcDbLine
 10
-100.1297850830331
 20
227.1250000000025
 30
0.0
 11
-103.5323917303315
 21
227.1250000000026
 31
0.0
  0
LINE
  5
35B
330
34E
100
AcDbEntity
  8
M-EQPT
100
AcDbLine
 10
-103.5323923414064
 20
227.1250000000026
 30
0.0
 11
-111.4813889701016
 21
227.1250000000027
 31
0.0
  0
LINE
  5
35C
330
34E
100
AcDbEntity
  8
M-EQPT
100
AcDbLine
 10
-111.4813892508013
 20
227.1250000000027
 30
0.0
 11
-136.786409826201
 21
227.1250000000029
 31
0.0
  0
LINE
  5
35D
330
34E
100
AcDbEntity
  8
M-EQPT
100
AcDbLine
 10
-136.7864101781753
 20
227.1250000000029
 30
0.0
 11
-142.5323917559027
 21
227.125000000003
 31
0.0
  0
LINE
  5
35E
330
34E
100
AcDbEntity
  8
M-EQPT
100
AcDbLine
 10
-142.5323923414064
 20
227.125000000003
 30
0.0
 11
-160.515907978366
 21
227.125000000003
 31
0.0
  0
LINE
  5
35F
330
34E
100
AcDbEntity
  8
M-EQPT
100
AcDbLine
 10
-160.5159084358804
 20
227.125000000003
 30
0.0
 11
-166.6357179026523
 21
227.125000000003
 31
0.0
  0
LINE
  5
360
330
34E
100
AcDbEntity
  8
M-EQPT
100
AcDbLine
 10
-166.6357190394623
 20
227.125000000003
 30
0.0
 11
-178.8376061757903
 21
227.125000000003
 31
0.0
  0
LINE
  5
361
330
34E
100
AcDbEntity
  8
M-EQPT
100
AcDbLine
 10
-178.8376071296153
 20
227.125000000003
 30
0.0
 11
-190.7390434638982
 21
227.125000000003
 31
0.0
  0
LINE
  5
362
330
34E
100
AcDbEntity
  8
M-EQPT
100
AcDbLine
 10
-190.7390449019221
 20
227.125000000003
 30
0.0
 11
-196.4850256271293
 21
227.1250000000029
 31
0.0
  0
LINE
  5
363
330
34E
100
AcDbEntity
  8
M-EQPT
100
AcDbLine
 10
-196.4850261068275
 20
227.1250000000029
 30
0.0
 11
-207.390604739695
 21
227.1250000000029
 31
0.0
  0
LINE
  5
364
330
34E
100
AcDbEntity
  8
M-EQPT
100
AcDbLine
 10
-207.3906059504963
 20
227.1250000000029
 30
0.0
 11
-212.4829675814652
 21
227.1250000000029
 31
0.0
  0
LINE
  5
365
330
34E
100
AcDbEntity
  8
M-EQPT
100
AcDbLine
 10
-212.4829680842142
 20
227.1250000000029
 30
0.0
 11
-217.2926656724066
 21
227.1250000000028
 31
0.0
  0
LINE
  5
366
330
34E
100
AcDbEntity
  8
M-EQPT
100
AcDbLine
 10
-217.2926681677837
 20
227.1250000000028
 30
0.0
 11
-221.7900418529325
 21
227.1250000000027
 31
0.0
  0
LINE
  5
367
330
34E
100
AcDbEntity
  8
M-EQPT
100
AcDbLine
 10
-221.7900468352031
 20
227.1250000000027
 30
0.0
 11
-229.7390393766615
 21
227.1250000000026
 31
0.0
  0
LINE
  5
368
330
34E
100
AcDbEntity
  8
M-EQPT
100
AcDbLine
 10
-229.7390434638982
 20
227.1250000000026
 30
0.0
 11
-233.1416507222715
 21
227.1250000000025
 31
0.0
  0
LINE
  5
369
330
34E
100
AcDbEntity
  8
M-EQPT
100
AcDbLine
 10
-233.1416539645652
 20
227.1250000000025
 30
0.0
 11
-236.1342265557435
 21
227.1250000000025
 31
0.0
  0
LINE
  5
36A
330
34E
100
AcDbEntity
  8
M-EQPT
100
AcDbLine
 10
-236.1342267893451
 20
227.1250000000025
 30
0.0
 11
-238.6983211120472
 21
227.1250000000024
 31
0.0
  0
LINE
  5
36B
330
34E
100
AcDbEntity
  8
M-EQPT
100
AcDbLine
 10
-238.6983214385328
 20
227.1250000000024
 30
0.0
 11
-240.8181221330225
 21
227.1250000000023
 31
0.0
  0
LINE
  5
36C
330
34E
100
AcDbEntity
  8
M-EQPT
100
AcDbLine
 10
-240.8181261736744
 20
227.1250000000023
 30
0.0
 11
-243.6754084690731
 21
227.1250000000021
 31
0.0
  0
LINE
  5
36D
330
34E
100
AcDbEntity
  8
M-EQPT
100
AcDbLine
 10
-243.675415598431
 20
227.1250000000021
 30
0.0
 11
-244.3952699338364
 21
227.1250000000021
 31
0.0
  0
LINE
  5
36E
330
34E
100
AcDbEntity
  8
M-EQPT
100
AcDbLine
 10
-244.3952702391523
 20
227.1250000000021
 30
0.0
 11
-244.6357179026524
 21
227.125000000002
 31
0.0
  0
LINE
  5
36F
330
34E
100
AcDbEntity
  8
M-EQPT
100
AcDbLine
 10
-310.8857179026523
 20
217.7500000000001
 30
0.0
 11
-22.38571790265245
 21
217.7500000000001
 31
0.0
  0
LINE
  5
370
330
34E
100
AcDbEntity
  8
M-EQPT
100
AcDbLine
 10
-22.38571790265245
 20
0.0000000000000853
 30
0.0
 11
-310.8857179026523
 21
0.0000000000000853
 31
0.0
  0
LINE
  5
371
330
34E
100
AcDbEntity
  8
M-EQPT
100
AcDbLine
 10
-310.8857179026523
 20
0.0000000000000853
 30
0.0
 11
-310.8857179026523
 21
217.7500000000001
 31
0.0
  0
LINE
  5
372
330
34E
100
AcDbEntity
  8
M-EQPT
100
AcDbLine
 10
-22.38571790265245
 20
0.0000000000000853
 30
0.0
 11
-22.38571790265245
 21
217.7500000000001
 31
0.0
  0
ENDBLK
  5
373
330
34E
100
AcDbEntity
  8
0
100
AcDbBlockEnd
  0
ENDSEC
  0
SECTION
  2
ENTITIES
  0
LINE
  5
246
330
6C
100
AcDbEntity
  8
0
  6
Continuous
370
     0
100
AcDbLine
 10
-0.0001250000000255
 20
448.5494999999998
 30
0.0
 11
-0.0001250000000255
 21
281.4245
 31
0.0
  0
LINE
  5
247
330
6C
100
AcDbEntity
  8
0
  6
Continuous
370
     0
100
AcDbLine
 10
-0.0001250000000255
 20
281.4245
 30
0.0
 11
288.499875
 21
281.4245
 31
0.0
  0
LINE
  5
248
330
6C
100
AcDbEntity
  8
0
  6
Continuous
370
     0
100
AcDbLine
 10
288.499875
 20
281.4245
 30
0.0
 11
288.499875
 21
448.5494999999998
 31
0.0
  0
LINE
  5
249
330
6C
100
AcDbEntity
  8
0
  6
Continuous
370
     0
100
AcDbLine
 10
288.499875
 20
448.5494999999998
 30
0.0
 11
-0.0001250000000255
 21
448.5494999999998
 31
0.0
  0
ARC
  5
24A
330
6C
100
AcDbEntity
  8
0
  6
Continuous
370
     0
100
AcDbCircle
 10
144.2499263317072
 20
364.9869999999913
 30
0.0
 40
78.00000000000007
100
AcDbArc
 50
0.0
 51
359.9999972222232
  0
LINE
  5
24B
330
6C
100
AcDbEntity
  8
0
  6
Continuous
370
     0
100
AcDbLine
 10
288.499875
 20
448.5494999999998
 30
0.0
 11
288.499875
 21
281.4245
 31
0.0
  0
LINE
  5
24C
330
6C
100
AcDbEntity
  8
0
  6
Continuous
370
     0
100
AcDbLine
 10
288.499875
 20
281.4245
 30
0.0
 11
-0.0001250000000255
 21
281.4245
 31
0.0
  0
LINE
  5
24D
330
6C
100
AcDbEntity
  8
0
  6
Continuous
370
     0
100
AcDbLine
 10
-0.0001250000000255
 20
281.4245
 30
0.0
 11
-0.0001250000000255
 21
448.5494999999998
 31
0.0
  0
LINE
  5
24E
330
6C
100
AcDbEntity
  8
0
  6
Continuous
370
     0
100
AcDbLine
 10
-0.0001250000000255
 20
448.5494999999998
 30
0.0
 11
288.499875
 21
448.5494999999998
 31
0.0
  0
ARC
  5
24F
330
6C
100
AcDbEntity
  8
0
  6
Continuous
370
     0
100
AcDbCircle
 10
144.2499263317074
 20
364.9869999999913
 30
0.0
 40
76.00000000000298
100
AcDbArc
 50
0.0
 51
359.9999972222232
  0
ARC
  5
250
330
6C
100
AcDbEntity
  8
0
  6
Continuous
370
     0
100
AcDbCircle
 10
243.6249263317042
 20
364.986999999996
 30
0.0
 40
4.999999999999992
100
AcDbArc
 50
0.0
 51
359.9999972222232
  0
ARC
  5
251
330
6C
100
AcDbEntity
  8
0
  6
Continuous
370
     0
100
AcDbCircle
 10
44.87492633170433
 20
364.986999999996
 30
0.0
 40
5.000000000000006
100
AcDbArc
 50
0.0
 51
359.9999972222232
  0
LINE
  5
252
330
6C
100
AcDbEntity
  8
0
  6
Continuous
370
     0
100
AcDbLine
 10
285.499875
 20
446.2994999999998
 30
0.0
 11
285.499875
 21
283.6745
 31
0.0
  0
LINE
  5
253
330
6C
100
AcDbEntity
  8
0
  6
Continuous
370
     0
100
AcDbLine
 10
285.499875
 20
283.6745
 30
0.0
 11
235.624875
 21
283.6745
 31
0.0
  0
LINE
  5
254
330
6C
100
AcDbEntity
  8
0
  6
Continuous
370
     0
100
AcDbLine
 10
235.624875
 20
283.6745
 30
0.0
 11
235.624875
 21
446.2994999999998
 31
0.0
  0
LINE
  5
255
330
6C
100
AcDbEntity
  8
0
  6
Continuous
370
     0
100
AcDbLine
 10
235.624875
 20
446.2994999999998
 30
0.0
 11
285.499875
 21
446.2994999999998
 31
0.0
  0
LINE
  5
256
330
6C
100
AcDbEntity
  8
0
  6
Continuous
370
     0
100
AcDbLine
 10
52.87487499999997
 20
446.2994999999998
 30
0.0
 11
52.87487499999997
 21
283.6745
 31
0.0
  0
LINE
  5
257
330
6C
100
AcDbEntity
  8
0
  6
Continuous
370
     0
100
AcDbLine
 10
52.87487499999997
 20
283.6745
 30
0.0
 11
2.999874999999973
 21
283.6745
 31
0.0
  0
LINE
  5
258
330
6C
100
AcDbEntity
  8
0
  6
Continuous
370
     0
100
AcDbLine
 10
2.999874999999973
 20
283.6745
 30
0.0
 11
2.999874999999973
 21
446.2994999999998
 31
0.0
  0
LINE
  5
259
330
6C
100
AcDbEntity
  8
0
  6
Continuous
370
     0
100
AcDbLine
 10
2.999874999999973
 20
446.2994999999998
 30
0.0
 11
52.87487499999997
 21
446.2994999999998
 31
0.0
  0
LINE
  5
25A
330
6C
100
AcDbEntity
  8
0
  6
Continuous
370
     0
100
AcDbLine
 10
144.2498749999999
 20
364.987
 30
0.0
 11
190.425375
 21
304.622875
 31
0.0
  0
LINE
  5
25B
330
6C
100
AcDbEntity
  8
0
  6
Continuous
370
     0
100
AcDbLine
 10
144.2498749999999
 20
364.987
 30
0.0
 11
98.07437500000004
 21
304.622875
 31
0.0
  0
LINE
  5
25C
330
6C
100
AcDbEntity
  8
0
  6
Continuous
370
     0
100
AcDbLine
 10
144.2498749999999
 20
364.987
 30
0.0
 11
190.425375
 21
425.351125
 31
0.0
  0
LINE
  5
25D
330
6C
100
AcDbEntity
  8
0
  6
Continuous
370
     0
100
AcDbLine
 10
144.2498749999999
 20
364.987
 30
0.0
 11
98.07437500000004
 21
425.351125
 31
0.0
  0
LINE
  5
25E
330
6C
100
AcDbEntity
  8
0
  6
Continuous
370
     0
100
AcDbLine
 10
68.24987499999997
 20
364.987
 30
0.0
 11
220.249875
 21
364.987
 31
0.0
  0
ARC
  5
25F
330
6C
100
AcDbEntity
  8
0
  6
Continuous
370
     0
100
AcDbCircle
 10
144.2499263317072
 20
364.9869999999913
 30
0.0
 40
62.39999999999975
100
AcDbArc
 50
0.0
 51
359.9999972222232
  0
ARC
  5
260
330
6C
100
AcDbEntity
  8
0
  6
Continuous
370
     0
100
AcDbCircle
 10
144.2499263317072
 20
364.9869999999913
 30
0.0
 40
46.79999999999976
100
AcDbArc
 50
0.0
 51
359.9999972222232
  0
ARC
  5
261
330
6C
100
AcDbEntity
  8
0
  6
Continuous
370
     0
100
AcDbCircle
 10
144.2499263317072
 20
364.9869999999913
 30
0.0
 40
31.20000000000264
100
AcDbArc
 50
0.0
 51
359.9999972222232
  0
ARC
  5
262
330
6C
100
AcDbEntity
  8
0
  6
Continuous
370
     0
100
AcDbCircle
 10
144.2499263317072
 20
364.9869999999913
 30
0.0
 40
15.5999999999971
100
AcDbArc
 50
0.0
 51
359.9999972222232
  0
LINE
  5
263
330
6C
100
AcDbEntity
  8
0
  6
Continuous
370
     0
100
AcDbLine
 10
285.499875
 20
307.445375
 30
0.0
 11
235.624875
 21
307.445375
 31
0.0
  0
LINE
  5
264
330
6C
100
AcDbEntity
  8
0
  6
Continuous
370
     0
100
AcDbLine
 10
235.624875
 20
331.216125
 30
0.0
 11
285.499875
 21
331.216125
 31
0.0
  0
LINE
  5
265
330
6C
100
AcDbEntity
  8
0
  6
Continuous
370
     0
100
AcDbLine
 10
285.499875
 20
398.757875
 30
0.0
 11
235.624875
 21
398.757875
 31
0.0
  0
LINE
  5
266
330
6C
100
AcDbEntity
  8
0
  6
Continuous
370
     0
100
AcDbLine
 10
235.624875
 20
422.5286249999999
 30
0.0
 11
285.499875
 21
422.5286249999999
 31
0.0
  0
LINE
  5
267
330
6C
100
AcDbEntity
  8
0
  6
Continuous
370
     0
100
AcDbLine
 10
52.87487499999997
 20
307.445375
 30
0.0
 11
2.999874999999973
 21
307.445375
 31
0.0
  0
LINE
  5
268
330
6C
100
AcDbEntity
  8
0
  6
Continuous
370
     0
100
AcDbLine
 10
2.999874999999973
 20
331.216125
 30
0.0
 11
52.87487499999997
 21
331.216125
 31
0.0
  0
LINE
  5
269
330
6C
100
AcDbEntity
  8
0
  6
Continuous
370
     0
100
AcDbLine
 10
52.87487499999997
 20
398.757875
 30
0.0
 11
2.999874999999973
 21
398.757875
 31
0.0
  0
LINE
  5
26A
330
6C
100
AcDbEntity
  8
0
  6
Continuous
370
     0
100
AcDbLine
 10
2.999874999999973
 20
422.5286249999999
 30
0.0
 11
52.87487499999997
 21
422.5286249999999
 31
0.0
  0
LINE
  5
26B
330
6C
100
AcDbEntity
  8
0
  6
Continuous
370
     0
100
AcDbLine
 10
235.624875
 20
354.987
 30
0.0
 11
285.499875
 21
354.987
 31
0.0
  0
LINE
  5
26C
330
6C
100
AcDbEntity
  8
0
  6
Continuous
370
     0
100
AcDbLine
 10
235.624875
 20
374.987
 30
0.0
 11
285.499875
 21
374.987
 31
0.0
  0
LINE
  5
26D
330
6C
100
AcDbEntity
  8
0
  6
Continuous
370
     0
100
AcDbLine
 10
2.999874999999973
 20
354.987
 30
0.0
 11
52.87487499999997
 21
354.987
 31
0.0
  0
LINE
  5
26E
330
6C
100
AcDbEntity
  8
0
  6
Continuous
370
     0
100
AcDbLine
 10
2.999874999999973
 20
374.987
 30
0.0
 11
52.87487499999997
 21
374.987
 31
0.0
  0
LINE
  5
26F
330
6C
100
AcDbEntity
  8
0
  6
Continuous
370
     0
100
AcDbLine
 10
153.094625
 20
448.6119999999998
 30
0.0
 11
144.094625
 21
448.6119999999998
 31
0.0
  0
LINE
  5
270
330
6C
100
AcDbEntity
  8
0
  6
Continuous
370
     0
100
AcDbLine
 10
135.40525
 20
281.362
 30
0.0
 11
144.40525
 21
281.362
 31
0.0
  0
LINE
  5
271
330
6C
100
AcDbEntity
  8
0
  6
Continuous
370
     0
100
AcDbLine
 10
120.249875
 20
281.1745
 30
0.0
 11
121.249875
 21
281.1745
 31
0.0
  0
LINE
  5
272
330
6C
100
AcDbEntity
  8
0
  6
Continuous
370
     0
100
AcDbLine
 10
137.249875
 20
281.1745
 30
0.0
 11
144.2498749999999
 21
281.1745
 31
0.0
  0
LINE
  5
273
330
6C
100
AcDbEntity
  8
0
  6
Continuous
370
     0
100
AcDbLine
 10
159.999875
 20
281.1745
 30
0.0
 11
161.499875
 21
281.1745
 31
0.0
  0
LINE
  5
274
330
6C
100
AcDbEntity
  8
0
  6
Continuous
370
     0
100
AcDbLine
 10
151.2498749999999
 20
281.1745
 30
0.0
 11
151.2498749999999
 21
281.362
 31
0.0
  0
LINE
  5
275
330
6C
100
AcDbEntity
  8
0
  6
Continuous
370
     0
100
AcDbLine
 10
137.249875
 20
281.362
 30
0.0
 11
137.249875
 21
281.1745
 31
0.0
  0
LINE
  5
276
330
6C
100
AcDbEntity
  8
0
  6
Continuous
370
     0
100
AcDbLine
 10
153.094625
 20
448.5494999999998
 30
0.0
 11
153.094625
 21
448.6119999999998
 31
0.0
  0
LINE
  5
277
330
6C
100
AcDbEntity
  8
0
  6
Continuous
370
     0
100
AcDbLine
 10
135.094625
 20
448.6119999999998
 30
0.0
 11
135.094625
 21
448.5494999999998
 31
0.0
  0
LINE
  5
278
330
6C
100
AcDbEntity
  8
0
  6
Continuous
370
     0
100
AcDbLine
 10
135.40525
 20
281.4245
 30
0.0
 11
135.40525
 21
281.362
 31
0.0
  0
LINE
  5
279
330
6C
100
AcDbEntity
  8
0
  6
Continuous
370
     0
100
AcDbLine
 10
153.40525
 20
281.362
 30
0.0
 11
153.40525
 21
281.4245
 31
0.0
  0
LINE
  5
27A
330
6C
100
AcDbEntity
  8
0
  6
Continuous
370
     0
100
AcDbLine
 10
122.249875
 20
281.1745
 30
0.0
 11
122.249875
 21
281.4245
 31
0.0
  0
LINE
  5
27B
330
6C
100
AcDbEntity
  8
0
  6
Continuous
370
     0
100
AcDbLine
 10
120.249875
 20
281.4245
 30
0.0
 11
120.249875
 21
281.1745
 31
0.0
  0
LINE
  5
27C
330
6C
100
AcDbEntity
  8
0
  6
Continuous
370
     0
100
AcDbLine
 10
162.999875
 20
281.1745
 30
0.0
 11
162.999875
 21
281.4245
 31
0.0
  0
LINE
  5
27D
330
6C
100
AcDbEntity
  8
0
  6
Continuous
370
     0
100
AcDbLine
 10
159.999875
 20
281.4245
 30
0.0
 11
159.999875
 21
281.1745
 31
0.0
  0
LINE
  5
27E
330
6C
100
AcDbEntity
  8
0
  6
Continuous
370
     0
100
AcDbLine
 10
288.5
 20
0.0
 30
0.0
 11
0.0
 21
0.0
 31
0.0
  0
LINE
  5
27F
330
6C
100
AcDbEntity
  8
0
  6
Continuous
370
     0
100
AcDbLine
 10
0.0
 20
0.0
 30
0.0
 11
0.0
 21
217.5
 31
0.0
  0
LINE
  5
280
330
6C
100
AcDbEntity
  8
0
  6
Continuous
370
     0
100
AcDbLine
 10
0.0
 20
217.5
 30
0.0
 11
66.25
 21
217.5
 31
0.0
  0
LINE
  5
281
330
6C
100
AcDbEntity
  8
0
  6
Continuous
370
     0
100
AcDbLine
 10
66.25
 20
217.5
 30
0.0
 11
66.25
 21
226.875
 31
0.0
  0
LINE
  5
282
330
6C
100
AcDbEntity
  8
0
  6
Continuous
370
     0
100
AcDbLine
 10
66.25
 20
226.875
 30
0.0
 11
144.25
 21
240.25
 31
0.0
  0
LINE
  5
283
330
6C
100
AcDbEntity
  8
0
  6
Continuous
370
     0
100
AcDbLine
 10
144.25
 20
240.25
 30
0.0
 11
222.25
 21
226.875
 31
0.0
  0
LINE
  5
284
330
6C
100
AcDbEntity
  8
0
  6
Continuous
370
     0
100
AcDbLine
 10
222.25
 20
226.875
 30
0.0
 11
222.25
 21
217.5
 31
0.0
  0
LINE
  5
285
330
6C
100
AcDbEntity
  8
0
  6
Continuous
370
     0
100
AcDbLine
 10
222.25
 20
217.5
 30
0.0
 11
288.5
 21
217.5
 31
0.0
  0
LINE
  5
286
330
6C
100
AcDbEntity
  8
0
  6
Continuous
370
     0
100
AcDbLine
 10
288.5
 20
217.5
 30
0.0
 11
288.5
 21
0.0
 31
0.0
  0
LINE
  5
287
330
6C
100
AcDbEntity
  8
0
  6
Continuous
370
     0
100
AcDbLine
 10
222.25
 20
217.5
 30
0.0
 11
222.25
 21
226.875
 31
0.0
  0
LINE
  5
288
330
6C
100
AcDbEntity
  8
0
  6
Continuous
370
     0
100
AcDbLine
 10
66.25
 20
217.5
 30
0.0
 11
66.25
 21
226.875
 31
0.0
  0
LINE
  5
289
330
6C
100
AcDbEntity
  8
0
  6
Continuous
370
     0
100
AcDbLine
 10
144.25
 20
240.25
 30
0.0
 11
222.25
 21
226.875
 31
0.0
  0
LINE
  5
28A
330
6C
100
AcDbEntity
  8
0
  6
Continuous
370
     0
100
AcDbLine
 10
66.25
 20
226.875
 30
0.0
 11
144.25
 21
240.25
 31
0.0
  0
LINE
  5
28B
330
6C
100
AcDbEntity
  8
0
  6
Continuous
370
     0
100
AcDbLine
 10
288.5
 20
217.5
 30
0.0
 11
288.5
 21
0.0
 31
0.0
  0
LINE
  5
28C
330
6C
100
AcDbEntity
  8
0
  6
Continuous
370
     0
100
AcDbLine
 10
288.5
 20
0.0
 30
0.0
 11
0.0
 21
0.0
 31
0.0
  0
LINE
  5
28D
330
6C
100
AcDbEntity
  8
0
  6
Continuous
370
     0
100
AcDbLine
 10
0.0
 20
0.0
 30
0.0
 11
0.0
 21
217.5
 31
0.0
  0
LINE
  5
28E
330
6C
100
AcDbEntity
  8
0
  6
Continuous
370
     0
100
AcDbLine
 10
0.0
 20
217.5
 30
0.0
 11
288.5
 21
217.5
 31
0.0
  0
LINE
  5
28F
330
6C
100
AcDbEntity
  8
0
  6
Continuous
370
     0
100
AcDbLine
 10
127.375
 20
66.74999999999998
 30
0.0
 11
127.375
 21
27.0
 31
0.0
  0
LINE
  5
290
330
6C
100
AcDbEntity
  8
0
  6
Continuous
370
     0
100
AcDbLine
 10
171.925
 20
66.74999999999998
 30
0.0
 11
127.375
 21
66.74999999999998
 31
0.0
  0
LINE
  5
291
330
6C
100
AcDbEntity
  8
0
  6
Continuous
370
     0
100
AcDbLine
 10
171.925
 20
27.0
 30
0.0
 11
171.925
 21
66.74999999999998
 31
0.0
  0
LINE
  5
292
330
6C
100
AcDbEntity
  8
0
  6
Continuous
370
     0
100
AcDbLine
 10
144.25
 20
240.25
 30
0.0
 11
180.9975
 21
226.875
 31
0.0
  0
LINE
  5
293
330
6C
100
AcDbEntity
  8
0
  6
Continuous
370
     0
100
AcDbLine
 10
144.25
 20
240.25
 30
0.0
 11
107.5025
 21
226.875
 31
0.0
  0
LINE
  5
294
330
6C
100
AcDbEntity
  8
0
  6
Continuous
370
     0
100
AcDbLine
 10
196.25
 20
231.333375
 30
0.0
 11
92.24999999999999
 21
231.333375
 31
0.0
  0
LINE
  5
295
330
6C
100
AcDbEntity
  8
0
  6
Continuous
370
     0
100
AcDbLine
 10
118.25
 20
235.791625
 30
0.0
 11
170.25
 21
235.791625
 31
0.0
  0
LINE
  5
296
330
6C
100
AcDbEntity
  8
0
  6
Continuous
370
     0
100
AcDbLine
 10
0.0
 20
27.0
 30
0.0
 11
288.5
 21
27.0
 31
0.0
  0
LINE
  5
297
330
6C
100
AcDbEntity
  8
0
  6
Continuous
370
     0
100
AcDbLine
 10
222.25
 20
226.875
 30
0.0
 11
66.25
 21
226.875
 31
0.0
  0
ARC
  5
298
330
6C
100
AcDbEntity
  8
0
  6
Continuous
370
     0
100
AcDbCircle
 10
121.2499643918521
 20
34.0
 30
0.0
 40
0.9999999999999934
100
AcDbArc
 50
0.0
 51
179.9999972222221
  0
ARC
  5
299
330
6C
100
AcDbEntity
  8
0
  6
Continuous
370
     0
100
AcDbCircle
 10
121.2499643918521
 20
34.0
 30
0.0
 40
1.000000000000001
100
AcDbArc
 50
180.0
 51
359.9999972222222
  0
LINE
  5
29A
330
6C
100
AcDbEntity
  8
0
  6
Continuous
370
     0
100
AcDbLine
 10
39.875
 20
217.75
 30
0.0
 11
49.875
 21
217.75
 31
0.0
  0
LINE
  5
29B
330
6C
100
AcDbEntity
  8
0
  6
Continuous
370
     0
100
AcDbLine
 10
44.87499999999999
 20
217.75
 30
0.0
 11
49.875
 21
217.75
 31
0.0
  0
LINE
  5
29C
330
6C
100
AcDbEntity
  8
0
  6
Continuous
370
     0
100
AcDbLine
 10
238.625
 20
217.75
 30
0.0
 11
248.625
 21
217.75
 31
0.0
  0
LINE
  5
29D
330
6C
100
AcDbEntity
  8
0
  6
Continuous
370
     0
100
AcDbLine
 10
243.625
 20
217.75
 30
0.0
 11
248.625
 21
217.75
 31
0.0
  0
ARC
  5
29E
330
6C
100
AcDbEntity
  8
0
  6
Continuous
370
     0
100
AcDbCircle
 10
144.2499643918518
 20
9.625000000000994
 30
0.0
 40
6.999999999999985
100
AcDbArc
 50
0.0000027777777859
 51
180.0
  0
ARC
  5
29F
330
6C
100
AcDbEntity
  8
0
  6
Continuous
370
     0
100
AcDbCircle
 10
144.2499643918518
 20
9.625000000000994
 30
0.0
 40
6.999999999999992
100
AcDbArc
 50
180.0
 51
359.9999972222222
  0
ARC
  5
2A0
330
6C
100
AcDbEntity
  8
0
  6
Continuous
370
     0
100
AcDbCircle
 10
161.4999643918526
 20
10.0
 30
0.0
 40
1.5
100
AcDbArc
 50
0.0000027777777859
 51
180.0
  0
ARC
  5
2A1
330
6C
100
AcDbEntity
  8
0
  6
Continuous
370
     0
100
AcDbCircle
 10
161.4999643918526
 20
10.0
 30
0.0
 40
1.500000000000001
100
AcDbArc
 50
180.0
 51
359.9999972222222
  0
ARC
  5
2A2
330
6C
100
AcDbEntity
  8
0
  6
Continuous
370
     0
100
AcDbCircle
 10
161.4999643918526
 20
3.0
 30
0.0
 40
0.9999999999999856
100
AcDbArc
 50
0.0000027777777859
 51
180.0
  0
ARC
  5
2A3
330
6C
100
AcDbEntity
  8
0
  6
Continuous
370
     0
100
AcDbCircle
 10
161.4999643918526
 20
3.0
 30
0.0
 40
0.9999999999999944
100
AcDbArc
 50
180.0
 51
359.9999972222222
  0
LINE
  5
2A4
330
6C
100
AcDbEntity
  8
0
  6
Continuous
370
     0
100
AcDbLine
 10
39.875
 20
217.75
 30
0.0
 11
39.875
 21
217.5
 31
0.0
  0
LINE
  5
2A5
330
6C
100
AcDbEntity
  8
0
  6
Continuous
370
     0
100
AcDbLine
 10
49.875
 20
217.5
 30
0.0
 11
49.875
 21
217.75
 31
0.0
  0
LINE
  5
2A6
330
6C
100
AcDbEntity
  8
0
  6
Continuous
370
     0
100
AcDbLine
 10
238.625
 20
217.75
 30
0.0
 11
238.625
 21
217.5
 31
0.0
  0
LINE
  5
2A7
330
6C
100
AcDbEntity
  8
0
  6
Continuous
370
     0
100
AcDbLine
 10
248.625
 20
217.5
 30
0.0
 11
248.625
 21
217.75
 31
0.0
  0
LINE
  5
2A8
330
6C
100
AcDbEntity
  8
0
  6
Continuous
370
     0
100
AcDbLine
 10
577.5076249999998
 20
217.5
 30
0.0
 11
577.5076249999998
 21
0.0
 31
0.0
  0
LINE
  5
2A9
330
6C
100
AcDbEntity
  8
0
  6
Continuous
370
     0
100
AcDbLine
 10
577.5076249999998
 20
0.0
 30
0.0
 11
410.382625
 21
0.0
 31
0.0
  0
LINE
  5
2AA
330
6C
100
AcDbEntity
  8
0
  6
Continuous
370
     0
100
AcDbLine
 10
410.382625
 20
0.0
 30
0.0
 11
410.382625
 21
217.5
 31
0.0
  0
LINE
  5
2AB
330
6C
100
AcDbEntity
  8
0
  6
Continuous
370
     0
100
AcDbLine
 10
410.382625
 20
217.5
 30
0.0
 11
415.945125
 21
217.5
 31
0.0
  0
LINE
  5
2AC
330
6C
100
AcDbEntity
  8
0
  6
Continuous
370
     0
100
AcDbLine
 10
415.945125
 20
217.5
 30
0.0
 11
415.945125
 21
226.875
 31
0.0
  0
LINE
  5
2AD
330
6C
100
AcDbEntity
  8
0
  6
Continuous
370
     0
100
AcDbLine
 10
415.945125
 20
226.875
 30
0.0
 11
493.9451249999998
 21
240.25
 31
0.0
  0
LINE
  5
2AE
330
6C
100
AcDbEntity
  8
0
  6
Continuous
370
     0
100
AcDbLine
 10
493.9451249999998
 20
240.25
 30
0.0
 11
571.9451249999998
 21
226.875
 31
0.0
  0
LINE
  5
2AF
330
6C
100
AcDbEntity
  8
0
  6
Continuous
370
     0
100
AcDbLine
 10
571.9451249999998
 20
226.875
 30
0.0
 11
571.9451249999998
 21
217.5
 31
0.0
  0
LINE
  5
2B0
330
6C
100
AcDbEntity
  8
0
  6
Continuous
370
     0
100
AcDbLine
 10
571.9451249999998
 20
217.5
 30
0.0
 11
577.5076249999998
 21
217.5
 31
0.0
  0
LINE
  5
2B1
330
6C
100
AcDbEntity
  8
0
  6
Continuous
370
     0
100
AcDbLine
 10
415.945125
 20
226.875
 30
0.0
 11
415.945125
 21
217.5
 31
0.0
  0
LINE
  5
2B2
330
6C
100
AcDbEntity
  8
0
  6
Continuous
370
     0
100
AcDbLine
 10
493.9451249999998
 20
240.25
 30
0.0
 11
415.945125
 21
226.875
 31
0.0
  0
LINE
  5
2B3
330
6C
100
AcDbEntity
  8
0
  6
Continuous
370
     0
100
AcDbLine
 10
571.9451249999998
 20
226.875
 30
0.0
 11
493.9451249999998
 21
240.25
 31
0.0
  0
LINE
  5
2B4
330
6C
100
AcDbEntity
  8
0
  6
Continuous
370
     0
100
AcDbLine
 10
571.9451249999998
 20
217.5
 30
0.0
 11
571.9451249999998
 21
226.875
 31
0.0
  0
LINE
  5
2B5
330
6C
100
AcDbEntity
  8
0
  6
Continuous
370
     0
100
AcDbLine
 10
410.382625
 20
217.5
 30
0.0
 11
410.382625
 21
0.0
 31
0.0
  0
LINE
  5
2B6
330
6C
100
AcDbEntity
  8
0
  6
Continuous
370
     0
100
AcDbLine
 10
410.382625
 20
0.0
 30
0.0
 11
577.5076249999998
 21
0.0
 31
0.0
  0
LINE
  5
2B7
330
6C
100
AcDbEntity
  8
0
  6
Continuous
370
     0
100
AcDbLine
 10
577.5076249999998
 20
0.0
 30
0.0
 11
577.5076249999998
 21
217.5
 31
0.0
  0
LINE
  5
2B8
330
6C
100
AcDbEntity
  8
0
  6
Continuous
370
     0
100
AcDbLine
 10
577.5076249999998
 20
217.5
 30
0.0
 11
410.382625
 21
217.5
 31
0.0
  0
LINE
  5
2B9
330
6C
100
AcDbEntity
  8
0
  6
Continuous
370
     0
100
AcDbLine
 10
571.9451249999998
 20
226.875
 30
0.0
 11
415.945125
 21
226.875
 31
0.0
  0
LINE
  5
2BA
330
6C
100
AcDbEntity
  8
0
  6
Continuous
370
     0
100
AcDbLine
 10
412.6326249999998
 20
207.5
 30
0.0
 11
412.6326249999998
 21
217.5
 31
0.0
  0
LINE
  5
2BB
330
6C
100
AcDbEntity
  8
0
  6
Continuous
370
     0
100
AcDbLine
 10
575.2576249999998
 20
207.5
 30
0.0
 11
412.6326249999998
 21
207.5
 31
0.0
  0
LINE
  5
2BC
330
6C
100
AcDbEntity
  8
0
  6
Continuous
370
     0
100
AcDbLine
 10
575.2576249999998
 20
217.5
 30
0.0
 11
575.2576249999998
 21
207.5
 31
0.0
  0
LINE
  5
2BD
330
6C
100
AcDbEntity
  8
0
  6
Continuous
370
     0
100
AcDbLine
 10
412.6326249999998
 20
27.0
 30
0.0
 11
412.6326249999998
 21
199.5
 31
0.0
  0
LINE
  5
2BE
330
6C
100
AcDbEntity
  8
0
  6
Continuous
370
     0
100
AcDbLine
 10
412.6326249999998
 20
199.5
 30
0.0
 11
575.2576249999998
 21
199.5
 31
0.0
  0
LINE
  5
2BF
330
6C
100
AcDbEntity
  8
0
  6
Continuous
370
     0
100
AcDbLine
 10
575.2576249999998
 20
199.5
 30
0.0
 11
575.2576249999998
 21
27.0
 31
0.0
  0
LINE
  5
2C0
330
6C
100
AcDbEntity
  8
0
  6
Continuous
370
     0
100
AcDbLine
 10
575.2576249999998
 20
27.0
 30
0.0
 11
412.6326249999998
 21
27.0
 31
0.0
  0
LINE
  5
2C1
330
6C
100
AcDbEntity
  8
0
  6
Continuous
370
     0
100
AcDbLine
 10
575.2576249999998
 20
27.0
 30
0.0
 11
412.6326249999998
 21
199.5
 31
0.0
  0
LINE
  5
2C2
330
6C
100
AcDbEntity
  8
0
  6
Continuous
370
     0
100
AcDbLine
 10
575.2576249999998
 20
199.5
 30
0.0
 11
412.6326249999998
 21
27.0
 31
0.0
  0
LINE
  5
2C3
330
6C
100
AcDbEntity
  8
0
  6
Continuous
370
     0
100
AcDbLine
 10
493.9451249999998
 20
226.875
 30
0.0
 11
493.9451249999998
 21
240.25
 31
0.0
  0
LINE
  5
2C4
330
6C
100
AcDbEntity
  8
0
  6
Continuous
370
     0
100
AcDbLine
 10
493.9451249999998
 20
240.25
 30
0.0
 11
444.029
 21
226.875
 31
0.0
  0
LINE
  5
2C5
330
6C
100
AcDbEntity
  8
0
  6
Continuous
370
     0
100
AcDbLine
 10
493.9451249999998
 20
240.25
 30
0.0
 11
543.861375
 21
226.875
 31
0.0
  0
LINE
  5
2C6
330
6C
100
AcDbEntity
  8
0
  6
Continuous
370
     0
100
AcDbLine
 10
467.9451249999998
 20
235.791625
 30
0.0
 11
519.945125
 21
235.791625
 31
0.0
  0
LINE
  5
2C7
330
6C
100
AcDbEntity
  8
0
  6
Continuous
370
     0
100
AcDbLine
 10
545.9451249999998
 20
231.333375
 30
0.0
 11
441.9451249999998
 21
231.333375
 31
0.0
  0
LINE
  5
2C8
330
6C
100
AcDbEntity
  8
0
  6
Continuous
370
     0
100
AcDbLine
 10
410.382625
 20
217.5
 30
0.0
 11
412.6326249999998
 21
217.5
 31
0.0
  0
LINE
  5
2C9
330
6C
100
AcDbEntity
  8
0
  6
Continuous
370
     0
100
AcDbLine
 10
575.2576249999998
 20
217.5
 30
0.0
 11
577.5076249999998
 21
217.5
 31
0.0
  0
LINE
  5
2CA
330
6C
100
AcDbEntity
  8
0
  6
Continuous
370
     0
100
AcDbLine
 10
577.5076249999998
 20
0.0
 30
0.0
 11
410.382625
 21
0.0
 31
0.0
  0
LINE
  5
2CB
330
6C
100
AcDbEntity
  8
0
  6
Continuous
370
     0
100
AcDbLine
 10
575.2576249999998
 20
217.5
 30
0.0
 11
575.2576249999998
 21
207.5
 31
0.0
  0
LINE
  5
2CC
330
6C
100
AcDbEntity
  8
0
  6
Continuous
370
     0
100
AcDbLine
 10
575.2576249999998
 20
207.5
 30
0.0
 11
412.6326249999998
 21
207.5
 31
0.0
  0
LINE
  5
2CD
330
6C
100
AcDbEntity
  8
0
  6
Continuous
370
     0
100
AcDbLine
 10
412.6326249999998
 20
207.5
 30
0.0
 11
412.6326249999998
 21
217.5
 31
0.0
  0
LINE
  5
2CE
330
6C
100
AcDbEntity
  8
0
  6
Continuous
370
     0
100
AcDbLine
 10
410.382625
 20
217.5
 30
0.0
 11
410.382625
 21
0.0
 31
0.0
  0
LINE
  5
2CF
330
6C
100
AcDbEntity
  8
0
  6
Continuous
370
     0
100
AcDbLine
 10
412.6326249999998
 20
21.0
 30
0.0
 11
412.6326249999998
 21
199.5
 31
0.0
  0
LINE
  5
2D0
330
6C
100
AcDbEntity
  8
0
  6
Continuous
370
     0
100
AcDbLine
 10
412.6326249999998
 20
199.5
 30
0.0
 11
575.2576249999998
 21
199.5
 31
0.0
  0
LINE
  5
2D1
330
6C
100
AcDbEntity
  8
0
  6
Continuous
370
     0
100
AcDbLine
 10
575.2576249999998
 20
199.5
 30
0.0
 11
575.2576249999998
 21
21.0
 31
0.0
  0
LINE
  5
2D2
330
6C
100
AcDbEntity
  8
0
  6
Continuous
370
     0
100
AcDbLine
 10
575.2576249999998
 20
21.0
 30
0.0
 11
412.6326249999998
 21
21.0
 31
0.0
  0
LINE
  5
2D3
330
6C
100
AcDbEntity
  8
0
  6
Continuous
370
     0
100
AcDbLine
 10
577.5076249999998
 20
217.5
 30
0.0
 11
577.5076249999998
 21
0.0
 31
0.0
  0
LINE
  5
2D4
330
6C
100
AcDbEntity
  8
0
  6
Continuous
370
     0
100
AcDbLine
 10
577.570125
 20
179.3435
 30
0.0
 11
577.570125
 21
170.3435
 31
0.0
  0
LINE
  5
2D5
330
6C
100
AcDbEntity
  8
0
  6
Continuous
370
     0
100
AcDbLine
 10
577.570125
 20
188.3435
 30
0.0
 11
577.570125
 21
170.3435
 31
0.0
  0
LINE
  5
2D6
330
6C
100
AcDbEntity
  8
0
  6
Continuous
370
     0
100
AcDbLine
 10
410.3201249999998
 20
170.3435
 30
0.0
 11
410.3201249999998
 21
188.3435
 31
0.0
  0
LINE
  5
2D7
330
6C
100
AcDbEntity
  8
0
  6
Continuous
370
     0
100
AcDbLine
 10
410.3201249999998
 20
179.3435
 30
0.0
 11
410.3201249999998
 21
188.3435
 31
0.0
  0
LINE
  5
2D8
330
6C
100
AcDbEntity
  8
0
  6
Continuous
370
     0
100
AcDbLine
 10
410.1326249999998
 20
34.0
 30
0.0
 11
410.1326249999998
 21
35.0
 31
0.0
  0
LINE
  5
2D9
330
6C
100
AcDbEntity
  8
0
  6
Continuous
370
     0
100
AcDbLine
 10
410.1326249999998
 20
33.0
 30
0.0
 11
410.1326249999998
 21
35.0
 31
0.0
  0
LINE
  5
2DA
330
6C
100
AcDbEntity
  8
0
  6
Continuous
370
     0
100
AcDbLine
 10
410.1326249999998
 20
11.50262499999999
 30
0.0
 11
410.1326249999998
 21
16.625
 31
0.0
  0
LINE
  5
2DB
330
6C
100
AcDbEntity
  8
0
  6
Continuous
370
     0
100
AcDbLine
 10
410.1326249999998
 20
3.953999999999993
 30
0.0
 11
410.1326249999998
 21
15.396375
 31
0.0
  0
LINE
  5
2DC
330
6C
100
AcDbEntity
  8
0
  6
Continuous
370
     0
100
AcDbLine
 10
410.1326249999998
 20
10.0
 30
0.0
 11
410.1326249999998
 21
11.5
 31
0.0
  0
LINE
  5
2DD
330
6C
100
AcDbEntity
  8
0
  6
Continuous
370
     0
100
AcDbLine
 10
410.1326249999998
 20
8.5
 30
0.0
 11
410.1326249999998
 21
11.5
 31
0.0
  0
LINE
  5
2DE
330
6C
100
AcDbEntity
  8
0
  6
Continuous
370
     0
100
AcDbLine
 10
410.1326249999998
 20
3.0
 30
0.0
 11
410.1326249999998
 21
4.0
 31
0.0
  0
LINE
  5
2DF
330
6C
100
AcDbEntity
  8
0
  6
Continuous
370
     0
100
AcDbLine
 10
410.1326249999998
 20
2.0
 30
0.0
 11
410.1326249999998
 21
4.0
 31
0.0
  0
LINE
  5
2E0
330
6C
100
AcDbEntity
  8
0
  6
Continuous
370
     0
100
AcDbLine
 10
577.5076249999998
 20
170.3435
 30
0.0
 11
577.570125
 21
170.3435
 31
0.0
  0
LINE
  5
2E1
330
6C
100
AcDbEntity
  8
0
  6
Continuous
370
     0
100
AcDbLine
 10
577.570125
 20
188.3435
 30
0.0
 11
577.5076249999998
 21
188.3435
 31
0.0
  0
LINE
  5
2E2
330
6C
100
AcDbEntity
  8
0
  6
Continuous
370
     0
100
AcDbLine
 10
410.3201249999998
 20
170.3435
 30
0.0
 11
410.382625
 21
170.3435
 31
0.0
  0
LINE
  5
2E3
330
6C
100
AcDbEntity
  8
0
  6
Continuous
370
     0
100
AcDbLine
 10
410.382625
 20
188.3435
 30
0.0
 11
410.3201249999998
 21
188.3435
 31
0.0
  0
LINE
  5
2E4
330
6C
100
AcDbEntity
  8
0
  6
Continuous
370
     0
100
AcDbLine
 10
410.1326249999998
 20
33.0
 30
0.0
 11
410.382625
 21
33.0
 31
0.0
  0
LINE
  5
2E5
330
6C
100
AcDbEntity
  8
0
  6
Continuous
370
     0
100
AcDbLine
 10
410.382625
 20
35.0
 30
0.0
 11
410.1326249999998
 21
35.0
 31
0.0
  0
LINE
  5
2E6
330
6C
100
AcDbEntity
  8
0
  6
Continuous
370
     0
100
AcDbLine
 10
410.382625
 20
16.625
 30
0.0
 11
410.1326249999998
 21
16.625
 31
0.0
  0
LINE
  5
2E7
330
6C
100
AcDbEntity
  8
0
  6
Continuous
370
     0
100
AcDbLine
 10
410.1326249999998
 20
8.5
 30
0.0
 11
410.382625
 21
8.5
 31
0.0
  0
LINE
  5
2E8
330
6C
100
AcDbEntity
  8
0
  6
Continuous
370
     0
100
AcDbLine
 10
410.382625
 20
11.5
 30
0.0
 11
410.1326249999998
 21
11.5
 31
0.0
  0
LINE
  5
2E9
330
6C
100
AcDbEntity
  8
0
  6
Continuous
370
     0
100
AcDbLine
 10
410.1326249999998
 20
2.0
 30
0.0
 11
410.382625
 21
2.0
 31
0.0
  0
LINE
  5
2EA
330
6C
100
AcDbEntity
  8
0
  6
Continuous
370
     0
100
AcDbLine
 10
410.382625
 20
4.0
 30
0.0
 11
410.1326249999998
 21
4.0
 31
0.0
  0
ENDSEC
  0
SECTION
  2
OBJECTS
  0
DICTIONARY
  5
C
330
0
100
AcDbDictionary
281
     1
  3
ACAD_COLOR
350
63
  3
ACAD_GROUP
350
D
  3
ACAD_LAYOUT
350
62
  3
ACAD_MATERIAL
350
10
  3
ACAD_MLEADERSTYLE
350
66
  3
ACAD_MLINESTYLE
350
5F
  3
ACAD_PLOTSETTINGS
350
61
  3
ACAD_PLOTSTYLENAME
350
E
  3
ACAD_SCALELIST
350
42
  3
ACAD_TABLESTYLE
350
64
  3
ACAD_VISUALSTYLE
350
29
  3
ACDB_RECOMPOSE_DATA
350
384
  3
AcDbVariableDictionary
350
2F3
  3
DWGPROPS
350
385
  0
DICTIONARY
  5
8C
330
6C
100
AcDbDictionary
280
     1
281
     1
  3
ACAD_SORTENTS
360
8D
  0
DICTIONARY
  5
63
102
{ACAD_REACTORS
330
C
102
}
330
C
100
AcDbDictionary
281
     1
  0
DICTIONARY
  5
D
102
{ACAD_REACTORS
330
C
102
}
330
C
100
AcDbDictionary
281
     1
  0
DICTIONARY
  5
62
102
{ACAD_REACTORS
330
C
102
}
330
C
100
AcDbDictionary
281
     1
  3
Layout1
350
6B
  3
Layout2
350
73
  3
Model
350
6F
  0
DICTIONARY
  5
10
102
{ACAD_REACTORS
330
C
102
}
330
C
100
AcDbDictionary
281
     1
  3
ByBlock
350
19
  3
ByLayer
350
11
  3
Global
350
21
  0
DICTIONARY
  5
66
102
{ACAD_REACTORS
330
C
102
}
330
C
100
AcDbDictionary
281
     1
  3
Standard
350
67
  0
DICTIONARY
  5
5F
102
{ACAD_REACTORS
330
C
102
}
330
C
100
AcDbDictionary
281
     1
  3
Schematic-Elevation-East-Mech-Default$0$STANDARD
350
1D6
  3
Schematic-Elevation-South-Mech-Default$0$STANDARD
350
15B
  3
Schematic-FloorPlan-1-Mech-Default$0$STANDARD
350
EB
  3
Standard
350
60
  0
DICTIONARY
  5
61
102
{ACAD_REACTORS
330
C
102
}
330
C
100
AcDbDictionary
281
     1
  0
ACDBDICTIONARYWDFLT
  5
E
102
{ACAD_REACTORS
330
C
102
}
330
C
100
AcDbDictionary
281
     1
  3
Normal
350
F
100
AcDbDictionaryWithDefault
340
F
  0
DICTIONARY
  5
42
102
{ACAD_REACTORS
330
C
102
}
330
C
100
AcDbDictionary
281
     1
  3
A0
350
43
  3
A1
350
44
  3
A2
350
45
  3
A3
350
46
  3
A4
350
47
  3
A5
350
48
  3
A6
350
49
  3
A7
350
4A
  3
A8
350
4B
  3
A9
350
4C
  3
B0
350
4D
  3
B1
350
4E
  3
B2
350
4F
  3
B3
350
50
  3
B4
350
51
  3
B5
350
52
  3
B6
350
53
  0
DICTIONARY
  5
64
102
{ACAD_REACTORS
330
C
102
}
330
C
100
AcDbDictionary
281
     1
  3
Schematic-Elevation-East-Mech-Default$0$Standard
350
1D8
  3
Schematic-Elevation-South-Mech-Default$0$Standard
350
15D
  3
Schematic-FloorPlan-1-Mech-Default$0$Standard
350
ED
  3
Standard
350
65
  0
DICTIONARY
  5
29
102
{ACAD_REACTORS
330
C
102
}
330
C
100
AcDbDictionary
281
     1
  3
2dWireframe
350
2F
  3
Basic
350
2E
  3
Brighten
350
35
  3
ColorChange
350
39
  3
Conceptual
350
32
  3
Dim
350
34
  3
EdgeColorOff
350
41
  3
Facepattern
350
38
  3
Flat
350
2A
  3
FlatWithEdges
350
2B
  3
Gouraud
350
2C
  3
GouraudWithEdges
350
2D
  3
Hidden
350
31
  3
JitterOff
350
3F
  3
Linepattern
350
37
  3
OverhangOff
350
40
  3
Realistic
350
33
  3
Shaded
350
3E
  3
Shaded with edges
350
3D
  3
Shades of Gray
350
3A
  3
Sketchy
350
3B
  3
Thicken
350
36
  3
Wireframe
350
30
  3
X-Ray
350
3C
  0
XRECORD
  5
384
102
{ACAD_REACTORS
330
C
102
}
330
C
100
AcDbXrecord
280
     1
 90
        1
330
65
330
ED
330
15D
330
1D8
  0
DICTIONARY
  5
2F3
102
{ACAD_REACTORS
330
C
102
}
330
C
100
AcDbDictionary
281
     1
  3
CANNOSCALE
350
2F7
  3
CMLEADERSTYLE
350
2F5
  3
CTABLESTYLE
350
2F4
  3
DIMASSOC
350
2FE
  3
HIDETEXT
350
2FD
  3
INDEXCTL
350
2FC
  3
LAYEREVAL
350
2F9
  3
LAYERNOTIFY
350
2FA
  3
LIGHTINGUNITS
350
2F8
  3
MSLTSCALE
350
2F6
  3
SORTENTS
350
2FB
  3
XCLIPFRAME
350
37F
  0
XRECORD
  5
385
102
{ACAD_REACTORS
330
C
102
}
330
C
100
AcDbXrecord
280
     1
  1
DWGPROPS COOKIE
  2

  3

  4

  6

  7

  8
jcl
  9

300
=
301
=
302
=
303
=
304
=
305
=
306
=
307
=
308
=
309
=
 40
0.0027595949074074
 41
2455692.664443762
 42
2456504.430702037
  1

 90
        0
  0
SORTENTSTABLE
  5
8D
102
{ACAD_REACTORS
330
8C
102
}
330
8C
100
AcDbSortentsTable
330
6C
331
2BC
  5
23A
331
2B8
  5
236
331
2B4
  5
232
331
2A5
  5
290
331
2A1
  5
28C
331
2B0
  5
22E
331
247
  5
294
331
27E
  5
269
331
27A
  5
2C7
331
29D
  5
288
331
2AC
  5
22A
331
2E7
  5
265
331
299
  5
284
331
2A8
  5
226
331
2E3
  5
261
331
295
  5
280
331
276
  5
2C3
331
291
  5
27C
331
272
  5
2BF
331
26E
  5
2BB
331
26A
  5
2B7
331
2EA
  5
268
331
2DF
  5
25D
331
28D
  5
278
331
2DB
  5
259
331
2D7
  5
255
331
289
  5
274
331
2D3
  5
251
331
285
  5
270
331
266
  5
2B3
331
281
  5
26C
331
262
  5
2AF
331
25E
  5
2AB
331
25A
  5
2A7
331
2CF
  5
24D
331
2CB
  5
249
331
2C7
  5
245
331
2C3
  5
241
331
256
  5
2A3
331
252
  5
29F
331
24E
  5
29B
331
24A
  5
297
331
2BF
  5
23D
331
2BB
  5
239
331
2B7
  5
235
331
2A4
  5
28F
331
2B3
  5
231
331
2A0
  5
28B
331
246
  5
293
331
27D
  5
2CA
331
279
  5
2C6
331
2AF
  5
22D
331
29C
  5
287
331
2AB
  5
229
331
2E6
  5
264
331
298
  5
283
331
2E2
  5
260
331
294
  5
27F
331
275
  5
2C2
331
290
  5
27B
331
271
  5
2BE
331
26D
  5
2BA
331
269
  5
2B6
331
2E9
  5
267
331
2DE
  5
25C
331
2DA
  5
258
331
28C
  5
277
331
2D6
  5
254
331
288
  5
273
331
2D2
  5
250
331
284
  5
26F
331
265
  5
2B2
331
280
  5
26B
331
261
  5
2AE
331
25D
  5
2AA
331
259
  5
2A6
331
2CE
  5
24C
331
2CA
  5
248
331
2C6
  5
244
331
2C2
  5
240
331
255
  5
2A2
331
251
  5
29E
331
24D
  5
29A
331
249
  5
296
331
2BE
  5
23C
331
2BA
  5
238
331
2B6
  5
234
331
2A7
  5
292
331
2A3
  5
28E
331
2B2
  5
230
331
27C
  5
2C9
331
278
  5
2C5
331
29F
  5
28A
331
2AE
  5
22C
331
29B
  5
286
331
2AA
  5
228
331
2E5
  5
263
331
297
  5
282
331
293
  5
27E
331
2E1
  5
25F
331
274
  5
2C1
331
270
  5
2BD
331
26C
  5
2B9
331
268
  5
2B5
331
2E8
  5
266
331
28F
  5
27A
331
2DD
  5
25B
331
2D9
  5
257
331
28B
  5
276
331
2D5
  5
253
331
287
  5
272
331
2D1
  5
24F
331
283
  5
26E
331
264
  5
2B1
331
260
  5
2AD
331
25C
  5
2A9
331
258
  5
2A5
331
2CD
  5
24B
331
2C9
  5
247
331
2C5
  5
243
331
2C1
  5
23F
331
254
  5
2A1
331
250
  5
29D
331
24C
  5
299
331
248
  5
295
331
2BD
  5
23B
331
2B9
  5
237
331
2B5
  5
233
331
2A6
  5
291
331
2A2
  5
28D
331
2B1
  5
22F
331
27F
  5
26A
331
27B
  5
2C8
331
29E
  5
289
331
2AD
  5
22B
331
29A
  5
285
331
2A9
  5
227
331
2E4
  5
262
331
296
  5
281
331
277
  5
2C4
331
292
  5
27D
331
2E0
  5
25E
331
273
  5
2C0
331
26F
  5
2BC
331
26B
  5
2B8
331
28E
  5
279
331
2DC
  5
25A
331
2D8
  5
256
331
28A
  5
275
331
2D4
  5
252
331
286
  5
271
331
267
  5
2B4
331
282
  5
26D
331
2D0
  5
24E
331
263
  5
2B0
331
25F
  5
2AC
331
25B
  5
2A8
331
2CC
  5
24A
331
2C8
  5
246
331
2C4
  5
242
331
2C0
  5
23E
331
257
  5
2A4
331
253
  5
2A0
331
24F
  5
29C
331
24B
  5
298
  0
LAYOUT
  5
6B
102
{ACAD_XDICTIONARY
360
3B7
102
}
102
{ACAD_REACTORS
330
62
102
}
330
62
100
AcDbPlotSettings
  1

  2
\\BALTIMORE\MD_ENGR_Copier
  4

  6

 40
0.0
 41
0.0
 42
0.0
 43
0.0
 44
0.0
 45
0.0
 46
0.0
 47
0.0
 48
0.0
 49
0.0
140
0.0
141
0.0
142
1.0
143
1.0
 70
   688
 72
     0
 73
     0
 74
     5
  7

 75
    16
147
1.0
148
0.0
149
0.0
100
AcDbLayout
  1
Layout1
 70
     1
 71
     1
 10
0.0
 20
0.0
 11
12.0
 21
9.0
 12
0.0
 22
0.0
 32
0.0
 14
1.000000000000000E+20
 24
1.000000000000000E+20
 34
1.000000000000000E+20
 15
-1.000000000000000E+20
 25
-1.000000000000000E+20
 35
-1.000000000000000E+20
146
0.0
 13
0.0
 23
0.0
 33
0.0
 16
1.0
 26
0.0
 36
0.0
 17
0.0
 27
1.0
 37
0.0
 76
     0
330
68
  0
LAYOUT
  5
73
102
{ACAD_XDICTIONARY
360
3BB
102
}
102
{ACAD_REACTORS
330
62
102
}
330
62
100
AcDbPlotSettings
  1

  2
\\BALTIMORE\MD_ENGR_Copier
  4

  6

 40
0.0
 41
0.0
 42
0.0
 43
0.0
 44
0.0
 45
0.0
 46
0.0
 47
0.0
 48
0.0
 49
0.0
140
0.0
141
0.0
142
1.0
143
1.0
 70
   688
 72
     0
 73
     0
 74
     5
  7

 75
    16
147
1.0
148
0.0
149
0.0
100
AcDbLayout
  1
Layout2
 70
     1
 71
     2
 10
0.0
 20
0.0
 11
12.0
 21
9.0
 12
0.0
 22
0.0
 32
0.0
 14
0.0
 24
0.0
 34
0.0
 15
0.0
 25
0.0
 35
0.0
146
0.0
 13
0.0
 23
0.0
 33
0.0
 16
1.0
 26
0.0
 36
0.0
 17
0.0
 27
1.0
 37
0.0
 76
     0
330
70
  0
LAYOUT
  5
6F
102
{ACAD_XDICTIONARY
360
3B9
102
}
102
{ACAD_REACTORS
330
62
102
}
330
62
100
AcDbPlotSettings
  1

  2
\\BALTIMORE\MD_ENGR_Copier
  4

  6

 40
0.0
 41
0.0
 42
0.0
 43
0.0
 44
0.0
 45
0.0
 46
0.0
 47
0.0
 48
0.0
 49
0.0
140
0.0
141
0.0
142
1.0
143
1.0
 70
  1712
 72
     0
 73
     0
 74
     0
  7

 75
     0
147
1.0
148
0.0
149
0.0
100
AcDbLayout
  1
Model
 70
     1
 71
     0
 10
0.0
 20
0.0
 11
12.0
 21
9.0
 12
0.0
 22
0.0
 32
0.0
 14
0.0
 24
0.0
 34
0.0
 15
0.0
 25
0.0
 35
0.0
146
0.0
 13
0.0
 23
0.0
 33
0.0
 16
1.0
 26
0.0
 36
0.0
 17
0.0
 27
1.0
 37
0.0
 76
     0
330
6C
331
57
  0
MATERIAL
  5
19
102
{ACAD_XDICTIONARY
360
1A
102
}
102
{ACAD_REACTORS
330
10
102
}
330
10
100
AcDbMaterial
  1
ByBlock
 72
     0
 43
0.0208333333333333
 43
0.0
 43
0.0
 43
0.0
 43
0.0
 43
0.0208333333333333
 43
0.0
 43
0.0
 43
0.0
 43
0.0
 43
1.0
 43
0.0
 43
0.0
 43
0.0
 43
0.0
 43
1.0
 77
     0
 47
0.0208333333333333
 47
0.0
 47
0.0
 47
0.0
 47
0.0
 47
0.0208333333333333
 47
0.0
 47
0.0
 47
0.0
 47
0.0
 47
1.0
 47
0.0
 47
0.0
 47
0.0
 47
0.0
 47
1.0
171
     0
 49
0.0208333333333333
 49
0.0
 49
0.0
 49
0.0
 49
0.0
 49
0.0208333333333333
 49
0.0
 49
0.0
 49
0.0
 49
0.0
 49
1.0
 49
0.0
 49
0.0
 49
0.0
 49
0.0
 49
1.0
175
     0
142
0.0208333333333333
142
0.0
142
0.0
142
0.0
142
0.0
142
0.0208333333333333
142
0.0
142
0.0
142
0.0
142
0.0
142
1.0
142
0.0
142
0.0
142
0.0
142
0.0
142
1.0
179
     0
144
0.0208333333333333
144
0.0
144
0.0
144
0.0
144
0.0
144
0.0208333333333333
144
0.0
144
0.0
144
0.0
144
0.0
144
1.0
144
0.0
144
0.0
144
0.0
144
0.0
144
1.0
147
0.0208333333333333
147
0.0
147
0.0
147
0.0
147
0.0
147
0.0208333333333333
147
0.0
147
0.0
147
0.0
147
0.0
147
1.0
147
0.0
147
0.0
147
0.0
147
0.0
147
1.0
  0
MATERIAL
  5
11
102
{ACAD_XDICTIONARY
360
12
102
}
102
{ACAD_REACTORS
330
10
102
}
330
10
100
AcDbMaterial
  1
ByLayer
 72
     0
 43
0.0208333333333333
 43
0.0
 43
0.0
 43
0.0
 43
0.0
 43
0.0208333333333333
 43
0.0
 43
0.0
 43
0.0
 43
0.0
 43
1.0
 43
0.0
 43
0.0
 43
0.0
 43
0.0
 43
1.0
 77
     0
 47
0.0208333333333333
 47
0.0
 47
0.0
 47
0.0
 47
0.0
 47
0.0208333333333333
 47
0.0
 47
0.0
 47
0.0
 47
0.0
 47
1.0
 47
0.0
 47
0.0
 47
0.0
 47
0.0
 47
1.0
171
     0
 49
0.0208333333333333
 49
0.0
 49
0.0
 49
0.0
 49
0.0
 49
0.0208333333333333
 49
0.0
 49
0.0
 49
0.0
 49
0.0
 49
1.0
 49
0.0
 49
0.0
 49
0.0
 49
0.0
 49
1.0
175
     0
142
0.0208333333333333
142
0.0
142
0.0
142
0.0
142
0.0
142
0.0208333333333333
142
0.0
142
0.0
142
0.0
142
0.0
142
1.0
142
0.0
142
0.0
142
0.0
142
0.0
142
1.0
179
     0
144
0.0208333333333333
144
0.0
144
0.0
144
0.0
144
0.0
144
0.0208333333333333
144
0.0
144
0.0
144
0.0
144
0.0
144
1.0
144
0.0
144
0.0
144
0.0
144
0.0
144
1.0
147
0.0208333333333333
147
0.0
147
0.0
147
0.0
147
0.0
147
0.0208333333333333
147
0.0
147
0.0
147
0.0
147
0.0
147
1.0
147
0.0
147
0.0
147
0.0
147
0.0
147
1.0
  0
MATERIAL
  5
21
102
{ACAD_XDICTIONARY
360
22
102
}
102
{ACAD_REACTORS
330
10
102
}
330
10
100
AcDbMaterial
  1
Global
 72
     0
 43
0.0208333333333333
 43
0.0
 43
0.0
 43
0.0
 43
0.0
 43
0.0208333333333333
 43
0.0
 43
0.0
 43
0.0
 43
0.0
 43
1.0
 43
0.0
 43
0.0
 43
0.0
 43
0.0
 43
1.0
 77
     0
 47
0.0208333333333333
 47
0.0
 47
0.0
 47
0.0
 47
0.0
 47
0.0208333333333333
 47
0.0
 47
0.0
 47
0.0
 47
0.0
 47
1.0
 47
0.0
 47
0.0
 47
0.0
 47
0.0
 47
1.0
171
     0
 49
0.0208333333333333
 49
0.0
 49
0.0
 49
0.0
 49
0.0
 49
0.0208333333333333
 49
0.0
 49
0.0
 49
0.0
 49
0.0
 49
1.0
 49
0.0
 49
0.0
 49
0.0
 49
0.0
 49
1.0
175
     0
142
0.0208333333333333
142
0.0
142
0.0
142
0.0
142
0.0
142
0.0208333333333333
142
0.0
142
0.0
142
0.0
142
0.0
142
1.0
142
0.0
142
0.0
142
0.0
142
0.0
142
1.0
179
     0
144
0.0208333333333333
144
0.0
144
0.0
144
0.0
144
0.0
144
0.0208333333333333
144
0.0
144
0.0
144
0.0
144
0.0
144
1.0
144
0.0
144
0.0
144
0.0
144
0.0
144
1.0
147
0.0208333333333333
147
0.0
147
0.0
147
0.0
147
0.0
147
0.0208333333333333
147
0.0
147
0.0
147
0.0
147
0.0
147
1.0
147
0.0
147
0.0
147
0.0
147
0.0
147
1.0
  0
MLEADERSTYLE
  5
67
102
{ACAD_REACTORS
330
66
102
}
330
66
100
AcDbMLeaderStyle
170
     2
171
     1
172
     0
 90
        2
 40
0.0
 41
0.0
173
     1
 91
-1056964608
340
5B
 92
       -2
290
     1
 42
0.09
291
     1
 43
0.36
  3
Standard
 44
0.18
300

342
55
174
     1
178
     6
175
     1
176
     0
 93
-1056964608
 45
0.18
292
     0
297
     0
 46
0.18
 94
-1056964608
 47
1.0
 49
1.0
140
1.0
293
     1
141
0.0
294
     1
177
     0
142
1.0
295
     0
296
     0
143
0.125
1001
ACAD_MLEADERVER
1070
     2
  0
MLINESTYLE
  5
1D6
102
{ACAD_REACTORS
330
5F
102
}
330
5F
100
AcDbMlineStyle
  2
SCHEMATIC-ELEVATION-EAST-MECH-D
 70
   272
  3
Unfilled-SNInArc-SNOutArc-SHLine-ENInArc-ENOutArc-EHLine-Hline-3
 62
   256
 51
90.0
 52
90.0
 71
     3
 49
1.25
 62
     7
  6
Continuous
 49
0.0
 62
     7
  6
Schematic-Elevation-East-Mech-Default$0$DGN7
 49
-1.25
 62
     7
  6
Continuous
  0
MLINESTYLE
  5
15B
102
{ACAD_REACTORS
330
5F
102
}
330
5F
100
AcDbMlineStyle
  2
SCHEMATIC-ELEVATION-SOUTH-MECH-
 70
   272
  3
Unfilled-SNInArc-SNOutArc-SHLine-ENInArc-ENOutArc-EHLine-Hline-3
 62
   256
 51
90.0
 52
90.0
 71
     3
 49
1.25
 62
     7
  6
Continuous
 49
0.0
 62
     7
  6
Schematic-Elevation-South-Mech-Default$0$DGN7
 49
-1.25
 62
     7
  6
Continuous
  0
MLINESTYLE
  5
EB
102
{ACAD_REACTORS
330
5F
102
}
330
5F
100
AcDbMlineStyle
  2
SCHEMATIC-FLOORPLAN-1-MECH-DEFA
 70
   272
  3
Unfilled-SNInArc-SNOutArc-SHLine-ENInArc-ENOutArc-EHLine-Hline-3
 62
   256
 51
90.0
 52
90.0
 71
     3
 49
1.25
 62
     7
  6
Continuous
 49
0.0
 62
     7
  6
Schematic-FloorPlan-1-Mech-Default$0$DGN7
 49
-1.25
 62
     7
  6
Continuous
  0
MLINESTYLE
  5
60
102
{ACAD_REACTORS
330
5F
102
}
330
5F
100
AcDbMlineStyle
  2
STANDARD
 70
   272
  3
Unfilled-SNInArc-SNOutArc-SHLine-ENInArc-ENOutArc-EHLine-Hline-3
 62
   256
 51
90.0
 52
90.0
 71
     3
 49
1.25
 62
     7
  6
Continuous
 49
0.0
 62
     7
  6
DGN7
 49
-1.25
 62
     7
  6
Continuous
  0
ACDBPLACEHOLDER
  5
F
102
{ACAD_REACTORS
330
E
102
}
330
E
  0
SCALE
  5
43
102
{ACAD_REACTORS
330
42
102
}
330
42
100
AcDbScale
 70
     0
300
1:1
140
1.0
141
1.0
290
     1
  0
SCALE
  5
44
102
{ACAD_REACTORS
330
42
102
}
330
42
100
AcDbScale
 70
     0
300
1/128" = 1'-0"
140
0.0078125
141
12.0
290
     0
  0
SCALE
  5
45
102
{ACAD_REACTORS
330
42
102
}
330
42
100
AcDbScale
 70
     0
300
1/64" = 1'-0"
140
0.015625
141
12.0
290
     0
  0
SCALE
  5
46
102
{ACAD_REACTORS
330
42
102
}
330
42
100
AcDbScale
 70
     0
300
1/32" = 1'-0"
140
0.03125
141
12.0
290
     0
  0
SCALE
  5
47
102
{ACAD_REACTORS
330
42
102
}
330
42
100
AcDbScale
 70
     0
300
1/16" = 1'-0"
140
0.0625
141
12.0
290
     0
  0
SCALE
  5
48
102
{ACAD_REACTORS
330
42
102
}
330
42
100
AcDbScale
 70
     0
300
3/32" = 1'-0"
140
0.09375
141
12.0
290
     0
  0
SCALE
  5
49
102
{ACAD_REACTORS
330
42
102
}
330
42
100
AcDbScale
 70
     0
300
1/8" = 1'-0"
140
0.125
141
12.0
290
     0
  0
SCALE
  5
4A
102
{ACAD_REACTORS
330
42
102
}
330
42
100
AcDbScale
 70
     0
300
3/16" = 1'-0"
140
0.1875
141
12.0
290
     0
  0
SCALE
  5
4B
102
{ACAD_REACTORS
330
42
102
}
330
42
100
AcDbScale
 70
     0
300
1/4" = 1'-0"
140
0.25
141
12.0
290
     0
  0
SCALE
  5
4C
102
{ACAD_REACTORS
330
42
102
}
330
42
100
AcDbScale
 70
     0
300
3/8" = 1'-0"
140
0.375
141
12.0
290
     0
  0
SCALE
  5
4D
102
{ACAD_REACTORS
330
42
102
}
330
42
100
AcDbScale
 70
     0
300
1/2" = 1'-0"
140
0.5
141
12.0
290
     0
  0
SCALE
  5
4E
102
{ACAD_REACTORS
330
42
102
}
330
42
100
AcDbScale
 70
     0
300
3/4" = 1'-0"
140
0.75
141
12.0
290
     0
  0
SCALE
  5
4F
102
{ACAD_REACTORS
330
42
102
}
330
42
100
AcDbScale
 70
     0
300
1" = 1'-0"
140
1.0
141
12.0
290
     0
  0
SCALE
  5
50
102
{ACAD_REACTORS
330
42
102
}
330
42
100
AcDbScale
 70
     0
300
1-1/2" = 1'-0"
140
1.5
141
12.0
290
     0
  0
SCALE
  5
51
102
{ACAD_REACTORS
330
42
102
}
330
42
100
AcDbScale
 70
     0
300
3" = 1'-0"
140
3.0
141
12.0
290
     0
  0
SCALE
  5
52
102
{ACAD_REACTORS
330
42
102
}
330
42
100
AcDbScale
 70
     0
300
6" = 1'-0"
140
6.0
141
12.0
290
     0
  0
SCALE
  5
53
102
{ACAD_REACTORS
330
42
102
}
330
42
100
AcDbScale
 70
     0
300
1'-0" = 1'-0"
140
12.0
141
12.0
290
     0
  0
TABLESTYLE
  5
1D8
102
{ACAD_XDICTIONARY
360
306
102
}
102
{ACAD_REACTORS
330
64
102
}
330
64
100
AcDbTableStyle
  3
Standard
 70
     0
 71
     0
 40
0.06
 41
0.06
280
     0
281
     0
  7
Schematic-Elevation-East-Mech-Default$0$Standard
140
0.18
170
     2
 62
     0
 63
     7
283
     0
274
    -2
284
     1
 64
     0
275
    -2
285
     1
 65
     0
276
    -2
286
     1
 66
     0
277
    -2
287
     1
 67
     0
278
    -2
288
     1
 68
     0
279
    -2
289
     1
 69
     0
  7
Schematic-Elevation-East-Mech-Default$0$Standard
140
0.25
170
     5
 62
     0
 63
     7
283
     0
274
    -2
284
     1
 64
     0
275
    -2
285
     1
 65
     0
276
    -2
286
     1
 66
     0
277
    -2
287
     1
 67
     0
278
    -2
288
     1
 68
     0
279
    -2
289
     1
 69
     0
  7
Schematic-Elevation-East-Mech-Default$0$Standard
140
0.18
170
     5
 62
     0
 63
     7
283
     0
274
    -2
284
     1
 64
     0
275
    -2
285
     1
 65
     0
276
    -2
286
     1
 66
     0
277
    -2
287
     1
 67
     0
278
    -2
288
     1
 68
     0
279
    -2
289
     1
 69
     0
  0
TABLESTYLE
  5
15D
102
{ACAD_XDICTIONARY
360
304
102
}
102
{ACAD_REACTORS
330
64
102
}
330
64
100
AcDbTableStyle
  3
Standard
 70
     0
 71
     0
 40
0.06
 41
0.06
280
     0
281
     0
  7
Schematic-Elevation-South-Mech-Default$0$Standard
140
0.18
170
     2
 62
     0
 63
     7
283
     0
274
    -2
284
     1
 64
     0
275
    -2
285
     1
 65
     0
276
    -2
286
     1
 66
     0
277
    -2
287
     1
 67
     0
278
    -2
288
     1
 68
     0
279
    -2
289
     1
 69
     0
  7
Schematic-Elevation-South-Mech-Default$0$Standard
140
0.25
170
     5
 62
     0
 63
     7
283
     0
274
    -2
284
     1
 64
     0
275
    -2
285
     1
 65
     0
276
    -2
286
     1
 66
     0
277
    -2
287
     1
 67
     0
278
    -2
288
     1
 68
     0
279
    -2
289
     1
 69
     0
  7
Schematic-Elevation-South-Mech-Default$0$Standard
140
0.18
170
     5
 62
     0
 63
     7
283
     0
274
    -2
284
     1
 64
     0
275
    -2
285
     1
 65
     0
276
    -2
286
     1
 66
     0
277
    -2
287
     1
 67
     0
278
    -2
288
     1
 68
     0
279
    -2
289
     1
 69
     0
  0
TABLESTYLE
  5
ED
102
{ACAD_XDICTIONARY
360
302
102
}
102
{ACAD_REACTORS
330
64
102
}
330
64
100
AcDbTableStyle
  3
Standard
 70
     0
 71
     0
 40
0.06
 41
0.06
280
     0
281
     0
  7
Schematic-FloorPlan-1-Mech-Default$0$Standard
140
0.18
170
     2
 62
     0
 63
     7
283
     0
274
    -2
284
     1
 64
     0
275
    -2
285
     1
 65
     0
276
    -2
286
     1
 66
     0
277
    -2
287
     1
 67
     0
278
    -2
288
     1
 68
     0
279
    -2
289
     1
 69
     0
  7
Schematic-FloorPlan-1-Mech-Default$0$Standard
140
0.25
170
     5
 62
     0
 63
     7
283
     0
274
    -2
284
     1
 64
     0
275
    -2
285
     1
 65
     0
276
    -2
286
     1
 66
     0
277
    -2
287
     1
 67
     0
278
    -2
288
     1
 68
     0
279
    -2
289
     1
 69
     0
  7
Schematic-FloorPlan-1-Mech-Default$0$Standard
140
0.18
170
     5
 62
     0
 63
     7
283
     0
274
    -2
284
     1
 64
     0
275
    -2
285
     1
 65
     0
276
    -2
286
     1
 66
     0
277
    -2
287
     1
 67
     0
278
    -2
288
     1
 68
     0
279
    -2
289
     1
 69
     0
  0
TABLESTYLE
  5
65
102
{ACAD_XDICTIONARY
360
300
102
}
102
{ACAD_REACTORS
330
64
102
}
330
64
100
AcDbTableStyle
  3
Standard
 70
     0
 71
     0
 40
0.06
 41
0.06
280
     0
281
     0
  7
Standard
140
0.18
170
     2
 62
     0
 63
     7
283
     0
274
    -2
284
     1
 64
     0
275
    -2
285
     1
 65
     0
276
    -2
286
     1
 66
     0
277
    -2
287
     1
 67
     0
278
    -2
288
     1
 68
     0
279
    -2
289
     1
 69
     0
  7
Standard
140
0.25
170
     5
 62
     0
 63
     7
283
     0
274
    -2
284
     1
 64
     0
275
    -2
285
     1
 65
     0
276
    -2
286
     1
 66
     0
277
    -2
287
     1
 67
     0
278
    -2
288
     1
 68
     0
279
    -2
289
     1
 69
     0
  7
Standard
140
0.18
170
     5
 62
     0
 63
     7
283
     0
274
    -2
284
     1
 64
     0
275
    -2
285
     1
 65
     0
276
    -2
286
     1
 66
     0
277
    -2
287
     1
 67
     0
278
    -2
288
     1
 68
     0
279
    -2
289
     1
 69
     0
  0
VISUALSTYLE
  5
2F
102
{ACAD_XDICTIONARY
360
390
102
}
102
{ACAD_REACTORS
330
29
102
}
330
29
100
AcDbVisualStyle
  2

 70
     4
 71
     0
 72
     2
 73
     0
 90
        0
 40
-0.6
 41
-30.0
 62
     5
 63
     7
 74
     1
 91
        4
 64
     7
 65
   257
 75
     1
175
     1
 42
1.0
 92
        0
 66
   257
 43
1.0
 76
     1
 77
     6
 78
     2
 67
     7
 79
     5
170
     0
171
     0
290
     0
174
     0
 93
        1
 44
0.0
173
     0
291
     0
 45
0.0
1001
ACAD
1000
AcDbSavedByObjectVersion
1070
     0
  0
VISUALSTYLE
  5
2E
102
{ACAD_XDICTIONARY
360
38E
102
}
102
{ACAD_REACTORS
330
29
102
}
330
29
100
AcDbVisualStyle
  2

 70
     7
 71
     1
 72
     0
 73
     1
 90
        0
 40
-0.6
 41
-30.0
 62
     5
 63
     7
 74
     0
 91
        4
 64
     7
 65
   257
 75
     1
175
     1
 42
1.0
 92
        8
 66
     7
 43
1.0
 76
     1
 77
     6
 78
     2
 67
     7
 79
     5
170
     0
171
     0
290
     0
174
     0
 93
        1
 44
0.0
173
     0
291
     1
 45
0.0
1001
ACAD
1000
AcDbSavedByObjectVersion
1070
     0
  0
VISUALSTYLE
  5
35
102
{ACAD_XDICTIONARY
360
39C
102
}
102
{ACAD_REACTORS
330
29
102
}
330
29
100
AcDbVisualStyle
  2

 70
    12
 71
     2
 72
     2
 73
     0
 90
        0
 40
-0.6
 41
-30.0
 62
     5
 63
     7
 74
     1
 91
        4
 64
     7
 65
   257
 75
     1
175
     1
 42
1.0
 92
        8
 66
     7
 43
1.0
 76
     1
 77
     6
 78
     2
 67
     7
 79
     5
170
     0
171
     0
290
     0
174
     0
 93
        1
 44
50.0
173
     0
291
     1
 45
0.0
1001
ACAD
1000
AcDbSavedByObjectVersion
1070
     0
  0
VISUALSTYLE
  5
39
102
{ACAD_XDICTIONARY
360
3A4
102
}
102
{ACAD_REACTORS
330
29
102
}
330
29
100
AcDbVisualStyle
  2

 70
    16
 71
     2
 72
     2
 73
     3
 90
        0
 40
-0.6
 41
-30.0
 62
     5
 63
     8
 74
     1
 91
        4
 64
     7
 65
   257
 75
     1
175
     1
 42
1.0
 92
        8
 66
     8
 43
1.0
 76
     1
 77
     6
 78
     2
 67
     7
 79
     5
170
     0
171
     0
290
     0
174
     0
 93
        1
 44
0.0
173
     0
291
     1
 45
0.0
1001
ACAD
1000
AcDbSavedByObjectVersion
1070
     0
  0
VISUALSTYLE
  5
32
102
{ACAD_XDICTIONARY
360
396
102
}
102
{ACAD_REACTORS
330
29
102
}
330
29
100
AcDbVisualStyle
  2

 70
     9
 71
     3
 72
     2
 73
     0
 90
        0
 40
-0.6
 41
-30.0
 62
     5
 63
     7
 74
     2
 91
        2
 64
     7
 65
   257
 75
     1
175
     1
 42
179.0
 92
        8
 66
     7
 43
1.0
 76
     1
 77
     6
 78
     2
 67
     7
 79
     3
170
     0
171
     0
290
     0
174
     0
 93
        1
 44
0.0
173
     0
291
     0
 45
0.0
1001
ACAD
1000
AcDbSavedByObjectVersion
1070
     0
  0
VISUALSTYLE
  5
34
102
{ACAD_XDICTIONARY
360
39A
102
}
102
{ACAD_REACTORS
330
29
102
}
330
29
100
AcDbVisualStyle
  2

 70
    11
 71
     2
 72
     2
 73
     0
 90
        0
 40
-0.6
 41
-30.0
 62
     5
 63
     7
 74
     1
 91
        4
 64
     7
 65
   257
 75
     1
175
     1
 42
1.0
 92
        8
 66
     7
 43
1.0
 76
     1
 77
     6
 78
     2
 67
     7
 79
     5
170
     0
171
     0
290
     0
174
     0
 93
        1
 44
-50.0
173
     0
291
     1
 45
0.0
1001
ACAD
1000
AcDbSavedByObjectVersion
1070
     0
  0
VISUALSTYLE
  5
41
102
{ACAD_XDICTIONARY
360
3B4
102
}
102
{ACAD_REACTORS
330
29
102
}
330
29
100
AcDbVisualStyle
  2

 70
    22
 71
     2
 72
     2
 73
     0
 90
        0
 40
-0.6
 41
-30.0
 62
     5
 63
     7
 74
     1
 91
        4
 64
     7
 65
   257
 75
     1
175
     1
 42
1.0
 92
        8
 66
     7
 43
1.0
 76
     1
 77
     6
 78
     2
 67
     7
 79
     5
170
     0
171
     0
290
     0
174
     0
 93
        1
 44
0.0
173
     0
291
     1
 45
0.0
1001
ACAD
1000
AcDbSavedByObjectVersion
1070
     0
  0
VISUALSTYLE
  5
38
102
{ACAD_XDICTIONARY
360
3A2
102
}
102
{ACAD_REACTORS
330
29
102
}
330
29
100
AcDbVisualStyle
  2

 70
    15
 71
     2
 72
     2
 73
     0
 90
        0
 40
-0.6
 41
-30.0
 62
     5
 63
     7
 74
     1
 91
        4
 64
     7
 65
   257
 75
     1
175
     1
 42
1.0
 92
        8
 66
     7
 43
1.0
 76
     1
 77
     6
 78
     2
 67
     7
 79
     5
170
     0
171
     0
290
     0
174
     0
 93
        1
 44
0.0
173
     0
291
     1
 45
0.0
1001
ACAD
1000
AcDbSavedByObjectVersion
1070
     0
  0
VISUALSTYLE
  5
2A
102
{ACAD_XDICTIONARY
360
386
102
}
102
{ACAD_REACTORS
330
29
102
}
330
29
100
AcDbVisualStyle
  2

 70
     0
 71
     2
 72
     1
 73
     1
 90
        2
 40
-0.6
 41
30.0
 62
     5
 63
     7
 74
     0
 91
        0
 64
     7
 65
   257
 75
     1
175
     1
 42
1.0
 92
        8
 66
     7
 43
1.0
 76
     1
 77
     6
 78
     2
 67
     7
 79
     5
170
     0
171
     0
290
     0
174
     0
 93
       13
 44
0.0
173
     0
291
     1
 45
0.0
1001
ACAD
1000
AcDbSavedByObjectVersion
1070
     0
  0
VISUALSTYLE
  5
2B
102
{ACAD_XDICTIONARY
360
388
102
}
102
{ACAD_REACTORS
330
29
102
}
330
29
100
AcDbVisualStyle
  2

 70
     1
 71
     2
 72
     1
 73
     1
 90
        2
 40
-0.6
 41
30.0
 62
     5
 63
     7
 74
     1
 91
        0
 64
     7
 65
   257
 75
     1
175
     1
 42
1.0
 92
        0
 66
   257
 43
1.0
 76
     1
 77
     6
 78
     2
 67
     7
 79
     5
170
     0
171
     0
290
     0
174
     0
 93
       13
 44
0.0
173
     0
291
     1
 45
0.0
1001
ACAD
1000
AcDbSavedByObjectVersion
1070
     0
  0
VISUALSTYLE
  5
2C
102
{ACAD_XDICTIONARY
360
38A
102
}
102
{ACAD_REACTORS
330
29
102
}
330
29
100
AcDbVisualStyle
  2

 70
     2
 71
     2
 72
     2
 73
     1
 90
        2
 40
-0.6
 41
30.0
 62
     5
 63
     7
 74
     0
 91
        0
 64
     7
 65
   257
 75
     1
175
     1
 42
1.0
 92
        0
 66
     7
 43
1.0
 76
     1
 77
     6
 78
     2
 67
     7
 79
     5
170
     0
171
     0
290
     0
174
     0
 93
       13
 44
0.0
173
     0
291
     1
 45
0.0
1001
ACAD
1000
AcDbSavedByObjectVersion
1070
     0
  0
VISUALSTYLE
  5
2D
102
{ACAD_XDICTIONARY
360
38C
102
}
102
{ACAD_REACTORS
330
29
102
}
330
29
100
AcDbVisualStyle
  2

 70
     3
 71
     2
 72
     2
 73
     1
 90
        2
 40
-0.6
 41
30.0
 62
     5
 63
     7
 74
     1
 91
        0
 64
     7
 65
   257
 75
     1
175
     1
 42
1.0
 92
        0
 66
   257
 43
1.0
 76
     1
 77
     6
 78
     2
 67
     7
 79
     5
170
     0
171
     0
290
     0
174
     0
 93
       13
 44
0.0
173
     0
291
     1
 45
0.0
1001
ACAD
1000
AcDbSavedByObjectVersion
1070
     0
  0
VISUALSTYLE
  5
31
102
{ACAD_XDICTIONARY
360
394
102
}
102
{ACAD_REACTORS
330
29
102
}
330
29
100
AcDbVisualStyle
  2

 70
     6
 71
     1
 72
     2
 73
     2
 90
        0
 40
-0.6
 41
-30.0
 62
     5
 63
     7
 74
     2
 91
        2
 64
     7
 65
   257
 75
     2
175
     1
 42
40.0
 92
        0
 66
   257
 43
1.0
 76
     1
 77
     6
 78
     2
 67
     7
 79
     3
170
     0
171
     0
290
     0
174
     0
 93
        1
 44
0.0
173
     0
291
     0
 45
0.0
1001
ACAD
1000
AcDbSavedByObjectVersion
1070
     0
  0
VISUALSTYLE
  5
3F
102
{ACAD_XDICTIONARY
360
3B0
102
}
102
{ACAD_REACTORS
330
29
102
}
330
29
100
AcDbVisualStyle
  2

 70
    20
 71
     2
 72
     2
 73
     0
 90
        0
 40
-0.6
 41
-30.0
 62
     5
 63
     7
 74
     1
 91
        4
 64
     7
 65
   257
 75
     1
175
     1
 42
1.0
 92
       10
 66
     7
 43
1.0
 76
     1
 77
     6
 78
     2
 67
     7
 79
     5
170
     0
171
     0
290
     0
174
     0
 93
        1
 44
0.0
173
     0
291
     1
 45
0.0
1001
ACAD
1000
AcDbSavedByObjectVersion
1070
     0
  0
VISUALSTYLE
  5
37
102
{ACAD_XDICTIONARY
360
3A0
102
}
102
{ACAD_REACTORS
330
29
102
}
330
29
100
AcDbVisualStyle
  2

 70
    14
 71
     2
 72
     2
 73
     0
 90
        0
 40
-0.6
 41
-30.0
 62
     5
 63
     7
 74
     1
 91
        4
 64
     7
 65
   257
 75
     7
175
     7
 42
1.0
 92
        8
 66
     7
 43
1.0
 76
     1
 77
     6
 78
     2
 67
     7
 79
     5
170
     0
171
     0
290
     0
174
     0
 93
        1
 44
0.0
173
     0
291
     1
 45
0.0
1001
ACAD
1000
AcDbSavedByObjectVersion
1070
     0
  0
VISUALSTYLE
  5
40
102
{ACAD_XDICTIONARY
360
3B2
102
}
102
{ACAD_REACTORS
330
29
102
}
330
29
100
AcDbVisualStyle
  2

 70
    21
 71
     2
 72
     2
 73
     0
 90
        0
 40
-0.6
 41
-30.0
 62
     5
 63
     7
 74
     1
 91
        4
 64
     7
 65
   257
 75
     1
175
     1
 42
1.0
 92
        9
 66
     7
 43
1.0
 76
     1
 77
     6
 78
     2
 67
     7
 79
     5
170
     0
171
     0
290
     0
174
     0
 93
        1
 44
0.0
173
     0
291
     1
 45
0.0
1001
ACAD
1000
AcDbSavedByObjectVersion
1070
     0
  0
VISUALSTYLE
  5
33
102
{ACAD_XDICTIONARY
360
398
102
}
102
{ACAD_REACTORS
330
29
102
}
330
29
100
AcDbVisualStyle
  2

 70
     8
 71
     2
 72
     3
 73
     0
 90
        2
 40
-0.6
 41
30.0
 62
     5
 63
     7
 74
     0
 91
        0
 64
     7
 65
   257
 75
     1
175
     1
 42
1.0
 92
        8
 66
   257
 43
1.0
 76
     1
 77
     6
 78
     2
 67
     7
 79
     3
170
     0
171
     0
290
     0
174
     0
 93
       13
 44
0.0
173
     0
291
     0
 45
0.0
1001
ACAD
1000
AcDbSavedByObjectVersion
1070
     0
  0
VISUALSTYLE
  5
3E
102
{ACAD_XDICTIONARY
360
3AE
102
}
102
{ACAD_REACTORS
330
29
102
}
330
29
100
AcDbVisualStyle
  2

 70
    27
 71
     2
 72
     2
 73
     1
 90
        2
 40
-0.6
 41
30.0
 62
     5
 63
     7
 74
     0
 91
        4
 64
     7
 65
   257
 75
     1
175
     1
 42
1.0
 92
        8
 66
   257
 43
1.0
 76
     1
 77
     6
 78
     2
 67
     8
 79
     3
170
     0
171
     0
290
     0
174
     0
 93
        5
 44
0.0
173
     0
291
     0
 45
0.0
1001
ACAD
1000
AcDbSavedByObjectVersion
1070
     0
  0
VISUALSTYLE
  5
3D
102
{ACAD_XDICTIONARY
360
3AC
102
}
102
{ACAD_REACTORS
330
29
102
}
330
29
100
AcDbVisualStyle
  2

 70
    26
 71
     2
 72
     2
 73
     1
 90
        2
 40
-0.6
 41
30.0
 62
     5
 63
     7
 74
     1
 91
       10
 64
     7
 65
   257
 75
     2
175
     1
 42
1.0
 92
        8
 66
   257
 43
1.0
 76
     1
 77
     6
 78
     2
 67
     7
 79
     3
170
     0
171
     0
290
     0
174
     0
 93
        5
 44
0.0
173
     0
291
     0
 45
0.0
1001
ACAD
1000
AcDbSavedByObjectVersion
1070
     0
  0
VISUALSTYLE
  5
3A
102
{ACAD_XDICTIONARY
360
3A6
102
}
102
{ACAD_REACTORS
330
29
102
}
330
29
100
AcDbVisualStyle
  2

 70
    23
 71
     2
 72
     2
 73
     3
 90
        0
 40
-0.6
 41
-30.0
 62
     5
 63
     7
 74
     2
 91
        2
 64
     7
 65
     7
 75
     1
175
     1
 42
40.0
 92
        8
 66
     7
 43
1.0
 76
     1
 77
     6
 78
     2
 67
     7
 79
     3
170
     0
171
     0
290
     0
174
     0
 93
        1
 44
0.0
173
     0
291
     0
 45
0.0
1001
ACAD
1000
AcDbSavedByObjectVersion
1070
     0
  0
VISUALSTYLE
  5
3B
102
{ACAD_XDICTIONARY
360
3A8
102
}
102
{ACAD_REACTORS
330
29
102
}
330
29
100
AcDbVisualStyle
  2

 70
    24
 71
     1
 72
     2
 73
     2
 90
        0
 40
-0.6
 41
-30.0
 62
     5
 63
     7
 74
     2
 91
        2
 64
     7
 65
     7
 75
     1
175
     1
 42
40.0
 92
       11
 66
     7
 43
1.0
 76
     1
 77
     6
 78
     2
 67
     7
 79
     6
170
     0
171
     0
290
     0
174
     0
 93
        1
 44
0.0
173
     0
291
     0
 45
0.0
1001
ACAD
1000
AcDbSavedByObjectVersion
1070
     0
  0
VISUALSTYLE
  5
36
102
{ACAD_XDICTIONARY
360
39E
102
}
102
{ACAD_REACTORS
330
29
102
}
330
29
100
AcDbVisualStyle
  2

 70
    13
 71
     2
 72
     2
 73
     0
 90
        0
 40
-0.6
 41
-30.0
 62
     5
 63
     7
 74
     1
 91
        4
 64
     7
 65
   257
 75
     1
175
     1
 42
1.0
 92
       12
 66
     7
 43
1.0
 76
     1
 77
     6
 78
     2
 67
     7
 79
     5
170
     0
171
     0
290
     0
174
     0
 93
        1
 44
0.0
173
     0
291
     1
 45
0.0
1001
ACAD
1000
AcDbSavedByObjectVersion
1070
     0
  0
VISUALSTYLE
  5
30
102
{ACAD_XDICTIONARY
360
392
102
}
102
{ACAD_REACTORS
330
29
102
}
330
29
100
AcDbVisualStyle
  2

 70
     5
 71
     0
 72
     2
 73
     0
 90
        0
 40
-0.6
 41
-30.0
 62
     5
 63
     7
 74
     1
 91
        4
 64
     7
 65
   257
 75
     1
175
     1
 42
1.0
 92
        0
 66
   257
 43
1.0
 76
     1
 77
     6
 78
     2
 67
     7
 79
     3
170
     0
171
     0
290
     0
174
     0
 93
        1
 44
0.0
173
     0
291
     0
 45
0.0
1001
ACAD
1000
AcDbSavedByObjectVersion
1070
     0
  0
VISUALSTYLE
  5
3C
102
{ACAD_XDICTIONARY
360
3AA
102
}
102
{ACAD_REACTORS
330
29
102
}
330
29
100
AcDbVisualStyle
  2

 70
    25
 71
     2
 72
     2
 73
     1
 90
        1
 40
0.5
 41
-30.0
 62
     5
 63
     7
 74
     1
 91
        0
 64
     7
 65
   257
 75
     1
175
     1
 42
1.0
 92
        8
 66
     7
 43
1.0
 76
     1
 77
     6
 78
     2
 67
     7
 79
     3
170
     0
171
     0
290
     0
174
     0
 93
       13
 44
0.0
173
     0
291
     0
 45
0.0
1001
ACAD
1000
AcDbSavedByObjectVersion
1070
     0
  0
DICTIONARYVAR
  5
2F7
102
{ACAD_REACTORS
330
2F3
102
}
330
2F3
100
DictionaryVariables
280
     0
  1
1:1
  0
DICTIONARYVAR
  5
2F5
102
{ACAD_REACTORS
330
2F3
102
}
330
2F3
100
DictionaryVariables
280
     0
  1
STANDARD
  0
DICTIONARYVAR
  5
2F4
102
{ACAD_REACTORS
330
2F3
102
}
330
2F3
100
DictionaryVariables
280
     0
  1
STANDARD
  0
DICTIONARYVAR
  5
2FE
102
{ACAD_REACTORS
330
2F3
102
}
330
2F3
100
DictionaryVariables
280
     0
  1
2
  0
DICTIONARYVAR
  5
2FD
102
{ACAD_REACTORS
330
2F3
102
}
330
2F3
100
DictionaryVariables
280
     0
  1
1
  0
DICTIONARYVAR
  5
2FC
102
{ACAD_REACTORS
330
2F3
102
}
330
2F3
100
DictionaryVariables
280
     0
  1
0
  0
DICTIONARYVAR
  5
2F9
102
{ACAD_REACTORS
330
2F3
102
}
330
2F3
100
DictionaryVariables
280
     0
  1
0
  0
DICTIONARYVAR
  5
2FA
102
{ACAD_REACTORS
330
2F3
102
}
330
2F3
100
DictionaryVariables
280
     0
  1
0
  0
DICTIONARYVAR
  5
2F8
102
{ACAD_REACTORS
330
2F3
102
}
330
2F3
100
DictionaryVariables
280
     0
  1
2
  0
DICTIONARYVAR
  5
2F6
102
{ACAD_REACTORS
330
2F3
102
}
330
2F3
100
DictionaryVariables
280
     0
  1
1
  0
DICTIONARYVAR
  5
2FB
102
{ACAD_REACTORS
330
2F3
102
}
330
2F3
100
DictionaryVariables
280
     0
  1
127
  0
DICTIONARYVAR
  5
37F
102
{ACAD_REACTORS
330
2F3
102
}
330
2F3
100
DictionaryVariables
280
     0
  1
2
  0
DICTIONARY
  5
3B7
330
6B
100
AcDbDictionary
280
     1
281
     1
  3
ACAD_XREC_ROUNDTRIP
360
3B8
  0
DICTIONARY
  5
3BB
330
73
100
AcDbDictionary
280
     1
281
     1
  3
ACAD_XREC_ROUNDTRIP
360
3BC
  0
DICTIONARY
  5
3B9
330
6F
100
AcDbDictionary
280
     1
281
     1
  3
ACAD_XREC_ROUNDTRIP
360
3BA
  0
DICTIONARY
  5
1A
330
19
100
AcDbDictionary
280
     1
281
     1
  3
ACAD_XREC_ROUNDTRIP
360
30B
  3
BUMPTILE
360
1C
  3
DIFFUSETILE
360
1B
  3
OPACITYTILE
360
1F
  3
REFLECTIONTILE
360
1E
  3
REFRACTIONTILE
360
20
  3
SPECULARTILE
360
1D
  0
DICTIONARY
  5
12
330
11
100
AcDbDictionary
280
     1
281
     1
  3
ACAD_XREC_ROUNDTRIP
360
30A
  3
BUMPTILE
360
14
  3
DIFFUSETILE
360
13
  3
OPACITYTILE
360
17
  3
REFLECTIONTILE
360
16
  3
REFRACTIONTILE
360
18
  3
SPECULARTILE
360
15
  0
DICTIONARY
  5
22
330
21
100
AcDbDictionary
280
     1
281
     1
  3
ACAD_XREC_ROUNDTRIP
360
30C
  3
BUMPTILE
360
24
  3
DIFFUSETILE
360
23
  3
OPACITYTILE
360
27
  3
REFLECTIONTILE
360
26
  3
REFRACTIONTILE
360
28
  3
SPECULARTILE
360
25
  0
DICTIONARY
  5
306
330
1D8
100
AcDbDictionary
280
     1
281
     1
  3
ACAD_ROUNDTRIP_2008_TABLESTYLE_CELLSTYLEMAP
360
383
  3
ACAD_XREC_ROUNDTRIP
360
3BF
  0
DICTIONARY
  5
304
330
15D
100
AcDbDictionary
280
     1
281
     1
  3
ACAD_ROUNDTRIP_2008_TABLESTYLE_CELLSTYLEMAP
360
382
  3
ACAD_XREC_ROUNDTRIP
360
3BE
  0
DICTIONARY
  5
302
330
ED
100
AcDbDictionary
280
     1
281
     1
  3
ACAD_ROUNDTRIP_2008_TABLESTYLE_CELLSTYLEMAP
360
381
  3
ACAD_XREC_ROUNDTRIP
360
3BD
  0
DICTIONARY
  5
300
330
65
100
AcDbDictionary
280
     1
281
     1
  3
ACAD_ROUNDTRIP_2008_TABLESTYLE_CELLSTYLEMAP
360
380
  3
ACAD_XREC_ROUNDTRIP
360
3B6
  0
DICTIONARY
  5
390
330
2F
100
AcDbDictionary
280
     1
281
     1
  3
ACAD_XREC_ROUNDTRIP
360
391
  0
DICTIONARY
  5
38E
330
2E
100
AcDbDictionary
280
     1
281
     1
  3
ACAD_XREC_ROUNDTRIP
360
38F
  0
DICTIONARY
  5
39C
330
35
100
AcDbDictionary
280
     1
281
     1
  3
ACAD_XREC_ROUNDTRIP
360
39D
  0
DICTIONARY
  5
3A4
330
39
100
AcDbDictionary
280
     1
281
     1
  3
ACAD_XREC_ROUNDTRIP
360
3A5
  0
DICTIONARY
  5
396
330
32
100
AcDbDictionary
280
     1
281
     1
  3
ACAD_XREC_ROUNDTRIP
360
397
  0
DICTIONARY
  5
39A
330
34
100
AcDbDictionary
280
     1
281
     1
  3
ACAD_XREC_ROUNDTRIP
360
39B
  0
DICTIONARY
  5
3B4
330
41
100
AcDbDictionary
280
     1
281
     1
  3
ACAD_XREC_ROUNDTRIP
360
3B5
  0
DICTIONARY
  5
3A2
330
38
100
AcDbDictionary
280
     1
281
     1
  3
ACAD_XREC_ROUNDTRIP
360
3A3
  0
DICTIONARY
  5
386
330
2A
100
AcDbDictionary
280
     1
281
     1
  3
ACAD_XREC_ROUNDTRIP
360
387
  0
DICTIONARY
  5
388
330
2B
100
AcDbDictionary
280
     1
281
     1
  3
ACAD_XREC_ROUNDTRIP
360
389
  0
DICTIONARY
  5
38A
330
2C
100
AcDbDictionary
280
     1
281
     1
  3
ACAD_XREC_ROUNDTRIP
360
38B
  0
DICTIONARY
  5
38C
330
2D
100
AcDbDictionary
280
     1
281
     1
  3
ACAD_XREC_ROUNDTRIP
360
38D
  0
DICTIONARY
  5
394
330
31
100
AcDbDictionary
280
     1
281
     1
  3
ACAD_XREC_ROUNDTRIP
360
395
  0
DICTIONARY
  5
3B0
330
3F
100
AcDbDictionary
280
     1
281
     1
  3
ACAD_XREC_ROUNDTRIP
360
3B1
  0
DICTIONARY
  5
3A0
330
37
100
AcDbDictionary
280
     1
281
     1
  3
ACAD_XREC_ROUNDTRIP
360
3A1
  0
DICTIONARY
  5
3B2
330
40
100
AcDbDictionary
280
     1
281
     1
  3
ACAD_XREC_ROUNDTRIP
360
3B3
  0
DICTIONARY
  5
398
330
33
100
AcDbDictionary
280
     1
281
     1
  3
ACAD_XREC_ROUNDTRIP
360
399
  0
DICTIONARY
  5
3AE
330
3E
100
AcDbDictionary
280
     1
281
     1
  3
ACAD_XREC_ROUNDTRIP
360
3AF
  0
DICTIONARY
  5
3AC
330
3D
100
AcDbDictionary
280
     1
281
     1
  3
ACAD_XREC_ROUNDTRIP
360
3AD
  0
DICTIONARY
  5
3A6
330
3A
100
AcDbDictionary
280
     1
281
     1
  3
ACAD_XREC_ROUNDTRIP
360
3A7
  0
DICTIONARY
  5
3A8
330
3B
100
AcDbDictionary
280
     1
281
     1
  3
ACAD_XREC_ROUNDTRIP
360
3A9
  0
DICTIONARY
  5
39E
330
36
100
AcDbDictionary
280
     1
281
     1
  3
ACAD_XREC_ROUNDTRIP
360
39F
  0
DICTIONARY
  5
392
330
30
100
AcDbDictionary
280
     1
281
     1
  3
ACAD_XREC_ROUNDTRIP
360
393
  0
DICTIONARY
  5
3AA
330
3C
100
AcDbDictionary
280
     1
281
     1
  3
ACAD_XREC_ROUNDTRIP
360
3AB
  0
XRECORD
  5
3B8
102
{ACAD_REACTORS
330
3B7
102
}
330
3B7
100
AcDbXrecord
280
     1
102
SHADEPLOT
 70
     0
102
SHADEPLOTRESLEVEL
 70
     2
102
SHADEPLOTCUSTOMDPI
 70
   300
  0
XRECORD
  5
3BC
102
{ACAD_REACTORS
330
3BB
102
}
330
3BB
100
AcDbXrecord
280
     1
102
SHADEPLOT
 70
     0
102
SHADEPLOTRESLEVEL
 70
     2
102
SHADEPLOTCUSTOMDPI
 70
   300
  0
XRECORD
  5
3BA
102
{ACAD_REACTORS
330
3B9
102
}
330
3B9
100
AcDbXrecord
280
     1
102
SHADEPLOT
 70
     0
102
SHADEPLOTRESLEVEL
 70
     2
102
SHADEPLOTCUSTOMDPI
 70
   300
  0
XRECORD
  5
30B
102
{ACAD_REACTORS
330
1A
102
}
330
1A
100
AcDbXrecord
280
     1
102
MATERIAL
148
0.0
149
0.0
149
0.0
 93
        0
 94
      127
282
     0
 72
     0
 77
     0
171
     0
175
     0
179
     0
273
     0
  0
XRECORD
  5
1C
102
{ACAD_REACTORS
330
1A
102
}
330
1A
100
AcDbXrecord
280
     1
270
     1
271
     1
  0
XRECORD
  5
1B
102
{ACAD_REACTORS
330
1A
102
}
330
1A
100
AcDbXrecord
280
     1
270
     1
271
     1
  0
XRECORD
  5
1F
102
{ACAD_REACTORS
330
1A
102
}
330
1A
100
AcDbXrecord
280
     1
270
     1
271
     1
  0
XRECORD
  5
1E
102
{ACAD_REACTORS
330
1A
102
}
330
1A
100
AcDbXrecord
280
     1
270
     1
271
     1
  0
XRECORD
  5
20
102
{ACAD_REACTORS
330
1A
102
}
330
1A
100
AcDbXrecord
280
     1
270
     1
271
     1
  0
XRECORD
  5
1D
102
{ACAD_REACTORS
330
1A
102
}
330
1A
100
AcDbXrecord
280
     1
270
     1
271
     1
  0
XRECORD
  5
30A
102
{ACAD_REACTORS
330
12
102
}
330
12
100
AcDbXrecord
280
     1
102
MATERIAL
148
0.0
149
0.0
149
0.0
 93
        0
 94
      127
282
     0
 72
     0
 77
     0
171
     0
175
     0
179
     0
273
     0
  0
XRECORD
  5
14
102
{ACAD_REACTORS
330
12
102
}
330
12
100
AcDbXrecord
280
     1
270
     1
271
     1
  0
XRECORD
  5
13
102
{ACAD_REACTORS
330
12
102
}
330
12
100
AcDbXrecord
280
     1
270
     1
271
     1
  0
XRECORD
  5
17
102
{ACAD_REACTORS
330
12
102
}
330
12
100
AcDbXrecord
280
     1
270
     1
271
     1
  0
XRECORD
  5
16
102
{ACAD_REACTORS
330
12
102
}
330
12
100
AcDbXrecord
280
     1
270
     1
271
     1
  0
XRECORD
  5
18
102
{ACAD_REACTORS
330
12
102
}
330
12
100
AcDbXrecord
280
     1
270
     1
271
     1
  0
XRECORD
  5
15
102
{ACAD_REACTORS
330
12
102
}
330
12
100
AcDbXrecord
280
     1
270
     1
271
     1
  0
XRECORD
  5
30C
102
{ACAD_REACTORS
330
22
102
}
330
22
100
AcDbXrecord
280
     1
102
MATERIAL
148
0.0
149
0.0
149
0.0
 93
        0
 94
      127
282
     0
 72
     0
 77
     0
171
     0
175
     0
179
     0
273
     0
  0
XRECORD
  5
24
102
{ACAD_REACTORS
330
22
102
}
330
22
100
AcDbXrecord
280
     1
270
     1
271
     1
  0
XRECORD
  5
23
102
{ACAD_REACTORS
330
22
102
}
330
22
100
AcDbXrecord
280
     1
270
     1
271
     1
  0
XRECORD
  5
27
102
{ACAD_REACTORS
330
22
102
}
330
22
100
AcDbXrecord
280
     1
270
     1
271
     1
  0
XRECORD
  5
26
102
{ACAD_REACTORS
330
22
102
}
330
22
100
AcDbXrecord
280
     1
270
     1
271
     1
  0
XRECORD
  5
28
102
{ACAD_REACTORS
330
22
102
}
330
22
100
AcDbXrecord
280
     1
270
     1
271
     1
  0
XRECORD
  5
25
102
{ACAD_REACTORS
330
22
102
}
330
22
100
AcDbXrecord
280
     1
270
     1
271
     1
  0
CELLSTYLEMAP
  5
383
102
{ACAD_REACTORS
330
306
102
}
330
306
100
AcDbCellStyleMap
 90
        3
300
CELLSTYLE
  1
TABLEFORMAT_BEGIN
 90
        5
170
     1
 91
        0
 92
    32768
 62
   257
 93
        1
300
CONTENTFORMAT
  1
CONTENTFORMAT_BEGIN
 90
        0
 91
        0
 92
      512
 93
        0
300

 40
0.0
140
1.0
 94
        5
 62
     0
340
1D9
144
0.25
309
CONTENTFORMAT_END
171
     1
301
MARGIN
  1
CELLMARGIN_BEGIN
 40
0.06
 40
0.06
 40
0.06
 40
0.06
 40
0.18
 40
0.18
309
CELLMARGIN_END
 94
        6
 95
        1
302
GRIDFORMAT
  1
GRIDFORMAT_BEGIN
 90
        0
 91
        1
 62
     0
 92
       -2
340
0
 93
        0
 40
0.045
309
GRIDFORMAT_END
 95
        2
302
GRIDFORMAT
  1
GRIDFORMAT_BEGIN
 90
        0
 91
        1
 62
     0
 92
       -2
340
0
 93
        0
 40
0.045
309
GRIDFORMAT_END
 95
        4
302
GRIDFORMAT
  1
GRIDFORMAT_BEGIN
 90
        0
 91
        1
 62
     0
 92
       -2
340
0
 93
        0
 40
0.045
309
GRIDFORMAT_END
 95
        8
302
GRIDFORMAT
  1
GRIDFORMAT_BEGIN
 90
        0
 91
        1
 62
     0
 92
       -2
340
0
 93
        0
 40
0.045
309
GRIDFORMAT_END
 95
       16
302
GRIDFORMAT
  1
GRIDFORMAT_BEGIN
 90
        0
 91
        1
 62
     0
 92
       -2
340
0
 93
        0
 40
0.045
309
GRIDFORMAT_END
 95
       32
302
GRIDFORMAT
  1
GRIDFORMAT_BEGIN
 90
        0
 91
        1
 62
     0
 92
       -2
340
0
 93
        0
 40
0.045
309
GRIDFORMAT_END
309
TABLEFORMAT_END
  1
CELLSTYLE_BEGIN
 90
        1
 91
        1
300
_TITLE
309
CELLSTYLE_END
300
CELLSTYLE
  1
TABLEFORMAT_BEGIN
 90
        5
170
     1
 91
        0
 92
        0
 62
   257
 93
        1
300
CONTENTFORMAT
  1
CONTENTFORMAT_BEGIN
 90
        0
 91
        0
 92
      512
 93
        0
300

 40
0.0
140
1.0
 94
        5
 62
     0
340
1D9
144
0.18
309
CONTENTFORMAT_END
171
     1
301
MARGIN
  1
CELLMARGIN_BEGIN
 40
0.06
 40
0.06
 40
0.06
 40
0.06
 40
0.18
 40
0.18
309
CELLMARGIN_END
 94
        6
 95
        1
302
GRIDFORMAT
  1
GRIDFORMAT_BEGIN
 90
        0
 91
        1
 62
     0
 92
       -2
340
0
 93
        0
 40
0.045
309
GRIDFORMAT_END
 95
        2
302
GRIDFORMAT
  1
GRIDFORMAT_BEGIN
 90
        0
 91
        1
 62
     0
 92
       -2
340
0
 93
        0
 40
0.045
309
GRIDFORMAT_END
 95
        4
302
GRIDFORMAT
  1
GRIDFORMAT_BEGIN
 90
        0
 91
        1
 62
     0
 92
       -2
340
0
 93
        0
 40
0.045
309
GRIDFORMAT_END
 95
        8
302
GRIDFORMAT
  1
GRIDFORMAT_BEGIN
 90
        0
 91
        1
 62
     0
 92
       -2
340
0
 93
        0
 40
0.045
309
GRIDFORMAT_END
 95
       16
302
GRIDFORMAT
  1
GRIDFORMAT_BEGIN
 90
        0
 91
        1
 62
     0
 92
       -2
340
0
 93
        0
 40
0.045
309
GRIDFORMAT_END
 95
       32
302
GRIDFORMAT
  1
GRIDFORMAT_BEGIN
 90
        0
 91
        1
 62
     0
 92
       -2
340
0
 93
        0
 40
0.045
309
GRIDFORMAT_END
309
TABLEFORMAT_END
  1
CELLSTYLE_BEGIN
 90
        2
 91
        1
300
_HEADER
309
CELLSTYLE_END
300
CELLSTYLE
  1
TABLEFORMAT_BEGIN
 90
        5
170
     1
 91
        0
 92
        0
 62
   257
 93
        1
300
CONTENTFORMAT
  1
CONTENTFORMAT_BEGIN
 90
        0
 91
        0
 92
      512
 93
        0
300

 40
0.0
140
1.0
 94
        2
 62
     0
340
1D9
144
0.18
309
CONTENTFORMAT_END
171
     1
301
MARGIN
  1
CELLMARGIN_BEGIN
 40
0.06
 40
0.06
 40
0.06
 40
0.06
 40
0.18
 40
0.18
309
CELLMARGIN_END
 94
        6
 95
        1
302
GRIDFORMAT
  1
GRIDFORMAT_BEGIN
 90
        0
 91
        1
 62
     0
 92
       -2
340
0
 93
        0
 40
0.045
309
GRIDFORMAT_END
 95
        2
302
GRIDFORMAT
  1
GRIDFORMAT_BEGIN
 90
        0
 91
        1
 62
     0
 92
       -2
340
0
 93
        0
 40
0.045
309
GRIDFORMAT_END
 95
        4
302
GRIDFORMAT
  1
GRIDFORMAT_BEGIN
 90
        0
 91
        1
 62
     0
 92
       -2
340
0
 93
        0
 40
0.045
309
GRIDFORMAT_END
 95
        8
302
GRIDFORMAT
  1
GRIDFORMAT_BEGIN
 90
        0
 91
        1
 62
     0
 92
       -2
340
0
 93
        0
 40
0.045
309
GRIDFORMAT_END
 95
       16
302
GRIDFORMAT
  1
GRIDFORMAT_BEGIN
 90
        0
 91
        1
 62
     0
 92
       -2
340
0
 93
        0
 40
0.045
309
GRIDFORMAT_END
 95
       32
302
GRIDFORMAT
  1
GRIDFORMAT_BEGIN
 90
        0
 91
        1
 62
     0
 92
       -2
340
0
 93
        0
 40
0.045
309
GRIDFORMAT_END
309
TABLEFORMAT_END
  1
CELLSTYLE_BEGIN
 90
        3
 91
        2
300
_DATA
309
CELLSTYLE_END
  0
XRECORD
  5
3BF
102
{ACAD_REACTORS
330
306
102
}
330
306
100
AcDbXrecord
280
     1
102
ACAD_ROUNDTRIP_PRE2007_TABLESTYLE
 90
      512
 91
        0
  1

 92
      512
 93
        0
  2

 94
      512
 95
        0
  3

  0
CELLSTYLEMAP
  5
382
102
{ACAD_REACTORS
330
304
102
}
330
304
100
AcDbCellStyleMap
 90
        3
300
CELLSTYLE
  1
TABLEFORMAT_BEGIN
 90
        5
170
     1
 91
        0
 92
    32768
 62
   257
 93
        1
300
CONTENTFORMAT
  1
CONTENTFORMAT_BEGIN
 90
        0
 91
        0
 92
      512
 93
        0
300

 40
0.0
140
1.0
 94
        5
 62
     0
340
15E
144
0.25
309
CONTENTFORMAT_END
171
     1
301
MARGIN
  1
CELLMARGIN_BEGIN
 40
0.06
 40
0.06
 40
0.06
 40
0.06
 40
0.18
 40
0.18
309
CELLMARGIN_END
 94
        6
 95
        1
302
GRIDFORMAT
  1
GRIDFORMAT_BEGIN
 90
        0
 91
        1
 62
     0
 92
       -2
340
0
 93
        0
 40
0.045
309
GRIDFORMAT_END
 95
        2
302
GRIDFORMAT
  1
GRIDFORMAT_BEGIN
 90
        0
 91
        1
 62
     0
 92
       -2
340
0
 93
        0
 40
0.045
309
GRIDFORMAT_END
 95
        4
302
GRIDFORMAT
  1
GRIDFORMAT_BEGIN
 90
        0
 91
        1
 62
     0
 92
       -2
340
0
 93
        0
 40
0.045
309
GRIDFORMAT_END
 95
        8
302
GRIDFORMAT
  1
GRIDFORMAT_BEGIN
 90
        0
 91
        1
 62
     0
 92
       -2
340
0
 93
        0
 40
0.045
309
GRIDFORMAT_END
 95
       16
302
GRIDFORMAT
  1
GRIDFORMAT_BEGIN
 90
        0
 91
        1
 62
     0
 92
       -2
340
0
 93
        0
 40
0.045
309
GRIDFORMAT_END
 95
       32
302
GRIDFORMAT
  1
GRIDFORMAT_BEGIN
 90
        0
 91
        1
 62
     0
 92
       -2
340
0
 93
        0
 40
0.045
309
GRIDFORMAT_END
309
TABLEFORMAT_END
  1
CELLSTYLE_BEGIN
 90
        1
 91
        1
300
_TITLE
309
CELLSTYLE_END
300
CELLSTYLE
  1
TABLEFORMAT_BEGIN
 90
        5
170
     1
 91
        0
 92
        0
 62
   257
 93
        1
300
CONTENTFORMAT
  1
CONTENTFORMAT_BEGIN
 90
        0
 91
        0
 92
      512
 93
        0
300

 40
0.0
140
1.0
 94
        5
 62
     0
340
15E
144
0.18
309
CONTENTFORMAT_END
171
     1
301
MARGIN
  1
CELLMARGIN_BEGIN
 40
0.06
 40
0.06
 40
0.06
 40
0.06
 40
0.18
 40
0.18
309
CELLMARGIN_END
 94
        6
 95
        1
302
GRIDFORMAT
  1
GRIDFORMAT_BEGIN
 90
        0
 91
        1
 62
     0
 92
       -2
340
0
 93
        0
 40
0.045
309
GRIDFORMAT_END
 95
        2
302
GRIDFORMAT
  1
GRIDFORMAT_BEGIN
 90
        0
 91
        1
 62
     0
 92
       -2
340
0
 93
        0
 40
0.045
309
GRIDFORMAT_END
 95
        4
302
GRIDFORMAT
  1
GRIDFORMAT_BEGIN
 90
        0
 91
        1
 62
     0
 92
       -2
340
0
 93
        0
 40
0.045
309
GRIDFORMAT_END
 95
        8
302
GRIDFORMAT
  1
GRIDFORMAT_BEGIN
 90
        0
 91
        1
 62
     0
 92
       -2
340
0
 93
        0
 40
0.045
309
GRIDFORMAT_END
 95
       16
302
GRIDFORMAT
  1
GRIDFORMAT_BEGIN
 90
        0
 91
        1
 62
     0
 92
       -2
340
0
 93
        0
 40
0.045
309
GRIDFORMAT_END
 95
       32
302
GRIDFORMAT
  1
GRIDFORMAT_BEGIN
 90
        0
 91
        1
 62
     0
 92
       -2
340
0
 93
        0
 40
0.045
309
GRIDFORMAT_END
309
TABLEFORMAT_END
  1
CELLSTYLE_BEGIN
 90
        2
 91
        1
300
_HEADER
309
CELLSTYLE_END
300
CELLSTYLE
  1
TABLEFORMAT_BEGIN
 90
        5
170
     1
 91
        0
 92
        0
 62
   257
 93
        1
300
CONTENTFORMAT
  1
CONTENTFORMAT_BEGIN
 90
        0
 91
        0
 92
      512
 93
        0
300

 40
0.0
140
1.0
 94
        2
 62
     0
340
15E
144
0.18
309
CONTENTFORMAT_END
171
     1
301
MARGIN
  1
CELLMARGIN_BEGIN
 40
0.06
 40
0.06
 40
0.06
 40
0.06
 40
0.18
 40
0.18
309
CELLMARGIN_END
 94
        6
 95
        1
302
GRIDFORMAT
  1
GRIDFORMAT_BEGIN
 90
        0
 91
        1
 62
     0
 92
       -2
340
0
 93
        0
 40
0.045
309
GRIDFORMAT_END
 95
        2
302
GRIDFORMAT
  1
GRIDFORMAT_BEGIN
 90
        0
 91
        1
 62
     0
 92
       -2
340
0
 93
        0
 40
0.045
309
GRIDFORMAT_END
 95
        4
302
GRIDFORMAT
  1
GRIDFORMAT_BEGIN
 90
        0
 91
        1
 62
     0
 92
       -2
340
0
 93
        0
 40
0.045
309
GRIDFORMAT_END
 95
        8
302
GRIDFORMAT
  1
GRIDFORMAT_BEGIN
 90
        0
 91
        1
 62
     0
 92
       -2
340
0
 93
        0
 40
0.045
309
GRIDFORMAT_END
 95
       16
302
GRIDFORMAT
  1
GRIDFORMAT_BEGIN
 90
        0
 91
        1
 62
     0
 92
       -2
340
0
 93
        0
 40
0.045
309
GRIDFORMAT_END
 95
       32
302
GRIDFORMAT
  1
GRIDFORMAT_BEGIN
 90
        0
 91
        1
 62
     0
 92
       -2
340
0
 93
        0
 40
0.045
309
GRIDFORMAT_END
309
TABLEFORMAT_END
  1
CELLSTYLE_BEGIN
 90
        3
 91
        2
300
_DATA
309
CELLSTYLE_END
  0
XRECORD
  5
3BE
102
{ACAD_REACTORS
330
304
102
}
330
304
100
AcDbXrecord
280
     1
102
ACAD_ROUNDTRIP_PRE2007_TABLESTYLE
 90
      512
 91
        0
  1

 92
      512
 93
        0
  2

 94
      512
 95
        0
  3

  0
CELLSTYLEMAP
  5
381
102
{ACAD_REACTORS
330
302
102
}
330
302
100
AcDbCellStyleMap
 90
        3
300
CELLSTYLE
  1
TABLEFORMAT_BEGIN
 90
        5
170
     1
 91
        0
 92
    32768
 62
   257
 93
        1
300
CONTENTFORMAT
  1
CONTENTFORMAT_BEGIN
 90
        0
 91
        0
 92
      512
 93
        0
300

 40
0.0
140
1.0
 94
        5
 62
     0
340
EE
144
0.25
309
CONTENTFORMAT_END
171
     1
301
MARGIN
  1
CELLMARGIN_BEGIN
 40
0.06
 40
0.06
 40
0.06
 40
0.06
 40
0.18
 40
0.18
309
CELLMARGIN_END
 94
        6
 95
        1
302
GRIDFORMAT
  1
GRIDFORMAT_BEGIN
 90
        0
 91
        1
 62
     0
 92
       -2
340
0
 93
        0
 40
0.045
309
GRIDFORMAT_END
 95
        2
302
GRIDFORMAT
  1
GRIDFORMAT_BEGIN
 90
        0
 91
        1
 62
     0
 92
       -2
340
0
 93
        0
 40
0.045
309
GRIDFORMAT_END
 95
        4
302
GRIDFORMAT
  1
GRIDFORMAT_BEGIN
 90
        0
 91
        1
 62
     0
 92
       -2
340
0
 93
        0
 40
0.045
309
GRIDFORMAT_END
 95
        8
302
GRIDFORMAT
  1
GRIDFORMAT_BEGIN
 90
        0
 91
        1
 62
     0
 92
       -2
340
0
 93
        0
 40
0.045
309
GRIDFORMAT_END
 95
       16
302
GRIDFORMAT
  1
GRIDFORMAT_BEGIN
 90
        0
 91
        1
 62
     0
 92
       -2
340
0
 93
        0
 40
0.045
309
GRIDFORMAT_END
 95
       32
302
GRIDFORMAT
  1
GRIDFORMAT_BEGIN
 90
        0
 91
        1
 62
     0
 92
       -2
340
0
 93
        0
 40
0.045
309
GRIDFORMAT_END
309
TABLEFORMAT_END
  1
CELLSTYLE_BEGIN
 90
        1
 91
        1
300
_TITLE
309
CELLSTYLE_END
300
CELLSTYLE
  1
TABLEFORMAT_BEGIN
 90
        5
170
     1
 91
        0
 92
        0
 62
   257
 93
        1
300
CONTENTFORMAT
  1
CONTENTFORMAT_BEGIN
 90
        0
 91
        0
 92
      512
 93
        0
300

 40
0.0
140
1.0
 94
        5
 62
     0
340
EE
144
0.18
309
CONTENTFORMAT_END
171
     1
301
MARGIN
  1
CELLMARGIN_BEGIN
 40
0.06
 40
0.06
 40
0.06
 40
0.06
 40
0.18
 40
0.18
309
CELLMARGIN_END
 94
        6
 95
        1
302
GRIDFORMAT
  1
GRIDFORMAT_BEGIN
 90
        0
 91
        1
 62
     0
 92
       -2
340
0
 93
        0
 40
0.045
309
GRIDFORMAT_END
 95
        2
302
GRIDFORMAT
  1
GRIDFORMAT_BEGIN
 90
        0
 91
        1
 62
     0
 92
       -2
340
0
 93
        0
 40
0.045
309
GRIDFORMAT_END
 95
        4
302
GRIDFORMAT
  1
GRIDFORMAT_BEGIN
 90
        0
 91
        1
 62
     0
 92
       -2
340
0
 93
        0
 40
0.045
309
GRIDFORMAT_END
 95
        8
302
GRIDFORMAT
  1
GRIDFORMAT_BEGIN
 90
        0
 91
        1
 62
     0
 92
       -2
340
0
 93
        0
 40
0.045
309
GRIDFORMAT_END
 95
       16
302
GRIDFORMAT
  1
GRIDFORMAT_BEGIN
 90
        0
 91
        1
 62
     0
 92
       -2
340
0
 93
        0
 40
0.045
309
GRIDFORMAT_END
 95
       32
302
GRIDFORMAT
  1
GRIDFORMAT_BEGIN
 90
        0
 91
        1
 62
     0
 92
       -2
340
0
 93
        0
 40
0.045
309
GRIDFORMAT_END
309
TABLEFORMAT_END
  1
CELLSTYLE_BEGIN
 90
        2
 91
        1
300
_HEADER
309
CELLSTYLE_END
300
CELLSTYLE
  1
TABLEFORMAT_BEGIN
 90
        5
170
     1
 91
        0
 92
        0
 62
   257
 93
        1
300
CONTENTFORMAT
  1
CONTENTFORMAT_BEGIN
 90
        0
 91
        0
 92
      512
 93
        0
300

 40
0.0
140
1.0
 94
        2
 62
     0
340
EE
144
0.18
309
CONTENTFORMAT_END
171
     1
301
MARGIN
  1
CELLMARGIN_BEGIN
 40
0.06
 40
0.06
 40
0.06
 40
0.06
 40
0.18
 40
0.18
309
CELLMARGIN_END
 94
        6
 95
        1
302
GRIDFORMAT
  1
GRIDFORMAT_BEGIN
 90
        0
 91
        1
 62
     0
 92
       -2
340
0
 93
        0
 40
0.045
309
GRIDFORMAT_END
 95
        2
302
GRIDFORMAT
  1
GRIDFORMAT_BEGIN
 90
        0
 91
        1
 62
     0
 92
       -2
340
0
 93
        0
 40
0.045
309
GRIDFORMAT_END
 95
        4
302
GRIDFORMAT
  1
GRIDFORMAT_BEGIN
 90
        0
 91
        1
 62
     0
 92
       -2
340
0
 93
        0
 40
0.045
309
GRIDFORMAT_END
 95
        8
302
GRIDFORMAT
  1
GRIDFORMAT_BEGIN
 90
        0
 91
        1
 62
     0
 92
       -2
340
0
 93
        0
 40
0.045
309
GRIDFORMAT_END
 95
       16
302
GRIDFORMAT
  1
GRIDFORMAT_BEGIN
 90
        0
 91
        1
 62
     0
 92
       -2
340
0
 93
        0
 40
0.045
309
GRIDFORMAT_END
 95
       32
302
GRIDFORMAT
  1
GRIDFORMAT_BEGIN
 90
        0
 91
        1
 62
     0
 92
       -2
340
0
 93
        0
 40
0.045
309
GRIDFORMAT_END
309
TABLEFORMAT_END
  1
CELLSTYLE_BEGIN
 90
        3
 91
        2
300
_DATA
309
CELLSTYLE_END
  0
XRECORD
  5
3BD
102
{ACAD_REACTORS
330
302
102
}
330
302
100
AcDbXrecord
280
     1
102
ACAD_ROUNDTRIP_PRE2007_TABLESTYLE
 90
      512
 91
        0
  1

 92
      512
 93
        0
  2

 94
      512
 95
        0
  3

  0
CELLSTYLEMAP
  5
380
102
{ACAD_REACTORS
330
300
102
}
330
300
100
AcDbCellStyleMap
 90
        3
300
CELLSTYLE
  1
TABLEFORMAT_BEGIN
 90
        5
170
     1
 91
        0
 92
    32768
 62
   257
 93
        1
300
CONTENTFORMAT
  1
CONTENTFORMAT_BEGIN
 90
        0
 91
        0
 92
      512
 93
        0
300

 40
0.0
140
1.0
 94
        5
 62
     0
340
55
144
0.25
309
CONTENTFORMAT_END
171
     1
301
MARGIN
  1
CELLMARGIN_BEGIN
 40
0.06
 40
0.06
 40
0.06
 40
0.06
 40
0.18
 40
0.18
309
CELLMARGIN_END
 94
        6
 95
        1
302
GRIDFORMAT
  1
GRIDFORMAT_BEGIN
 90
        0
 91
        1
 62
     0
 92
       -2
340
0
 93
        0
 40
0.045
309
GRIDFORMAT_END
 95
        2
302
GRIDFORMAT
  1
GRIDFORMAT_BEGIN
 90
        0
 91
        1
 62
     0
 92
       -2
340
0
 93
        0
 40
0.045
309
GRIDFORMAT_END
 95
        4
302
GRIDFORMAT
  1
GRIDFORMAT_BEGIN
 90
        0
 91
        1
 62
     0
 92
       -2
340
0
 93
        0
 40
0.045
309
GRIDFORMAT_END
 95
        8
302
GRIDFORMAT
  1
GRIDFORMAT_BEGIN
 90
        0
 91
        1
 62
     0
 92
       -2
340
0
 93
        0
 40
0.045
309
GRIDFORMAT_END
 95
       16
302
GRIDFORMAT
  1
GRIDFORMAT_BEGIN
 90
        0
 91
        1
 62
     0
 92
       -2
340
0
 93
        0
 40
0.045
309
GRIDFORMAT_END
 95
       32
302
GRIDFORMAT
  1
GRIDFORMAT_BEGIN
 90
        0
 91
        1
 62
     0
 92
       -2
340
0
 93
        0
 40
0.045
309
GRIDFORMAT_END
309
TABLEFORMAT_END
  1
CELLSTYLE_BEGIN
 90
        1
 91
        1
300
_TITLE
309
CELLSTYLE_END
300
CELLSTYLE
  1
TABLEFORMAT_BEGIN
 90
        5
170
     1
 91
        0
 92
        0
 62
   257
 93
        1
300
CONTENTFORMAT
  1
CONTENTFORMAT_BEGIN
 90
        0
 91
        0
 92
      512
 93
        0
300

 40
0.0
140
1.0
 94
        5
 62
     0
340
55
144
0.18
309
CONTENTFORMAT_END
171
     1
301
MARGIN
  1
CELLMARGIN_BEGIN
 40
0.06
 40
0.06
 40
0.06
 40
0.06
 40
0.18
 40
0.18
309
CELLMARGIN_END
 94
        6
 95
        1
302
GRIDFORMAT
  1
GRIDFORMAT_BEGIN
 90
        0
 91
        1
 62
     0
 92
       -2
340
0
 93
        0
 40
0.045
309
GRIDFORMAT_END
 95
        2
302
GRIDFORMAT
  1
GRIDFORMAT_BEGIN
 90
        0
 91
        1
 62
     0
 92
       -2
340
0
 93
        0
 40
0.045
309
GRIDFORMAT_END
 95
        4
302
GRIDFORMAT
  1
GRIDFORMAT_BEGIN
 90
        0
 91
        1
 62
     0
 92
       -2
340
0
 93
        0
 40
0.045
309
GRIDFORMAT_END
 95
        8
302
GRIDFORMAT
  1
GRIDFORMAT_BEGIN
 90
        0
 91
        1
 62
     0
 92
       -2
340
0
 93
        0
 40
0.045
309
GRIDFORMAT_END
 95
       16
302
GRIDFORMAT
  1
GRIDFORMAT_BEGIN
 90
        0
 91
        1
 62
     0
 92
       -2
340
0
 93
        0
 40
0.045
309
GRIDFORMAT_END
 95
       32
302
GRIDFORMAT
  1
GRIDFORMAT_BEGIN
 90
        0
 91
        1
 62
     0
 92
       -2
340
0
 93
        0
 40
0.045
309
GRIDFORMAT_END
309
TABLEFORMAT_END
  1
CELLSTYLE_BEGIN
 90
        2
 91
        1
300
_HEADER
309
CELLSTYLE_END
300
CELLSTYLE
  1
TABLEFORMAT_BEGIN
 90
        5
170
     1
 91
        0
 92
        0
 62
   257
 93
        1
300
CONTENTFORMAT
  1
CONTENTFORMAT_BEGIN
 90
        0
 91
        0
 92
      512
 93
        0
300

 40
0.0
140
1.0
 94
        2
 62
     0
340
55
144
0.18
309
CONTENTFORMAT_END
171
     1
301
MARGIN
  1
CELLMARGIN_BEGIN
 40
0.06
 40
0.06
 40
0.06
 40
0.06
 40
0.18
 40
0.18
309
CELLMARGIN_END
 94
        6
 95
        1
302
GRIDFORMAT
  1
GRIDFORMAT_BEGIN
 90
        0
 91
        1
 62
     0
 92
       -2
340
0
 93
        0
 40
0.045
309
GRIDFORMAT_END
 95
        2
302
GRIDFORMAT
  1
GRIDFORMAT_BEGIN
 90
        0
 91
        1
 62
     0
 92
       -2
340
0
 93
        0
 40
0.045
309
GRIDFORMAT_END
 95
        4
302
GRIDFORMAT
  1
GRIDFORMAT_BEGIN
 90
        0
 91
        1
 62
     0
 92
       -2
340
0
 93
        0
 40
0.045
309
GRIDFORMAT_END
 95
        8
302
GRIDFORMAT
  1
GRIDFORMAT_BEGIN
 90
        0
 91
        1
 62
     0
 92
       -2
340
0
 93
        0
 40
0.045
309
GRIDFORMAT_END
 95
       16
302
GRIDFORMAT
  1
GRIDFORMAT_BEGIN
 90
        0
 91
        1
 62
     0
 92
       -2
340
0
 93
        0
 40
0.045
309
GRIDFORMAT_END
 95
       32
302
GRIDFORMAT
  1
GRIDFORMAT_BEGIN
 90
        0
 91
        1
 62
     0
 92
       -2
340
0
 93
        0
 40
0.045
309
GRIDFORMAT_END
309
TABLEFORMAT_END
  1
CELLSTYLE_BEGIN
 90
        3
 91
        2
300
_DATA
309
CELLSTYLE_END
  0
XRECORD
  5
3B6
102
{ACAD_REACTORS
330
300
102
}
330
300
100
AcDbXrecord
280
     1
102
ACAD_ROUNDTRIP_PRE2007_TABLESTYLE
 90
      512
 91
        0
  1

 92
      512
 93
        0
  2

 94
      512
 95
        0
  3

  0
XRECORD
  5
391
102
{ACAD_REACTORS
330
390
102
}
330
390
100
AcDbXrecord
280
     1
102
RTVSPropertyOp0
 70
     1
102
RTVSPropertyOp1
 70
     1
102
RTVSPropertyOp2
 70
     1
102
RTVSPropertyOp3
 70
     1
102
RTVSPropertyOp4
 70
     1
102
RTVSPropertyOp5
 70
     1
102
RTVSPropertyOp6
 70
     1
102
RTVSPropertyOp7
 70
     1
102
RTVSPropertyOp8
 70
     1
102
RTVSPropertyOp9
 70
     1
102
RTVSPropertyOp10
 70
     1
102
RTVSPropertyOp11
 70
     1
102
RTVSPropertyOp12
 70
     1
102
RTVSPropertyOp13
 70
     1
102
RTVSPropertyOp14
 70
     1
102
RTVSPropertyOp15
 70
     1
102
RTVSPropertyOp16
 70
     1
102
RTVSPropertyOp17
 70
     1
102
RTVSPropertyOp18
 70
     1
102
RTVSPropertyOp19
 70
     1
102
RTVSPropertyOp20
 70
     1
102
RTVSPropertyOp21
 70
     1
102
RTVSPropertyOp22
 70
     1
102
RTVSPropertyOp23
 70
     1
102
RTVSPropertyOp24
 70
     1
102
RTVSPropertyOp25
 70
     1
102
RTVSPropertyOp26
 70
     1
102
RTVSPropertyOp27
 70
     1
102
RTVSPropertyOp28
 70
     1
102
RTVSPropertyOp29
 70
     1
102
RTVSPropertyOp30
 70
     1
102
RTVSPropertyOp31
 70
     1
102
RTVSPropertyOp32
 70
     1
  0
XRECORD
  5
38F
102
{ACAD_REACTORS
330
38E
102
}
330
38E
100
AcDbXrecord
280
     1
102
RTVSPropertyOp0
 70
     1
102
RTVSPropertyOp1
 70
     1
102
RTVSPropertyOp2
 70
     1
102
RTVSPropertyOp3
 70
     1
102
RTVSPropertyOp4
 70
     1
102
RTVSPropertyOp5
 70
     1
102
RTVSPropertyOp6
 70
     1
102
RTVSPropertyOp7
 70
     1
102
RTVSPropertyOp8
 70
     1
102
RTVSPropertyOp9
 70
     1
102
RTVSPropertyOp10
 70
     1
102
RTVSPropertyOp11
 70
     1
102
RTVSPropertyOp12
 70
     1
102
RTVSPropertyOp13
 70
     1
102
RTVSPropertyOp14
 70
     1
102
RTVSPropertyOp15
 70
     1
102
RTVSPropertyOp16
 70
     1
102
RTVSPropertyOp17
 70
     1
102
RTVSPropertyOp18
 70
     1
102
RTVSPropertyOp19
 70
     1
102
RTVSPropertyOp20
 70
     1
102
RTVSPropertyOp21
 70
     1
102
RTVSPropertyOp22
 70
     1
102
RTVSPropertyOp23
 70
     1
102
RTVSPropertyOp24
 70
     1
102
RTVSPropertyOp25
 70
     1
102
RTVSPropertyOp26
 70
     1
102
RTVSPropertyOp27
 70
     1
102
RTVSPropertyOp28
 70
     1
102
RTVSPropertyOp29
 70
     1
102
RTVSPropertyOp30
 70
     1
102
RTVSPropertyOp31
 70
     1
102
RTVSPropertyOp32
 70
     1
  0
XRECORD
  5
39D
102
{ACAD_REACTORS
330
39C
102
}
330
39C
100
AcDbXrecord
280
     1
102
RTVSPropertyOp0
 70
     1
102
RTVSPropertyOp1
 70
     1
102
RTVSPropertyOp2
 70
     1
102
RTVSPropertyOp3
 70
     1
102
RTVSPropertyOp4
 70
     1
102
RTVSPropertyOp5
 70
     1
102
RTVSPropertyOp6
 70
     1
102
RTVSPropertyOp7
 70
     1
102
RTVSPropertyOp8
 70
     1
102
RTVSPropertyOp9
 70
     1
102
RTVSPropertyOp10
 70
     1
102
RTVSPropertyOp11
 70
     1
102
RTVSPropertyOp12
 70
     1
102
RTVSPropertyOp13
 70
     1
102
RTVSPropertyOp14
 70
     1
102
RTVSPropertyOp15
 70
     1
102
RTVSPropertyOp16
 70
     1
102
RTVSPropertyOp17
 70
     1
102
RTVSPropertyOp18
 70
     1
102
RTVSPropertyOp19
 70
     1
102
RTVSPropertyOp20
 70
     1
102
RTVSPropertyOp21
 70
     1
102
RTVSPropertyOp22
 70
     1
102
RTVSPropertyOp23
 70
     1
102
RTVSPropertyOp24
 70
     1
102
RTVSPropertyOp25
 70
     1
102
RTVSPropertyOp26
 70
     1
102
RTVSPropertyOp27
 70
     1
102
RTVSPropertyOp28
 70
     1
102
RTVSPropertyOp29
 70
     1
102
RTVSPropertyOp30
 70
     1
102
RTVSPropertyOp31
 70
     1
102
RTVSPropertyOp32
 70
     1
  0
XRECORD
  5
3A5
102
{ACAD_REACTORS
330
3A4
102
}
330
3A4
100
AcDbXrecord
280
     1
102
RTVSPropertyOp0
 70
     1
102
RTVSPropertyOp1
 70
     1
102
RTVSPropertyOp2
 70
     1
102
RTVSPropertyOp3
 70
     1
102
RTVSPropertyOp4
 70
     1
102
RTVSPropertyOp5
 70
     1
102
RTVSPropertyOp6
 70
     1
102
RTVSPropertyOp7
 70
     1
102
RTVSPropertyOp8
 70
     1
102
RTVSPropertyOp9
 70
     1
102
RTVSPropertyOp10
 70
     1
102
RTVSPropertyOp11
 70
     1
102
RTVSPropertyOp12
 70
     1
102
RTVSPropertyOp13
 70
     1
102
RTVSPropertyOp14
 70
     1
102
RTVSPropertyOp15
 70
     1
102
RTVSPropertyOp16
 70
     1
102
RTVSPropertyOp17
 70
     1
102
RTVSPropertyOp18
 70
     1
102
RTVSPropertyOp19
 70
     1
102
RTVSPropertyOp20
 70
     1
102
RTVSPropertyOp21
 70
     1
102
RTVSPropertyOp22
 70
     1
102
RTVSPropertyOp23
 70
     1
102
RTVSPropertyOp24
 70
     1
102
RTVSPropertyOp25
 70
     1
102
RTVSPropertyOp26
 70
     1
102
RTVSPropertyOp27
 70
     1
102
RTVSPropertyOp28
 70
     1
102
RTVSPropertyOp29
 70
     1
102
RTVSPropertyOp30
 70
     1
102
RTVSPropertyOp31
 70
     1
102
RTVSPropertyOp32
 70
     1
  0
XRECORD
  5
397
102
{ACAD_REACTORS
330
396
102
}
330
396
100
AcDbXrecord
280
     1
102
RTVSPropertyOp0
 70
     1
102
RTVSPropertyOp1
 70
     1
102
RTVSPropertyOp2
 70
     1
102
RTVSPropertyOp3
 70
     1
102
RTVSPropertyOp4
 70
     1
102
RTVSPropertyOp5
 70
     1
102
RTVSPropertyOp6
 70
     1
102
RTVSPropertyOp7
 70
     1
102
RTVSPropertyOp8
 70
     1
102
RTVSPropertyOp9
 70
     1
102
RTVSPropertyOp10
 70
     1
102
RTVSPropertyOp11
 70
     1
102
RTVSPropertyOp12
 70
     1
102
RTVSPropertyOp13
 70
     1
102
RTVSPropertyOp14
 70
     1
102
RTVSPropertyOp15
 70
     1
102
RTVSPropertyOp16
 70
     1
102
RTVSPropertyOp17
 70
     1
102
RTVSPropertyOp18
 70
     1
102
RTVSPropertyOp19
 70
     1
102
RTVSPropertyOp20
 70
     1
102
RTVSPropertyOp21
 70
     1
102
RTVSPropertyOp22
 70
     1
102
RTVSPropertyOp23
 70
     1
102
RTVSPropertyOp24
 70
     1
102
RTVSPropertyOp25
 70
     1
102
RTVSPropertyOp26
 70
     1
102
RTVSPropertyOp27
 70
     1
102
RTVSPropertyOp28
 70
     1
102
RTVSPropertyOp29
 70
     1
102
RTVSPropertyOp30
 70
     1
102
RTVSPropertyOp31
 70
     1
102
RTVSPropertyOp32
 70
     1
  0
XRECORD
  5
39B
102
{ACAD_REACTORS
330
39A
102
}
330
39A
100
AcDbXrecord
280
     1
102
RTVSPropertyOp0
 70
     1
102
RTVSPropertyOp1
 70
     1
102
RTVSPropertyOp2
 70
     1
102
RTVSPropertyOp3
 70
     1
102
RTVSPropertyOp4
 70
     1
102
RTVSPropertyOp5
 70
     1
102
RTVSPropertyOp6
 70
     1
102
RTVSPropertyOp7
 70
     1
102
RTVSPropertyOp8
 70
     1
102
RTVSPropertyOp9
 70
     1
102
RTVSPropertyOp10
 70
     1
102
RTVSPropertyOp11
 70
     1
102
RTVSPropertyOp12
 70
     1
102
RTVSPropertyOp13
 70
     1
102
RTVSPropertyOp14
 70
     1
102
RTVSPropertyOp15
 70
     1
102
RTVSPropertyOp16
 70
     1
102
RTVSPropertyOp17
 70
     1
102
RTVSPropertyOp18
 70
     1
102
RTVSPropertyOp19
 70
     1
102
RTVSPropertyOp20
 70
     1
102
RTVSPropertyOp21
 70
     1
102
RTVSPropertyOp22
 70
     1
102
RTVSPropertyOp23
 70
     1
102
RTVSPropertyOp24
 70
     1
102
RTVSPropertyOp25
 70
     1
102
RTVSPropertyOp26
 70
     1
102
RTVSPropertyOp27
 70
     1
102
RTVSPropertyOp28
 70
     1
102
RTVSPropertyOp29
 70
     1
102
RTVSPropertyOp30
 70
     1
102
RTVSPropertyOp31
 70
     1
102
RTVSPropertyOp32
 70
     1
  0
XRECORD
  5
3B5
102
{ACAD_REACTORS
330
3B4
102
}
330
3B4
100
AcDbXrecord
280
     1
102
RTVSPropertyOp0
 70
     0
102
RTVSPropertyOp1
 70
     0
102
RTVSPropertyOp2
 70
     0
102
RTVSPropertyOp3
 70
     0
102
RTVSPropertyOp4
 70
     0
102
RTVSPropertyOp5
 70
     0
102
RTVSPropertyOp6
 70
     0
102
RTVSPropertyOp7
 70
     0
102
RTVSPropertyOp8
 70
     0
102
RTVSPropertyOp9
 70
     0
102
RTVSPropertyOp10
 70
     0
102
RTVSPropertyOp11
 70
     0
102
RTVSPropertyOp12
 70
     0
102
RTVSPropertyOp13
 70
     0
102
RTVSPropertyOp14
 70
     2
102
RTVSPropertyOp15
 70
     0
102
RTVSPropertyOp16
 70
     0
102
RTVSPropertyOp17
 70
     0
102
RTVSPropertyOp18
 70
     0
102
RTVSPropertyOp19
 70
     0
102
RTVSPropertyOp20
 70
     0
102
RTVSPropertyOp21
 70
     0
102
RTVSPropertyOp22
 70
     0
102
RTVSPropertyOp23
 70
     0
102
RTVSPropertyOp24
 70
     0
102
RTVSPropertyOp25
 70
     0
102
RTVSPropertyOp26
 70
     0
102
RTVSPropertyOp27
 70
     0
102
RTVSPropertyOp28
 70
     0
102
RTVSPropertyOp29
 70
     0
102
RTVSPropertyOp30
 70
     0
102
RTVSPropertyOp31
 70
     0
102
RTVSPropertyOp32
 70
     0
  0
XRECORD
  5
3A3
102
{ACAD_REACTORS
330
3A2
102
}
330
3A2
100
AcDbXrecord
280
     1
102
RTVSPropertyOp0
 70
     1
102
RTVSPropertyOp1
 70
     1
102
RTVSPropertyOp2
 70
     1
102
RTVSPropertyOp3
 70
     1
102
RTVSPropertyOp4
 70
     1
102
RTVSPropertyOp5
 70
     1
102
RTVSPropertyOp6
 70
     1
102
RTVSPropertyOp7
 70
     1
102
RTVSPropertyOp8
 70
     1
102
RTVSPropertyOp9
 70
     1
102
RTVSPropertyOp10
 70
     1
102
RTVSPropertyOp11
 70
     1
102
RTVSPropertyOp12
 70
     1
102
RTVSPropertyOp13
 70
     1
102
RTVSPropertyOp14
 70
     1
102
RTVSPropertyOp15
 70
     1
102
RTVSPropertyOp16
 70
     1
102
RTVSPropertyOp17
 70
     1
102
RTVSPropertyOp18
 70
     1
102
RTVSPropertyOp19
 70
     1
102
RTVSPropertyOp20
 70
     1
102
RTVSPropertyOp21
 70
     1
102
RTVSPropertyOp22
 70
     1
102
RTVSPropertyOp23
 70
     1
102
RTVSPropertyOp24
 70
     1
102
RTVSPropertyOp25
 70
     1
102
RTVSPropertyOp26
 70
     1
102
RTVSPropertyOp27
 70
     1
102
RTVSPropertyOp28
 70
     1
102
RTVSPropertyOp29
 70
     1
102
RTVSPropertyOp30
 70
     1
102
RTVSPropertyOp31
 70
     1
102
RTVSPropertyOp32
 70
     1
  0
XRECORD
  5
387
102
{ACAD_REACTORS
330
386
102
}
330
386
100
AcDbXrecord
280
     1
102
RTVSPropertyOp0
 70
     1
102
RTVSPropertyOp1
 70
     1
102
RTVSPropertyOp2
 70
     1
102
RTVSPropertyOp3
 70
     1
102
RTVSPropertyOp4
 70
     1
102
RTVSPropertyOp5
 70
     1
102
RTVSPropertyOp6
 70
     1
102
RTVSPropertyOp7
 70
     1
102
RTVSPropertyOp8
 70
     1
102
RTVSPropertyOp9
 70
     1
102
RTVSPropertyOp10
 70
     1
102
RTVSPropertyOp11
 70
     1
102
RTVSPropertyOp12
 70
     1
102
RTVSPropertyOp13
 70
     1
102
RTVSPropertyOp14
 70
     1
102
RTVSPropertyOp15
 70
     1
102
RTVSPropertyOp16
 70
     1
102
RTVSPropertyOp17
 70
     1
102
RTVSPropertyOp18
 70
     1
102
RTVSPropertyOp19
 70
     1
102
RTVSPropertyOp20
 70
     1
102
RTVSPropertyOp21
 70
     1
102
RTVSPropertyOp22
 70
     1
102
RTVSPropertyOp23
 70
     1
102
RTVSPropertyOp24
 70
     1
102
RTVSPropertyOp25
 70
     1
102
RTVSPropertyOp26
 70
     1
102
RTVSPropertyOp27
 70
     1
102
RTVSPropertyOp28
 70
     1
102
RTVSPropertyOp29
 70
     1
102
RTVSPropertyOp30
 70
     1
102
RTVSPropertyOp31
 70
     1
102
RTVSPropertyOp32
 70
     1
  0
XRECORD
  5
389
102
{ACAD_REACTORS
330
388
102
}
330
388
100
AcDbXrecord
280
     1
102
RTVSPropertyOp0
 70
     1
102
RTVSPropertyOp1
 70
     1
102
RTVSPropertyOp2
 70
     1
102
RTVSPropertyOp3
 70
     1
102
RTVSPropertyOp4
 70
     1
102
RTVSPropertyOp5
 70
     1
102
RTVSPropertyOp6
 70
     1
102
RTVSPropertyOp7
 70
     1
102
RTVSPropertyOp8
 70
     1
102
RTVSPropertyOp9
 70
     1
102
RTVSPropertyOp10
 70
     1
102
RTVSPropertyOp11
 70
     1
102
RTVSPropertyOp12
 70
     1
102
RTVSPropertyOp13
 70
     1
102
RTVSPropertyOp14
 70
     1
102
RTVSPropertyOp15
 70
     1
102
RTVSPropertyOp16
 70
     1
102
RTVSPropertyOp17
 70
     1
102
RTVSPropertyOp18
 70
     1
102
RTVSPropertyOp19
 70
     1
102
RTVSPropertyOp20
 70
     1
102
RTVSPropertyOp21
 70
     1
102
RTVSPropertyOp22
 70
     1
102
RTVSPropertyOp23
 70
     1
102
RTVSPropertyOp24
 70
     1
102
RTVSPropertyOp25
 70
     1
102
RTVSPropertyOp26
 70
     1
102
RTVSPropertyOp27
 70
     1
102
RTVSPropertyOp28
 70
     1
102
RTVSPropertyOp29
 70
     1
102
RTVSPropertyOp30
 70
     1
102
RTVSPropertyOp31
 70
     1
102
RTVSPropertyOp32
 70
     1
  0
XRECORD
  5
38B
102
{ACAD_REACTORS
330
38A
102
}
330
38A
100
AcDbXrecord
280
     1
102
RTVSPropertyOp0
 70
     1
102
RTVSPropertyOp1
 70
     1
102
RTVSPropertyOp2
 70
     1
102
RTVSPropertyOp3
 70
     1
102
RTVSPropertyOp4
 70
     1
102
RTVSPropertyOp5
 70
     1
102
RTVSPropertyOp6
 70
     1
102
RTVSPropertyOp7
 70
     1
102
RTVSPropertyOp8
 70
     1
102
RTVSPropertyOp9
 70
     1
102
RTVSPropertyOp10
 70
     1
102
RTVSPropertyOp11
 70
     1
102
RTVSPropertyOp12
 70
     1
102
RTVSPropertyOp13
 70
     1
102
RTVSPropertyOp14
 70
     1
102
RTVSPropertyOp15
 70
     1
102
RTVSPropertyOp16
 70
     1
102
RTVSPropertyOp17
 70
     1
102
RTVSPropertyOp18
 70
     1
102
RTVSPropertyOp19
 70
     1
102
RTVSPropertyOp20
 70
     1
102
RTVSPropertyOp21
 70
     1
102
RTVSPropertyOp22
 70
     1
102
RTVSPropertyOp23
 70
     1
102
RTVSPropertyOp24
 70
     1
102
RTVSPropertyOp25
 70
     1
102
RTVSPropertyOp26
 70
     1
102
RTVSPropertyOp27
 70
     1
102
RTVSPropertyOp28
 70
     1
102
RTVSPropertyOp29
 70
     1
102
RTVSPropertyOp30
 70
     1
102
RTVSPropertyOp31
 70
     1
102
RTVSPropertyOp32
 70
     1
  0
XRECORD
  5
38D
102
{ACAD_REACTORS
330
38C
102
}
330
38C
100
AcDbXrecord
280
     1
102
RTVSPropertyOp0
 70
     1
102
RTVSPropertyOp1
 70
     1
102
RTVSPropertyOp2
 70
     1
102
RTVSPropertyOp3
 70
     1
102
RTVSPropertyOp4
 70
     1
102
RTVSPropertyOp5
 70
     1
102
RTVSPropertyOp6
 70
     1
102
RTVSPropertyOp7
 70
     1
102
RTVSPropertyOp8
 70
     1
102
RTVSPropertyOp9
 70
     1
102
RTVSPropertyOp10
 70
     1
102
RTVSPropertyOp11
 70
     1
102
RTVSPropertyOp12
 70
     1
102
RTVSPropertyOp13
 70
     1
102
RTVSPropertyOp14
 70
     1
102
RTVSPropertyOp15
 70
     1
102
RTVSPropertyOp16
 70
     1
102
RTVSPropertyOp17
 70
     1
102
RTVSPropertyOp18
 70
     1
102
RTVSPropertyOp19
 70
     1
102
RTVSPropertyOp20
 70
     1
102
RTVSPropertyOp21
 70
     1
102
RTVSPropertyOp22
 70
     1
102
RTVSPropertyOp23
 70
     1
102
RTVSPropertyOp24
 70
     1
102
RTVSPropertyOp25
 70
     1
102
RTVSPropertyOp26
 70
     1
102
RTVSPropertyOp27
 70
     1
102
RTVSPropertyOp28
 70
     1
102
RTVSPropertyOp29
 70
     1
102
RTVSPropertyOp30
 70
     1
102
RTVSPropertyOp31
 70
     1
102
RTVSPropertyOp32
 70
     1
  0
XRECORD
  5
395
102
{ACAD_REACTORS
330
394
102
}
330
394
100
AcDbXrecord
280
     1
102
RTVSPropertyOp0
 70
     1
102
RTVSPropertyOp1
 70
     1
102
RTVSPropertyOp2
 70
     1
102
RTVSPropertyOp3
 70
     1
102
RTVSPropertyOp4
 70
     1
102
RTVSPropertyOp5
 70
     1
102
RTVSPropertyOp6
 70
     1
102
RTVSPropertyOp7
 70
     1
102
RTVSPropertyOp8
 70
     1
102
RTVSPropertyOp9
 70
     1
102
RTVSPropertyOp10
 70
     1
102
RTVSPropertyOp11
 70
     1
102
RTVSPropertyOp12
 70
     1
102
RTVSPropertyOp13
 70
     1
102
RTVSPropertyOp14
 70
     1
102
RTVSPropertyOp15
 70
     1
102
RTVSPropertyOp16
 70
     1
102
RTVSPropertyOp17
 70
     1
102
RTVSPropertyOp18
 70
     1
102
RTVSPropertyOp19
 70
     1
102
RTVSPropertyOp20
 70
     1
102
RTVSPropertyOp21
 70
     1
102
RTVSPropertyOp22
 70
     1
102
RTVSPropertyOp23
 70
     1
102
RTVSPropertyOp24
 70
     1
102
RTVSPropertyOp25
 70
     1
102
RTVSPropertyOp26
 70
     1
102
RTVSPropertyOp27
 70
     1
102
RTVSPropertyOp28
 70
     1
102
RTVSPropertyOp29
 70
     1
102
RTVSPropertyOp30
 70
     1
102
RTVSPropertyOp31
 70
     1
102
RTVSPropertyOp32
 70
     1
  0
XRECORD
  5
3B1
102
{ACAD_REACTORS
330
3B0
102
}
330
3B0
100
AcDbXrecord
280
     1
102
RTVSPropertyOp0
 70
     0
102
RTVSPropertyOp1
 70
     0
102
RTVSPropertyOp2
 70
     0
102
RTVSPropertyOp3
 70
     0
102
RTVSPropertyOp4
 70
     0
102
RTVSPropertyOp5
 70
     0
102
RTVSPropertyOp6
 70
     0
102
RTVSPropertyOp7
 70
     0
102
RTVSPropertyOp8
 70
     0
102
RTVSPropertyOp9
 70
     0
102
RTVSPropertyOp10
 70
     0
102
RTVSPropertyOp11
 70
     0
102
RTVSPropertyOp12
 70
     0
102
RTVSPropertyOp13
 70
     0
102
RTVSPropertyOp14
 70
     2
102
RTVSPropertyOp15
 70
     0
102
RTVSPropertyOp16
 70
     0
102
RTVSPropertyOp17
 70
     0
102
RTVSPropertyOp18
 70
     0
102
RTVSPropertyOp19
 70
     0
102
RTVSPropertyOp20
 70
     0
102
RTVSPropertyOp21
 70
     0
102
RTVSPropertyOp22
 70
     0
102
RTVSPropertyOp23
 70
     0
102
RTVSPropertyOp24
 70
     0
102
RTVSPropertyOp25
 70
     0
102
RTVSPropertyOp26
 70
     0
102
RTVSPropertyOp27
 70
     0
102
RTVSPropertyOp28
 70
     0
102
RTVSPropertyOp29
 70
     0
102
RTVSPropertyOp30
 70
     0
102
RTVSPropertyOp31
 70
     0
102
RTVSPropertyOp32
 70
     0
  0
XRECORD
  5
3A1
102
{ACAD_REACTORS
330
3A0
102
}
330
3A0
100
AcDbXrecord
280
     1
102
RTVSPropertyOp0
 70
     1
102
RTVSPropertyOp1
 70
     1
102
RTVSPropertyOp2
 70
     1
102
RTVSPropertyOp3
 70
     1
102
RTVSPropertyOp4
 70
     1
102
RTVSPropertyOp5
 70
     1
102
RTVSPropertyOp6
 70
     1
102
RTVSPropertyOp7
 70
     1
102
RTVSPropertyOp8
 70
     1
102
RTVSPropertyOp9
 70
     1
102
RTVSPropertyOp10
 70
     1
102
RTVSPropertyOp11
 70
     1
102
RTVSPropertyOp12
 70
     1
102
RTVSPropertyOp13
 70
     1
102
RTVSPropertyOp14
 70
     1
102
RTVSPropertyOp15
 70
     1
102
RTVSPropertyOp16
 70
     1
102
RTVSPropertyOp17
 70
     1
102
RTVSPropertyOp18
 70
     1
102
RTVSPropertyOp19
 70
     1
102
RTVSPropertyOp20
 70
     1
102
RTVSPropertyOp21
 70
     1
102
RTVSPropertyOp22
 70
     1
102
RTVSPropertyOp23
 70
     1
102
RTVSPropertyOp24
 70
     1
102
RTVSPropertyOp25
 70
     1
102
RTVSPropertyOp26
 70
     1
102
RTVSPropertyOp27
 70
     1
102
RTVSPropertyOp28
 70
     1
102
RTVSPropertyOp29
 70
     1
102
RTVSPropertyOp30
 70
     1
102
RTVSPropertyOp31
 70
     1
102
RTVSPropertyOp32
 70
     1
  0
XRECORD
  5
3B3
102
{ACAD_REACTORS
330
3B2
102
}
330
3B2
100
AcDbXrecord
280
     1
102
RTVSPropertyOp0
 70
     0
102
RTVSPropertyOp1
 70
     0
102
RTVSPropertyOp2
 70
     0
102
RTVSPropertyOp3
 70
     0
102
RTVSPropertyOp4
 70
     0
102
RTVSPropertyOp5
 70
     0
102
RTVSPropertyOp6
 70
     0
102
RTVSPropertyOp7
 70
     0
102
RTVSPropertyOp8
 70
     0
102
RTVSPropertyOp9
 70
     0
102
RTVSPropertyOp10
 70
     0
102
RTVSPropertyOp11
 70
     0
102
RTVSPropertyOp12
 70
     0
102
RTVSPropertyOp13
 70
     0
102
RTVSPropertyOp14
 70
     2
102
RTVSPropertyOp15
 70
     0
102
RTVSPropertyOp16
 70
     0
102
RTVSPropertyOp17
 70
     0
102
RTVSPropertyOp18
 70
     0
102
RTVSPropertyOp19
 70
     0
102
RTVSPropertyOp20
 70
     0
102
RTVSPropertyOp21
 70
     0
102
RTVSPropertyOp22
 70
     0
102
RTVSPropertyOp23
 70
     0
102
RTVSPropertyOp24
 70
     0
102
RTVSPropertyOp25
 70
     0
102
RTVSPropertyOp26
 70
     0
102
RTVSPropertyOp27
 70
     0
102
RTVSPropertyOp28
 70
     0
102
RTVSPropertyOp29
 70
     0
102
RTVSPropertyOp30
 70
     0
102
RTVSPropertyOp31
 70
     0
102
RTVSPropertyOp32
 70
     0
  0
XRECORD
  5
399
102
{ACAD_REACTORS
330
398
102
}
330
398
100
AcDbXrecord
280
     1
102
RTVSPropertyOp0
 70
     1
102
RTVSPropertyOp1
 70
     1
102
RTVSPropertyOp2
 70
     1
102
RTVSPropertyOp3
 70
     1
102
RTVSPropertyOp4
 70
     1
102
RTVSPropertyOp5
 70
     1
102
RTVSPropertyOp6
 70
     1
102
RTVSPropertyOp7
 70
     1
102
RTVSPropertyOp8
 70
     1
102
RTVSPropertyOp9
 70
     1
102
RTVSPropertyOp10
 70
     1
102
RTVSPropertyOp11
 70
     1
102
RTVSPropertyOp12
 70
     1
102
RTVSPropertyOp13
 70
     1
102
RTVSPropertyOp14
 70
     1
102
RTVSPropertyOp15
 70
     1
102
RTVSPropertyOp16
 70
     1
102
RTVSPropertyOp17
 70
     1
102
RTVSPropertyOp18
 70
     1
102
RTVSPropertyOp19
 70
     1
102
RTVSPropertyOp20
 70
     1
102
RTVSPropertyOp21
 70
     1
102
RTVSPropertyOp22
 70
     1
102
RTVSPropertyOp23
 70
     1
102
RTVSPropertyOp24
 70
     1
102
RTVSPropertyOp25
 70
     1
102
RTVSPropertyOp26
 70
     1
102
RTVSPropertyOp27
 70
     1
102
RTVSPropertyOp28
 70
     1
102
RTVSPropertyOp29
 70
     1
102
RTVSPropertyOp30
 70
     1
102
RTVSPropertyOp31
 70
     1
102
RTVSPropertyOp32
 70
     1
  0
XRECORD
  5
3AF
102
{ACAD_REACTORS
330
3AE
102
}
330
3AE
100
AcDbXrecord
280
     1
102
RTVSPropertyOp0
 70
     1
102
RTVSPropertyOp1
 70
     1
102
RTVSPropertyOp2
 70
     1
102
RTVSPropertyOp3
 70
     1
102
RTVSPropertyOp4
 70
     1
102
RTVSPropertyOp5
 70
     1
102
RTVSPropertyOp6
 70
     1
102
RTVSPropertyOp7
 70
     1
102
RTVSPropertyOp8
 70
     1
102
RTVSPropertyOp9
 70
     1
102
RTVSPropertyOp10
 70
     1
102
RTVSPropertyOp11
 70
     1
102
RTVSPropertyOp12
 70
     1
102
RTVSPropertyOp13
 70
     1
102
RTVSPropertyOp14
 70
     1
102
RTVSPropertyOp15
 70
     1
102
RTVSPropertyOp16
 70
     1
102
RTVSPropertyOp17
 70
     1
102
RTVSPropertyOp18
 70
     1
102
RTVSPropertyOp19
 70
     1
102
RTVSPropertyOp20
 70
     1
102
RTVSPropertyOp21
 70
     1
102
RTVSPropertyOp22
 70
     1
102
RTVSPropertyOp23
 70
     1
102
RTVSPropertyOp24
 70
     1
102
RTVSPropertyOp25
 70
     1
102
RTVSPropertyOp26
 70
     1
102
RTVSPropertyOp27
 70
     1
102
RTVSPropertyOp28
 70
     1
102
RTVSPropertyOp29
 70
     1
102
RTVSPropertyOp30
 70
     1
102
RTVSPropertyOp31
 70
     1
102
RTVSPropertyOp32
 70
     1
  0
XRECORD
  5
3AD
102
{ACAD_REACTORS
330
3AC
102
}
330
3AC
100
AcDbXrecord
280
     1
102
RTVSPropertyOp0
 70
     1
102
RTVSPropertyOp1
 70
     1
102
RTVSPropertyOp2
 70
     1
102
RTVSPropertyOp3
 70
     1
102
RTVSPropertyOp4
 70
     1
102
RTVSPropertyOp5
 70
     1
102
RTVSPropertyOp6
 70
     1
102
RTVSPropertyOp7
 70
     1
102
RTVSPropertyOp8
 70
     1
102
RTVSPropertyOp9
 70
     1
102
RTVSPropertyOp10
 70
     1
102
RTVSPropertyOp11
 70
     1
102
RTVSPropertyOp12
 70
     1
102
RTVSPropertyOp13
 70
     1
102
RTVSPropertyOp14
 70
     1
102
RTVSPropertyOp15
 70
     1
102
RTVSPropertyOp16
 70
     1
102
RTVSPropertyOp17
 70
     1
102
RTVSPropertyOp18
 70
     1
102
RTVSPropertyOp19
 70
     1
102
RTVSPropertyOp20
 70
     1
102
RTVSPropertyOp21
 70
     1
102
RTVSPropertyOp22
 70
     1
102
RTVSPropertyOp23
 70
     1
102
RTVSPropertyOp24
 70
     1
102
RTVSPropertyOp25
 70
     1
102
RTVSPropertyOp26
 70
     1
102
RTVSPropertyOp27
 70
     1
102
RTVSPropertyOp28
 70
     1
102
RTVSPropertyOp29
 70
     1
102
RTVSPropertyOp30
 70
     1
102
RTVSPropertyOp31
 70
     1
102
RTVSPropertyOp32
 70
     1
  0
XRECORD
  5
3A7
102
{ACAD_REACTORS
330
3A6
102
}
330
3A6
100
AcDbXrecord
280
     1
102
RTVSPropertyOp0
 70
     1
102
RTVSPropertyOp1
 70
     1
102
RTVSPropertyOp2
 70
     1
102
RTVSPropertyOp3
 70
     1
102
RTVSPropertyOp4
 70
     1
102
RTVSPropertyOp5
 70
     1
102
RTVSPropertyOp6
 70
     1
102
RTVSPropertyOp7
 70
     1
102
RTVSPropertyOp8
 70
     1
102
RTVSPropertyOp9
 70
     1
102
RTVSPropertyOp10
 70
     1
102
RTVSPropertyOp11
 70
     1
102
RTVSPropertyOp12
 70
     1
102
RTVSPropertyOp13
 70
     1
102
RTVSPropertyOp14
 70
     1
102
RTVSPropertyOp15
 70
     1
102
RTVSPropertyOp16
 70
     1
102
RTVSPropertyOp17
 70
     1
102
RTVSPropertyOp18
 70
     1
102
RTVSPropertyOp19
 70
     1
102
RTVSPropertyOp20
 70
     1
102
RTVSPropertyOp21
 70
     1
102
RTVSPropertyOp22
 70
     1
102
RTVSPropertyOp23
 70
     1
102
RTVSPropertyOp24
 70
     1
102
RTVSPropertyOp25
 70
     1
102
RTVSPropertyOp26
 70
     1
102
RTVSPropertyOp27
 70
     1
102
RTVSPropertyOp28
 70
     1
102
RTVSPropertyOp29
 70
     1
102
RTVSPropertyOp30
 70
     1
102
RTVSPropertyOp31
 70
     1
102
RTVSPropertyOp32
 70
     1
  0
XRECORD
  5
3A9
102
{ACAD_REACTORS
330
3A8
102
}
330
3A8
100
AcDbXrecord
280
     1
102
RTVSPropertyOp0
 70
     1
102
RTVSPropertyOp1
 70
     1
102
RTVSPropertyOp2
 70
     1
102
RTVSPropertyOp3
 70
     1
102
RTVSPropertyOp4
 70
     1
102
RTVSPropertyOp5
 70
     1
102
RTVSPropertyOp6
 70
     1
102
RTVSPropertyOp7
 70
     1
102
RTVSPropertyOp8
 70
     1
102
RTVSPropertyOp9
 70
     1
102
RTVSPropertyOp10
 70
     1
102
RTVSPropertyOp11
 70
     1
102
RTVSPropertyOp12
 70
     1
102
RTVSPropertyOp13
 70
     1
102
RTVSPropertyOp14
 70
     1
102
RTVSPropertyOp15
 70
     1
102
RTVSPropertyOp16
 70
     1
102
RTVSPropertyOp17
 70
     1
102
RTVSPropertyOp18
 70
     1
102
RTVSPropertyOp19
 70
     1
102
RTVSPropertyOp20
 70
     1
102
RTVSPropertyOp21
 70
     1
102
RTVSPropertyOp22
 70
     1
102
RTVSPropertyOp23
 70
     1
102
RTVSPropertyOp24
 70
     1
102
RTVSPropertyOp25
 70
     1
102
RTVSPropertyOp26
 70
     1
102
RTVSPropertyOp27
 70
     1
102
RTVSPropertyOp28
 70
     1
102
RTVSPropertyOp29
 70
     1
102
RTVSPropertyOp30
 70
     1
102
RTVSPropertyOp31
 70
     1
102
RTVSPropertyOp32
 70
     1
  0
XRECORD
  5
39F
102
{ACAD_REACTORS
330
39E
102
}
330
39E
100
AcDbXrecord
280
     1
102
RTVSPropertyOp0
 70
     1
102
RTVSPropertyOp1
 70
     1
102
RTVSPropertyOp2
 70
     1
102
RTVSPropertyOp3
 70
     1
102
RTVSPropertyOp4
 70
     1
102
RTVSPropertyOp5
 70
     1
102
RTVSPropertyOp6
 70
     1
102
RTVSPropertyOp7
 70
     1
102
RTVSPropertyOp8
 70
     1
102
RTVSPropertyOp9
 70
     1
102
RTVSPropertyOp10
 70
     1
102
RTVSPropertyOp11
 70
     1
102
RTVSPropertyOp12
 70
     1
102
RTVSPropertyOp13
 70
     1
102
RTVSPropertyOp14
 70
     1
102
RTVSPropertyOp15
 70
     1
102
RTVSPropertyOp16
 70
     1
102
RTVSPropertyOp17
 70
     1
102
RTVSPropertyOp18
 70
     1
102
RTVSPropertyOp19
 70
     1
102
RTVSPropertyOp20
 70
     1
102
RTVSPropertyOp21
 70
     1
102
RTVSPropertyOp22
 70
     1
102
RTVSPropertyOp23
 70
     1
102
RTVSPropertyOp24
 70
     1
102
RTVSPropertyOp25
 70
     1
102
RTVSPropertyOp26
 70
     1
102
RTVSPropertyOp27
 70
     1
102
RTVSPropertyOp28
 70
     1
102
RTVSPropertyOp29
 70
     1
102
RTVSPropertyOp30
 70
     1
102
RTVSPropertyOp31
 70
     1
102
RTVSPropertyOp32
 70
     1
  0
XRECORD
  5
393
102
{ACAD_REACTORS
330
392
102
}
330
392
100
AcDbXrecord
280
     1
102
RTVSPropertyOp0
 70
     1
102
RTVSPropertyOp1
 70
     1
102
RTVSPropertyOp2
 70
     1
102
RTVSPropertyOp3
 70
     1
102
RTVSPropertyOp4
 70
     1
102
RTVSPropertyOp5
 70
     1
102
RTVSPropertyOp6
 70
     1
102
RTVSPropertyOp7
 70
     1
102
RTVSPropertyOp8
 70
     1
102
RTVSPropertyOp9
 70
     1
102
RTVSPropertyOp10
 70
     1
102
RTVSPropertyOp11
 70
     1
102
RTVSPropertyOp12
 70
     1
102
RTVSPropertyOp13
 70
     1
102
RTVSPropertyOp14
 70
     1
102
RTVSPropertyOp15
 70
     1
102
RTVSPropertyOp16
 70
     1
102
RTVSPropertyOp17
 70
     1
102
RTVSPropertyOp18
 70
     1
102
RTVSPropertyOp19
 70
     1
102
RTVSPropertyOp20
 70
     1
102
RTVSPropertyOp21
 70
     1
102
RTVSPropertyOp22
 70
     1
102
RTVSPropertyOp23
 70
     1
102
RTVSPropertyOp24
 70
     1
102
RTVSPropertyOp25
 70
     1
102
RTVSPropertyOp26
 70
     1
102
RTVSPropertyOp27
 70
     1
102
RTVSPropertyOp28
 70
     1
102
RTVSPropertyOp29
 70
     1
102
RTVSPropertyOp30
 70
     1
102
RTVSPropertyOp31
 70
     1
102
RTVSPropertyOp32
 70
     1
  0
XRECORD
  5
3AB
102
{ACAD_REACTORS
330
3AA
102
}
330
3AA
100
AcDbXrecord
280
     1
102
RTVSPropertyOp0
 70
     1
102
RTVSPropertyOp1
 70
     1
102
RTVSPropertyOp2
 70
     1
102
RTVSPropertyOp3
 70
     1
102
RTVSPropertyOp4
 70
     1
102
RTVSPropertyOp5
 70
     1
102
RTVSPropertyOp6
 70
     1
102
RTVSPropertyOp7
 70
     1
102
RTVSPropertyOp8
 70
     1
102
RTVSPropertyOp9
 70
     1
102
RTVSPropertyOp10
 70
     1
102
RTVSPropertyOp11
 70
     1
102
RTVSPropertyOp12
 70
     1
102
RTVSPropertyOp13
 70
     1
102
RTVSPropertyOp14
 70
     1
102
RTVSPropertyOp15
 70
     1
102
RTVSPropertyOp16
 70
     1
102
RTVSPropertyOp17
 70
     1
102
RTVSPropertyOp18
 70
     1
102
RTVSPropertyOp19
 70
     1
102
RTVSPropertyOp20
 70
     1
102
RTVSPropertyOp21
 70
     1
102
RTVSPropertyOp22
 70
     1
102
RTVSPropertyOp23
 70
     1
102
RTVSPropertyOp24
 70
     1
102
RTVSPropertyOp25
 70
     1
102
RTVSPropertyOp26
 70
     1
102
RTVSPropertyOp27
 70
     1
102
RTVSPropertyOp28
 70
     1
102
RTVSPropertyOp29
 70
     1
102
RTVSPropertyOp30
 70
     1
102
RTVSPropertyOp31
 70
     1
102
RTVSPropertyOp32
 70
     1
  0
ENDSEC
  0
EOF
