  0
SECTION
  2
HEADER
  9
$ACADVER
  1
AC1009
  9
$INSBASE
 10
0.0
 20
0.0
 30
0.0
  9
$EXTMIN
 10
-0.0159789100282524
 20
-0.0104744821015857
 30
-0.0015258207003583
  9
$EXTMAX
 10
523.64328210670851
 20
382.75630389799289
 30
0.0000000349246037
  9
$LIMMIN
 10
0.0
 20
0.0
  9
$LIMMAX
 10
12.0
 20
9.0
  9
$ORTHOMODE
 70
     1
  9
$REGENMODE
 70
     1
  9
$FILLMODE
 70
     1
  9
$QTEXTMODE
 70
     0
  9
$MIRRTEXT
 70
     0
  9
$DRAGMODE
 70
     2
  9
$LTSCALE
 40
1.0
  9
$OSMODE
 70
    37
  9
$ATTMODE
 70
     1
  9
$TEXTSIZE
 40
0.2
  9
$TRACEWID
 40
0.05
  9
$TEXTSTYLE
  7
ROMANS
  9
$CLAYER
  8
0
  9
$CELTYPE
  6
BYLAYER
  9
$CECOLOR
 62
   256
  9
$DIMSCALE
 40
1.0
  9
$DIMASZ
 40
0.09375
  9
$DIMEXO
 40
0.0625
  9
$DIMDLI
 40
0.375
  9
$DIMRND
 40
0.0
  9
$DIMDLE
 40
0.0
  9
$DIMEXE
 40
0.03125
  9
$DIMTP
 40
0.0
  9
$DIMTM
 40
0.0
  9
$DIMTXT
 40
0.09375
  9
$DIMCEN
 40
0.09375
  9
$DIMTSZ
 40
0.0
  9
$DIMTOL
 70
     0
  9
$DIMLIM
 70
     0
  9
$DIMTIH
 70
     0
  9
$DIMTOH
 70
     0
  9
$DIMSE1
 70
     0
  9
$DIMSE2
 70
     0
  9
$DIMTAD
 70
     0
  9
$DIMZIN
 70
     0
  9
$DIMBLK
  1

  9
$DIMASO
 70
     1
  9
$DIMSHO
 70
     1
  9
$DIMPOST
  1

  9
$DIMAPOST
  1

  9
$DIMALT
 70
     0
  9
$DIMALTD
 70
     2
  9
$DIMALTF
 40
25.399999999999999
  9
$DIMLFAC
 40
1.0
  9
$DIMTOFL
 70
     0
  9
$DIMTVP
 40
0.0
  9
$DIMTIX
 70
     0
  9
$DIMSOXD
 70
     0
  9
$DIMSAH
 70
     0
  9
$DIMBLK1
  1

  9
$DIMBLK2
  1

  9
$DIMSTYLE
  2
BAC
  9
$DIMCLRD
 70
     0
  9
$DIMCLRE
 70
     6
  9
$DIMCLRT
 70
     0
  9
$DIMTFAC
 40
1.0
  9
$DIMGAP
 40
0.0625
  9
$LUNITS
 70
     5
  9
$LUPREC
 70
     6
  9
$SKETCHINC
 40
0.1
  9
$FILLETRAD
 40
0.5
  9
$AUNITS
 70
     0
  9
$AUPREC
 70
     0
  9
$MENU
  1
.
  9
$ELEVATION
 40
0.0
  9
$PELEVATION
 40
0.0
  9
$THICKNESS
 40
0.0
  9
$LIMCHECK
 70
     0
  9
$BLIPMODE
 70
     0
  9
$CHAMFERA
 40
0.5
  9
$CHAMFERB
 40
0.5
  9
$SKPOLY
 70
     0
  9
$TDCREATE
 40
2456834.6121795261
  9
$TDUPDATE
 40
2456834.6147146299
  9
$TDINDWG
 40
0.002536875
  9
$TDUSRTIMER
 40
0.0025362963
  9
$USRTIMER
 70
     1
  9
$ANGBASE
 50
0.0
  9
$ANGDIR
 70
     0
  9
$PDMODE
 70
     0
  9
$PDSIZE
 40
0.0
  9
$PLINEWID
 40
0.0
  9
$COORDS
 70
     1
  9
$SPLFRAME
 70
     0
  9
$SPLINETYPE
 70
     6
  9
$SPLINESEGS
 70
     8
  9
$ATTDIA
 70
     0
  9
$ATTREQ
 70
     1
  9
$HANDLING
 70
     1
  9
$HANDSEED
  5
940
  9
$SURFTAB1
 70
     6
  9
$SURFTAB2
 70
     6
  9
$SURFTYPE
 70
     6
  9
$SURFU
 70
     6
  9
$SURFV
 70
     6
  9
$UCSNAME
  2

  9
$UCSORG
 10
0.0
 20
0.0
 30
0.0
  9
$UCSXDIR
 10
1.0
 20
0.0
 30
0.0
  9
$UCSYDIR
 10
0.0
 20
1.0
 30
0.0
  9
$PUCSNAME
  2

  9
$PUCSORG
 10
0.0
 20
0.0
 30
0.0
  9
$PUCSXDIR
 10
1.0
 20
0.0
 30
0.0
  9
$PUCSYDIR
 10
0.0
 20
1.0
 30
0.0
  9
$USERI1
 70
     0
  9
$USERI2
 70
     0
  9
$USERI3
 70
     0
  9
$USERI4
 70
     0
  9
$USERI5
 70
     0
  9
$USERR1
 40
0.0
  9
$USERR2
 40
0.0
  9
$USERR3
 40
0.0
  9
$USERR4
 40
0.0
  9
$USERR5
 40
0.0
  9
$WORLDVIEW
 70
     1
  9
$SHADEDGE
 70
     3
  9
$SHADEDIF
 70
    70
  9
$TILEMODE
 70
     1
  9
$MAXACTVP
 70
    48
  9
$PLIMCHECK
 70
     0
  9
$PEXTMIN
 10
1.0000000000000000E+020
 20
1.0000000000000000E+020
 30
1.0000000000000000E+020
  9
$PEXTMAX
 10
-1.0000000000000000E+020
 20
-1.0000000000000000E+020
 30
-1.0000000000000000E+020
  9
$PLIMMIN
 10
0.0
 20
0.0
  9
$PLIMMAX
 10
12.0
 20
9.0
  9
$UNITMODE
 70
     0
  9
$VISRETAIN
 70
     1
  9
$PLINEGEN
 70
     0
  9
$PSLTSCALE
 70
     1
  0
ENDSEC
  0
SECTION
  2
TABLES
  0
TABLE
  2
VPORT
 70
     1
  0
VPORT
  2
*ACTIVE
 70
     0
 10
0.0
 20
0.0
 11
1.0
 21
1.0
 12
261.81365159834007
 22
191.37291470794571
 13
0.0
 23
0.0
 14
0.5
 24
0.5
 15
0.5
 25
0.5
 16
0.0
 26
0.0
 36
1.0
 17
0.0
 27
0.0
 37
0.0
 40
385.31289885712403
 41
1.7702552719200879
 42
50.0
 43
0.0
 44
0.0
 50
0.0
 51
0.0
 71
     0
 72
   100
 73
     1
 74
     1
 75
     0
 76
     0
 77
     0
 78
     0
  0
ENDTAB
  0
TABLE
  2
LTYPE
 70
    20
  0
LTYPE
  2
CONTINUOUS
 70
     0
  3
Solid line
 72
    65
 73
     0
 40
0.0
  0
LTYPE
  2
CENTER
 70
     0
  3
Center ____ _ ____ _ ____ _ ____ _ ____ _ ____
 72
    65
 73
     4
 40
2.0
 49
1.25
 49
-0.25
 49
0.25
 49
-0.25
  0
LTYPE
  2
CENTER2
 70
     0
  3
Center (.5x) ___ _ ___ _ ___ _ ___ _ ___ _ ___
 72
    65
 73
     4
 40
1.125
 49
0.75
 49
-0.125
 49
0.125
 49
-0.125
  0
LTYPE
  2
HIDDEN
 70
     0
  3
Hidden __ __ __ __ __ __ __ __ __ __ __ __ __ _
 72
    65
 73
     2
 40
0.375
 49
0.25
 49
-0.125
  0
LTYPE
  2
HIDDEN2
 70
     0
  3
Hidden (.5x) _ _ _ _ _ _ _ _ _ _ _ _ _ _ _ _ _
 72
    65
 73
     2
 40
0.1875
 49
0.125
 49
-0.0625
  0
LTYPE
  2
PHANTOM2
 70
     0
  3
Phantom (.5x) ___ _ _ ___ _ _ ___ _ _ ___ _ _
 72
    65
 73
     6
 40
1.25
 49
0.625
 49
-0.125
 49
0.125
 49
-0.125
 49
0.125
 49
-0.125
  0
LTYPE
  2
AMCONSTR
 70
     0
  3
_______________________
 72
    65
 73
     2
 40
9999.0
 49
9999.0
 49
0.0
  0
LTYPE
  2
AMZIGZAG2
 70
     0
  3
/\/-/\/-/\/-/\/-/\/-/\/
 72
    65
 73
     2
 40
0.4401
 49
0.0001
 49
-0.4400000000000001
  0
LTYPE
  2
ACANSTGB
 70
     0
  3
__ . . __ . .
 72
    65
 73
     6
 40
0.35433070866
 49
0.15748031496
 49
-0.03937007874
 49
0.03937007874
 49
-0.03937007874
 49
0.03937007874
 49
-0.03937007874
  0
LTYPE
  2
ACANSTGL
 70
     0
  3
_ _ _ _ _
 72
    65
 73
     2
 40
0.11811023622
 49
0.07874015748
 49
-0.03937007874
  0
ENDTAB
  0
TABLE
  2
LAYER
 70
     8
  0
LAYER
  2
0
 70
     0
 62
     7
  6
CONTINUOUS
  0
ENDTAB
  0
TABLE
  2
STYLE
 70
    11
  0
STYLE
  2
STANDARD
 70
     0
 40
0.0
 41
1.0
 50
0.0
 71
     0
 42
0.2
  3
txt
  4

  0
STYLE
  2
ROMANS
 70
     0
 40
0.0
 41
0.75
 50
0.0
 71
     0
 42
0.2
  3
romans.shx
  4

  0
STYLE
  2

 70
     1
 40
0.0
 41
1.0
 50
0.0
 71
     0
 42
0.2
  3
genltshp.shx
  4

  0
STYLE
  2
ACANSGDT
 70
     0
 40
0.0
 41
1.0
 50
0.0
 71
     0
 42
0.2
  3
amgdt.shx
  4

  0
ENDTAB
  0
TABLE
  2
VIEW
 70
     0
  0
ENDTAB
  0
TABLE
  2
UCS
 70
     0
  0
ENDTAB
  0
TABLE
  2
APPID
 70
    15
  0
APPID
  2
ACAD
 70
     0
  0
APPID
  2
ACAD_MLEADERVER
 70
     0
  0
APPID
  2
ACAD_DSTYLE_DIMJAG
 70
     0
  0
APPID
  2
ACAD_DSTYLE_DIMTALN
 70
     0
  0
APPID
  2
ACAD_PSEXT
 70
     0
  0
APPID
  2
ACADANNOPO
 70
     0
  0
APPID
  2
MCAD_NO_VIS
 70
     0
  0
APPID
  2
ACAD_TEMP_GRAPHIC
 70
     0
  0
APPID
  2
ACATTRIBSERVICES
 70
     0
  0
APPID
  2
DESIGNERASSEMBLIES
 70
     0
  0
APPID
  2
ACAD_DSTYLE_DIMBREAK
 70
     0
  0
APPID
  2
ACAD_NAV_VCDISPLAY
 70
     0
  0
APPID
  2
GRADIENTCOLOR1ACI
 70
     0
  0
APPID
  2
GRADIENTCOLOR2ACI
 70
     0
  0
APPID
  2
ACAD_EXEMPT_FROM_CAD_STANDARDS
 70
     0
  0
ENDTAB
  0
TABLE
  2
DIMSTYLE
 70
    14
  0
DIMSTYLE
  2
BAC
 70
     0
  3

  4

  5

  6

  7

 40
1.0
 41
0.09375
 42
0.0625
 43
0.375
 44
0.03125
 45
0.0
 46
0.0
 47
0.0
 48
0.0
140
0.09375
141
0.09375
142
0.0
143
25.399999999999999
144
1.0
145
0.0
146
1.0
147
0.0625
 71
     0
 72
     0
 73
     0
 74
     0
 75
     0
 76
     0
 77
     0
 78
     0
170
     0
171
     2
172
     0
173
     0
174
     0
175
     0
176
     0
177
     6
178
     0
  0
DIMSTYLE
  2
AM_ANSI
 70
     0
  3

  4
mm
  5

  6

  7

 40
1.0
 41
0.12
 42
0.05
 43
0.5
 44
0.1
 45
0.0
 46
0.0
 47
0.1
 48
0.1
140
0.12
141
0.0
142
0.0
143
25.399999999999999
144
1.0
145
0.0
146
0.71
147
0.06
 71
     0
 72
     0
 73
     1
 74
     1
 75
     0
 76
     0
 77
     0
 78
     7
170
     0
171
     2
172
     0
173
     0
174
     0
175
     0
176
   256
177
   256
178
     2
  0
DIMSTYLE
  2
AM_ANSI$3
 70
     0
  3

  4
mm
  5

  6

  7

 40
1.0
 41
0.12
 42
0.05
 43
0.5
 44
0.1
 45
0.0
 46
0.0
 47
0.1
 48
0.1
140
0.12
141
0.0
142
0.0
143
25.399999999999999
144
1.0
145
0.0
146
0.71
147
0.06
 71
     0
 72
     0
 73
     1
 74
     1
 75
     0
 76
     0
 77
     0
 78
     7
170
     0
171
     2
172
     0
173
     0
174
     0
175
     0
176
   256
177
   256
178
     2
  0
DIMSTYLE
  2
AM_ANSI$4
 70
     0
  3

  4
mm
  5

  6

  7

 40
1.0
 41
0.12
 42
0.05
 43
0.5
 44
0.1
 45
0.0
 46
0.0
 47
0.1
 48
0.1
140
0.12
141
0.0
142
0.0
143
25.399999999999999
144
1.0
145
0.0
146
0.71
147
0.06
 71
     0
 72
     0
 73
     1
 74
     1
 75
     0
 76
     0
 77
     0
 78
     7
170
     0
171
     2
172
     0
173
     0
174
     0
175
     0
176
   256
177
   256
178
     2
  0
DIMSTYLE
  2
AM_ANSI$7
 70
     0
  3

  4
mm
  5

  6

  7

 40
1.0
 41
0.12
 42
0.05
 43
0.5
 44
0.1
 45
0.0
 46
0.0
 47
0.1
 48
0.1
140
0.12
141
0.0
142
0.0
143
25.399999999999999
144
1.0
145
0.0
146
0.71
147
0.06
 71
     0
 72
     0
 73
     1
 74
     1
 75
     0
 76
     0
 77
     0
 78
     7
170
     0
171
     2
172
     0
173
     0
174
     0
175
     0
176
   256
177
   256
178
     2
  0
DIMSTYLE
  2
AM_ANSI$SF
 70
     0
  3

  4
mm
  5

  6

  7

 40
1.0
 41
0.12
 42
0.05
 43
0.5
 44
0.1
 45
0.0
 46
0.0
 47
0.1
 48
0.1
140
0.12
141
0.0
142
0.0
143
25.399999999999999
144
1.0
145
0.0
146
0.71
147
0.06
 71
     0
 72
     0
 73
     1
 74
     1
 75
     1
 76
     1
 77
     0
 78
     7
170
     0
171
     2
172
     0
173
     0
174
     0
175
     0
176
   256
177
   256
178
     2
  0
DIMSTYLE
  2
AM_ANSI$SH
 70
     0
  3

  4
mm
  5

  6
GENAXEH
  7

 40
1.0
 41
0.12
 42
0.05
 43
0.5
 44
0.1
 45
0.0
 46
0.0
 47
0.1
 48
0.1
140
0.12
141
0.0
142
0.0
143
25.399999999999999
144
1.0
145
0.0
146
0.71
147
0.06
 71
     0
 72
     0
 73
     1
 74
     1
 75
     1
 76
     1
 77
     0
 78
     7
170
     0
171
     2
172
     0
173
     1
174
     0
175
     0
176
   256
177
   256
178
     2
  0
DIMSTYLE
  2
STANDARD
 70
     0
  3

  4

  5

  6

  7

 40
1.0
 41
0.18
 42
0.0625
 43
0.38
 44
0.18
 45
0.0
 46
0.0
 47
0.0
 48
0.0
140
0.18
141
0.09
142
0.0
143
25.399999999999999
144
1.0
145
0.0
146
1.0
147
0.09
 71
     0
 72
     0
 73
     1
 74
     1
 75
     0
 76
     0
 77
     0
 78
     0
170
     0
171
     2
172
     0
173
     0
174
     0
175
     0
176
     0
177
     0
178
     0
  0
ENDTAB
  0
ENDSEC
  0
SECTION
  2
BLOCKS
  0
BLOCK
  8
0
  2
$MODEL_SPACE
 70
     0
 10
0.0
 20
0.0
 30
0.0
  3
$MODEL_SPACE
  1

  0
ENDBLK
  5
1A
  8
0
  0
BLOCK
 67
     1
  8
0
  2
$PAPER_SPACE
 70
     0
 10
0.0
 20
0.0
 30
0.0
  3
$PAPER_SPACE
  1

  0
ENDBLK
  5
17
 67
     1
  8
0
  0
BLOCK
  8
0
  2
*U0
 70
     1
 10
0.0
 20
0.0
 30
0.0
  3
*U0
  1

  0
ENDBLK
  5
17A
  8
0
  0
BLOCK
  8
0
  2
GENAXEH
 70
     0
 10
0.0
 20
0.0
 30
0.0
  3
GENAXEH
  1

  0
LINE
  5
1AD
  8
0
 10
-1.0
 20
0.0
 30
0.0
 11
1.0
 21
0.0
 31
0.0
  0
ENDBLK
  5
1AF
  8
0
  0
BLOCK
  8
0
  2
*X4
 70
     1
 10
0.0
 20
0.0
 30
0.0
  3
*X4
  1

  0
LINE
  5
818
  8
0
 62
     0
 10
522.0
 20
4.0000045037580056
 30
0.0
 11
522.0
 21
79.125004503758561
 31
0.0
  0
LINE
  5
819
  8
0
 62
     0
 10
520.5
 20
4.0000045037579897
 30
0.0
 11
520.5
 21
79.125004503758547
 31
0.0
  0
LINE
  5
81A
  8
0
 62
     0
 10
519.0
 20
4.0000045037579746
 30
0.0
 11
519.0
 21
79.125004503758532
 31
0.0
  0
LINE
  5
81B
  8
0
 62
     0
 10
517.49999999999989
 20
4.0000045037579586
 30
0.0
 11
517.49999999999989
 21
79.125004503758504
 31
0.0
  0
LINE
  5
81C
  8
0
 62
     0
 10
516.0
 20
4.0000045037579444
 30
0.0
 11
516.0
 21
79.125004503758504
 31
0.0
  0
LINE
  5
81D
  8
0
 62
     0
 10
514.5
 20
4.0000045037579284
 30
0.0
 11
514.5
 21
79.12500450375849
 31
0.0
  0
LINE
  5
81E
  8
0
 62
     0
 10
513.0
 20
4.0000045037579133
 30
0.0
 11
513.0
 21
79.125004503758475
 31
0.0
  0
LINE
  5
81F
  8
0
 62
     0
 10
511.5
 20
4.0000045037578973
 30
0.0
 11
511.5
 21
79.125004503758461
 31
0.0
  0
LINE
  5
820
  8
0
 62
     0
 10
510.0
 20
4.0000045037578813
 30
0.0
 11
510.0
 21
79.125004503758433
 31
0.0
  0
LINE
  5
821
  8
0
 62
     0
 10
508.49999999999989
 20
4.0000045037578662
 30
0.0
 11
508.49999999999989
 21
79.125004503758419
 31
0.0
  0
LINE
  5
822
  8
0
 62
     0
 10
507.0
 20
4.0000045037578502
 30
0.0
 11
507.0
 21
79.125004503758404
 31
0.0
  0
LINE
  5
823
  8
0
 62
     0
 10
505.49999999999989
 20
4.0000045037578351
 30
0.0
 11
505.49999999999989
 21
79.12500450375839
 31
0.0
  0
LINE
  5
824
  8
0
 62
     0
 10
504.0
 20
4.0000045037578191
 30
0.0
 11
504.0
 21
79.125004503758376
 31
0.0
  0
LINE
  5
825
  8
0
 62
     0
 10
502.5
 20
4.0000045037578031
 30
0.0
 11
502.5
 21
79.125004503758362
 31
0.0
  0
LINE
  5
826
  8
0
 62
     0
 10
501.0
 20
4.000004503757788
 30
0.0
 11
501.0
 21
79.125004503758333
 31
0.0
  0
LINE
  5
827
  8
0
 62
     0
 10
499.5
 20
4.0000045037577721
 30
0.0
 11
499.5
 21
79.125004503758333
 31
0.0
  0
LINE
  5
828
  8
0
 62
     0
 10
498.0
 20
4.0000045037577561
 30
0.0
 11
498.0
 21
79.125004503758319
 31
0.0
  0
LINE
  5
829
  8
0
 62
     0
 10
463.49999999999989
 20
4.0000045037573901
 30
0.0
 11
463.49999999999989
 21
79.125004503757935
 31
0.0
  0
LINE
  5
82A
  8
0
 62
     0
 10
462.0
 20
4.000004503757375
 30
0.0
 11
462.0
 21
79.125004503757935
 31
0.0
  0
LINE
  5
82B
  8
0
 62
     0
 10
460.5
 20
4.0000045037573608
 30
0.0
 11
460.5
 21
79.125004503757921
 31
0.0
  0
LINE
  5
82C
  8
0
 62
     0
 10
459.0
 20
4.0000045037573457
 30
0.0
 11
459.0
 21
79.125004503757907
 31
0.0
  0
LINE
  5
82D
  8
0
 62
     0
 10
457.5
 20
4.0000045037573324
 30
0.0
 11
457.5
 21
79.125004503757893
 31
0.0
  0
LINE
  5
82E
  8
0
 62
     0
 10
456.0
 20
4.0000045037573173
 30
0.0
 11
456.0
 21
79.125004503757864
 31
0.0
  0
LINE
  5
82F
  8
0
 62
     0
 10
454.49999999999989
 20
4.0000045037573031
 30
0.0
 11
454.49999999999989
 21
79.125004503757864
 31
0.0
  0
LINE
  5
830
  8
0
 62
     0
 10
453.0
 20
4.000004503757288
 30
0.0
 11
453.0
 21
79.125004503757836
 31
0.0
  0
LINE
  5
831
  8
0
 62
     0
 10
451.49999999999989
 20
4.0000045037572729
 30
0.0
 11
451.49999999999989
 21
79.125004503757822
 31
0.0
  0
LINE
  5
832
  8
0
 62
     0
 10
450.0
 20
4.0000045037572587
 30
0.0
 11
450.0
 21
79.125004503757793
 31
0.0
  0
LINE
  5
833
  8
0
 62
     0
 10
448.5
 20
4.0000045037572454
 30
0.0
 11
448.5
 21
79.125004503757793
 31
0.0
  0
LINE
  5
834
  8
0
 62
     0
 10
447.0
 20
4.0000045037572303
 30
0.0
 11
447.0
 21
79.125004503757779
 31
0.0
  0
LINE
  5
835
  8
0
 62
     0
 10
445.5
 20
4.0000045037572161
 30
0.0
 11
445.5
 21
79.125004503757765
 31
0.0
  0
LINE
  5
836
  8
0
 62
     0
 10
444.0
 20
4.000004503757201
 30
0.0
 11
444.0
 21
79.125004503757751
 31
0.0
  0
LINE
  5
837
  8
0
 62
     0
 10
409.49999999999989
 20
4.000004503756843
 30
0.0
 11
409.49999999999989
 21
79.125004503757381
 31
0.0
  0
LINE
  5
838
  8
0
 62
     0
 10
408.0
 20
4.000004503756827
 30
0.0
 11
408.0
 21
79.125004503757367
 31
0.0
  0
LINE
  5
839
  8
0
 62
     0
 10
406.5
 20
4.000004503756811
 30
0.0
 11
406.5
 21
79.125004503757353
 31
0.0
  0
LINE
  5
83A
  8
0
 62
     0
 10
405.0
 20
4.0000045037567959
 30
0.0
 11
405.0
 21
79.125004503757339
 31
0.0
  0
LINE
  5
83B
  8
0
 62
     0
 10
403.5
 20
4.0000045037567808
 30
0.0
 11
403.5
 21
79.125004503757324
 31
0.0
  0
LINE
  5
83C
  8
0
 62
     0
 10
402.0
 20
4.0000045037567658
 30
0.0
 11
402.0
 21
79.12500450375731
 31
0.0
  0
LINE
  5
83D
  8
0
 62
     0
 10
400.49999999999989
 20
4.0000045037567507
 30
0.0
 11
400.49999999999989
 21
79.125004503757296
 31
0.0
  0
LINE
  5
83E
  8
0
 62
     0
 10
399.0
 20
4.0000045037567364
 30
0.0
 11
399.0
 21
79.125004503757282
 31
0.0
  0
LINE
  5
83F
  8
0
 62
     0
 10
397.5
 20
4.0000045037567213
 30
0.0
 11
397.5
 21
79.125004503757268
 31
0.0
  0
LINE
  5
840
  8
0
 62
     0
 10
396.0
 20
4.0000045037567062
 30
0.0
 11
396.0
 21
79.125004503757225
 31
0.0
  0
LINE
  5
841
  8
0
 62
     0
 10
394.5
 20
4.0000045037566911
 30
0.0
 11
394.5
 21
79.125004503757225
 31
0.0
  0
LINE
  5
842
  8
0
 62
     0
 10
393.0
 20
4.000004503756676
 30
0.0
 11
393.0
 21
79.125004503757211
 31
0.0
  0
LINE
  5
843
  8
0
 62
     0
 10
391.5
 20
4.0000045037566601
 30
0.0
 11
391.5
 21
79.125004503757197
 31
0.0
  0
LINE
  5
844
  8
0
 62
     0
 10
390.0
 20
4.0000045037566441
 30
0.0
 11
390.0
 21
79.125004503757182
 31
0.0
  0
LINE
  5
845
  8
0
 62
     0
 10
388.5
 20
4.000004503756629
 30
0.0
 11
388.5
 21
79.125004503757154
 31
0.0
  0
LINE
  5
846
  8
0
 62
     0
 10
387.0
 20
4.0000045037566139
 30
0.0
 11
387.0
 21
79.125004503757154
 31
0.0
  0
LINE
  5
847
  8
0
 62
     0
 10
442.75230105044778
 20
4.5
 30
0.0
 11
464.76130070511931
 21
4.5
 31
0.0
  0
LINE
  5
848
  8
0
 62
     0
 10
496.74431636721692
 20
4.5
 30
0.0
 11
522.00230105044807
 21
4.5
 31
0.0
  0
LINE
  5
849
  8
0
 62
     0
 10
385.5023010504483
 20
4.5
 30
0.0
 11
410.7523010504471
 21
4.5
 31
0.0
  0
LINE
  5
84A
  8
0
 62
     0
 10
442.75230105044778
 20
6.0
 30
0.0
 11
464.76130070511931
 21
6.0
 31
0.0
  0
LINE
  5
84B
  8
0
 62
     0
 10
496.74431636721692
 20
6.0
 30
0.0
 11
522.00230105044807
 21
6.0
 31
0.0
  0
LINE
  5
84C
  8
0
 62
     0
 10
385.5023010504483
 20
6.0
 30
0.0
 11
410.7523010504471
 21
6.0
 31
0.0
  0
LINE
  5
84D
  8
0
 62
     0
 10
442.75230105044778
 20
7.5
 30
0.0
 11
464.76130070511931
 21
7.5
 31
0.0
  0
LINE
  5
84E
  8
0
 62
     0
 10
496.74431636721692
 20
7.5
 30
0.0
 11
522.00230105044807
 21
7.5
 31
0.0
  0
LINE
  5
84F
  8
0
 62
     0
 10
385.50230105044818
 20
7.5
 30
0.0
 11
410.7523010504471
 21
7.5
 31
0.0
  0
LINE
  5
850
  8
0
 62
     0
 10
442.75230105044778
 20
9.0
 30
0.0
 11
464.76130070511931
 21
9.0
 31
0.0
  0
LINE
  5
851
  8
0
 62
     0
 10
496.74431636721692
 20
9.0
 30
0.0
 11
522.00230105044807
 21
9.0
 31
0.0
  0
LINE
  5
852
  8
0
 62
     0
 10
385.50230105044818
 20
9.0
 30
0.0
 11
410.7523010504471
 21
9.0
 31
0.0
  0
LINE
  5
853
  8
0
 62
     0
 10
442.75230105044778
 20
10.5
 30
0.0
 11
464.76130070511931
 21
10.5
 31
0.0
  0
LINE
  5
854
  8
0
 62
     0
 10
496.74431636721692
 20
10.5
 30
0.0
 11
522.00230105044795
 21
10.5
 31
0.0
  0
LINE
  5
855
  8
0
 62
     0
 10
385.50230105044818
 20
10.5
 30
0.0
 11
410.7523010504471
 21
10.5
 31
0.0
  0
LINE
  5
856
  8
0
 62
     0
 10
442.75230105044778
 20
12.0
 30
0.0
 11
464.76130070511931
 21
12.0
 31
0.0
  0
LINE
  5
857
  8
0
 62
     0
 10
496.74431636721692
 20
12.0
 30
0.0
 11
522.00230105044795
 21
12.0
 31
0.0
  0
LINE
  5
858
  8
0
 62
     0
 10
385.50230105044818
 20
12.0
 30
0.0
 11
410.7523010504471
 21
12.0
 31
0.0
  0
LINE
  5
859
  8
0
 62
     0
 10
442.75230105044778
 20
13.5
 30
0.0
 11
464.76130070511931
 21
13.5
 31
0.0
  0
LINE
  5
85A
  8
0
 62
     0
 10
496.74431636721692
 20
13.5
 30
0.0
 11
522.00230105044795
 21
13.5
 31
0.0
  0
LINE
  5
85B
  8
0
 62
     0
 10
385.50230105044818
 20
13.5
 30
0.0
 11
410.7523010504471
 21
13.5
 31
0.0
  0
LINE
  5
85C
  8
0
 62
     0
 10
442.75230105044778
 20
15.0
 30
0.0
 11
464.76130070511931
 21
15.0
 31
0.0
  0
LINE
  5
85D
  8
0
 62
     0
 10
496.74431636721692
 20
15.0
 30
0.0
 11
522.00230105044795
 21
15.0
 31
0.0
  0
LINE
  5
85E
  8
0
 62
     0
 10
385.50230105044818
 20
15.0
 30
0.0
 11
410.7523010504471
 21
15.0
 31
0.0
  0
LINE
  5
85F
  8
0
 62
     0
 10
442.75230105044778
 20
16.5
 30
0.0
 11
464.76130070511931
 21
16.5
 31
0.0
  0
LINE
  5
860
  8
0
 62
     0
 10
496.74431636721692
 20
16.5
 30
0.0
 11
522.00230105044795
 21
16.5
 31
0.0
  0
LINE
  5
861
  8
0
 62
     0
 10
385.50230105044812
 20
16.5
 30
0.0
 11
410.7523010504471
 21
16.5
 31
0.0
  0
LINE
  5
862
  8
0
 62
     0
 10
442.75230105044778
 20
18.0
 30
0.0
 11
464.76130070511931
 21
18.0
 31
0.0
  0
LINE
  5
863
  8
0
 62
     0
 10
496.74431636721692
 20
18.0
 30
0.0
 11
522.00230105044795
 21
18.0
 31
0.0
  0
LINE
  5
864
  8
0
 62
     0
 10
385.50230105044812
 20
18.0
 30
0.0
 11
410.7523010504471
 21
18.0
 31
0.0
  0
LINE
  5
865
  8
0
 62
     0
 10
442.75230105044778
 20
19.5
 30
0.0
 11
464.76130070511931
 21
19.5
 31
0.0
  0
LINE
  5
866
  8
0
 62
     0
 10
496.74431636721692
 20
19.5
 30
0.0
 11
522.00230105044795
 21
19.5
 31
0.0
  0
LINE
  5
867
  8
0
 62
     0
 10
385.50230105044812
 20
19.5
 30
0.0
 11
410.7523010504471
 21
19.5
 31
0.0
  0
LINE
  5
868
  8
0
 62
     0
 10
442.75230105044778
 20
21.0
 30
0.0
 11
464.76130070511931
 21
21.0
 31
0.0
  0
LINE
  5
869
  8
0
 62
     0
 10
496.74431636721692
 20
21.0
 30
0.0
 11
522.00230105044795
 21
21.0
 31
0.0
  0
LINE
  5
86A
  8
0
 62
     0
 10
385.50230105044812
 20
21.0
 30
0.0
 11
410.7523010504471
 21
21.0
 31
0.0
  0
LINE
  5
86B
  8
0
 62
     0
 10
442.75230105044778
 20
22.5
 30
0.0
 11
464.76130070511931
 21
22.5
 31
0.0
  0
LINE
  5
86C
  8
0
 62
     0
 10
496.74431636721692
 20
22.5
 30
0.0
 11
522.00230105044795
 21
22.5
 31
0.0
  0
LINE
  5
86D
  8
0
 62
     0
 10
385.50230105044812
 20
22.5
 30
0.0
 11
410.7523010504471
 21
22.5
 31
0.0
  0
LINE
  5
86E
  8
0
 62
     0
 10
442.75230105044778
 20
24.0
 30
0.0
 11
464.76130070511931
 21
24.0
 31
0.0
  0
LINE
  5
86F
  8
0
 62
     0
 10
496.74431636721692
 20
24.0
 30
0.0
 11
522.00230105044784
 21
24.0
 31
0.0
  0
LINE
  5
870
  8
0
 62
     0
 10
385.50230105044812
 20
24.0
 30
0.0
 11
410.7523010504471
 21
24.0
 31
0.0
  0
LINE
  5
871
  8
0
 62
     0
 10
442.75230105044778
 20
25.5
 30
0.0
 11
464.76130070511931
 21
25.5
 31
0.0
  0
LINE
  5
872
  8
0
 62
     0
 10
496.74431636721692
 20
25.5
 30
0.0
 11
522.00230105044784
 21
25.5
 31
0.0
  0
LINE
  5
873
  8
0
 62
     0
 10
385.50230105044801
 20
25.5
 30
0.0
 11
410.7523010504471
 21
25.5
 31
0.0
  0
LINE
  5
874
  8
0
 62
     0
 10
442.75230105044778
 20
27.0
 30
0.0
 11
464.76130070511931
 21
27.0
 31
0.0
  0
LINE
  5
875
  8
0
 62
     0
 10
496.74431636721692
 20
27.0
 30
0.0
 11
522.00230105044784
 21
27.0
 31
0.0
  0
LINE
  5
876
  8
0
 62
     0
 10
385.50230105044801
 20
27.0
 30
0.0
 11
410.7523010504471
 21
27.0
 31
0.0
  0
LINE
  5
877
  8
0
 62
     0
 10
442.75230105044778
 20
28.5
 30
0.0
 11
464.76130070511931
 21
28.5
 31
0.0
  0
LINE
  5
878
  8
0
 62
     0
 10
496.74431636721692
 20
28.5
 30
0.0
 11
522.00230105044784
 21
28.5
 31
0.0
  0
LINE
  5
879
  8
0
 62
     0
 10
385.50230105044801
 20
28.5
 30
0.0
 11
410.7523010504471
 21
28.5
 31
0.0
  0
LINE
  5
87A
  8
0
 62
     0
 10
442.75230105044778
 20
30.0
 30
0.0
 11
464.76130070511931
 21
30.0
 31
0.0
  0
LINE
  5
87B
  8
0
 62
     0
 10
496.74431636721692
 20
30.0
 30
0.0
 11
522.00230105044784
 21
30.0
 31
0.0
  0
LINE
  5
87C
  8
0
 62
     0
 10
385.50230105044801
 20
30.0
 30
0.0
 11
410.7523010504471
 21
30.0
 31
0.0
  0
LINE
  5
87D
  8
0
 62
     0
 10
442.75230105044778
 20
31.5
 30
0.0
 11
464.76130070511931
 21
31.5
 31
0.0
  0
LINE
  5
87E
  8
0
 62
     0
 10
496.74431636721692
 20
31.5
 30
0.0
 11
522.00230105044784
 21
31.5
 31
0.0
  0
LINE
  5
87F
  8
0
 62
     0
 10
385.50230105044801
 20
31.5
 30
0.0
 11
410.7523010504471
 21
31.5
 31
0.0
  0
LINE
  5
880
  8
0
 62
     0
 10
442.75230105044778
 20
33.0
 30
0.0
 11
464.76130070511931
 21
33.0
 31
0.0
  0
LINE
  5
881
  8
0
 62
     0
 10
496.74431636721692
 20
33.0
 30
0.0
 11
522.00230105044784
 21
33.0
 31
0.0
  0
LINE
  5
882
  8
0
 62
     0
 10
385.50230105044801
 20
33.0
 30
0.0
 11
410.7523010504471
 21
33.0
 31
0.0
  0
LINE
  5
883
  8
0
 62
     0
 10
442.75230105044778
 20
34.5
 30
0.0
 11
464.76130070511931
 21
34.5
 31
0.0
  0
LINE
  5
884
  8
0
 62
     0
 10
496.74431636721692
 20
34.5
 30
0.0
 11
522.00230105044784
 21
34.5
 31
0.0
  0
LINE
  5
885
  8
0
 62
     0
 10
385.50230105044801
 20
34.5
 30
0.0
 11
410.7523010504471
 21
34.5
 31
0.0
  0
LINE
  5
886
  8
0
 62
     0
 10
442.75230105044778
 20
36.0
 30
0.0
 11
464.76130070511931
 21
36.0
 31
0.0
  0
LINE
  5
887
  8
0
 62
     0
 10
496.74431636721692
 20
36.0
 30
0.0
 11
522.00230105044773
 21
36.0
 31
0.0
  0
LINE
  5
888
  8
0
 62
     0
 10
385.5023010504479
 20
36.0
 30
0.0
 11
410.7523010504471
 21
36.0
 31
0.0
  0
LINE
  5
889
  8
0
 62
     0
 10
442.75230105044778
 20
37.5
 30
0.0
 11
464.76130070511931
 21
37.5
 31
0.0
  0
LINE
  5
88A
  8
0
 62
     0
 10
496.74431636721692
 20
37.5
 30
0.0
 11
522.00230105044773
 21
37.5
 31
0.0
  0
LINE
  5
88B
  8
0
 62
     0
 10
385.5023010504479
 20
37.5
 30
0.0
 11
410.7523010504471
 21
37.5
 31
0.0
  0
LINE
  5
88C
  8
0
 62
     0
 10
442.75230105044778
 20
39.0
 30
0.0
 11
464.76130070511931
 21
39.0
 31
0.0
  0
LINE
  5
88D
  8
0
 62
     0
 10
496.74431636721692
 20
39.0
 30
0.0
 11
522.00230105044773
 21
39.0
 31
0.0
  0
LINE
  5
88E
  8
0
 62
     0
 10
385.5023010504479
 20
39.0
 30
0.0
 11
410.7523010504471
 21
39.0
 31
0.0
  0
LINE
  5
88F
  8
0
 62
     0
 10
442.75230105044778
 20
40.499999999999993
 30
0.0
 11
464.76130070511931
 21
40.499999999999993
 31
0.0
  0
LINE
  5
890
  8
0
 62
     0
 10
496.74431636721692
 20
40.499999999999993
 30
0.0
 11
522.00230105044773
 21
40.499999999999993
 31
0.0
  0
LINE
  5
891
  8
0
 62
     0
 10
385.5023010504479
 20
40.499999999999993
 30
0.0
 11
410.7523010504471
 21
40.499999999999993
 31
0.0
  0
LINE
  5
892
  8
0
 62
     0
 10
442.75230105044778
 20
42.0
 30
0.0
 11
464.76130070511931
 21
42.0
 31
0.0
  0
LINE
  5
893
  8
0
 62
     0
 10
496.74431636721692
 20
42.0
 30
0.0
 11
522.00230105044773
 21
42.0
 31
0.0
  0
LINE
  5
894
  8
0
 62
     0
 10
385.5023010504479
 20
42.0
 30
0.0
 11
410.7523010504471
 21
42.0
 31
0.0
  0
LINE
  5
895
  8
0
 62
     0
 10
442.75230105044778
 20
43.5
 30
0.0
 11
464.76130070511931
 21
43.5
 31
0.0
  0
LINE
  5
896
  8
0
 62
     0
 10
496.74431636721692
 20
43.5
 30
0.0
 11
522.00230105044773
 21
43.5
 31
0.0
  0
LINE
  5
897
  8
0
 62
     0
 10
385.5023010504479
 20
43.5
 30
0.0
 11
410.7523010504471
 21
43.5
 31
0.0
  0
LINE
  5
898
  8
0
 62
     0
 10
442.75230105044778
 20
45.0
 30
0.0
 11
464.76130070511931
 21
45.0
 31
0.0
  0
LINE
  5
899
  8
0
 62
     0
 10
496.74431636721692
 20
45.0
 30
0.0
 11
522.00230105044773
 21
45.0
 31
0.0
  0
LINE
  5
89A
  8
0
 62
     0
 10
385.50230105044778
 20
45.0
 30
0.0
 11
410.7523010504471
 21
45.0
 31
0.0
  0
LINE
  5
89B
  8
0
 62
     0
 10
442.75230105044778
 20
46.5
 30
0.0
 11
464.76130070511931
 21
46.5
 31
0.0
  0
LINE
  5
89C
  8
0
 62
     0
 10
496.74431636721692
 20
46.5
 30
0.0
 11
522.00230105044773
 21
46.5
 31
0.0
  0
LINE
  5
89D
  8
0
 62
     0
 10
385.50230105044778
 20
46.5
 30
0.0
 11
410.7523010504471
 21
46.5
 31
0.0
  0
LINE
  5
89E
  8
0
 62
     0
 10
442.75230105044778
 20
48.0
 30
0.0
 11
464.76130070511931
 21
48.0
 31
0.0
  0
LINE
  5
89F
  8
0
 62
     0
 10
496.74431636721692
 20
48.0
 30
0.0
 11
522.0023010504475
 21
48.0
 31
0.0
  0
LINE
  5
8A0
  8
0
 62
     0
 10
385.50230105044778
 20
48.0
 30
0.0
 11
410.7523010504471
 21
48.0
 31
0.0
  0
LINE
  5
8A1
  8
0
 62
     0
 10
442.75230105044778
 20
49.5
 30
0.0
 11
464.76130070511931
 21
49.5
 31
0.0
  0
LINE
  5
8A2
  8
0
 62
     0
 10
496.74431636721692
 20
49.5
 30
0.0
 11
522.0023010504475
 21
49.5
 31
0.0
  0
LINE
  5
8A3
  8
0
 62
     0
 10
385.50230105044773
 20
49.5
 30
0.0
 11
410.7523010504471
 21
49.5
 31
0.0
  0
LINE
  5
8A4
  8
0
 62
     0
 10
442.75230105044778
 20
51.0
 30
0.0
 11
464.76130070511931
 21
51.0
 31
0.0
  0
LINE
  5
8A5
  8
0
 62
     0
 10
496.74431636721692
 20
51.0
 30
0.0
 11
522.0023010504475
 21
51.0
 31
0.0
  0
LINE
  5
8A6
  8
0
 62
     0
 10
385.50230105044773
 20
51.0
 30
0.0
 11
410.7523010504471
 21
51.0
 31
0.0
  0
LINE
  5
8A7
  8
0
 62
     0
 10
442.75230105044778
 20
52.5
 30
0.0
 11
464.76130070511931
 21
52.5
 31
0.0
  0
LINE
  5
8A8
  8
0
 62
     0
 10
496.74431636721692
 20
52.5
 30
0.0
 11
522.0023010504475
 21
52.5
 31
0.0
  0
LINE
  5
8A9
  8
0
 62
     0
 10
385.50230105044773
 20
52.5
 30
0.0
 11
410.7523010504471
 21
52.5
 31
0.0
  0
LINE
  5
8AA
  8
0
 62
     0
 10
442.75230105044778
 20
54.0
 30
0.0
 11
464.76130070511931
 21
54.0
 31
0.0
  0
LINE
  5
8AB
  8
0
 62
     0
 10
496.74431636721692
 20
54.0
 30
0.0
 11
522.0023010504475
 21
54.0
 31
0.0
  0
LINE
  5
8AC
  8
0
 62
     0
 10
385.50230105044773
 20
54.0
 30
0.0
 11
410.7523010504471
 21
54.0
 31
0.0
  0
LINE
  5
8AD
  8
0
 62
     0
 10
442.75230105044778
 20
55.5
 30
0.0
 11
464.76130070511931
 21
55.5
 31
0.0
  0
LINE
  5
8AE
  8
0
 62
     0
 10
496.74431636721692
 20
55.5
 30
0.0
 11
522.0023010504475
 21
55.5
 31
0.0
  0
LINE
  5
8AF
  8
0
 62
     0
 10
385.50230105044773
 20
55.5
 30
0.0
 11
410.7523010504471
 21
55.5
 31
0.0
  0
LINE
  5
8B0
  8
0
 62
     0
 10
442.75230105044778
 20
57.0
 30
0.0
 11
464.76130070511931
 21
57.0
 31
0.0
  0
LINE
  5
8B1
  8
0
 62
     0
 10
496.74431636721692
 20
57.0
 30
0.0
 11
522.0023010504475
 21
57.0
 31
0.0
  0
LINE
  5
8B2
  8
0
 62
     0
 10
385.50230105044773
 20
57.0
 30
0.0
 11
410.7523010504471
 21
57.0
 31
0.0
  0
LINE
  5
8B3
  8
0
 62
     0
 10
442.75230105044778
 20
58.5
 30
0.0
 11
464.76130070511931
 21
58.5
 31
0.0
  0
LINE
  5
8B4
  8
0
 62
     0
 10
496.74431636721692
 20
58.5
 30
0.0
 11
522.0023010504475
 21
58.5
 31
0.0
  0
LINE
  5
8B5
  8
0
 62
     0
 10
385.50230105044761
 20
58.5
 30
0.0
 11
410.7523010504471
 21
58.5
 31
0.0
  0
LINE
  5
8B6
  8
0
 62
     0
 10
442.75230105044778
 20
60.0
 30
0.0
 11
464.76130070511931
 21
60.0
 31
0.0
  0
LINE
  5
8B7
  8
0
 62
     0
 10
496.74431636721692
 20
60.0
 30
0.0
 11
522.0023010504475
 21
60.0
 31
0.0
  0
LINE
  5
8B8
  8
0
 62
     0
 10
385.50230105044761
 20
60.0
 30
0.0
 11
410.7523010504471
 21
60.0
 31
0.0
  0
LINE
  5
8B9
  8
0
 62
     0
 10
442.75230105044778
 20
61.5
 30
0.0
 11
464.76130070511931
 21
61.5
 31
0.0
  0
LINE
  5
8BA
  8
0
 62
     0
 10
496.74431636721692
 20
61.5
 30
0.0
 11
522.00230105044739
 21
61.5
 31
0.0
  0
LINE
  5
8BB
  8
0
 62
     0
 10
385.50230105044761
 20
61.5
 30
0.0
 11
410.7523010504471
 21
61.5
 31
0.0
  0
LINE
  5
8BC
  8
0
 62
     0
 10
442.75230105044778
 20
63.0
 30
0.0
 11
464.76130070511931
 21
63.0
 31
0.0
  0
LINE
  5
8BD
  8
0
 62
     0
 10
496.74431636721692
 20
63.0
 30
0.0
 11
522.00230105044739
 21
63.0
 31
0.0
  0
LINE
  5
8BE
  8
0
 62
     0
 10
385.50230105044761
 20
63.0
 30
0.0
 11
410.7523010504471
 21
63.0
 31
0.0
  0
LINE
  5
8BF
  8
0
 62
     0
 10
442.75230105044778
 20
64.5
 30
0.0
 11
464.76130070511931
 21
64.5
 31
0.0
  0
LINE
  5
8C0
  8
0
 62
     0
 10
496.74431636721692
 20
64.5
 30
0.0
 11
522.00230105044739
 21
64.5
 31
0.0
  0
LINE
  5
8C1
  8
0
 62
     0
 10
385.50230105044761
 20
64.5
 30
0.0
 11
410.7523010504471
 21
64.5
 31
0.0
  0
LINE
  5
8C2
  8
0
 62
     0
 10
442.75230105044778
 20
66.0
 30
0.0
 11
464.76130070511931
 21
66.0
 31
0.0
  0
LINE
  5
8C3
  8
0
 62
     0
 10
496.74431636721692
 20
66.0
 30
0.0
 11
522.00230105044739
 21
66.0
 31
0.0
  0
LINE
  5
8C4
  8
0
 62
     0
 10
385.50230105044761
 20
66.0
 30
0.0
 11
410.7523010504471
 21
66.0
 31
0.0
  0
LINE
  5
8C5
  8
0
 62
     0
 10
442.75230105044778
 20
67.5
 30
0.0
 11
464.76130070511931
 21
67.5
 31
0.0
  0
LINE
  5
8C6
  8
0
 62
     0
 10
496.74431636721692
 20
67.5
 30
0.0
 11
522.00230105044739
 21
67.5
 31
0.0
  0
LINE
  5
8C7
  8
0
 62
     0
 10
385.5023010504475
 20
67.5
 30
0.0
 11
410.7523010504471
 21
67.5
 31
0.0
  0
LINE
  5
8C8
  8
0
 62
     0
 10
442.75230105044778
 20
69.0
 30
0.0
 11
464.76130070511931
 21
69.0
 31
0.0
  0
LINE
  5
8C9
  8
0
 62
     0
 10
496.74431636721692
 20
69.0
 30
0.0
 11
522.00230105044739
 21
69.0
 31
0.0
  0
LINE
  5
8CA
  8
0
 62
     0
 10
385.5023010504475
 20
69.0
 30
0.0
 11
410.7523010504471
 21
69.0
 31
0.0
  0
LINE
  5
8CB
  8
0
 62
     0
 10
442.75230105044778
 20
70.5
 30
0.0
 11
464.76130070511931
 21
70.5
 31
0.0
  0
LINE
  5
8CC
  8
0
 62
     0
 10
496.74431636721692
 20
70.5
 30
0.0
 11
522.00230105044739
 21
70.5
 31
0.0
  0
LINE
  5
8CD
  8
0
 62
     0
 10
385.5023010504475
 20
70.5
 30
0.0
 11
410.7523010504471
 21
70.5
 31
0.0
  0
LINE
  5
8CE
  8
0
 62
     0
 10
442.75230105044778
 20
72.0
 30
0.0
 11
464.76130070511931
 21
72.0
 31
0.0
  0
LINE
  5
8CF
  8
0
 62
     0
 10
496.74431636721692
 20
72.0
 30
0.0
 11
522.00230105044739
 21
72.0
 31
0.0
  0
LINE
  5
8D0
  8
0
 62
     0
 10
385.5023010504475
 20
72.0
 30
0.0
 11
410.7523010504471
 21
72.0
 31
0.0
  0
LINE
  5
8D1
  8
0
 62
     0
 10
442.75230105044778
 20
73.5
 30
0.0
 11
464.76130070511931
 21
73.5
 31
0.0
  0
LINE
  5
8D2
  8
0
 62
     0
 10
496.74431636721692
 20
73.5
 30
0.0
 11
522.00230105044739
 21
73.5
 31
0.0
  0
LINE
  5
8D3
  8
0
 62
     0
 10
385.5023010504475
 20
73.5
 30
0.0
 11
410.7523010504471
 21
73.5
 31
0.0
  0
LINE
  5
8D4
  8
0
 62
     0
 10
442.75230105044778
 20
75.0
 30
0.0
 11
464.76130070511931
 21
75.0
 31
0.0
  0
LINE
  5
8D5
  8
0
 62
     0
 10
496.74431636721692
 20
75.0
 30
0.0
 11
522.00230105044739
 21
75.0
 31
0.0
  0
LINE
  5
8D6
  8
0
 62
     0
 10
385.5023010504475
 20
75.0
 30
0.0
 11
410.7523010504471
 21
75.0
 31
0.0
  0
LINE
  5
8D7
  8
0
 62
     0
 10
442.75230105044778
 20
76.5
 30
0.0
 11
464.76130070511931
 21
76.5
 31
0.0
  0
LINE
  5
8D8
  8
0
 62
     0
 10
496.74431636721692
 20
76.5
 30
0.0
 11
522.00230105044739
 21
76.5
 31
0.0
  0
LINE
  5
8D9
  8
0
 62
     0
 10
385.5023010504475
 20
76.5
 30
0.0
 11
410.7523010504471
 21
76.5
 31
0.0
  0
LINE
  5
8DA
  8
0
 62
     0
 10
442.75230105044778
 20
78.0
 30
0.0
 11
464.76130070511931
 21
78.0
 31
0.0
  0
LINE
  5
8DB
  8
0
 62
     0
 10
496.74431636721692
 20
78.0
 30
0.0
 11
522.00230105044739
 21
78.0
 31
0.0
  0
LINE
  5
8DC
  8
0
 62
     0
 10
385.50230105044739
 20
78.0
 30
0.0
 11
410.7523010504471
 21
78.0
 31
0.0
  0
ENDBLK
  5
8DE
  8
0
  0
BLOCK
  8
0
  2
*X5
 70
     1
 10
0.0
 20
0.0
 30
0.0
  3
*X5
  1

  0
LINE
  5
8E0
  8
0
 62
     0
 10
302.4031173164401
 20
379.99999999999989
 30
0.0
 11
212.4031173164403
 21
380.0
 31
0.0
  0
LINE
  5
8E1
  8
0
 62
     0
 10
302.4031173164401
 20
378.5
 30
0.0
 11
212.4031173164403
 21
378.5
 31
0.0
  0
LINE
  5
8E2
  8
0
 62
     0
 10
302.4031173164401
 20
377.0
 30
0.0
 11
212.4031173164403
 21
377.0
 31
0.0
  0
LINE
  5
8E3
  8
0
 62
     0
 10
302.4031173164401
 20
375.49999999999989
 30
0.0
 11
212.4031173164403
 21
375.5
 31
0.0
  0
LINE
  5
8E4
  8
0
 62
     0
 10
302.4031173164401
 20
373.99999999999989
 30
0.0
 11
212.4031173164403
 21
374.0
 31
0.0
  0
LINE
  5
8E5
  8
0
 62
     0
 10
302.4031173164401
 20
372.5
 30
0.0
 11
212.4031173164403
 21
372.5
 31
0.0
  0
LINE
  5
8E6
  8
0
 62
     0
 10
302.4031173164401
 20
370.99999999999989
 30
0.0
 11
212.4031173164403
 21
371.0
 31
0.0
  0
LINE
  5
8E7
  8
0
 62
     0
 10
302.4031173164401
 20
369.49999999999989
 30
0.0
 11
212.4031173164403
 21
369.5
 31
0.0
  0
LINE
  5
8E8
  8
0
 62
     0
 10
302.4031173164401
 20
368.0
 30
0.0
 11
212.4031173164403
 21
368.0
 31
0.0
  0
LINE
  5
8E9
  8
0
 62
     0
 10
302.4031173164401
 20
366.5
 30
0.0
 11
212.4031173164403
 21
366.5
 31
0.0
  0
LINE
  5
8EA
  8
0
 62
     0
 10
302.4031173164401
 20
364.99999999999989
 30
0.0
 11
212.4031173164403
 21
365.0
 31
0.0
  0
LINE
  5
8EB
  8
0
 62
     0
 10
302.40311731643999
 20
363.49999999999989
 30
0.0
 11
212.4031173164403
 21
363.5
 31
0.0
  0
LINE
  5
8EC
  8
0
 62
     0
 10
302.40311731643999
 20
362.0
 30
0.0
 11
212.4031173164403
 21
362.0
 31
0.0
  0
LINE
  5
8ED
  8
0
 62
     0
 10
302.40311731643999
 20
360.49999999999989
 30
0.0
 11
212.4031173164403
 21
360.5
 31
0.0
  0
LINE
  5
8EE
  8
0
 62
     0
 10
302.40311731643999
 20
358.99999999999989
 30
0.0
 11
212.40311731644019
 21
359.0
 31
0.0
  0
LINE
  5
8EF
  8
0
 62
     0
 10
302.40311731643999
 20
357.49999999999989
 30
0.0
 11
212.40311731644019
 21
357.5
 31
0.0
  0
LINE
  5
8F0
  8
0
 62
     0
 10
302.40311731643999
 20
356.0
 30
0.0
 11
212.40311731644019
 21
356.0
 31
0.0
  0
LINE
  5
8F1
  8
0
 62
     0
 10
302.40311731643999
 20
354.49999999999989
 30
0.0
 11
212.40311731644019
 21
354.5
 31
0.0
  0
LINE
  5
8F2
  8
0
 62
     0
 10
302.40311731643999
 20
352.99999999999989
 30
0.0
 11
212.40311731644019
 21
353.0
 31
0.0
  0
LINE
  5
8F3
  8
0
 62
     0
 10
302.40311731643999
 20
351.5
 30
0.0
 11
212.40311731644019
 21
351.5
 31
0.0
  0
LINE
  5
8F4
  8
0
 62
     0
 10
302.40311731643999
 20
350.0
 30
0.0
 11
212.40311731644019
 21
350.0
 31
0.0
  0
LINE
  5
8F5
  8
0
 62
     0
 10
302.40311731643999
 20
348.49999999999989
 30
0.0
 11
212.40311731644019
 21
348.5
 31
0.0
  0
LINE
  5
8F6
  8
0
 62
     0
 10
302.40311731643999
 20
346.99999999999989
 30
0.0
 11
212.40311731644019
 21
347.0
 31
0.0
  0
LINE
  5
8F7
  8
0
 62
     0
 10
302.40311731643999
 20
345.5
 30
0.0
 11
212.40311731644019
 21
345.5
 31
0.0
  0
LINE
  5
8F8
  8
0
 62
     0
 10
302.40311731643999
 20
343.99999999999989
 30
0.0
 11
212.40311731644019
 21
344.0
 31
0.0
  0
LINE
  5
8F9
  8
0
 62
     0
 10
302.40311731643999
 20
342.49999999999989
 30
0.0
 11
212.40311731644019
 21
342.5
 31
0.0
  0
LINE
  5
8FA
  8
0
 62
     0
 10
302.40311731643999
 20
341.0
 30
0.0
 11
212.40311731644019
 21
341.0
 31
0.0
  0
LINE
  5
8FB
  8
0
 62
     0
 10
302.40311731643999
 20
339.5
 30
0.0
 11
212.40311731644019
 21
339.5
 31
0.0
  0
LINE
  5
8FC
  8
0
 62
     0
 10
302.40311731643999
 20
337.99999999999989
 30
0.0
 11
212.40311731644019
 21
338.0
 31
0.0
  0
LINE
  5
8FD
  8
0
 62
     0
 10
302.40311731643999
 20
336.49999999999989
 30
0.0
 11
212.40311731644019
 21
336.5
 31
0.0
  0
LINE
  5
8FE
  8
0
 62
     0
 10
302.40311731643999
 20
335.0
 30
0.0
 11
212.40311731644019
 21
335.0
 31
0.0
  0
LINE
  5
8FF
  8
0
 62
     0
 10
302.40311731643999
 20
333.49999999999989
 30
0.0
 11
212.4031173164401
 21
333.5
 31
0.0
  0
LINE
  5
900
  8
0
 62
     0
 10
302.40311731643999
 20
331.99999999999989
 30
0.0
 11
212.4031173164401
 21
332.0
 31
0.0
  0
LINE
  5
901
  8
0
 62
     0
 10
302.40311731643999
 20
330.5
 30
0.0
 11
212.4031173164401
 21
330.5
 31
0.0
  0
LINE
  5
902
  8
0
 62
     0
 10
302.40311731643999
 20
329.0
 30
0.0
 11
212.4031173164401
 21
329.0
 31
0.0
  0
LINE
  5
903
  8
0
 62
     0
 10
302.40311731643999
 20
327.49999999999989
 30
0.0
 11
212.4031173164401
 21
327.5
 31
0.0
  0
LINE
  5
904
  8
0
 62
     0
 10
302.40311731643999
 20
325.99999999999989
 30
0.0
 11
212.4031173164401
 21
326.0
 31
0.0
  0
LINE
  5
905
  8
0
 62
     0
 10
302.40311731643999
 20
324.5
 30
0.0
 11
212.4031173164401
 21
324.5
 31
0.0
  0
LINE
  5
906
  8
0
 62
     0
 10
302.40311731643999
 20
322.99999999999989
 30
0.0
 11
212.4031173164401
 21
323.0
 31
0.0
  0
LINE
  5
907
  8
0
 62
     0
 10
302.40311731643999
 20
321.49999999999989
 30
0.0
 11
212.4031173164401
 21
321.5
 31
0.0
  0
LINE
  5
908
  8
0
 62
     0
 10
302.40311731643999
 20
319.99999999999989
 30
0.0
 11
212.4031173164401
 21
320.0
 31
0.0
  0
LINE
  5
909
  8
0
 62
     0
 10
302.40311731643999
 20
318.5
 30
0.0
 11
212.4031173164401
 21
318.5
 31
0.0
  0
LINE
  5
90A
  8
0
 62
     0
 10
302.40311731643999
 20
316.99999999999989
 30
0.0
 11
212.4031173164401
 21
317.0
 31
0.0
  0
LINE
  5
90B
  8
0
 62
     0
 10
302.40311731643999
 20
315.49999999999989
 30
0.0
 11
212.4031173164401
 21
315.5
 31
0.0
  0
LINE
  5
90C
  8
0
 62
     0
 10
302.40311731643999
 20
314.0
 30
0.0
 11
212.4031173164401
 21
314.0
 31
0.0
  0
LINE
  5
90D
  8
0
 62
     0
 10
302.40311731643999
 20
312.5
 30
0.0
 11
212.4031173164401
 21
312.5
 31
0.0
  0
LINE
  5
90E
  8
0
 62
     0
 10
302.40311731643999
 20
310.99999999999989
 30
0.0
 11
212.4031173164401
 21
311.0
 31
0.0
  0
LINE
  5
90F
  8
0
 62
     0
 10
302.40311731643999
 20
309.49999999999989
 30
0.0
 11
212.4031173164401
 21
309.5
 31
0.0
  0
LINE
  5
910
  8
0
 62
     0
 10
302.40311731643999
 20
308.0
 30
0.0
 11
212.4031173164401
 21
308.0
 31
0.0
  0
LINE
  5
911
  8
0
 62
     0
 10
302.40311731643999
 20
306.49999999999989
 30
0.0
 11
212.4031173164401
 21
306.5
 31
0.0
  0
LINE
  5
912
  8
0
 62
     0
 10
302.40311731643999
 20
304.99999999999989
 30
0.0
 11
212.4031173164401
 21
305.0
 31
0.0
  0
LINE
  5
913
  8
0
 62
     0
 10
302.40311731643999
 20
303.5
 30
0.0
 11
212.4031173164401
 21
303.5
 31
0.0
  0
LINE
  5
914
  8
0
 62
     0
 10
302.40311731643999
 20
302.0
 30
0.0
 11
212.4031173164401
 21
302.0
 31
0.0
  0
LINE
  5
915
  8
0
 62
     0
 10
302.40311731643999
 20
300.49999999999989
 30
0.0
 11
212.4031173164401
 21
300.5
 31
0.0
  0
LINE
  5
916
  8
0
 62
     0
 10
302.40311731643999
 20
298.99999999999989
 30
0.0
 11
212.4031173164401
 21
299.0
 31
0.0
  0
LINE
  5
917
  8
0
 62
     0
 10
302.40311731643999
 20
297.5
 30
0.0
 11
212.4031173164401
 21
297.5
 31
0.0
  0
LINE
  5
918
  8
0
 62
     0
 10
302.40311731643999
 20
295.99999999999989
 30
0.0
 11
212.4031173164401
 21
296.0
 31
0.0
  0
LINE
  5
919
  8
0
 62
     0
 10
302.40311731643988
 20
294.49999999999989
 30
0.0
 11
212.4031173164401
 21
294.5
 31
0.0
  0
LINE
  5
91A
  8
0
 62
     0
 10
302.40311731643988
 20
292.99999999999989
 30
0.0
 11
212.4031173164401
 21
293.0
 31
0.0
  0
LINE
  5
91B
  8
0
 62
     0
 10
302.40311731643988
 20
291.5
 30
0.0
 11
212.40311731643999
 21
291.5
 31
0.0
  0
LINE
  5
91C
  8
0
 62
     0
 10
302.40311731643988
 20
290.0
 30
0.0
 11
212.40311731643999
 21
290.0
 31
0.0
  0
LINE
  5
91D
  8
0
 62
     0
 10
302.40311731643988
 20
288.49999999999989
 30
0.0
 11
212.40311731643999
 21
288.5
 31
0.0
  0
LINE
  5
91E
  8
0
 62
     0
 10
302.40311731643988
 20
287.0
 30
0.0
 11
212.40311731643999
 21
287.0
 31
0.0
  0
LINE
  5
91F
  8
0
 62
     0
 10
302.40311731643988
 20
285.5
 30
0.0
 11
212.40311731643999
 21
285.5
 31
0.0
  0
LINE
  5
920
  8
0
 62
     0
 10
302.40311731643988
 20
283.99999999999989
 30
0.0
 11
212.40311731643999
 21
284.0
 31
0.0
  0
LINE
  5
921
  8
0
 62
     0
 10
302.40311731643988
 20
282.49999999999989
 30
0.0
 11
212.40311731643999
 21
282.5
 31
0.0
  0
LINE
  5
922
  8
0
 62
     0
 10
302.40311731643988
 20
281.0
 30
0.0
 11
212.40311731643999
 21
281.0
 31
0.0
  0
LINE
  5
923
  8
0
 62
     0
 10
302.40311731643988
 20
279.49999999999989
 30
0.0
 11
212.40311731643999
 21
279.5
 31
0.0
  0
LINE
  5
924
  8
0
 62
     0
 10
302.40311731643988
 20
277.99999999999989
 30
0.0
 11
212.40311731643999
 21
278.0
 31
0.0
  0
LINE
  5
925
  8
0
 62
     0
 10
302.40311731643988
 20
276.5
 30
0.0
 11
212.40311731643999
 21
276.5
 31
0.0
  0
LINE
  5
926
  8
0
 62
     0
 10
302.40311731643988
 20
275.0
 30
0.0
 11
212.40311731643999
 21
275.0
 31
0.0
  0
LINE
  5
927
  8
0
 62
     0
 10
302.40311731643988
 20
273.49999999999989
 30
0.0
 11
212.40311731643999
 21
273.5
 31
0.0
  0
LINE
  5
928
  8
0
 62
     0
 10
302.40311731643988
 20
271.99999999999989
 30
0.0
 11
212.40311731643999
 21
272.0
 31
0.0
  0
LINE
  5
929
  8
0
 62
     0
 10
302.40311731643988
 20
270.5
 30
0.0
 11
212.40311731643999
 21
270.5
 31
0.0
  0
LINE
  5
92A
  8
0
 62
     0
 10
302.40311731643988
 20
268.99999999999989
 30
0.0
 11
212.40311731643999
 21
269.0
 31
0.0
  0
LINE
  5
92B
  8
0
 62
     0
 10
302.40311731643988
 20
267.49999999999989
 30
0.0
 11
212.40311731643999
 21
267.5
 31
0.0
  0
LINE
  5
92C
  8
0
 62
     0
 10
302.40311731643988
 20
266.0
 30
0.0
 11
212.40311731643999
 21
266.0
 31
0.0
  0
LINE
  5
92D
  8
0
 62
     0
 10
302.40311731643988
 20
264.5
 30
0.0
 11
212.4031173164399
 21
264.5
 31
0.0
  0
LINE
  5
92E
  8
0
 62
     0
 10
302.40311731643988
 20
262.99999999999989
 30
0.0
 11
212.4031173164399
 21
263.0
 31
0.0
  0
LINE
  5
92F
  8
0
 62
     0
 10
302.40311731643988
 20
261.49999999999989
 30
0.0
 11
212.4031173164399
 21
261.5
 31
0.0
  0
LINE
  5
930
  8
0
 62
     0
 10
302.40311731643988
 20
260.0
 30
0.0
 11
212.4031173164399
 21
260.0
 31
0.0
  0
LINE
  5
931
  8
0
 62
     0
 10
302.40311731643988
 20
258.49999999999989
 30
0.0
 11
212.4031173164399
 21
258.5
 31
0.0
  0
LINE
  5
932
  8
0
 62
     0
 10
302.40311731643988
 20
256.99999999999989
 30
0.0
 11
212.4031173164399
 21
257.0
 31
0.0
  0
LINE
  5
933
  8
0
 62
     0
 10
302.40311731643988
 20
255.5
 30
0.0
 11
212.4031173164399
 21
255.5
 31
0.0
  0
LINE
  5
934
  8
0
 62
     0
 10
302.40311731643988
 20
254.0
 30
0.0
 11
212.4031173164399
 21
254.0
 31
0.0
  0
LINE
  5
935
  8
0
 62
     0
 10
302.40311731643988
 20
252.5
 30
0.0
 11
212.4031173164399
 21
252.5
 31
0.0
  0
LINE
  5
936
  8
0
 62
     0
 10
302.40311731643988
 20
251.0
 30
0.0
 11
212.4031173164399
 21
251.0
 31
0.0
  0
LINE
  5
937
  8
0
 62
     0
 10
302.40311731643988
 20
249.5
 30
0.0
 11
212.4031173164399
 21
249.5
 31
0.0
  0
LINE
  5
938
  8
0
 62
     0
 10
302.40311731643988
 20
248.0
 30
0.0
 11
212.4031173164399
 21
248.0
 31
0.0
  0
LINE
  5
939
  8
0
 62
     0
 10
302.40311731643988
 20
246.5
 30
0.0
 11
212.4031173164399
 21
246.5
 31
0.0
  0
LINE
  5
93A
  8
0
 62
     0
 10
302.40311731643988
 20
245.0
 30
0.0
 11
212.4031173164399
 21
245.0
 31
0.0
  0
ENDBLK
  5
93C
  8
0
  0
ENDSEC
  0
SECTION
  2
ENTITIES
  0
LINE
  5
34D
  8
0
 10
210.7781173164399
 20
174.87500450375751
 30
0.0
 11
304.02811731643709
 21
174.87500450375751
 31
0.0
  0
LINE
  5
34E
  8
0
 10
304.02811731643709
 20
80.750004503757779
 30
0.0
 11
210.7781173164399
 21
80.750004503757779
 31
0.0
  0
LINE
  5
34F
  8
0
 10
210.7781173164399
 20
80.750004503757779
 30
0.0
 11
210.7781173164399
 21
174.87500450375751
 31
0.0
  0
LINE
  5
350
  8
0
 10
304.02811731643709
 20
80.750004503757779
 30
0.0
 11
304.02811731643709
 21
174.87500450375751
 31
0.0
  0
LINE
  5
351
  8
0
 10
210.77811731644061
 20
80.750004503757751
 30
0.0
 11
305.15311731644061
 21
80.750004503757751
 31
0.0
  0
LINE
  5
352
  8
0
 10
305.15311731644061
 20
0.0000045037577365
 30
0.0
 11
210.77811731644061
 21
0.0000045037577365
 31
0.0
  0
LINE
  5
353
  8
0
 10
210.77811731644061
 20
80.750004503757751
 30
0.0
 11
210.77811731644061
 21
0.0000045037577365
 31
0.0
  0
LINE
  5
354
  8
0
 10
305.15311731644061
 20
0.0000045037577365
 30
0.0
 11
305.15311731644061
 21
80.750004503757751
 31
0.0
  0
LINE
  5
355
  8
0
 10
210.5281173164403
 20
5.6250045037577348
 30
0.0
 11
210.77811731644081
 21
5.6250045037577348
 31
0.0
  0
LINE
  5
356
  8
0
 10
210.77811731644081
 20
7.6250045037576211
 30
0.0
 11
210.5281173164403
 21
7.6250045037576211
 31
0.0
  0
LINE
  5
357
  8
0
 10
210.5281173164399
 20
6.6250045037577614
 30
0.0
 11
210.5281173164399
 21
6.883823548860283
 31
0.0
  0
LINE
  5
358
  8
0
 10
210.5281173164399
 20
6.8838238598010228
 30
0.0
 11
210.5281173164399
 21
7.4910299075422024
 31
0.0
  0
LINE
  5
359
  8
0
 10
210.5281173164399
 20
7.4910302776756881
 30
0.0
 11
210.5281173164399
 21
7.5909303300468327
 31
0.0
  0
LINE
  5
35A
  8
0
 10
210.5281173164399
 20
7.5909310142285076
 30
0.0
 11
210.5281173164399
 21
7.6250045037577658
 31
0.0
  0
LINE
  5
35B
  8
0
 10
210.5281173164399
 20
5.6250045037577658
 30
0.0
 11
210.5281173164399
 21
5.6590784673940187
 31
0.0
  0
LINE
  5
35C
  8
0
 10
210.5281173164399
 20
5.6590786774686981
 30
0.0
 11
210.5281173164399
 21
5.7589790422400906
 31
0.0
  0
LINE
  5
35D
  8
0
 10
210.5281173164399
 20
5.7589790999733257
 30
0.0
 11
210.5281173164399
 21
6.1250045037577641
 31
0.0
  0
LINE
  5
35E
  8
0
 10
210.5281173164399
 20
6.1250047278856643
 30
0.0
 11
210.5281173164399
 21
6.3661853976966594
 31
0.0
  0
LINE
  5
35F
  8
0
 10
210.5281173164399
 20
6.3661854586552407
 30
0.0
 11
210.5281173164399
 21
6.6250042625935928
 31
0.0
  0
LINE
  5
360
  8
0
 10
304.27811731644169
 20
171.12500450375799
 30
0.0
 11
304.02811731644118
 21
171.12500450375799
 31
0.0
  0
LINE
  5
361
  8
0
 10
304.02811731644118
 20
163.12500450375779
 30
0.0
 11
304.27811731644169
 21
163.12500450375779
 31
0.0
  0
LINE
  5
362
  8
0
 10
304.27811731644027
 20
171.12500450375779
 30
0.0
 11
304.27811731644027
 21
170.988707808914
 31
0.0
  0
LINE
  5
363
  8
0
 10
304.27811731644027
 20
170.98870615499621
 30
0.0
 11
304.27811731644027
 21
169.95343162850401
 31
0.0
  0
LINE
  5
364
  8
0
 10
304.27811731644027
 20
169.95342753618439
 30
0.0
 11
304.27811731644027
 21
169.12500450375779
 31
0.0
  0
LINE
  5
365
  8
0
 10
304.27811731644027
 20
169.1250009177067
 30
0.0
 11
304.27811731644027
 21
168.1602806841679
 31
0.0
  0
LINE
  5
366
  8
0
 10
304.27811731644027
 20
168.1602753206659
 30
0.0
 11
304.27811731644027
 21
167.125008362382
 31
0.0
  0
LINE
  5
367
  8
0
 10
304.27811731644027
 20
167.12500450375779
 30
0.0
 11
304.27811731644027
 21
166.08972995970359
 31
0.0
  0
LINE
  5
368
  8
0
 10
304.27811731644027
 20
166.08972832334771
 30
0.0
 11
304.27811731644027
 21
164.2965780616025
 31
0.0
  0
LINE
  5
369
  8
0
 10
304.27811731644027
 20
164.29657737901161
 30
0.0
 11
304.27811731644027
 21
163.2613011986015
 31
0.0
  0
LINE
  5
36A
  8
0
 10
304.27811731644027
 20
163.2612984618732
 30
0.0
 11
304.27811731644027
 21
163.12500450375771
 31
0.0
  0
ARC
  5
36B
  8
0
 10
248.4031173164401
 20
50.000004503758127
 30
0.0
 40
0.7500000000000142
 50
359.99999999999858
 51
179.99999999999889
  0
ARC
  5
36C
  8
0
 10
248.4031173164401
 20
50.000004503758127
 30
0.0
 40
0.75
 50
180.0
 51
0.0
  0
ARC
  5
36D
  8
0
 10
215.5281173164401
 20
33.500004503758142
 30
0.0
 40
1.50000000000001
 50
359.99999999999898
 51
179.99999999999901
  0
ARC
  5
36E
  8
0
 10
215.5281173164401
 20
33.500004503758142
 30
0.0
 40
1.499999999999988
 50
180.00000000000071
 51
0.0000000000001527
  0
ARC
  5
36F
  8
0
 10
219.5281173164403
 20
12.00000450375817
 30
0.0
 40
3.9999999999999911
 50
359.9999999999996
 51
179.99999999999969
  0
ARC
  5
370
  8
0
 10
219.5281173164403
 20
12.00000450375817
 30
0.0
 40
4.000000000000008
 50
180.00000000000011
 51
359.9999999999992
  0
CIRCLE
  5
371
  8
0
 10
227.5281173164403
 20
50.125004503757737
 30
0.0
 40
11.18749999999997
  0
LINE
  5
372
  8
0
 10
383.8773010504537
 20
174.87500450375751
 30
0.0
 11
523.62730105044795
 21
174.87500450375751
 31
0.0
  0
LINE
  5
373
  8
0
 10
383.8773010504537
 20
80.750004503757779
 30
0.0
 11
383.8773010504537
 21
174.87500450375751
 31
0.0
  0
LINE
  5
374
  8
0
 10
523.62730105044795
 20
80.750004503757779
 30
0.0
 11
523.62730105044795
 21
174.87500450375751
 31
0.0
  0
LINE
  5
375
  8
0
 10
465.75230105044909
 20
6.0000045037577348
 30
0.0
 11
495.7523010504492
 21
6.0000045037577348
 31
0.0
  0
LINE
  5
376
  8
0
 10
465.75230105044818
 20
68.406158526918745
 30
0.0
 11
495.75230105044818
 21
68.406158526918702
 31
0.0
  0
LINE
  5
377
  8
0
 10
464.76130070511948
 20
4.0000045037577836
 30
0.0
 11
464.76130070511948
 21
79.125004503758333
 31
0.0
  0
LINE
  5
378
  8
0
 10
465.75230105044818
 20
79.125004503758333
 30
0.0
 11
465.75230105044812
 21
4.0000045037577836
 31
0.0
  0
LINE
  5
379
  8
0
 10
464.76130070511948
 20
4.0000045037577836
 30
0.0
 11
465.75230105044812
 21
4.0000045037577836
 31
0.0
  0
LINE
  5
37A
  8
0
 10
465.75230105044818
 20
79.125004503758333
 30
0.0
 11
464.76130070511948
 21
79.125004503758333
 31
0.0
  0
LINE
  5
37B
  8
0
 10
495.75230105044801
 20
4.0000045037577321
 30
0.0
 11
495.75230105044818
 21
79.125004503758305
 31
0.0
  0
LINE
  5
37C
  8
0
 10
496.74431636721732
 20
79.125004503758305
 30
0.0
 11
496.7443163672171
 21
4.0000045037577321
 31
0.0
  0
LINE
  5
37D
  8
0
 10
496.7443163672171
 20
4.0000045037577321
 30
0.0
 11
495.75230105044801
 21
4.0000045037577321
 31
0.0
  0
LINE
  5
37E
  8
0
 10
496.74431636721732
 20
79.125004503758305
 30
0.0
 11
495.75230105044818
 21
79.125004503758305
 31
0.0
  0
LINE
  5
37F
  8
0
 10
411.75230105044778
 20
6.0000045037577348
 30
0.0
 11
441.7523010504492
 21
6.0000045037577348
 31
0.0
  0
LINE
  5
380
  8
0
 10
411.75230105044739
 20
68.406158526918418
 30
0.0
 11
441.75230105044727
 21
68.406158526918745
 31
0.0
  0
LINE
  5
381
  8
0
 10
441.75230105044801
 20
4.000004503757828
 30
0.0
 11
441.75230105044801
 21
79.12500450375839
 31
0.0
  0
LINE
  5
382
  8
0
 10
442.75230105044801
 20
79.12500450375839
 30
0.0
 11
442.75230105044801
 21
4.000004503757828
 31
0.0
  0
LINE
  5
383
  8
0
 10
441.75230105044801
 20
4.000004503757828
 30
0.0
 11
442.75230105044801
 21
4.000004503757828
 31
0.0
  0
LINE
  5
384
  8
0
 10
442.75230105044801
 20
79.12500450375839
 30
0.0
 11
441.75230105044801
 21
79.12500450375839
 31
0.0
  0
LINE
  5
385
  8
0
 10
410.75230105044801
 20
4.0000045037578689
 30
0.0
 11
410.75230105044801
 21
79.125004503758419
 31
0.0
  0
LINE
  5
386
  8
0
 10
411.75230105044812
 20
79.125004503758419
 30
0.0
 11
411.75230105044812
 21
4.0000045037578689
 31
0.0
  0
LINE
  5
387
  8
0
 10
410.75230105044801
 20
4.0000045037578689
 30
0.0
 11
411.75230105044812
 21
4.0000045037578689
 31
0.0
  0
LINE
  5
388
  8
0
 10
411.75230105044812
 20
79.125004503758419
 30
0.0
 11
410.75230105044801
 21
79.125004503758419
 31
0.0
  0
LINE
  5
389
  8
0
 10
385.5023010504479
 20
79.125004503760181
 30
0.0
 11
385.5023010504479
 21
4.0000045037577321
 31
0.0
  0
LINE
  5
38A
  8
0
 10
385.5023010504479
 20
4.0000045037577321
 30
0.0
 11
410.7523010504471
 21
4.0000045037577321
 31
0.0
  0
LINE
  5
38B
  8
0
 10
410.7523010504471
 20
4.0000045037577321
 30
0.0
 11
410.7523010504471
 21
79.125004503760181
 31
0.0
1001
ACAD
1000
ASC_BOUNDS
1002
{
1070
    19
1005
4D0
1002
}
  0
LINE
  5
38C
  8
0
 10
410.7523010504471
 20
79.125004503760181
 30
0.0
 11
385.5023010504479
 21
79.125004503760181
 31
0.0
  0
LINE
  5
38D
  8
0
 10
464.76130070511931
 20
79.12500450375839
 30
0.0
 11
442.75230105044778
 21
79.12500450375839
 31
0.0
  0
LINE
  5
38E
  8
0
 10
442.75230105044778
 20
79.12500450375839
 30
0.0
 11
442.75230105044778
 21
4.000004503757828
 31
0.0
1001
ACAD
1000
ASC_BOUNDS
1002
{
1070
    19
1005
4D0
1002
}
  0
LINE
  5
38F
  8
0
 10
442.75230105044778
 20
4.0000045037578156
 30
0.0
 11
464.76130070511931
 21
4.000004503757828
 31
0.0
  0
LINE
  5
390
  8
0
 10
464.76130070511931
 20
4.000004503757828
 30
0.0
 11
464.76130070511931
 21
79.12500450375839
 31
0.0
1001
ACAD
1000
ASC_BOUNDS
1002
{
1070
    19
1005
4D0
1002
}
  0
LINE
  5
391
  8
0
 10
522.00230105044784
 20
79.12500450375839
 30
0.0
 11
496.74431636721692
 21
79.12500450375839
 31
0.0
  0
LINE
  5
392
  8
0
 10
496.74431636721692
 20
79.12500450375839
 30
0.0
 11
496.74431636721692
 21
4.000004503757828
 31
0.0
1001
ACAD
1000
ASC_BOUNDS
1002
{
1070
    19
1005
4D0
1002
}
  0
LINE
  5
393
  8
0
 10
496.74431636721692
 20
4.0000045037578156
 30
0.0
 11
522.00230105044784
 21
4.000004503757828
 31
0.0
  0
LINE
  5
394
  8
0
 10
522.00230105044784
 20
4.000004503757828
 30
0.0
 11
522.00230105044784
 21
79.12500450375839
 31
0.0
  0
LINE
  5
395
  8
0
 10
383.87730105044852
 20
80.750004503757751
 30
0.0
 11
523.6273010504483
 21
80.750004503757751
 31
0.0
  0
LINE
  5
396
  8
0
 10
523.6273010504483
 20
0.0000045037577365
 30
0.0
 11
383.87730105044852
 21
0.0000045037577365
 31
0.0
  0
LINE
  5
397
  8
0
 10
383.87730105044852
 20
0.0000045037577365
 30
0.0
 11
383.87730105044852
 21
80.750004503757751
 31
0.0
  0
LINE
  5
398
  8
0
 10
385.5023010504483
 20
4.0000045037566121
 30
0.0
 11
385.50230105044739
 21
79.12500450375714
 31
0.0
1001
ACAD
1000
ASC_BOUNDS
1002
{
1070
    19
1005
4D0
1002
}
  0
LINE
  5
399
  8
0
 10
385.50230105044739
 20
79.12500450375714
 30
0.0
 11
522.00230105044739
 21
79.125004503758561
 31
0.0
1001
ACAD
1000
ASC_BOUNDS
1002
{
1070
    19
1005
4D0
1005
4D0
1005
4D0
1002
}
  0
LINE
  5
39A
  8
0
 10
522.00230105044739
 20
79.125004503758561
 30
0.0
 11
522.00230105044807
 21
4.000004503758019
 31
0.0
1001
ACAD
1000
ASC_BOUNDS
1002
{
1070
    19
1005
4D0
1002
}
  0
LINE
  5
39B
  8
0
 10
522.00230105044807
 20
4.0000045037580083
 30
0.0
 11
385.5023010504483
 21
4.0000045037566032
 31
0.0
1001
ACAD
1000
ASC_BOUNDS
1002
{
1070
    19
1005
4D0
1005
4D0
1005
4D0
1002
}
  0
LINE
  5
39C
  8
0
 10
523.6273010504483
 20
0.0000045037577365
 30
0.0
 11
523.6273010504483
 21
80.750004503757751
 31
0.0
  0
ARC
  5
39D
  8
0
 10
453.75230105044761
 20
144.87500450375839
 30
0.0
 40
8.2500000000000053
 50
179.9999999999996
 51
359.99999999999881
  0
ARC
  5
39E
  8
0
 10
453.75230105044761
 20
144.87500450375839
 30
0.0
 40
8.2500000000000089
 50
359.99999999999949
 51
179.9999999999996
  0
ARC
  5
39F
  8
0
 10
453.75230105044761
 20
144.87500450375839
 30
0.0
 40
7.6874999999999956
 50
0.0000000000006679
 51
180.00000000000011
  0
ARC
  5
3A0
  8
0
 10
453.75230105044761
 20
144.87500450375839
 30
0.0
 40
7.687499999999992
 50
180.00000000000011
 51
359.9999999999996
  0
LINE
  5
3A1
  8
0
 10
458.87480182443551
 20
142.433148654961
 30
0.0
 11
458.67986134824491
 21
141.98423992480221
 31
0.0
  0
LINE
  5
3A2
  8
0
 10
458.67986134824491
 20
141.98423992480221
 30
0.0
 11
458.22896849110219
 21
141.82699786131019
 31
0.0
  0
LINE
  5
3A3
  8
0
 10
458.22896849110219
 20
141.82699786131019
 30
0.0
 11
457.90443972126081
 21
141.8912339724213
 31
0.0
  0
LINE
  5
3A4
  8
0
 10
457.90443972126081
 20
141.8912339724213
 30
0.0
 11
457.66894864983232
 21
142.08394230575459
 31
0.0
  0
LINE
  5
3A5
  8
0
 10
457.66894864983232
 20
142.08394230575459
 30
0.0
 11
457.4779764276102
 21
142.8418788136911
 31
0.0
  0
LINE
  5
3A6
  8
0
 10
457.4779764276102
 20
142.8418788136911
 30
0.0
 11
457.66200420538769
 21
143.60576770258001
 31
0.0
  0
LINE
  5
3A7
  8
0
 10
457.66200420538769
 20
143.60576770258001
 30
0.0
 11
457.89179091173719
 21
143.79549984543721
 31
0.0
  0
LINE
  5
3A8
  8
0
 10
457.89179091173719
 20
143.79549984543721
 30
0.0
 11
458.21309547522918
 21
143.85874389305619
 31
0.0
  0
LINE
  5
3A9
  8
0
 10
458.21309547522918
 20
143.85874389305619
 30
0.0
 11
458.6813494434831
 21
143.71539071845299
 31
0.0
  0
LINE
  5
3AA
  8
0
 10
458.6813494434831
 20
143.71539071845299
 30
0.0
 11
458.87480182443551
 21
143.29029151210381
 31
0.0
  0
LINE
  5
3AB
  8
0
 10
458.87480182443551
 20
143.29029151210381
 30
0.0
 11
460.0176589672925
 21
143.29029151210381
 31
0.0
  0
LINE
  5
3AC
  8
0
 10
460.0176589672925
 20
143.29029151210381
 30
0.0
 11
459.85744071332442
 21
143.9379849644848
 31
0.0
  0
LINE
  5
3AD
  8
0
 10
459.85744071332442
 20
143.9379849644848
 30
0.0
 11
459.48988118951479
 21
144.41677960734199
 31
0.0
  0
LINE
  5
3AE
  8
0
 10
459.48988118951479
 20
144.41677960734199
 30
0.0
 11
458.93085341173708
 21
144.71253853591341
 31
0.0
  0
LINE
  5
3AF
  8
0
 10
458.93085341173708
 20
144.71253853591341
 30
0.0
 11
458.19623039586418
 21
144.81112484543721
 31
0.0
  0
LINE
  5
3B0
  8
0
 10
458.19623039586418
 20
144.81112484543721
 30
0.0
 11
457.39823932443551
 21
144.67918040099269
 31
0.0
  0
LINE
  5
3B1
  8
0
 10
457.39823932443551
 20
144.67918040099269
 30
0.0
 11
456.78799626887979
 21
144.28334706765941
 31
0.0
  0
LINE
  5
3B2
  8
0
 10
456.78799626887979
 20
144.28334706765941
 30
0.0
 11
456.40071948316557
 21
143.65933913115151
 31
0.0
  0
LINE
  5
3B3
  8
0
 10
456.40071948316557
 20
143.65933913115151
 30
0.0
 11
456.27162722126081
 21
142.8428708771832
 31
0.0
  0
LINE
  5
3B4
  8
0
 10
456.27162722126081
 20
142.8428708771832
 30
0.0
 11
456.40133952284822
 21
142.0245425041673
 31
0.0
  0
LINE
  5
3B5
  8
0
 10
456.40133952284822
 20
142.0245425041673
 30
0.0
 11
456.7904764276102
 21
141.4009065914689
 31
0.0
  0
LINE
  5
3B6
  8
0
 10
456.7904764276102
 20
141.4009065914689
 30
0.0
 11
457.4058038085625
 21
141.00618932956411
 31
0.0
  0
LINE
  5
3B7
  8
0
 10
457.4058038085625
 20
141.00618932956411
 30
0.0
 11
458.21408753872129
 21
140.87461690892931
 31
0.0
  0
LINE
  5
3B8
  8
0
 10
458.21408753872129
 20
140.87461690892931
 30
0.0
 11
458.93717781649889
 21
140.97679944861181
 31
0.0
  0
LINE
  5
3B9
  8
0
 10
458.93717781649889
 20
140.97679944861181
 30
0.0
 11
459.49335341173708
 21
141.28334706765941
 31
0.0
  0
LINE
  5
3BA
  8
0
 10
459.49335341173708
 20
141.28334706765941
 30
0.0
 11
459.86078892761009
 21
141.77516254384989
 31
0.0
  0
LINE
  5
3BB
  8
0
 10
459.86078892761009
 20
141.77516254384989
 30
0.0
 11
460.0176589672925
 21
142.433148654961
 31
0.0
  0
LINE
  5
3BC
  8
0
 10
460.0176589672925
 20
142.433148654961
 30
0.0
 11
458.87480182443551
 21
142.433148654961
 31
0.0
  0
LINE
  5
3BD
  8
0
 10
451.6530744466678
 20
143.20722284388421
 30
0.0
 11
452.8306538117472
 21
143.20722284388421
 31
0.0
  0
LINE
  5
3BE
  8
0
 10
452.8306538117472
 20
143.20722284388421
 30
0.0
 11
452.97747920857239
 21
143.71515935182069
 31
0.0
  0
LINE
  5
3BF
  8
0
 10
452.97747920857239
 20
143.71515935182069
 30
0.0
 11
454.18085222444552
 21
143.71515935182069
 31
0.0
  0
LINE
  5
3C0
  8
0
 10
454.18085222444552
 20
143.71515935182069
 30
0.0
 11
454.32271730381052
 21
143.20722284388421
 31
0.0
  0
LINE
  5
3C1
  8
0
 10
454.32271730381052
 20
143.20722284388421
 30
0.0
 11
455.5260903196837
 21
143.20722284388421
 31
0.0
  0
LINE
  5
3C2
  8
0
 10
455.5260903196837
 20
143.20722284388421
 30
0.0
 11
454.19672524031847
 21
147.01674665340801
 31
0.0
  0
LINE
  5
3C3
  8
0
 10
454.19672524031847
 20
147.01674665340801
 30
0.0
 11
452.9675585736519
 21
147.01674665340801
 31
0.0
  0
LINE
  5
3C4
  8
0
 10
452.9675585736519
 20
147.01674665340801
 30
0.0
 11
451.6530744466678
 21
143.20722284388421
 31
0.0
  0
LINE
  5
3C5
  8
0
 10
453.19771730381069
 20
144.5405561772175
 30
0.0
 11
453.58363000222329
 21
145.84412760578891
 31
0.0
  0
LINE
  5
3C6
  8
0
 10
453.58363000222329
 20
145.84412760578891
 30
0.0
 11
453.96061412920739
 21
144.5405561772175
 31
0.0
  0
LINE
  5
3C7
  8
0
 10
453.96061412920739
 20
144.5405561772175
 30
0.0
 11
453.19771730381069
 21
144.5405561772175
 31
0.0
  0
LINE
  5
3C8
  8
0
 10
447.89234325640632
 20
144.9476111530644
 30
0.0
 11
449.59174801831108
 21
144.9476111530644
 31
0.0
  0
LINE
  5
3C9
  8
0
 10
449.59174801831108
 20
144.9476111530644
 30
0.0
 11
450.35960516116819
 21
144.98630162925491
 31
0.0
  0
LINE
  5
3CA
  8
0
 10
450.35960516116819
 20
144.98630162925491
 30
0.0
 11
450.77230357386679
 21
145.1182460736994
 31
0.0
  0
LINE
  5
3CB
  8
0
 10
450.77230357386679
 20
145.1182460736994
 30
0.0
 11
451.18053770085078
 21
145.5011825816359
 31
0.0
  0
LINE
  5
3CC
  8
0
 10
451.18053770085078
 20
145.5011825816359
 30
0.0
 11
451.32091468497788
 21
146.0884841689375
 31
0.0
  0
LINE
  5
3CD
  8
0
 10
451.32091468497788
 20
146.0884841689375
 30
0.0
 11
451.17706547862872
 21
146.65148020068349
 31
0.0
  0
LINE
  5
3CE
  8
0
 10
451.17706547862872
 20
146.65148020068349
 30
0.0
 11
450.7336130976762
 21
146.97638099433431
 31
0.0
  0
LINE
  5
3CF
  8
0
 10
450.7336130976762
 20
146.97638099433431
 30
0.0
 11
451.07885119291421
 21
147.29384131179461
 31
0.0
  0
LINE
  5
3D0
  8
0
 10
451.07885119291421
 20
147.29384131179461
 30
0.0
 11
451.19393055799378
 21
147.74622226417549
 31
0.0
  0
LINE
  5
3D1
  8
0
 10
451.19393055799378
 20
147.74622226417549
 30
0.0
 11
451.0401607167239
 21
148.30624210544539
 31
0.0
  0
LINE
  5
3D2
  8
0
 10
451.0401607167239
 20
148.30624210544539
 30
0.0
 11
450.59770039926372
 21
148.6460238514772
 31
0.0
  0
LINE
  5
3D3
  8
0
 10
450.59770039926372
 20
148.6460238514772
 30
0.0
 11
450.20236309767608
 21
148.73134131179461
 31
0.0
  0
LINE
  5
3D4
  8
0
 10
450.20236309767608
 20
148.73134131179461
 30
0.0
 11
449.46873214529518
 21
148.75713496258831
 31
0.0
  0
LINE
  5
3D5
  8
0
 10
449.46873214529518
 20
148.75713496258831
 30
0.0
 11
447.89234325640649
 21
148.75713496258831
 31
0.0
  0
LINE
  5
3D6
  8
0
 10
447.89234325640649
 20
148.75713496258831
 30
0.0
 11
447.89234325640632
 21
144.9476111530644
 31
0.0
  0
LINE
  5
3D7
  8
0
 10
449.09869246275571
 20
145.83650004195329
 30
0.0
 11
449.09869246275571
 21
146.534912740366
 31
0.0
  0
LINE
  5
3D8
  8
0
 10
449.09869246275571
 20
146.534912740366
 30
0.0
 11
449.64730357386668
 21
146.534912740366
 31
0.0
  0
LINE
  5
3D9
  8
0
 10
449.64730357386668
 20
146.534912740366
 30
0.0
 11
450.05652976434288
 21
146.45554766100091
 31
0.0
  0
LINE
  5
3DA
  8
0
 10
450.05652976434288
 20
146.45554766100091
 30
0.0
 11
450.17805754212071
 21
146.1886825816359
 31
0.0
  0
LINE
  5
3DB
  8
0
 10
450.17805754212071
 20
146.1886825816359
 30
0.0
 11
450.05900992307312
 21
145.91884131179461
 31
0.0
  0
LINE
  5
3DC
  8
0
 10
450.05900992307312
 20
145.91884131179461
 30
0.0
 11
449.65821627227928
 21
145.83650004195329
 31
0.0
  0
LINE
  5
3DD
  8
0
 10
449.65821627227928
 20
145.83650004195329
 30
0.0
 11
449.09869246275571
 21
145.83650004195329
 31
0.0
  0
LINE
  5
3DE
  8
0
 10
449.09869246275571
 20
147.23332543877871
 30
0.0
 11
449.09869246275571
 21
147.8682460736994
 31
0.0
  0
LINE
  5
3DF
  8
0
 10
449.09869246275571
 20
147.8682460736994
 30
0.0
 11
449.4330178595809
 21
147.8682460736994
 31
0.0
  0
LINE
  5
3E0
  8
0
 10
449.4330178595809
 20
147.8682460736994
 30
0.0
 11
449.9414503992636
 21
147.80078575623909
 31
0.0
  0
LINE
  5
3E1
  8
0
 10
449.9414503992636
 20
147.80078575623909
 30
0.0
 11
450.05107341513661
 21
147.55078575623901
 31
0.0
  0
LINE
  5
3E2
  8
0
 10
450.05107341513661
 20
147.55078575623901
 30
0.0
 11
449.94889087545403
 21
147.3057460736994
 31
0.0
  0
LINE
  5
3E3
  8
0
 10
449.94889087545403
 20
147.3057460736994
 30
0.0
 11
449.59670833577161
 21
147.23332543877871
 31
0.0
  0
LINE
  5
3E4
  8
0
 10
449.59670833577161
 20
147.23332543877871
 30
0.0
 11
449.09869246275571
 21
147.23332543877871
 31
0.0
  0
ARC
  5
3E5
  8
0
 10
453.7523010504471
 20
144.87500450375899
 30
0.0
 40
9.0000000000000089
 50
179.99999999999969
 51
359.99999999999881
  0
ARC
  5
3E6
  8
0
 10
453.7523010504471
 20
144.87500450375899
 30
0.0
 40
9.0000000000000089
 50
359.99999999999937
 51
179.99999999999969
  0
ARC
  5
3E7
  8
0
 10
453.752301050445
 20
167.12500450375771
 30
0.0
 40
4.0000000000000133
 50
90.0
 51
270.0
  0
ARC
  5
3E8
  8
0
 10
453.752301050445
 20
167.12500450375771
 30
0.0
 40
3.9999999999999978
 50
270.0
 51
90.0
  0
LINE
  5
3E9
  8
0
 10
383.62730105044938
 20
49.250004503757957
 30
0.0
 11
383.87730105044989
 21
49.250004503757957
 31
0.0
  0
LINE
  5
3EA
  8
0
 10
383.87730105044989
 20
50.750004503758298
 30
0.0
 11
383.62730105044938
 21
50.750004503758298
 31
0.0
  0
LINE
  5
3EB
  8
0
 10
383.62730105044972
 20
32.000004503757957
 30
0.0
 11
383.87730105045011
 21
32.000004503757957
 31
0.0
  0
LINE
  5
3EC
  8
0
 10
383.87730105045011
 20
35.000004503757957
 30
0.0
 11
383.62730105044972
 21
35.000004503757957
 31
0.0
  0
LINE
  5
3ED
  8
0
 10
383.6273010504483
 20
50.000004503758127
 30
0.0
 11
383.6273010504483
 21
50.649523485624002
 31
0.0
  0
LINE
  5
3EE
  8
0
 10
383.6273010504483
 20
50.649523556596442
 30
0.0
 11
383.6273010504483
 21
50.724448239941488
 31
0.0
  0
LINE
  5
3EF
  8
0
 10
383.6273010504483
 20
50.724448873474927
 30
0.0
 11
383.6273010504483
 21
50.750004503758127
 31
0.0
  0
LINE
  5
3F0
  8
0
 10
383.6273010504483
 20
49.25000450375812
 30
0.0
 11
383.6273010504483
 21
49.275560134041321
 31
0.0
  0
LINE
  5
3F1
  8
0
 10
383.6273010504483
 20
49.275562061288042
 30
0.0
 11
383.6273010504483
 21
49.350485450919798
 31
0.0
  0
LINE
  5
3F2
  8
0
 10
383.6273010504483
 20
49.35048709296165
 30
0.0
 11
383.6273010504483
 21
49.469671529667409
 31
0.0
  0
LINE
  5
3F3
  8
0
 10
383.6273010504483
 20
49.469674417868212
 30
0.0
 11
383.6273010504483
 21
49.625002415737782
 31
0.0
  0
LINE
  5
3F4
  8
0
 10
383.6273010504483
 20
49.625004503758127
 30
0.0
 11
383.6273010504483
 21
49.805887799380159
 31
0.0
  0
LINE
  5
3F5
  8
0
 10
383.6273010504483
 20
49.805890219931229
 30
0.0
 11
383.6273010504483
 21
50.000002574445581
 31
0.0
  0
LINE
  5
3F6
  8
0
 10
383.62730105044852
 20
33.500005468413562
 30
0.0
 11
383.62730105044852
 21
34.250004503758127
 31
0.0
  0
LINE
  5
3F7
  8
0
 10
383.62730105044852
 20
34.250005547768133
 30
0.0
 11
383.62730105044852
 21
34.799041681957313
 31
0.0
  0
LINE
  5
3F8
  8
0
 10
383.62730105044852
 20
34.7990426094348
 30
0.0
 11
383.62730105044852
 21
34.948893243191733
 31
0.0
  0
LINE
  5
3F9
  8
0
 10
383.62730105044852
 20
34.948893321248363
 30
0.0
 11
383.62730105044881
 21
35.000004503758127
 31
0.0
  0
LINE
  5
3FA
  8
0
 10
383.62730105044852
 20
32.000004503758142
 30
0.0
 11
383.62730105044852
 21
32.051113789843143
 31
0.0
  0
LINE
  5
3FB
  8
0
 10
383.62730105044852
 20
32.051115764324521
 30
0.0
 11
383.62730105044852
 21
32.200966398081484
 31
0.0
  0
LINE
  5
3FC
  8
0
 10
383.62730105044852
 20
32.200966540025362
 30
0.0
 11
383.62730105044852
 21
32.439344110111541
 31
0.0
  0
LINE
  5
3FD
  8
0
 10
383.62730105044852
 20
32.439344331978333
 30
0.0
 11
383.62730105044852
 21
33.500004503758127
 31
0.0
  0
LINE
  5
3FE
  8
0
 10
383.62730105044972
 20
8.0000045037583032
 30
0.0
 11
383.87730105044989
 21
8.0000045037583032
 31
0.0
  0
LINE
  5
3FF
  8
0
 10
383.87730105044989
 20
16.000004503758181
 30
0.0
 11
383.62730105044972
 21
16.000004503758181
 31
0.0
  0
LINE
  5
400
  8
0
 10
383.62730105044852
 20
12.00000450375815
 30
0.0
 11
383.62730105044852
 21
13.035280684168219
 31
0.0
  0
LINE
  5
401
  8
0
 10
383.62730105044852
 20
13.03528142796559
 30
0.0
 11
383.62730105044852
 21
14.0000040555016
 31
0.0
  0
LINE
  5
402
  8
0
 10
383.62730105044852
 20
14.00000450375815
 30
0.0
 11
383.62730105044852
 21
14.82843162850433
 31
0.0
  0
LINE
  5
403
  8
0
 10
383.62730105044852
 20
14.828431849844071
 30
0.0
 11
383.62730105044852
 21
15.464106118895909
 31
0.0
  0
LINE
  5
404
  8
0
 10
383.62730105044852
 20
15.46410697462845
 30
0.0
 11
383.62730105044852
 21
15.863707448683311
 31
0.0
  0
LINE
  5
405
  8
0
 10
383.62730105044852
 20
15.86370780891442
 30
0.0
 11
383.62730105044852
 21
16.000004503758149
 31
0.0
  0
LINE
  5
406
  8
0
 10
383.62730105044852
 20
8.0000045037581646
 30
0.0
 11
383.62730105044852
 21
8.1363008324130135
 31
0.0
  0
LINE
  5
407
  8
0
 10
383.62730105044852
 20
8.1363011986018918
 30
0.0
 11
383.62730105044852
 21
8.5359028886204094
 31
0.0
  0
LINE
  5
408
  8
0
 10
383.62730105044852
 20
8.5359029398326918
 30
0.0
 11
383.62730105044852
 21
9.1715771576712761
 31
0.0
  0
LINE
  5
409
  8
0
 10
383.62730105044852
 20
9.1715773790119712
 30
0.0
 11
383.62730105044852
 21
10.00000424275526
 31
0.0
  0
LINE
  5
40A
  8
0
 10
383.62730105044852
 20
10.00000450375815
 30
0.0
 11
383.62730105044852
 21
12.00000450375815
 31
0.0
  0
LINE
  5
40B
  8
0
 10
-0.0000002920971838
 20
174.87500450375751
 30
0.0
 11
139.7499997078971
 21
174.87500450375751
 31
0.0
  0
LINE
  5
40C
  8
0
 10
139.7499997078971
 20
80.750004503757779
 30
0.0
 11
-0.0000002920971838
 21
80.750004503757779
 31
0.0
  0
LINE
  5
40D
  8
0
 10
-0.0000002920971838
 20
174.87500450375751
 30
0.0
 11
-0.0000002920971838
 21
80.750004503757779
 31
0.0
  0
LINE
  5
40E
  8
0
 10
139.7499997078971
 20
80.750004503757779
 30
0.0
 11
139.7499997078971
 21
174.87500450375751
 31
0.0
  0
LINE
  5
40F
  8
0
 10
-0.0000002920971838
 20
80.750004503757751
 30
0.0
 11
139.74999970790279
 21
80.750004503757751
 31
0.0
  0
LINE
  5
410
  8
0
 10
139.74999970790279
 20
0.0000045037577365
 30
0.0
 11
-0.0000002920971838
 21
0.0000045037577365
 31
0.0
  0
LINE
  5
411
  8
0
 10
139.74999970790279
 20
80.750004503757751
 30
0.0
 11
139.74999970790279
 21
0.0000045037577365
 31
0.0
  0
LINE
  5
412
  8
0
 10
-0.0000002920971838
 20
0.0000045037577365
 30
0.0
 11
-0.0000002920971838
 21
80.750004503757751
 31
0.0
  0
ARC
  5
413
  8
0
 10
69.874999707903726
 20
144.87500450375919
 30
0.0
 40
8.2500000000000018
 50
179.99999999999969
 51
359.99999999999881
  0
ARC
  5
414
  8
0
 10
69.874999707903726
 20
144.87500450375919
 30
0.0
 40
8.25
 50
359.99999999999937
 51
179.99999999999969
  0
ARC
  5
415
  8
0
 10
69.874999707903726
 20
144.87500450375919
 30
0.0
 40
7.6875000000000018
 50
0.0000000000006107
 51
180.0000000000002
  0
ARC
  5
416
  8
0
 10
69.874999707903726
 20
144.87500450375919
 30
0.0
 40
7.6874999999999831
 50
180.00000000000031
 51
359.9999999999996
  0
LINE
  5
417
  8
0
 10
74.997500481891393
 20
142.4331486549618
 30
0.0
 11
74.802560005701025
 21
141.98423992480301
 31
0.0
  0
LINE
  5
418
  8
0
 10
74.802560005701025
 20
141.98423992480301
 30
0.0
 11
74.351667148558136
 21
141.82699786131101
 31
0.0
  0
LINE
  5
419
  8
0
 10
74.351667148558136
 20
141.82699786131101
 30
0.0
 11
74.027138378716927
 21
141.8912339724221
 31
0.0
  0
LINE
  5
41A
  8
0
 10
74.027138378716927
 20
141.8912339724221
 30
0.0
 11
73.791647307288258
 21
142.08394230575539
 31
0.0
  0
LINE
  5
41B
  8
0
 10
73.791647307288258
 20
142.08394230575539
 30
0.0
 11
73.600675085066086
 21
142.84187881369189
 31
0.0
  0
LINE
  5
41C
  8
0
 10
73.600675085066086
 20
142.84187881369189
 30
0.0
 11
73.784702862843915
 21
143.60576770258081
 31
0.0
  0
LINE
  5
41D
  8
0
 10
73.784702862843915
 20
143.60576770258081
 30
0.0
 11
74.014489569193074
 21
143.795499845438
 31
0.0
  0
LINE
  5
41E
  8
0
 10
74.014489569193074
 20
143.795499845438
 30
0.0
 11
74.335794132685123
 21
143.85874389305701
 31
0.0
  0
LINE
  5
41F
  8
0
 10
74.335794132685123
 20
143.85874389305701
 30
0.0
 11
74.804048100939099
 21
143.71539071845379
 31
0.0
  0
LINE
  5
420
  8
0
 10
74.804048100939099
 20
143.71539071845379
 30
0.0
 11
74.997500481891393
 21
143.2902915121046
 31
0.0
  0
LINE
  5
421
  8
0
 10
74.997500481891393
 20
143.2902915121046
 30
0.0
 11
76.140357624748503
 21
143.2902915121046
 31
0.0
  0
LINE
  5
422
  8
0
 10
76.140357624748503
 20
143.2902915121046
 30
0.0
 11
75.980139370780307
 21
143.93798496448559
 31
0.0
  0
LINE
  5
423
  8
0
 10
75.980139370780307
 20
143.93798496448559
 30
0.0
 11
75.612579846970903
 21
144.4167796073427
 31
0.0
  0
LINE
  5
424
  8
0
 10
75.612579846970903
 20
144.4167796073427
 30
0.0
 11
75.053552069193074
 21
144.71253853591421
 31
0.0
  0
LINE
  5
425
  8
0
 10
75.053552069193074
 20
144.71253853591421
 30
0.0
 11
74.318929053320062
 21
144.811124845438
 31
0.0
  0
LINE
  5
426
  8
0
 10
74.318929053320062
 20
144.811124845438
 30
0.0
 11
73.520937981891393
 21
144.67918040099349
 31
0.0
  0
LINE
  5
427
  8
0
 10
73.520937981891393
 20
144.67918040099349
 30
0.0
 11
72.910694926335964
 21
144.2833470676602
 31
0.0
  0
LINE
  5
428
  8
0
 10
72.910694926335964
 20
144.2833470676602
 30
0.0
 11
72.523418140621516
 21
143.65933913115231
 31
0.0
  0
LINE
  5
429
  8
0
 10
72.523418140621516
 20
143.65933913115231
 30
0.0
 11
72.394325878716927
 21
142.842870877184
 31
0.0
  0
LINE
  5
42A
  8
0
 10
72.394325878716927
 20
142.842870877184
 30
0.0
 11
72.52403818030416
 21
142.0245425041681
 31
0.0
  0
LINE
  5
42B
  8
0
 10
72.52403818030416
 20
142.0245425041681
 30
0.0
 11
72.913175085066086
 21
141.40090659146969
 31
0.0
  0
LINE
  5
42C
  8
0
 10
72.913175085066086
 20
141.40090659146969
 30
0.0
 11
73.528502466018381
 21
141.0061893295649
 31
0.0
  0
LINE
  5
42D
  8
0
 10
73.528502466018381
 20
141.0061893295649
 30
0.0
 11
74.336786196177172
 21
140.87461690892999
 31
0.0
  0
LINE
  5
42E
  8
0
 10
74.336786196177172
 20
140.87461690892999
 30
0.0
 11
75.059876473955001
 21
140.97679944861261
 31
0.0
  0
LINE
  5
42F
  8
0
 10
75.059876473955001
 20
140.97679944861261
 30
0.0
 11
75.616052069193074
 21
141.2833470676602
 31
0.0
  0
LINE
  5
430
  8
0
 10
75.616052069193074
 20
141.2833470676602
 30
0.0
 11
75.983487585066086
 21
141.7751625438506
 31
0.0
  0
LINE
  5
431
  8
0
 10
75.983487585066086
 20
141.7751625438506
 30
0.0
 11
76.140357624748503
 21
142.4331486549618
 31
0.0
  0
LINE
  5
432
  8
0
 10
76.140357624748503
 20
142.4331486549618
 30
0.0
 11
74.997500481891393
 21
142.4331486549618
 31
0.0
  0
LINE
  5
433
  8
0
 10
67.7757731041238
 20
143.20722284388501
 30
0.0
 11
68.953352469203082
 21
143.20722284388501
 31
0.0
  0
LINE
  5
434
  8
0
 10
68.953352469203082
 20
143.20722284388501
 30
0.0
 11
69.100177866028616
 21
143.71515935182151
 31
0.0
  0
LINE
  5
435
  8
0
 10
69.100177866028616
 20
143.71515935182151
 30
0.0
 11
70.303550881901614
 21
143.71515935182151
 31
0.0
  0
LINE
  5
436
  8
0
 10
70.303550881901614
 20
143.71515935182151
 30
0.0
 11
70.44541596126669
 21
143.20722284388501
 31
0.0
  0
LINE
  5
437
  8
0
 10
70.44541596126669
 20
143.20722284388501
 30
0.0
 11
71.648788977139702
 21
143.20722284388501
 31
0.0
  0
LINE
  5
438
  8
0
 10
71.648788977139702
 20
143.20722284388501
 30
0.0
 11
70.319423897774641
 21
147.0167466534088
 31
0.0
  0
LINE
  5
439
  8
0
 10
70.319423897774641
 20
147.0167466534088
 30
0.0
 11
69.090257231107898
 21
147.0167466534088
 31
0.0
  0
LINE
  5
43A
  8
0
 10
69.090257231107898
 20
147.0167466534088
 30
0.0
 11
67.7757731041238
 21
143.20722284388501
 31
0.0
  0
LINE
  5
43B
  8
0
 10
69.32041596126669
 20
144.54055617721829
 30
0.0
 11
69.706328659679457
 21
145.84412760578971
 31
0.0
  0
LINE
  5
43C
  8
0
 10
69.706328659679457
 20
145.84412760578971
 30
0.0
 11
70.083312786663555
 21
144.54055617721829
 31
0.0
  0
LINE
  5
43D
  8
0
 10
70.083312786663555
 20
144.54055617721829
 30
0.0
 11
69.32041596126669
 21
144.54055617721829
 31
0.0
  0
LINE
  5
43E
  8
0
 10
64.015041913862433
 20
144.9476111530652
 30
0.0
 11
65.714446675767249
 21
144.9476111530652
 31
0.0
  0
LINE
  5
43F
  8
0
 10
65.714446675767249
 20
144.9476111530652
 30
0.0
 11
66.482303818624359
 21
144.98630162925571
 31
0.0
  0
LINE
  5
440
  8
0
 10
66.482303818624359
 20
144.98630162925571
 30
0.0
 11
66.895002231322664
 21
145.11824607370011
 31
0.0
  0
LINE
  5
441
  8
0
 10
66.895002231322664
 20
145.11824607370011
 30
0.0
 11
67.303236358306776
 21
145.5011825816367
 31
0.0
  0
LINE
  5
442
  8
0
 10
67.303236358306776
 20
145.5011825816367
 30
0.0
 11
67.443613342433764
 21
146.08848416893829
 31
0.0
  0
LINE
  5
443
  8
0
 10
67.443613342433764
 20
146.08848416893829
 30
0.0
 11
67.299764136084605
 21
146.65148020068429
 31
0.0
  0
LINE
  5
444
  8
0
 10
67.299764136084605
 20
146.65148020068429
 30
0.0
 11
66.85631175513231
 21
146.9763809943351
 31
0.0
  0
LINE
  5
445
  8
0
 10
66.85631175513231
 20
146.9763809943351
 30
0.0
 11
67.201549850370384
 21
147.2938413117954
 31
0.0
  0
LINE
  5
446
  8
0
 10
67.201549850370384
 20
147.2938413117954
 30
0.0
 11
67.316629215449666
 21
147.74622226417631
 31
0.0
  0
LINE
  5
447
  8
0
 10
67.316629215449666
 20
147.74622226417631
 30
0.0
 11
67.162859374179774
 21
148.30624210544619
 31
0.0
  0
LINE
  5
448
  8
0
 10
67.162859374179774
 20
148.30624210544619
 30
0.0
 11
66.720399056719543
 21
148.64602385147799
 31
0.0
  0
LINE
  5
449
  8
0
 10
66.720399056719543
 20
148.64602385147799
 30
0.0
 11
66.32506175513231
 21
148.7313413117954
 31
0.0
  0
LINE
  5
44A
  8
0
 10
66.32506175513231
 20
148.7313413117954
 30
0.0
 11
65.591430802751347
 21
148.75713496258911
 31
0.0
  0
LINE
  5
44B
  8
0
 10
65.591430802751347
 20
148.75713496258911
 30
0.0
 11
64.015041913862433
 21
148.75713496258911
 31
0.0
  0
LINE
  5
44C
  8
0
 10
64.015041913862433
 20
148.75713496258911
 30
0.0
 11
64.015041913862433
 21
144.9476111530652
 31
0.0
  0
LINE
  5
44D
  8
0
 10
65.221391120211592
 20
145.83650004195411
 30
0.0
 11
65.221391120211592
 21
146.53491274036679
 31
0.0
  0
LINE
  5
44E
  8
0
 10
65.221391120211592
 20
146.53491274036679
 30
0.0
 11
65.770002231322678
 21
146.53491274036679
 31
0.0
  0
LINE
  5
44F
  8
0
 10
65.770002231322678
 20
146.53491274036679
 30
0.0
 11
66.179228421798825
 21
146.4555476610017
 31
0.0
  0
LINE
  5
450
  8
0
 10
66.179228421798825
 20
146.4555476610017
 30
0.0
 11
66.300756199576654
 21
146.1886825816367
 31
0.0
  0
LINE
  5
451
  8
0
 10
66.300756199576654
 20
146.1886825816367
 30
0.0
 11
66.181708580528948
 21
145.9188413117954
 31
0.0
  0
LINE
  5
452
  8
0
 10
66.181708580528948
 20
145.9188413117954
 30
0.0
 11
65.780914929735445
 21
145.83650004195411
 31
0.0
  0
LINE
  5
453
  8
0
 10
65.780914929735445
 20
145.83650004195411
 30
0.0
 11
65.221391120211592
 21
145.83650004195411
 31
0.0
  0
LINE
  5
454
  8
0
 10
65.221391120211592
 20
147.2333254387795
 30
0.0
 11
65.221391120211592
 21
147.86824607370019
 31
0.0
  0
LINE
  5
455
  8
0
 10
65.221391120211592
 20
147.86824607370019
 30
0.0
 11
65.555716517036899
 21
147.86824607370019
 31
0.0
  0
LINE
  5
456
  8
0
 10
65.555716517036899
 20
147.86824607370019
 30
0.0
 11
66.064149056719543
 21
147.8007857562398
 31
0.0
  0
LINE
  5
457
  8
0
 10
66.064149056719543
 20
147.8007857562398
 30
0.0
 11
66.173772072592556
 21
147.5507857562398
 31
0.0
  0
LINE
  5
458
  8
0
 10
66.173772072592556
 20
147.5507857562398
 30
0.0
 11
66.071589532909911
 21
147.30574607370019
 31
0.0
  0
LINE
  5
459
  8
0
 10
66.071589532909911
 20
147.30574607370019
 30
0.0
 11
65.719406993227494
 21
147.2333254387795
 31
0.0
  0
LINE
  5
45A
  8
0
 10
65.719406993227494
 20
147.2333254387795
 30
0.0
 11
65.221391120211592
 21
147.2333254387795
 31
0.0
  0
ARC
  5
45B
  8
0
 10
69.874999707903044
 20
144.87500450375981
 30
0.0
 40
9.0000000000000124
 50
179.99999999999969
 51
359.99999999999881
  0
ARC
  5
45C
  8
0
 10
69.874999707903044
 20
144.87500450375981
 30
0.0
 40
9.0000000000000124
 50
359.99999999999949
 51
179.9999999999996
  0
ARC
  5
45D
  8
0
 10
135.6249997079037
 20
6.6250045037577658
 30
0.0
 40
0.9999999999999854
 50
359.99999999999949
 51
179.99999999999969
  0
ARC
  5
45E
  8
0
 10
135.6249997079037
 20
6.6250045037577658
 30
0.0
 40
1.0000000000000271
 50
180.00000000000011
 51
359.9999999999992
  0
LINE
  5
45F
  8
0
 10
139.74999970790299
 20
49.250004503757957
 30
0.0
 11
139.9999997079035
 21
49.250004503757957
 31
0.0
  0
LINE
  5
460
  8
0
 10
139.9999997079035
 20
50.750004503758298
 30
0.0
 11
139.74999970790299
 21
50.750004503758298
 31
0.0
  0
LINE
  5
461
  8
0
 10
139.74999970790299
 20
32.000004503757957
 30
0.0
 11
139.99999970790321
 21
32.000004503757957
 31
0.0
  0
LINE
  5
462
  8
0
 10
139.99999970790321
 20
35.000004503757957
 30
0.0
 11
139.74999970790299
 21
35.000004503757957
 31
0.0
  0
LINE
  5
463
  8
0
 10
139.99999970790299
 20
50.750004503758127
 30
0.0
 11
139.99999970790299
 21
50.37500450375812
 31
0.0
  0
LINE
  5
464
  8
0
 10
139.99999970790299
 20
50.3750027107317
 30
0.0
 11
139.99999970790299
 21
50.194118787585019
 31
0.0
  0
LINE
  5
465
  8
0
 10
139.99999970790299
 20
50.194117316034529
 30
0.0
 11
139.99999970790299
 21
50.000004503758127
 31
0.0
  0
LINE
  5
466
  8
0
 10
139.99999970790299
 20
50.000002574445581
 30
0.0
 11
139.99999970790299
 21
49.805890219931229
 31
0.0
  0
LINE
  5
467
  8
0
 10
139.99999970790299
 20
49.805887799380173
 30
0.0
 11
139.99999970790299
 21
49.625004503758127
 31
0.0
  0
LINE
  5
468
  8
0
 10
139.99999970790299
 20
49.625002415737782
 30
0.0
 11
139.99999970790299
 21
49.469674417868212
 31
0.0
  0
LINE
  5
469
  8
0
 10
139.99999970790299
 20
49.469671529667423
 30
0.0
 11
139.99999970790299
 21
49.25000450375812
 31
0.0
  0
LINE
  5
46A
  8
0
 10
139.99999970790299
 20
35.000004503758127
 30
0.0
 11
139.99999970790299
 21
34.94889332124837
 31
0.0
  0
LINE
  5
46B
  8
0
 10
139.99999970790299
 20
34.948893243191748
 30
0.0
 11
139.99999970790299
 21
34.25000554776814
 31
0.0
  0
LINE
  5
46C
  8
0
 10
139.99999970790299
 20
34.250004503758149
 30
0.0
 11
139.99999970790299
 21
33.888233071411932
 31
0.0
  0
LINE
  5
46D
  8
0
 10
139.99999970790299
 20
33.888231991884858
 30
0.0
 11
139.99999970790299
 21
33.500005468413583
 31
0.0
  0
LINE
  5
46E
  8
0
 10
139.99999970790299
 20
33.500004503758127
 30
0.0
 11
139.99999970790299
 21
33.111776083844113
 31
0.0
  0
LINE
  5
46F
  8
0
 10
139.99999970790299
 20
33.111775936104351
 30
0.0
 11
139.99999970790299
 21
32.750005400270233
 31
0.0
  0
LINE
  5
470
  8
0
 10
139.99999970790299
 20
32.750004503758127
 30
0.0
 11
139.99999970790299
 21
32.439344331978312
 31
0.0
  0
LINE
  5
471
  8
0
 10
139.99999970790299
 20
32.439344110111527
 30
0.0
 11
139.99999970790299
 21
32.051115764324521
 31
0.0
  0
LINE
  5
472
  8
0
 10
139.99999970790299
 20
32.051113789843143
 30
0.0
 11
139.99999970790299
 21
32.000004503758142
 31
0.0
  0
LINE
  5
473
  8
0
 10
139.74999970790299
 20
8.0000045037583032
 30
0.0
 11
139.99999970790321
 21
8.0000045037583032
 31
0.0
  0
LINE
  5
474
  8
0
 10
139.99999970790321
 20
16.000004503758181
 30
0.0
 11
139.74999970790299
 21
16.000004503758181
 31
0.0
  0
LINE
  5
475
  8
0
 10
139.99999970790299
 20
16.000004503758149
 30
0.0
 11
139.99999970790299
 21
15.46410697462847
 31
0.0
  0
LINE
  5
476
  8
0
 10
139.99999970790299
 20
15.464106118895931
 30
0.0
 11
139.99999970790299
 21
14.828431849844099
 31
0.0
  0
LINE
  5
477
  8
0
 10
139.99999970790299
 20
14.82843162850437
 30
0.0
 11
139.99999970790299
 21
13.03528142796563
 31
0.0
  0
LINE
  5
478
  8
0
 10
139.99999970790299
 20
13.03528068416826
 30
0.0
 11
139.99999970790299
 21
12.000004503758181
 31
0.0
  0
LINE
  5
479
  8
0
 10
139.99999970790299
 20
12.000004503758131
 30
0.0
 11
139.99999970790299
 21
10.00000450375814
 31
0.0
  0
LINE
  5
47A
  8
0
 10
139.99999970790299
 20
10.000004242755249
 30
0.0
 11
139.99999970790299
 21
9.1715773790119641
 31
0.0
  0
LINE
  5
47B
  8
0
 10
139.99999970790299
 20
9.1715771576712708
 30
0.0
 11
139.99999970790299
 21
8.1363011986018883
 31
0.0
  0
LINE
  5
47C
  8
0
 10
139.99999970790299
 20
8.1363008324130117
 30
0.0
 11
139.99999970790299
 21
8.0000045037581646
 31
0.0
  0
LINE
  5
47D
  8
0
 10
210.7781173164399
 20
382.75401730847398
 30
0.0
 11
210.7781173164399
 21
243.00401730847969
 31
0.0
  0
LINE
  5
47E
  8
0
 10
210.7781173164399
 20
243.00401730847969
 30
0.0
 11
304.02811731643709
 21
243.0040173084794
 31
0.0
  0
LINE
  5
47F
  8
0
 10
304.02811731643709
 20
243.0040173084794
 30
0.0
 11
304.02811731643737
 21
382.75401730847381
 31
0.0
  0
LINE
  5
480
  8
0
 10
304.02811731643737
 20
382.75401730847381
 30
0.0
 11
210.7781173164399
 21
382.75401730847398
 31
0.0
  0
LINE
  5
481
  8
0
 10
302.4031173164401
 20
381.12901730847409
 30
0.0
 11
302.40311731643988
 21
244.62901730847409
 31
0.0
1001
ACAD
1000
ASC_BOUNDS
1002
{
1070
    19
1005
4D9
1002
}
  0
LINE
  5
482
  8
0
 10
302.40311731643988
 20
244.62901730847409
 30
0.0
 11
212.4031173164399
 21
244.6290173084744
 31
0.0
1001
ACAD
1000
ASC_BOUNDS
1002
{
1070
    19
1005
4D9
1002
}
  0
LINE
  5
483
  8
0
 10
212.4031173164399
 20
244.6290173084744
 30
0.0
 11
212.4031173164403
 21
381.1290173084742
 31
0.0
1001
ACAD
1000
ASC_BOUNDS
1002
{
1070
    19
1005
4D9
1002
}
  0
LINE
  5
484
  8
0
 10
212.4031173164403
 20
381.1290173084742
 30
0.0
 11
302.4031173164401
 21
381.12901730847409
 31
0.0
1001
ACAD
1000
ASC_BOUNDS
1002
{
1070
    19
1005
4D9
1002
}
  0
LINE
  5
485
  8
0
 10
304.02811731643692
 20
243.004017308474
 30
0.0
 11
305.15311731644061
 21
243.004017308474
 31
0.0
  0
LINE
  5
486
  8
0
 10
305.15311731644061
 20
243.004017308474
 30
0.0
 11
305.15311731644061
 21
382.75401730847392
 31
0.0
  0
LINE
  5
487
  8
0
 10
305.15311731644061
 20
382.75401730847392
 30
0.0
 11
304.02811731643737
 21
382.75401730847392
 31
0.0
  0
LINE
  5
488
  8
0
 10
210.5281173164401
 20
246.12901730847199
 30
0.0
 11
210.7781173164399
 21
246.12901730847199
 31
0.0
  0
LINE
  5
489
  8
0
 10
210.7781173164399
 20
248.12901730847159
 30
0.0
 11
210.5281173164401
 21
248.12901730847159
 31
0.0
  0
LINE
  5
48A
  8
0
 10
210.5281173164399
 20
246.12901730847301
 30
0.0
 11
210.5281173164399
 21
246.163091482184
 31
0.0
  0
LINE
  5
48B
  8
0
 10
210.5281173164399
 20
246.16309306594169
 30
0.0
 11
210.5281173164399
 21
246.26298848454161
 31
0.0
  0
LINE
  5
48C
  8
0
 10
210.5281173164399
 20
246.26299190468859
 30
0.0
 11
210.5281173164399
 21
246.6290171092696
 31
0.0
  0
LINE
  5
48D
  8
0
 10
210.5281173164399
 20
246.6290173084731
 30
0.0
 11
210.5281173164399
 21
246.87019826337061
 31
0.0
  0
LINE
  5
48E
  8
0
 10
210.5281173164399
 20
246.87020129003011
 30
0.0
 11
210.5281173164399
 21
247.1290173084731
 31
0.0
  0
LINE
  5
48F
  8
0
 10
210.5281173164399
 20
247.12902098303431
 30
0.0
 11
210.5281173164399
 21
247.38783635357569
 31
0.0
  0
LINE
  5
490
  8
0
 10
210.5281173164399
 20
247.3878407234233
 30
0.0
 11
210.5281173164399
 21
247.62901355135759
 31
0.0
  0
LINE
  5
491
  8
0
 10
210.5281173164399
 20
247.6290173084731
 30
0.0
 11
210.5281173164399
 21
247.83612408965959
 31
0.0
  0
LINE
  5
492
  8
0
 10
210.5281173164399
 20
247.836129209831
 30
0.0
 11
210.5281173164399
 21
247.99504142036551
 31
0.0
  0
LINE
  5
493
  8
0
 10
210.5281173164399
 20
247.9950427122576
 30
0.0
 11
210.5281173164399
 21
248.0949431347621
 31
0.0
  0
LINE
  5
494
  8
0
 10
210.5281173164399
 20
248.09495293861249
 30
0.0
 11
210.5281173164399
 21
248.12901730847301
 31
0.0
  0
LINE
  5
495
  8
0
 10
304.27811731644061
 20
316.87901730847108
 30
0.0
 11
304.02811731644061
 21
316.87901730847108
 31
0.0
  0
LINE
  5
496
  8
0
 10
304.02811731644061
 20
308.87901730847022
 30
0.0
 11
304.27811731644061
 21
308.87901730847022
 31
0.0
  0
LINE
  5
497
  8
0
 10
304.27811731644027
 20
312.87901615975528
 30
0.0
 11
304.27811731644027
 21
311.84374112806069
 31
0.0
  0
LINE
  5
498
  8
0
 10
304.27811731644027
 20
311.84374069343733
 30
0.0
 11
304.27811731644027
 21
310.05059018372458
 31
0.0
  0
LINE
  5
499
  8
0
 10
304.27811731644027
 20
310.05058863951052
 30
0.0
 11
304.27811731644027
 21
309.41491569333311
 31
0.0
  0
LINE
  5
49A
  8
0
 10
304.27811731644027
 20
309.41491522397098
 30
0.0
 11
304.27811731644027
 21
309.01531400331447
 31
0.0
  0
LINE
  5
49B
  8
0
 10
304.27811731644027
 20
309.01531280117121
 30
0.0
 11
304.27811731644027
 21
308.87901730847079
 31
0.0
  0
LINE
  5
49C
  8
0
 10
304.27811731644027
 20
316.87901730847091
 30
0.0
 11
304.27811731644027
 21
316.74272298851122
 31
0.0
  0
LINE
  5
49D
  8
0
 10
304.27811731644027
 20
316.74272061362711
 30
0.0
 11
304.27811731644027
 21
316.34312016571357
 31
0.0
  0
LINE
  5
49E
  8
0
 10
304.27811731644027
 20
316.34311892360859
 30
0.0
 11
304.27811731644027
 21
313.9142945418547
 31
0.0
  0
LINE
  5
49F
  8
0
 10
304.27811731644027
 20
313.9142934888809
 30
0.0
 11
304.27811731644027
 21
312.87901730847091
 31
0.0
  0
LINE
  5
4A0
  8
0
 10
249.1531173164403
 20
242.75401730847341
 30
0.0
 11
249.1531173164403
 21
243.00401730847389
 31
0.0
  0
LINE
  5
4A1
  8
0
 10
247.6531173164399
 20
243.00401730847389
 30
0.0
 11
247.6531173164399
 21
242.75401730847341
 31
0.0
  0
LINE
  5
4A2
  8
0
 10
217.0281173164401
 20
242.75401730847349
 30
0.0
 11
217.0281173164401
 21
243.00401730847389
 31
0.0
  0
LINE
  5
4A3
  8
0
 10
214.0281173164401
 20
243.00401730847389
 30
0.0
 11
214.0281173164401
 21
242.75401730847349
 31
0.0
  0
LINE
  5
4A4
  8
0
 10
249.1531173164401
 20
242.75401730847369
 30
0.0
 11
248.77811836045609
 21
242.75401730847369
 31
0.0
  0
LINE
  5
4A5
  8
0
 10
248.7781173164401
 20
242.75401730847369
 30
0.0
 11
248.59723302089361
 21
242.75401730847369
 31
0.0
  0
LINE
  5
4A6
  8
0
 10
248.59723160026689
 20
242.75401730847369
 30
0.0
 11
248.40311828110089
 21
242.75401730847369
 31
0.0
  0
LINE
  5
4A7
  8
0
 10
248.4031173164401
 20
242.75401730847369
 30
0.0
 11
247.75359826360179
 21
242.75401730847369
 31
0.0
  0
LINE
  5
4A8
  8
0
 10
247.75359712691011
 20
242.75401730847369
 30
0.0
 11
247.67867294672331
 21
242.75401730847369
 31
0.0
  0
LINE
  5
4A9
  8
0
 10
247.6786729077044
 20
242.75401730847369
 30
0.0
 11
247.6531173164401
 21
242.75401730847369
 31
0.0
  0
LINE
  5
4AA
  8
0
 10
217.0281173164401
 20
242.75401730847389
 30
0.0
 11
216.8271554221167
 21
242.75401730847389
 31
0.0
  0
LINE
  5
4AB
  8
0
 10
216.82715528017661
 20
242.75401730847389
 30
0.0
 11
216.2781194044662
 21
242.75401730847389
 31
0.0
  0
LINE
  5
4AC
  8
0
 10
216.2781173164401
 20
242.75401730847389
 30
0.0
 11
215.91634872534269
 21
242.75401730847389
 31
0.0
  0
LINE
  5
4AD
  8
0
 10
215.9163458840938
 20
242.75401730847389
 30
0.0
 11
215.5281192457571
 21
242.75401730847389
 31
0.0
  0
LINE
  5
4AE
  8
0
 10
215.5281173164401
 20
242.75401730847389
 30
0.0
 11
215.13988982831779
 21
242.75401730847389
 31
0.0
  0
LINE
  5
4AF
  8
0
 10
215.13988874878621
 20
242.75401730847389
 30
0.0
 11
214.2290792107633
 21
242.75401730847389
 31
0.0
  0
LINE
  5
4B0
  8
0
 10
214.2290769373738
 20
242.75401730847389
 30
0.0
 11
214.07922857700649
 21
242.75401730847389
 31
0.0
  0
LINE
  5
4B1
  8
0
 10
214.07922849895891
 20
242.75401730847389
 30
0.0
 11
214.0281173164401
 21
242.75401730847389
 31
0.0
  0
LINE
  5
4B2
  8
0
 10
223.5281173164401
 20
242.75401730847349
 30
0.0
 11
223.5281173164401
 21
243.00401730847389
 31
0.0
  0
LINE
  5
4B3
  8
0
 10
223.5281173164401
 20
242.75401730847389
 30
0.0
 11
223.39182062159651
 21
242.75401730847389
 31
0.0
  0
LINE
  5
4B4
  8
0
 10
223.39181896768201
 20
242.75401730847389
 30
0.0
 11
222.99221916251739
 21
242.75401730847389
 31
0.0
  0
LINE
  5
4B5
  8
0
 10
222.99221893157801
 20
242.75401730847389
 30
0.0
 11
222.3565457734415
 21
242.75401730847389
 31
0.0
  0
LINE
  5
4B6
  8
0
 10
222.35654444118629
 20
242.75401730847389
 30
0.0
 11
221.52811940446671
 21
242.75401730847389
 31
0.0
  0
LINE
  5
4B7
  8
0
 10
221.5281173164401
 20
242.75401730847389
 30
0.0
 11
220.5633937406885
 21
242.75401730847389
 31
0.0
  0
LINE
  5
4B8
  8
0
 10
220.5633934968503
 20
242.75401730847389
 30
0.0
 11
219.5281173164403
 21
242.75401730847389
 31
0.0
  0
LINE
  5
4B9
  8
0
 10
219.52811538713311
 20
242.75401730847389
 30
0.0
 11
217.0079468748886
 21
242.75401730847389
 31
0.0
  0
INSERT
  5
4D0
  8
0
  6
CONTINUOUS
  2
*X4
 10
0.0
 20
0.0
 30
0.0
1001
GRADIENTCOLOR1ACI
1070
     5
1001
GRADIENTCOLOR2ACI
1070
     2
1001
ACAD
1000
HATCH
1002
{
1070
    19
1000
NET
1040
12.0
1040
0.0
1000
ASC_BOUNDS
1070
     3
1070
     1
1070
     4
1005
39A
1005
39B
1005
392
1005
399
1070
     1
1070
     4
1005
390
1005
39B
1005
38E
1005
399
1070
     1
1070
     4
1005
38B
1005
39B
1005
398
1005
399
1000
ASC_SEEDPOINT
1011
397.36200487916062
1021
0.0
1031
0.0
1021
63.937807361708671
1031
0.0
1000
R14_HATCH_DATA
1000
4D0
1011
1.0
1021
0.0
1031
0.0
1021
0.0
1031
0.0
1011
0.0
1021
0.0
1031
0.0
1021
1.0
1031
0.0
1011
0.0
1021
0.0
1031
0.0
1021
0.0
1031
1.0
1040
0.0
1010
0.0
1020
0.0
1030
1.0
1000
NET
1070
     0
1070
     1
1071
        3
1071
        7
1070
     0
1070
     1
1071
        4
1040
410.7523010504471
1040
79.125004503757395
1040
385.50230105044739
1040
79.12500450375714
1040
385.5023010504483
1040
4.0000045037565988
1040
410.7523010504471
1040
4.0000045037568546
1071
        4
1005
399
1005
398
1005
39B
1005
38B
1071
        7
1070
     0
1070
     1
1071
        4
1040
464.76130070511931
1040
79.125004503757964
1040
442.75230105044778
1040
79.125004503757737
1040
442.75230105044778
1040
4.0000045037571894
1040
464.76130070511931
1040
4.0000045037574017
1071
        4
1005
399
1005
38E
1005
39B
1005
390
1071
        7
1070
     0
1070
     1
1071
        4
1040
522.00230105044739
1040
79.125004503758561
1040
496.74431636721692
1040
79.125004503758305
1040
496.74431636721692
1040
4.0000045037577427
1040
522.00230105044807
1040
4.0000045037580056
1071
        4
1005
399
1005
392
1005
39B
1005
39A
1070
     1
1070
     1
1040
0.0
1040
12.0
1070
     0
1070
     2
1040
0.0
1040
0.0
1040
0.0
1040
0.0
1040
1.5
1070
     0
1040
1.5707963267948959
1040
0.0
1040
0.0
1040
-1.5
1040
0.0000000000000001
1070
     0
1040
0.1506384059597427
1071
        3
1040
397.36200487916062
1040
63.937807361708671
1040
0.0
1040
450.26160238539381
1040
52.639926798777651
1040
0.0
1040
513.108134289801
1040
44.957368176887933
1040
0.0
1002
}
  0
INSERT
  5
4D9
  8
0
  6
CONTINUOUS
  2
*X5
 10
0.0
 20
0.0
 30
0.0
1001
GRADIENTCOLOR1ACI
1070
     5
1001
GRADIENTCOLOR2ACI
1070
     2
1001
ACAD
1000
HATCH
1002
{
1070
    19
1000
ANSI31
1040
12.0
1040
2.3561944901923439
1000
ASC_BOUNDS
1070
     1
1070
     1
1070
     4
1005
481
1005
482
1005
483
1005
484
1000
ASC_SEEDPOINT
1011
257.15863357931181
1021
0.0
1031
0.0
1021
347.88081372861291
1031
0.0
1000
R14_HATCH_DATA
1000
4D9
1011
1.0
1021
0.0
1031
0.0
1021
0.0
1031
0.0
1011
0.0
1021
0.0
1031
0.0
1021
1.0
1031
0.0
1011
0.0
1021
0.0
1031
0.0
1021
0.0
1031
1.0
1040
0.0
1010
0.0
1020
0.0
1030
1.0
1000
ANSI31
1070
     0
1070
     1
1071
        1
1071
        7
1070
     0
1070
     1
1071
        4
1040
212.4031173164403
1040
381.1290173084742
1040
212.4031173164399
1040
244.6290173084744
1040
302.40311731643988
1040
244.62901730847409
1040
302.4031173164401
1040
381.12901730847409
1071
        4
1005
484
1005
483
1005
482
1005
481
1070
     1
1070
     1
1040
2.3561944901923439
1040
12.0
1070
     0
1070
     1
1040
3.1415926535897931
1040
0.0
1040
39.5
1040
-0.0000000000000002
1040
-1.5
1070
     0
1040
0.2430556745164029
1071
        1
1040
257.15863357931181
1040
347.88081372861291
1040
0.0
1002
}
  0
ENDSEC
  0
EOF
