  0
SECTION
  2
HEADER
  9
$ACADVER
  1
AC1009
  9
$INSBASE
 10
0.0
 20
0.0
 30
0.0
  9
$EXTMIN
 10
-0.0208230127943807
 20
-0.0129625184375755
 30
-0.0015258207003583
  9
$EXTMAX
 10
682.40137014957281
 20
447.55213255301248
 30
0.0000000349246037
  9
$LIMMIN
 10
0.0
 20
0.0
  9
$LIMMAX
 10
12.0
 20
9.0
  9
$ORTHOMODE
 70
     0
  9
$REGENMODE
 70
     1
  9
$FILLMODE
 70
     1
  9
$QTEXTMODE
 70
     0
  9
$MIRRTEXT
 70
     0
  9
$DRAGMODE
 70
     2
  9
$LTSCALE
 40
1.0
  9
$OSMODE
 70
    37
  9
$ATTMODE
 70
     1
  9
$TEXTSIZE
 40
0.2
  9
$TRACEWID
 40
0.05
  9
$TEXTSTYLE
  7
ROMANS
  9
$CLAYER
  8
0
  9
$CELTYPE
  6
BYLAYER
  9
$CECOLOR
 62
   256
  9
$DIMSCALE
 40
1.0
  9
$DIMASZ
 40
0.09375
  9
$DIMEXO
 40
0.0625
  9
$DIMDLI
 40
0.375
  9
$DIMRND
 40
0.0
  9
$DIMDLE
 40
0.0
  9
$DIMEXE
 40
0.03125
  9
$DIMTP
 40
0.0
  9
$DIMTM
 40
0.0
  9
$DIMTXT
 40
0.09375
  9
$DIMCEN
 40
0.09375
  9
$DIMTSZ
 40
0.0
  9
$DIMTOL
 70
     0
  9
$DIMLIM
 70
     0
  9
$DIMTIH
 70
     0
  9
$DIMTOH
 70
     0
  9
$DIMSE1
 70
     0
  9
$DIMSE2
 70
     0
  9
$DIMTAD
 70
     0
  9
$DIMZIN
 70
     0
  9
$DIMBLK
  1

  9
$DIMASO
 70
     1
  9
$DIMSHO
 70
     1
  9
$DIMPOST
  1

  9
$DIMAPOST
  1

  9
$DIMALT
 70
     0
  9
$DIMALTD
 70
     2
  9
$DIMALTF
 40
25.399999999999999
  9
$DIMLFAC
 40
1.0
  9
$DIMTOFL
 70
     0
  9
$DIMTVP
 40
0.0
  9
$DIMTIX
 70
     0
  9
$DIMSOXD
 70
     0
  9
$DIMSAH
 70
     0
  9
$DIMBLK1
  1

  9
$DIMBLK2
  1

  9
$DIMSTYLE
  2
BAC
  9
$DIMCLRD
 70
     0
  9
$DIMCLRE
 70
     6
  9
$DIMCLRT
 70
     0
  9
$DIMTFAC
 40
1.0
  9
$DIMGAP
 40
0.0625
  9
$LUNITS
 70
     5
  9
$LUPREC
 70
     6
  9
$SKETCHINC
 40
0.1
  9
$FILLETRAD
 40
0.5
  9
$AUNITS
 70
     0
  9
$AUPREC
 70
     0
  9
$MENU
  1
.
  9
$ELEVATION
 40
0.0
  9
$PELEVATION
 40
0.0
  9
$THICKNESS
 40
0.0
  9
$LIMCHECK
 70
     0
  9
$BLIPMODE
 70
     0
  9
$CHAMFERA
 40
0.5
  9
$CHAMFERB
 40
0.5
  9
$SKPOLY
 70
     0
  9
$TDCREATE
 40
2456834.6176485652
  9
$TDUPDATE
 40
2456834.6195945018
  9
$TDINDWG
 40
0.0019478819
  9
$TDUSRTIMER
 40
0.0019474074
  9
$USRTIMER
 70
     1
  9
$ANGBASE
 50
0.0
  9
$ANGDIR
 70
     0
  9
$PDMODE
 70
     0
  9
$PDSIZE
 40
0.0
  9
$PLINEWID
 40
0.0
  9
$COORDS
 70
     1
  9
$SPLFRAME
 70
     0
  9
$SPLINETYPE
 70
     6
  9
$SPLINESEGS
 70
     8
  9
$ATTDIA
 70
     0
  9
$ATTREQ
 70
     1
  9
$HANDLING
 70
     1
  9
$HANDSEED
  5
CD2
  9
$SURFTAB1
 70
     6
  9
$SURFTAB2
 70
     6
  9
$SURFTYPE
 70
     6
  9
$SURFU
 70
     6
  9
$SURFV
 70
     6
  9
$UCSNAME
  2

  9
$UCSORG
 10
0.0
 20
0.0
 30
0.0
  9
$UCSXDIR
 10
1.0
 20
0.0
 30
0.0
  9
$UCSYDIR
 10
0.0
 20
1.0
 30
0.0
  9
$PUCSNAME
  2

  9
$PUCSORG
 10
0.0
 20
0.0
 30
0.0
  9
$PUCSXDIR
 10
1.0
 20
0.0
 30
0.0
  9
$PUCSYDIR
 10
0.0
 20
1.0
 30
0.0
  9
$USERI1
 70
     0
  9
$USERI2
 70
     0
  9
$USERI3
 70
     0
  9
$USERI4
 70
     0
  9
$USERI5
 70
     0
  9
$USERR1
 40
0.0
  9
$USERR2
 40
0.0
  9
$USERR3
 40
0.0
  9
$USERR4
 40
0.0
  9
$USERR5
 40
0.0
  9
$WORLDVIEW
 70
     1
  9
$SHADEDGE
 70
     3
  9
$SHADEDIF
 70
    70
  9
$TILEMODE
 70
     1
  9
$MAXACTVP
 70
    48
  9
$PLIMCHECK
 70
     0
  9
$PEXTMIN
 10
1.0000000000000000E+020
 20
1.0000000000000000E+020
 30
1.0000000000000000E+020
  9
$PEXTMAX
 10
-1.0000000000000000E+020
 20
-1.0000000000000000E+020
 30
-1.0000000000000000E+020
  9
$PLIMMIN
 10
0.0
 20
0.0
  9
$PLIMMAX
 10
12.0
 20
9.0
  9
$UNITMODE
 70
     0
  9
$VISRETAIN
 70
     1
  9
$PLINEGEN
 70
     0
  9
$PSLTSCALE
 70
     1
  0
ENDSEC
  0
SECTION
  2
TABLES
  0
TABLE
  2
VPORT
 70
     1
  0
VPORT
  2
*ACTIVE
 70
     0
 10
0.0
 20
0.0
 11
1.0
 21
1.0
 12
465.2524165657137
 22
204.89825488496561
 13
0.0
 23
0.0
 14
0.5
 24
0.5
 15
0.5
 25
0.5
 16
0.0
 26
0.0
 36
1.0
 17
0.0
 27
0.0
 37
0.0
 40
683.95581212643731
 41
1.7702552719200879
 42
50.0
 43
0.0
 44
0.0
 50
0.0
 51
0.0
 71
     0
 72
   100
 73
     1
 74
     1
 75
     0
 76
     0
 77
     0
 78
     0
  0
ENDTAB
  0
TABLE
  2
LTYPE
 70
    19
  0
LTYPE
  2
CONTINUOUS
 70
     0
  3
Solid line
 72
    65
 73
     0
 40
0.0
  0
LTYPE
  2
CENTER
 70
     0
  3
Center ____ _ ____ _ ____ _ ____ _ ____ _ ____
 72
    65
 73
     4
 40
2.0
 49
1.25
 49
-0.25
 49
0.25
 49
-0.25
  0
LTYPE
  2
CENTER2
 70
     0
  3
Center (.5x) ___ _ ___ _ ___ _ ___ _ ___ _ ___
 72
    65
 73
     4
 40
1.125
 49
0.75
 49
-0.125
 49
0.125
 49
-0.125
  0
LTYPE
  2
HIDDEN
 70
     0
  3
Hidden __ __ __ __ __ __ __ __ __ __ __ __ __ _
 72
    65
 73
     2
 40
0.375
 49
0.25
 49
-0.125
  0
LTYPE
  2
HIDDEN2
 70
     0
  3
Hidden (.5x) _ _ _ _ _ _ _ _ _ _ _ _ _ _ _ _ _
 72
    65
 73
     2
 40
0.1875
 49
0.125
 49
-0.0625
  0
LTYPE
  2
PHANTOM2
 70
     0
  3
Phantom (.5x) ___ _ _ ___ _ _ ___ _ _ ___ _ _
 72
    65
 73
     6
 40
1.25
 49
0.625
 49
-0.125
 49
0.125
 49
-0.125
 49
0.125
 49
-0.125
  0
LTYPE
  2
AMCONSTR
 70
     0
  3
_______________________
 72
    65
 73
     2
 40
9999.0
 49
9999.0
 49
0.0
  0
LTYPE
  2
AMZIGZAG2
 70
     0
  3
/\/-/\/-/\/-/\/-/\/-/\/
 72
    65
 73
     2
 40
0.4401
 49
0.0001
 49
-0.4400000000000001
  0
LTYPE
  2
ACANSTGB
 70
     0
  3
__ . . __ . .
 72
    65
 73
     6
 40
0.35433070866
 49
0.15748031496
 49
-0.03937007874
 49
0.03937007874
 49
-0.03937007874
 49
0.03937007874
 49
-0.03937007874
  0
LTYPE
  2
ACANSTGL
 70
     0
  3
_ _ _ _ _
 72
    65
 73
     2
 40
0.11811023622
 49
0.07874015748
 49
-0.03937007874
  0
ENDTAB
  0
TABLE
  2
LAYER
 70
     8
  0
LAYER
  2
0
 70
     0
 62
     7
  6
CONTINUOUS
  0
ENDTAB
  0
TABLE
  2
STYLE
 70
    11
  0
STYLE
  2
STANDARD
 70
     0
 40
0.0
 41
1.0
 50
0.0
 71
     0
 42
0.2
  3
txt
  4

  0
STYLE
  2
ROMANS
 70
     0
 40
0.0
 41
0.75
 50
0.0
 71
     0
 42
0.2
  3
romans.shx
  4

  0
STYLE
  2

 70
     1
 40
0.0
 41
1.0
 50
0.0
 71
     0
 42
0.2
  3
genltshp.shx
  4

  0
STYLE
  2
ACANSGDT
 70
     0
 40
0.0
 41
1.0
 50
0.0
 71
     0
 42
0.2
  3
amgdt.shx
  4

  0
ENDTAB
  0
TABLE
  2
VIEW
 70
     0
  0
ENDTAB
  0
TABLE
  2
UCS
 70
     0
  0
ENDTAB
  0
TABLE
  2
APPID
 70
    14
  0
APPID
  2
ACAD
 70
     0
  0
APPID
  2
ACAD_MLEADERVER
 70
     0
  0
APPID
  2
ACAD_DSTYLE_DIMJAG
 70
     0
  0
APPID
  2
ACAD_DSTYLE_DIMTALN
 70
     0
  0
APPID
  2
ACAD_PSEXT
 70
     0
  0
APPID
  2
ACADANNOPO
 70
     0
  0
APPID
  2
MCAD_NO_VIS
 70
     0
  0
APPID
  2
ACAD_TEMP_GRAPHIC
 70
     0
  0
APPID
  2
ACATTRIBSERVICES
 70
     0
  0
APPID
  2
DESIGNERASSEMBLIES
 70
     0
  0
APPID
  2
ACAD_DSTYLE_DIMBREAK
 70
     0
  0
APPID
  2
ACAD_NAV_VCDISPLAY
 70
     0
  0
APPID
  2
GRADIENTCOLOR1ACI
 70
     0
  0
APPID
  2
GRADIENTCOLOR2ACI
 70
     0
  0
ENDTAB
  0
TABLE
  2
DIMSTYLE
 70
    13
  0
DIMSTYLE
  2
BAC
 70
     0
  3

  4

  5

  6

  7

 40
1.0
 41
0.09375
 42
0.0625
 43
0.375
 44
0.03125
 45
0.0
 46
0.0
 47
0.0
 48
0.0
140
0.09375
141
0.09375
142
0.0
143
25.399999999999999
144
1.0
145
0.0
146
1.0
147
0.0625
 71
     0
 72
     0
 73
     0
 74
     0
 75
     0
 76
     0
 77
     0
 78
     0
170
     0
171
     2
172
     0
173
     0
174
     0
175
     0
176
     0
177
     6
178
     0
  0
DIMSTYLE
  2
AM_ANSI
 70
     0
  3

  4
mm
  5

  6

  7

 40
1.0
 41
0.12
 42
0.05
 43
0.5
 44
0.1
 45
0.0
 46
0.0
 47
0.1
 48
0.1
140
0.12
141
0.0
142
0.0
143
25.399999999999999
144
1.0
145
0.0
146
0.71
147
0.06
 71
     0
 72
     0
 73
     1
 74
     1
 75
     0
 76
     0
 77
     0
 78
     7
170
     0
171
     2
172
     0
173
     0
174
     0
175
     0
176
   256
177
   256
178
     2
  0
DIMSTYLE
  2
AM_ANSI$3
 70
     0
  3

  4
mm
  5

  6

  7

 40
1.0
 41
0.12
 42
0.05
 43
0.5
 44
0.1
 45
0.0
 46
0.0
 47
0.1
 48
0.1
140
0.12
141
0.0
142
0.0
143
25.399999999999999
144
1.0
145
0.0
146
0.71
147
0.06
 71
     0
 72
     0
 73
     1
 74
     1
 75
     0
 76
     0
 77
     0
 78
     7
170
     0
171
     2
172
     0
173
     0
174
     0
175
     0
176
   256
177
   256
178
     2
  0
DIMSTYLE
  2
AM_ANSI$4
 70
     0
  3

  4
mm
  5

  6

  7

 40
1.0
 41
0.12
 42
0.05
 43
0.5
 44
0.1
 45
0.0
 46
0.0
 47
0.1
 48
0.1
140
0.12
141
0.0
142
0.0
143
25.399999999999999
144
1.0
145
0.0
146
0.71
147
0.06
 71
     0
 72
     0
 73
     1
 74
     1
 75
     0
 76
     0
 77
     0
 78
     7
170
     0
171
     2
172
     0
173
     0
174
     0
175
     0
176
   256
177
   256
178
     2
  0
DIMSTYLE
  2
AM_ANSI$7
 70
     0
  3

  4
mm
  5

  6

  7

 40
1.0
 41
0.12
 42
0.05
 43
0.5
 44
0.1
 45
0.0
 46
0.0
 47
0.1
 48
0.1
140
0.12
141
0.0
142
0.0
143
25.399999999999999
144
1.0
145
0.0
146
0.71
147
0.06
 71
     0
 72
     0
 73
     1
 74
     1
 75
     0
 76
     0
 77
     0
 78
     7
170
     0
171
     2
172
     0
173
     0
174
     0
175
     0
176
   256
177
   256
178
     2
  0
DIMSTYLE
  2
AM_ANSI$SF
 70
     0
  3

  4
mm
  5

  6

  7

 40
1.0
 41
0.12
 42
0.05
 43
0.5
 44
0.1
 45
0.0
 46
0.0
 47
0.1
 48
0.1
140
0.12
141
0.0
142
0.0
143
25.399999999999999
144
1.0
145
0.0
146
0.71
147
0.06
 71
     0
 72
     0
 73
     1
 74
     1
 75
     1
 76
     1
 77
     0
 78
     7
170
     0
171
     2
172
     0
173
     0
174
     0
175
     0
176
   256
177
   256
178
     2
  0
DIMSTYLE
  2
AM_ANSI$SH
 70
     0
  3

  4
mm
  5

  6
GENAXEH
  7

 40
1.0
 41
0.12
 42
0.05
 43
0.5
 44
0.1
 45
0.0
 46
0.0
 47
0.1
 48
0.1
140
0.12
141
0.0
142
0.0
143
25.399999999999999
144
1.0
145
0.0
146
0.71
147
0.06
 71
     0
 72
     0
 73
     1
 74
     1
 75
     1
 76
     1
 77
     0
 78
     7
170
     0
171
     2
172
     0
173
     1
174
     0
175
     0
176
   256
177
   256
178
     2
  0
DIMSTYLE
  2
STANDARD
 70
     0
  3

  4

  5

  6

  7

 40
1.0
 41
0.18
 42
0.0625
 43
0.38
 44
0.18
 45
0.0
 46
0.0
 47
0.0
 48
0.0
140
0.18
141
0.09
142
0.0
143
25.399999999999999
144
1.0
145
0.0
146
1.0
147
0.09
 71
     0
 72
     0
 73
     1
 74
     1
 75
     0
 76
     0
 77
     0
 78
     0
170
     0
171
     2
172
     0
173
     0
174
     0
175
     0
176
     0
177
     0
178
     0
  0
ENDTAB
  0
ENDSEC
  0
SECTION
  2
BLOCKS
  0
BLOCK
  8
0
  2
$MODEL_SPACE
 70
     0
 10
0.0
 20
0.0
 30
0.0
  3
$MODEL_SPACE
  1

  0
ENDBLK
  5
1A
  8
0
  0
BLOCK
 67
     1
  8
0
  2
$PAPER_SPACE
 70
     0
 10
0.0
 20
0.0
 30
0.0
  3
$PAPER_SPACE
  1

  0
ENDBLK
  5
17
 67
     1
  8
0
  0
BLOCK
  8
0
  2
*U0
 70
     1
 10
0.0
 20
0.0
 30
0.0
  3
*U0
  1

  0
ENDBLK
  5
17A
  8
0
  0
BLOCK
  8
0
  2
GENAXEH
 70
     0
 10
0.0
 20
0.0
 30
0.0
  3
GENAXEH
  1

  0
LINE
  5
1AD
  8
0
 10
-1.0
 20
0.0
 30
0.0
 11
1.0
 21
0.0
 31
0.0
  0
ENDBLK
  5
1AF
  8
0
  0
BLOCK
  8
0
  2
*X3
 70
     1
 10
0.0
 20
0.0
 30
0.0
  3
*X3
  1

  0
LINE
  5
B2D
  8
0
 62
     0
 10
679.49999999999989
 20
4.0000045037583627
 30
0.0
 11
679.49999999999989
 21
79.125004503758916
 31
0.0
  0
LINE
  5
B2E
  8
0
 62
     0
 10
678.0
 20
4.0000045037583476
 30
0.0
 11
678.0
 21
79.125004503758902
 31
0.0
  0
LINE
  5
B2F
  8
0
 62
     0
 10
676.5
 20
4.0000045037583316
 30
0.0
 11
676.5
 21
79.125004503758888
 31
0.0
  0
LINE
  5
B30
  8
0
 62
     0
 10
675.0
 20
4.0000045037583174
 30
0.0
 11
675.0
 21
79.125004503758873
 31
0.0
  0
LINE
  5
B31
  8
0
 62
     0
 10
673.5
 20
4.0000045037583023
 30
0.0
 11
673.5
 21
79.125004503758859
 31
0.0
  0
LINE
  5
B32
  8
0
 62
     0
 10
672.0
 20
4.0000045037582872
 30
0.0
 11
672.0
 21
79.125004503758845
 31
0.0
  0
LINE
  5
B33
  8
0
 62
     0
 10
670.5
 20
4.0000045037582721
 30
0.0
 11
670.5
 21
79.125004503758831
 31
0.0
  0
LINE
  5
B34
  8
0
 62
     0
 10
669.0
 20
4.000004503758257
 30
0.0
 11
669.0
 21
79.125004503758817
 31
0.0
  0
LINE
  5
B35
  8
0
 62
     0
 10
667.49999999999989
 20
4.000004503758241
 30
0.0
 11
667.49999999999989
 21
79.125004503758802
 31
0.0
  0
LINE
  5
B36
  8
0
 62
     0
 10
666.0
 20
4.0000045037582259
 30
0.0
 11
666.0
 21
79.125004503758774
 31
0.0
  0
LINE
  5
B37
  8
0
 62
     0
 10
664.5
 20
4.0000045037582108
 30
0.0
 11
664.5
 21
79.12500450375876
 31
0.0
  0
LINE
  5
B38
  8
0
 62
     0
 10
663.0
 20
4.0000045037581948
 30
0.0
 11
663.0
 21
79.125004503758745
 31
0.0
  0
LINE
  5
B39
  8
0
 62
     0
 10
661.5
 20
4.0000045037581797
 30
0.0
 11
661.5
 21
79.125004503758731
 31
0.0
  0
LINE
  5
B3A
  8
0
 62
     0
 10
660.0
 20
4.0000045037581646
 30
0.0
 11
660.0
 21
79.125004503758717
 31
0.0
  0
LINE
  5
B3B
  8
0
 62
     0
 10
658.49999999999989
 20
4.0000045037581504
 30
0.0
 11
658.49999999999989
 21
79.125004503758703
 31
0.0
  0
LINE
  5
B3C
  8
0
 62
     0
 10
625.49999999999989
 20
4.000004503757812
 30
0.0
 11
625.49999999999989
 21
79.125004503758333
 31
0.0
  0
LINE
  5
B3D
  8
0
 62
     0
 10
624.0
 20
4.0000045037577969
 30
0.0
 11
624.0
 21
79.125004503758333
 31
0.0
  0
LINE
  5
B3E
  8
0
 62
     0
 10
622.5
 20
4.0000045037577818
 30
0.0
 11
622.5
 21
79.125004503758319
 31
0.0
  0
LINE
  5
B3F
  8
0
 62
     0
 10
621.0
 20
4.0000045037577667
 30
0.0
 11
621.0
 21
79.125004503758305
 31
0.0
  0
LINE
  5
B40
  8
0
 62
     0
 10
619.5
 20
4.0000045037577507
 30
0.0
 11
619.5
 21
79.125004503758291
 31
0.0
  0
LINE
  5
B41
  8
0
 62
     0
 10
618.0
 20
4.0000045037577356
 30
0.0
 11
618.0
 21
79.125004503758277
 31
0.0
  0
LINE
  5
B42
  8
0
 62
     0
 10
616.5
 20
4.0000045037577214
 30
0.0
 11
616.5
 21
79.125004503758262
 31
0.0
  0
LINE
  5
B43
  8
0
 62
     0
 10
615.0
 20
4.0000045037577054
 30
0.0
 11
615.0
 21
79.125004503758248
 31
0.0
  0
LINE
  5
B44
  8
0
 62
     0
 10
613.49999999999989
 20
4.0000045037576903
 30
0.0
 11
613.49999999999989
 21
79.125004503758234
 31
0.0
  0
LINE
  5
B45
  8
0
 62
     0
 10
612.0
 20
4.0000045037576752
 30
0.0
 11
612.0
 21
79.12500450375822
 31
0.0
  0
LINE
  5
B46
  8
0
 62
     0
 10
610.5
 20
4.0000045037576601
 30
0.0
 11
610.5
 21
79.125004503758205
 31
0.0
  0
LINE
  5
B47
  8
0
 62
     0
 10
609.0
 20
4.0000045037576442
 30
0.0
 11
609.0
 21
79.125004503758191
 31
0.0
  0
LINE
  5
B48
  8
0
 62
     0
 10
607.5
 20
4.0000045037576291
 30
0.0
 11
607.5
 21
79.125004503758177
 31
0.0
  0
LINE
  5
B49
  8
0
 62
     0
 10
606.0
 20
4.0000045037576131
 30
0.0
 11
606.0
 21
79.125004503758163
 31
0.0
  0
LINE
  5
B4A
  8
0
 62
     0
 10
604.49999999999989
 20
4.0000045037575971
 30
0.0
 11
604.49999999999989
 21
79.125004503758149
 31
0.0
  0
LINE
  5
B4B
  8
0
 62
     0
 10
603.0
 20
4.000004503757582
 30
0.0
 11
603.0
 21
79.125004503758134
 31
0.0
  0
LINE
  5
B4C
  8
0
 62
     0
 10
601.5
 20
4.0000045037575669
 30
0.0
 11
601.5
 21
79.125004503758106
 31
0.0
  0
LINE
  5
B4D
  8
0
 62
     0
 10
600.0
 20
4.0000045037575518
 30
0.0
 11
600.0
 21
79.125004503758092
 31
0.0
  0
LINE
  5
B4E
  8
0
 62
     0
 10
598.5
 20
4.0000045037575358
 30
0.0
 11
598.5
 21
79.125004503758078
 31
0.0
  0
LINE
  5
B4F
  8
0
 62
     0
 10
597.0
 20
4.0000045037575207
 30
0.0
 11
597.0
 21
79.125004503758063
 31
0.0
  0
LINE
  5
B50
  8
0
 62
     0
 10
595.5
 20
4.0000045037575056
 30
0.0
 11
595.5
 21
79.125004503758049
 31
0.0
  0
LINE
  5
B51
  8
0
 62
     0
 10
594.0
 20
4.0000045037574896
 30
0.0
 11
594.0
 21
79.125004503758035
 31
0.0
  0
LINE
  5
B52
  8
0
 62
     0
 10
592.49999999999989
 20
4.0000045037574754
 30
0.0
 11
592.49999999999989
 21
79.125004503758021
 31
0.0
  0
LINE
  5
B53
  8
0
 62
     0
 10
559.49999999999989
 20
4.0000045037571379
 30
0.0
 11
559.49999999999989
 21
79.12500450375768
 31
0.0
  0
LINE
  5
B54
  8
0
 62
     0
 10
558.0
 20
4.0000045037571219
 30
0.0
 11
558.0
 21
79.125004503757665
 31
0.0
  0
LINE
  5
B55
  8
0
 62
     0
 10
556.5
 20
4.0000045037571068
 30
0.0
 11
556.5
 21
79.125004503757651
 31
0.0
  0
LINE
  5
B56
  8
0
 62
     0
 10
555.0
 20
4.0000045037570917
 30
0.0
 11
555.0
 21
79.125004503757637
 31
0.0
  0
LINE
  5
B57
  8
0
 62
     0
 10
553.5
 20
4.0000045037570757
 30
0.0
 11
553.5
 21
79.125004503757623
 31
0.0
  0
LINE
  5
B58
  8
0
 62
     0
 10
552.0
 20
4.0000045037570606
 30
0.0
 11
552.0
 21
79.125004503757609
 31
0.0
  0
LINE
  5
B59
  8
0
 62
     0
 10
550.49999999999989
 20
4.0000045037570464
 30
0.0
 11
550.49999999999989
 21
79.125004503757594
 31
0.0
  0
LINE
  5
B5A
  8
0
 62
     0
 10
549.0
 20
4.0000045037570313
 30
0.0
 11
549.0
 21
79.12500450375758
 31
0.0
  0
LINE
  5
B5B
  8
0
 62
     0
 10
547.5
 20
4.0000045037570153
 30
0.0
 11
547.5
 21
79.125004503757566
 31
0.0
  0
LINE
  5
B5C
  8
0
 62
     0
 10
546.0
 20
4.0000045037570002
 30
0.0
 11
546.0
 21
79.125004503757538
 31
0.0
  0
LINE
  5
B5D
  8
0
 62
     0
 10
544.5
 20
4.0000045037569851
 30
0.0
 11
544.5
 21
79.125004503757523
 31
0.0
  0
LINE
  5
B5E
  8
0
 62
     0
 10
543.0
 20
4.0000045037569691
 30
0.0
 11
543.0
 21
79.125004503757509
 31
0.0
  0
LINE
  5
B5F
  8
0
 62
     0
 10
541.5
 20
4.000004503756954
 30
0.0
 11
541.5
 21
79.125004503757495
 31
0.0
  0
LINE
  5
B60
  8
0
 62
     0
 10
540.0
 20
4.0000045037569381
 30
0.0
 11
540.0
 21
79.125004503757481
 31
0.0
  0
LINE
  5
B61
  8
0
 62
     0
 10
538.49999999999989
 20
4.0000045037569221
 30
0.0
 11
538.49999999999989
 21
79.125004503757467
 31
0.0
  0
LINE
  5
B62
  8
0
 62
     0
 10
537.0
 20
4.000004503756907
 30
0.0
 11
537.0
 21
79.125004503757452
 31
0.0
  0
LINE
  5
B63
  8
0
 62
     0
 10
535.5
 20
4.0000045037568919
 30
0.0
 11
535.5
 21
79.125004503757438
 31
0.0
  0
LINE
  5
B64
  8
0
 62
     0
 10
534.0
 20
4.0000045037568768
 30
0.0
 11
534.0
 21
79.125004503757424
 31
0.0
  0
LINE
  5
B65
  8
0
 62
     0
 10
532.5
 20
4.0000045037568608
 30
0.0
 11
532.5
 21
79.12500450375741
 31
0.0
  0
LINE
  5
B66
  8
0
 62
     0
 10
531.0
 20
4.0000045037568457
 30
0.0
 11
531.0
 21
79.125004503757381
 31
0.0
  0
LINE
  5
B67
  8
0
 62
     0
 10
529.49999999999989
 20
4.0000045037568306
 30
0.0
 11
529.49999999999989
 21
79.125004503757367
 31
0.0
  0
LINE
  5
B68
  8
0
 62
     0
 10
528.0
 20
4.0000045037568146
 30
0.0
 11
528.0
 21
79.125004503757353
 31
0.0
  0
LINE
  5
B69
  8
0
 62
     0
 10
526.49999999999989
 20
4.0000045037568004
 30
0.0
 11
526.49999999999989
 21
79.125004503757339
 31
0.0
  0
LINE
  5
B6A
  8
0
 62
     0
 10
493.5
 20
4.0000045037564487
 30
0.0
 11
493.5
 21
79.125004503756983
 31
0.0
  0
LINE
  5
B6B
  8
0
 62
     0
 10
492.0
 20
4.0000045037564336
 30
0.0
 11
492.0
 21
79.125004503756983
 31
0.0
  0
LINE
  5
B6C
  8
0
 62
     0
 10
490.5
 20
4.0000045037564176
 30
0.0
 11
490.5
 21
79.125004503756969
 31
0.0
  0
LINE
  5
B6D
  8
0
 62
     0
 10
489.0
 20
4.0000045037564034
 30
0.0
 11
489.0
 21
79.125004503756955
 31
0.0
  0
LINE
  5
B6E
  8
0
 62
     0
 10
487.5
 20
4.0000045037563883
 30
0.0
 11
487.5
 21
79.125004503756941
 31
0.0
  0
LINE
  5
B6F
  8
0
 62
     0
 10
486.0
 20
4.0000045037563732
 30
0.0
 11
486.0
 21
79.125004503756927
 31
0.0
  0
LINE
  5
B70
  8
0
 62
     0
 10
484.49999999999989
 20
4.0000045037563581
 30
0.0
 11
484.49999999999989
 21
79.125004503756912
 31
0.0
  0
LINE
  5
B71
  8
0
 62
     0
 10
483.0
 20
4.0000045037563421
 30
0.0
 11
483.0
 21
79.125004503756898
 31
0.0
  0
LINE
  5
B72
  8
0
 62
     0
 10
481.5
 20
4.000004503756327
 30
0.0
 11
481.5
 21
79.125004503756884
 31
0.0
  0
LINE
  5
B73
  8
0
 62
     0
 10
480.0
 20
4.0000045037563119
 30
0.0
 11
480.0
 21
79.12500450375687
 31
0.0
  0
LINE
  5
B74
  8
0
 62
     0
 10
478.5
 20
4.0000045037562968
 30
0.0
 11
478.5
 21
79.125004503756855
 31
0.0
  0
LINE
  5
B75
  8
0
 62
     0
 10
477.0
 20
4.0000045037562808
 30
0.0
 11
477.0
 21
79.125004503756841
 31
0.0
  0
LINE
  5
B76
  8
0
 62
     0
 10
475.49999999999989
 20
4.0000045037562657
 30
0.0
 11
475.49999999999989
 21
79.125004503756827
 31
0.0
  0
LINE
  5
B77
  8
0
 62
     0
 10
474.0
 20
4.0000045037562506
 30
0.0
 11
474.0
 21
79.125004503756813
 31
0.0
  0
LINE
  5
B78
  8
0
 62
     0
 10
472.5
 20
4.0000045037562364
 30
0.0
 11
472.5
 21
79.125004503756784
 31
0.0
  0
LINE
  5
B79
  8
0
 62
     0
 10
592.3105295599421
 20
4.5
 30
0.0
 11
626.32704361386709
 21
4.5
 31
0.0
  0
LINE
  5
B7A
  8
0
 62
     0
 10
526.31804395919551
 20
4.5
 30
0.0
 11
560.31526593036892
 21
4.5
 31
0.0
  0
LINE
  5
B7B
  8
0
 62
     0
 10
658.31005927596482
 20
4.5
 30
0.0
 11
680.75554395919585
 21
4.5
 31
0.0
  0
LINE
  5
B7C
  8
0
 62
     0
 10
471.8805439591959
 20
4.5
 30
0.0
 11
494.31804395919471
 21
4.5
 31
0.0
  0
LINE
  5
B7D
  8
0
 62
     0
 10
592.3105295599421
 20
6.0
 30
0.0
 11
626.32704361386709
 21
6.0
 31
0.0
  0
LINE
  5
B7E
  8
0
 62
     0
 10
526.31804395919551
 20
6.0
 30
0.0
 11
560.31526593036892
 21
6.0
 31
0.0
  0
LINE
  5
B7F
  8
0
 62
     0
 10
658.31005927596482
 20
6.0
 30
0.0
 11
680.75554395919585
 21
6.0
 31
0.0
  0
LINE
  5
B80
  8
0
 62
     0
 10
471.8805439591959
 20
6.0
 30
0.0
 11
494.31804395919471
 21
6.0
 31
0.0
  0
LINE
  5
B81
  8
0
 62
     0
 10
592.3105295599421
 20
7.5
 30
0.0
 11
626.32704361386709
 21
7.5
 31
0.0
  0
LINE
  5
B82
  8
0
 62
     0
 10
526.31804395919551
 20
7.5
 30
0.0
 11
560.31526593036892
 21
7.5
 31
0.0
  0
LINE
  5
B83
  8
0
 62
     0
 10
658.31005927596482
 20
7.5
 30
0.0
 11
680.75554395919585
 21
7.5
 31
0.0
  0
LINE
  5
B84
  8
0
 62
     0
 10
471.88054395919579
 20
7.5
 30
0.0
 11
494.31804395919471
 21
7.5
 31
0.0
  0
LINE
  5
B85
  8
0
 62
     0
 10
592.3105295599421
 20
9.0
 30
0.0
 11
626.32704361386709
 21
9.0
 31
0.0
  0
LINE
  5
B86
  8
0
 62
     0
 10
526.31804395919551
 20
9.0
 30
0.0
 11
560.31526593036892
 21
9.0
 31
0.0
  0
LINE
  5
B87
  8
0
 62
     0
 10
658.31005927596482
 20
9.0
 30
0.0
 11
680.75554395919585
 21
9.0
 31
0.0
  0
LINE
  5
B88
  8
0
 62
     0
 10
471.88054395919579
 20
9.0
 30
0.0
 11
494.31804395919471
 21
9.0
 31
0.0
  0
LINE
  5
B89
  8
0
 62
     0
 10
592.3105295599421
 20
10.5
 30
0.0
 11
626.32704361386709
 21
10.5
 31
0.0
  0
LINE
  5
B8A
  8
0
 62
     0
 10
526.31804395919551
 20
10.5
 30
0.0
 11
560.31526593036892
 21
10.5
 31
0.0
  0
LINE
  5
B8B
  8
0
 62
     0
 10
658.31005927596482
 20
10.5
 30
0.0
 11
680.75554395919573
 21
10.5
 31
0.0
  0
LINE
  5
B8C
  8
0
 62
     0
 10
471.88054395919579
 20
10.5
 30
0.0
 11
494.31804395919471
 21
10.5
 31
0.0
  0
LINE
  5
B8D
  8
0
 62
     0
 10
592.3105295599421
 20
12.0
 30
0.0
 11
626.32704361386709
 21
12.0
 31
0.0
  0
LINE
  5
B8E
  8
0
 62
     0
 10
526.31804395919551
 20
12.0
 30
0.0
 11
560.31526593036892
 21
12.0
 31
0.0
  0
LINE
  5
B8F
  8
0
 62
     0
 10
658.31005927596482
 20
12.0
 30
0.0
 11
680.75554395919573
 21
12.0
 31
0.0
  0
LINE
  5
B90
  8
0
 62
     0
 10
471.88054395919579
 20
12.0
 30
0.0
 11
494.31804395919471
 21
12.0
 31
0.0
  0
LINE
  5
B91
  8
0
 62
     0
 10
592.3105295599421
 20
13.5
 30
0.0
 11
626.32704361386709
 21
13.5
 31
0.0
  0
LINE
  5
B92
  8
0
 62
     0
 10
526.31804395919551
 20
13.5
 30
0.0
 11
560.31526593036892
 21
13.5
 31
0.0
  0
LINE
  5
B93
  8
0
 62
     0
 10
658.31005927596482
 20
13.5
 30
0.0
 11
680.75554395919573
 21
13.5
 31
0.0
  0
LINE
  5
B94
  8
0
 62
     0
 10
471.88054395919579
 20
13.5
 30
0.0
 11
494.31804395919471
 21
13.5
 31
0.0
  0
LINE
  5
B95
  8
0
 62
     0
 10
592.3105295599421
 20
15.0
 30
0.0
 11
626.32704361386709
 21
15.0
 31
0.0
  0
LINE
  5
B96
  8
0
 62
     0
 10
526.31804395919551
 20
15.0
 30
0.0
 11
560.31526593036892
 21
15.0
 31
0.0
  0
LINE
  5
B97
  8
0
 62
     0
 10
658.31005927596482
 20
15.0
 30
0.0
 11
680.75554395919573
 21
15.0
 31
0.0
  0
LINE
  5
B98
  8
0
 62
     0
 10
471.88054395919579
 20
15.0
 30
0.0
 11
494.31804395919471
 21
15.0
 31
0.0
  0
LINE
  5
B99
  8
0
 62
     0
 10
592.3105295599421
 20
16.5
 30
0.0
 11
626.32704361386709
 21
16.5
 31
0.0
  0
LINE
  5
B9A
  8
0
 62
     0
 10
526.31804395919551
 20
16.5
 30
0.0
 11
560.31526593036892
 21
16.5
 31
0.0
  0
LINE
  5
B9B
  8
0
 62
     0
 10
658.31005927596482
 20
16.5
 30
0.0
 11
680.75554395919573
 21
16.5
 31
0.0
  0
LINE
  5
B9C
  8
0
 62
     0
 10
471.88054395919579
 20
16.5
 30
0.0
 11
494.31804395919471
 21
16.5
 31
0.0
  0
LINE
  5
B9D
  8
0
 62
     0
 10
592.3105295599421
 20
18.0
 30
0.0
 11
626.32704361386709
 21
18.0
 31
0.0
  0
LINE
  5
B9E
  8
0
 62
     0
 10
526.31804395919551
 20
18.0
 30
0.0
 11
560.31526593036892
 21
18.0
 31
0.0
  0
LINE
  5
B9F
  8
0
 62
     0
 10
658.31005927596482
 20
18.0
 30
0.0
 11
680.75554395919573
 21
18.0
 31
0.0
  0
LINE
  5
BA0
  8
0
 62
     0
 10
471.88054395919579
 20
18.0
 30
0.0
 11
494.31804395919471
 21
18.0
 31
0.0
  0
LINE
  5
BA1
  8
0
 62
     0
 10
592.3105295599421
 20
19.5
 30
0.0
 11
626.32704361386709
 21
19.5
 31
0.0
  0
LINE
  5
BA2
  8
0
 62
     0
 10
526.31804395919551
 20
19.5
 30
0.0
 11
560.31526593036892
 21
19.5
 31
0.0
  0
LINE
  5
BA3
  8
0
 62
     0
 10
658.31005927596482
 20
19.5
 30
0.0
 11
680.75554395919573
 21
19.5
 31
0.0
  0
LINE
  5
BA4
  8
0
 62
     0
 10
471.88054395919579
 20
19.5
 30
0.0
 11
494.31804395919471
 21
19.5
 31
0.0
  0
LINE
  5
BA5
  8
0
 62
     0
 10
592.3105295599421
 20
21.0
 30
0.0
 11
626.32704361386709
 21
21.0
 31
0.0
  0
LINE
  5
BA6
  8
0
 62
     0
 10
526.31804395919551
 20
21.0
 30
0.0
 11
560.31526593036892
 21
21.0
 31
0.0
  0
LINE
  5
BA7
  8
0
 62
     0
 10
658.31005927596482
 20
21.0
 30
0.0
 11
680.75554395919562
 21
21.0
 31
0.0
  0
LINE
  5
BA8
  8
0
 62
     0
 10
471.88054395919579
 20
21.0
 30
0.0
 11
494.31804395919471
 21
21.0
 31
0.0
  0
LINE
  5
BA9
  8
0
 62
     0
 10
592.3105295599421
 20
22.5
 30
0.0
 11
626.32704361386709
 21
22.5
 31
0.0
  0
LINE
  5
BAA
  8
0
 62
     0
 10
526.31804395919551
 20
22.5
 30
0.0
 11
560.31526593036892
 21
22.5
 31
0.0
  0
LINE
  5
BAB
  8
0
 62
     0
 10
658.31005927596482
 20
22.5
 30
0.0
 11
680.75554395919562
 21
22.5
 31
0.0
  0
LINE
  5
BAC
  8
0
 62
     0
 10
471.88054395919579
 20
22.5
 30
0.0
 11
494.31804395919471
 21
22.5
 31
0.0
  0
LINE
  5
BAD
  8
0
 62
     0
 10
592.3105295599421
 20
24.0
 30
0.0
 11
626.32704361386709
 21
24.0
 31
0.0
  0
LINE
  5
BAE
  8
0
 62
     0
 10
526.31804395919551
 20
24.0
 30
0.0
 11
560.31526593036892
 21
24.0
 31
0.0
  0
LINE
  5
BAF
  8
0
 62
     0
 10
658.31005927596482
 20
24.0
 30
0.0
 11
680.75554395919562
 21
24.0
 31
0.0
  0
LINE
  5
BB0
  8
0
 62
     0
 10
471.88054395919568
 20
24.0
 30
0.0
 11
494.31804395919471
 21
24.0
 31
0.0
  0
LINE
  5
BB1
  8
0
 62
     0
 10
592.3105295599421
 20
25.5
 30
0.0
 11
626.32704361386709
 21
25.5
 31
0.0
  0
LINE
  5
BB2
  8
0
 62
     0
 10
526.31804395919551
 20
25.5
 30
0.0
 11
560.31526593036892
 21
25.5
 31
0.0
  0
LINE
  5
BB3
  8
0
 62
     0
 10
658.31005927596482
 20
25.5
 30
0.0
 11
680.75554395919562
 21
25.5
 31
0.0
  0
LINE
  5
BB4
  8
0
 62
     0
 10
471.88054395919568
 20
25.5
 30
0.0
 11
494.31804395919471
 21
25.5
 31
0.0
  0
LINE
  5
BB5
  8
0
 62
     0
 10
592.3105295599421
 20
27.0
 30
0.0
 11
626.32704361386709
 21
27.0
 31
0.0
  0
LINE
  5
BB6
  8
0
 62
     0
 10
526.31804395919551
 20
27.0
 30
0.0
 11
560.31526593036892
 21
27.0
 31
0.0
  0
LINE
  5
BB7
  8
0
 62
     0
 10
658.31005927596482
 20
27.0
 30
0.0
 11
680.75554395919562
 21
27.0
 31
0.0
  0
LINE
  5
BB8
  8
0
 62
     0
 10
471.88054395919568
 20
27.0
 30
0.0
 11
494.31804395919471
 21
27.0
 31
0.0
  0
LINE
  5
BB9
  8
0
 62
     0
 10
592.3105295599421
 20
28.5
 30
0.0
 11
626.32704361386709
 21
28.5
 31
0.0
  0
LINE
  5
BBA
  8
0
 62
     0
 10
526.31804395919551
 20
28.5
 30
0.0
 11
560.31526593036892
 21
28.5
 31
0.0
  0
LINE
  5
BBB
  8
0
 62
     0
 10
658.31005927596482
 20
28.5
 30
0.0
 11
680.75554395919562
 21
28.5
 31
0.0
  0
LINE
  5
BBC
  8
0
 62
     0
 10
471.88054395919568
 20
28.5
 30
0.0
 11
494.31804395919471
 21
28.5
 31
0.0
  0
LINE
  5
BBD
  8
0
 62
     0
 10
592.3105295599421
 20
30.0
 30
0.0
 11
626.32704361386709
 21
30.0
 31
0.0
  0
LINE
  5
BBE
  8
0
 62
     0
 10
526.31804395919551
 20
30.0
 30
0.0
 11
560.31526593036892
 21
30.0
 31
0.0
  0
LINE
  5
BBF
  8
0
 62
     0
 10
658.31005927596482
 20
30.0
 30
0.0
 11
680.75554395919562
 21
30.0
 31
0.0
  0
LINE
  5
BC0
  8
0
 62
     0
 10
471.88054395919568
 20
30.0
 30
0.0
 11
494.31804395919471
 21
30.0
 31
0.0
  0
LINE
  5
BC1
  8
0
 62
     0
 10
592.3105295599421
 20
31.5
 30
0.0
 11
626.32704361386709
 21
31.5
 31
0.0
  0
LINE
  5
BC2
  8
0
 62
     0
 10
526.31804395919551
 20
31.5
 30
0.0
 11
560.31526593036892
 21
31.5
 31
0.0
  0
LINE
  5
BC3
  8
0
 62
     0
 10
658.31005927596482
 20
31.5
 30
0.0
 11
680.75554395919551
 21
31.5
 31
0.0
  0
LINE
  5
BC4
  8
0
 62
     0
 10
471.88054395919568
 20
31.5
 30
0.0
 11
494.31804395919471
 21
31.5
 31
0.0
  0
LINE
  5
BC5
  8
0
 62
     0
 10
592.3105295599421
 20
33.0
 30
0.0
 11
626.32704361386709
 21
33.0
 31
0.0
  0
LINE
  5
BC6
  8
0
 62
     0
 10
526.31804395919551
 20
33.0
 30
0.0
 11
560.31526593036892
 21
33.0
 31
0.0
  0
LINE
  5
BC7
  8
0
 62
     0
 10
658.31005927596482
 20
33.0
 30
0.0
 11
680.75554395919551
 21
33.0
 31
0.0
  0
LINE
  5
BC8
  8
0
 62
     0
 10
471.88054395919568
 20
33.0
 30
0.0
 11
494.31804395919471
 21
33.0
 31
0.0
  0
LINE
  5
BC9
  8
0
 62
     0
 10
592.3105295599421
 20
34.5
 30
0.0
 11
626.32704361386709
 21
34.5
 31
0.0
  0
LINE
  5
BCA
  8
0
 62
     0
 10
526.31804395919551
 20
34.5
 30
0.0
 11
560.31526593036892
 21
34.5
 31
0.0
  0
LINE
  5
BCB
  8
0
 62
     0
 10
658.31005927596482
 20
34.5
 30
0.0
 11
680.75554395919551
 21
34.5
 31
0.0
  0
LINE
  5
BCC
  8
0
 62
     0
 10
471.88054395919562
 20
34.5
 30
0.0
 11
494.31804395919471
 21
34.5
 31
0.0
  0
LINE
  5
BCD
  8
0
 62
     0
 10
592.3105295599421
 20
36.0
 30
0.0
 11
626.32704361386709
 21
36.0
 31
0.0
  0
LINE
  5
BCE
  8
0
 62
     0
 10
526.31804395919551
 20
36.0
 30
0.0
 11
560.31526593036892
 21
36.0
 31
0.0
  0
LINE
  5
BCF
  8
0
 62
     0
 10
658.31005927596482
 20
36.0
 30
0.0
 11
680.75554395919551
 21
36.0
 31
0.0
  0
LINE
  5
BD0
  8
0
 62
     0
 10
471.88054395919562
 20
36.0
 30
0.0
 11
494.31804395919471
 21
36.0
 31
0.0
  0
LINE
  5
BD1
  8
0
 62
     0
 10
592.3105295599421
 20
37.5
 30
0.0
 11
626.32704361386709
 21
37.5
 31
0.0
  0
LINE
  5
BD2
  8
0
 62
     0
 10
526.31804395919551
 20
37.5
 30
0.0
 11
560.31526593036892
 21
37.5
 31
0.0
  0
LINE
  5
BD3
  8
0
 62
     0
 10
658.31005927596482
 20
37.5
 30
0.0
 11
680.75554395919551
 21
37.5
 31
0.0
  0
LINE
  5
BD4
  8
0
 62
     0
 10
471.88054395919562
 20
37.5
 30
0.0
 11
494.31804395919471
 21
37.5
 31
0.0
  0
LINE
  5
BD5
  8
0
 62
     0
 10
592.3105295599421
 20
39.0
 30
0.0
 11
626.32704361386709
 21
39.0
 31
0.0
  0
LINE
  5
BD6
  8
0
 62
     0
 10
526.31804395919551
 20
39.0
 30
0.0
 11
560.31526593036892
 21
39.0
 31
0.0
  0
LINE
  5
BD7
  8
0
 62
     0
 10
658.31005927596482
 20
39.0
 30
0.0
 11
680.75554395919551
 21
39.0
 31
0.0
  0
LINE
  5
BD8
  8
0
 62
     0
 10
471.88054395919551
 20
39.0
 30
0.0
 11
494.31804395919471
 21
39.0
 31
0.0
  0
LINE
  5
BD9
  8
0
 62
     0
 10
592.3105295599421
 20
40.499999999999993
 30
0.0
 11
626.32704361386709
 21
40.499999999999993
 31
0.0
  0
LINE
  5
BDA
  8
0
 62
     0
 10
526.31804395919551
 20
40.499999999999993
 30
0.0
 11
560.31526593036892
 21
40.499999999999993
 31
0.0
  0
LINE
  5
BDB
  8
0
 62
     0
 10
658.31005927596482
 20
40.499999999999993
 30
0.0
 11
680.75554395919551
 21
40.499999999999993
 31
0.0
  0
LINE
  5
BDC
  8
0
 62
     0
 10
471.88054395919551
 20
40.499999999999993
 30
0.0
 11
494.31804395919471
 21
40.499999999999993
 31
0.0
  0
LINE
  5
BDD
  8
0
 62
     0
 10
592.3105295599421
 20
42.0
 30
0.0
 11
626.32704361386709
 21
42.0
 31
0.0
  0
LINE
  5
BDE
  8
0
 62
     0
 10
526.31804395919551
 20
42.0
 30
0.0
 11
560.31526593036892
 21
42.0
 31
0.0
  0
LINE
  5
BDF
  8
0
 62
     0
 10
658.31005927596482
 20
42.0
 30
0.0
 11
680.75554395919528
 21
42.0
 31
0.0
  0
LINE
  5
BE0
  8
0
 62
     0
 10
471.88054395919551
 20
42.0
 30
0.0
 11
494.31804395919471
 21
42.0
 31
0.0
  0
LINE
  5
BE1
  8
0
 62
     0
 10
592.3105295599421
 20
43.5
 30
0.0
 11
626.32704361386709
 21
43.5
 31
0.0
  0
LINE
  5
BE2
  8
0
 62
     0
 10
526.31804395919551
 20
43.5
 30
0.0
 11
560.31526593036892
 21
43.5
 31
0.0
  0
LINE
  5
BE3
  8
0
 62
     0
 10
658.31005927596482
 20
43.5
 30
0.0
 11
680.75554395919528
 21
43.5
 31
0.0
  0
LINE
  5
BE4
  8
0
 62
     0
 10
471.88054395919551
 20
43.5
 30
0.0
 11
494.31804395919471
 21
43.5
 31
0.0
  0
LINE
  5
BE5
  8
0
 62
     0
 10
592.3105295599421
 20
45.0
 30
0.0
 11
626.32704361386709
 21
45.0
 31
0.0
  0
LINE
  5
BE6
  8
0
 62
     0
 10
526.31804395919551
 20
45.0
 30
0.0
 11
560.31526593036892
 21
45.0
 31
0.0
  0
LINE
  5
BE7
  8
0
 62
     0
 10
658.31005927596482
 20
45.0
 30
0.0
 11
680.75554395919528
 21
45.0
 31
0.0
  0
LINE
  5
BE8
  8
0
 62
     0
 10
471.88054395919551
 20
45.0
 30
0.0
 11
494.31804395919471
 21
45.0
 31
0.0
  0
LINE
  5
BE9
  8
0
 62
     0
 10
592.3105295599421
 20
46.5
 30
0.0
 11
626.32704361386709
 21
46.5
 31
0.0
  0
LINE
  5
BEA
  8
0
 62
     0
 10
526.31804395919551
 20
46.5
 30
0.0
 11
560.31526593036892
 21
46.5
 31
0.0
  0
LINE
  5
BEB
  8
0
 62
     0
 10
658.31005927596482
 20
46.5
 30
0.0
 11
680.75554395919528
 21
46.5
 31
0.0
  0
LINE
  5
BEC
  8
0
 62
     0
 10
471.88054395919551
 20
46.5
 30
0.0
 11
494.31804395919471
 21
46.5
 31
0.0
  0
LINE
  5
BED
  8
0
 62
     0
 10
592.3105295599421
 20
48.0
 30
0.0
 11
626.32704361386709
 21
48.0
 31
0.0
  0
LINE
  5
BEE
  8
0
 62
     0
 10
526.31804395919551
 20
48.0
 30
0.0
 11
560.31526593036892
 21
48.0
 31
0.0
  0
LINE
  5
BEF
  8
0
 62
     0
 10
658.31005927596482
 20
48.0
 30
0.0
 11
680.75554395919528
 21
48.0
 31
0.0
  0
LINE
  5
BF0
  8
0
 62
     0
 10
471.88054395919551
 20
48.0
 30
0.0
 11
494.31804395919471
 21
48.0
 31
0.0
  0
LINE
  5
BF1
  8
0
 62
     0
 10
592.3105295599421
 20
49.5
 30
0.0
 11
626.32704361386709
 21
49.5
 31
0.0
  0
LINE
  5
BF2
  8
0
 62
     0
 10
526.31804395919551
 20
49.5
 30
0.0
 11
560.31526593036892
 21
49.5
 31
0.0
  0
LINE
  5
BF3
  8
0
 62
     0
 10
658.31005927596482
 20
49.5
 30
0.0
 11
680.75554395919528
 21
49.5
 31
0.0
  0
LINE
  5
BF4
  8
0
 62
     0
 10
471.88054395919551
 20
49.5
 30
0.0
 11
494.31804395919471
 21
49.5
 31
0.0
  0
LINE
  5
BF5
  8
0
 62
     0
 10
592.3105295599421
 20
51.0
 30
0.0
 11
626.32704361386709
 21
51.0
 31
0.0
  0
LINE
  5
BF6
  8
0
 62
     0
 10
526.31804395919551
 20
51.0
 30
0.0
 11
560.31526593036892
 21
51.0
 31
0.0
  0
LINE
  5
BF7
  8
0
 62
     0
 10
658.31005927596482
 20
51.0
 30
0.0
 11
680.75554395919528
 21
51.0
 31
0.0
  0
LINE
  5
BF8
  8
0
 62
     0
 10
471.88054395919539
 20
51.0
 30
0.0
 11
494.31804395919471
 21
51.0
 31
0.0
  0
LINE
  5
BF9
  8
0
 62
     0
 10
592.3105295599421
 20
52.5
 30
0.0
 11
626.32704361386709
 21
52.5
 31
0.0
  0
LINE
  5
BFA
  8
0
 62
     0
 10
526.31804395919551
 20
52.5
 30
0.0
 11
560.31526593036892
 21
52.5
 31
0.0
  0
LINE
  5
BFB
  8
0
 62
     0
 10
658.31005927596482
 20
52.5
 30
0.0
 11
680.75554395919517
 21
52.5
 31
0.0
  0
LINE
  5
BFC
  8
0
 62
     0
 10
471.88054395919539
 20
52.5
 30
0.0
 11
494.31804395919471
 21
52.5
 31
0.0
  0
LINE
  5
BFD
  8
0
 62
     0
 10
592.3105295599421
 20
54.0
 30
0.0
 11
626.32704361386709
 21
54.0
 31
0.0
  0
LINE
  5
BFE
  8
0
 62
     0
 10
526.31804395919551
 20
54.0
 30
0.0
 11
560.31526593036892
 21
54.0
 31
0.0
  0
LINE
  5
BFF
  8
0
 62
     0
 10
658.31005927596482
 20
54.0
 30
0.0
 11
680.75554395919517
 21
54.0
 31
0.0
  0
LINE
  5
C00
  8
0
 62
     0
 10
471.88054395919539
 20
54.0
 30
0.0
 11
494.31804395919471
 21
54.0
 31
0.0
  0
LINE
  5
C01
  8
0
 62
     0
 10
592.3105295599421
 20
55.5
 30
0.0
 11
626.32704361386709
 21
55.5
 31
0.0
  0
LINE
  5
C02
  8
0
 62
     0
 10
526.31804395919551
 20
55.5
 30
0.0
 11
560.31526593036892
 21
55.5
 31
0.0
  0
LINE
  5
C03
  8
0
 62
     0
 10
658.31005927596482
 20
55.5
 30
0.0
 11
680.75554395919517
 21
55.5
 31
0.0
  0
LINE
  5
C04
  8
0
 62
     0
 10
471.88054395919528
 20
55.5
 30
0.0
 11
494.31804395919471
 21
55.5
 31
0.0
  0
LINE
  5
C05
  8
0
 62
     0
 10
592.3105295599421
 20
57.0
 30
0.0
 11
626.32704361386709
 21
57.0
 31
0.0
  0
LINE
  5
C06
  8
0
 62
     0
 10
526.31804395919551
 20
57.0
 30
0.0
 11
560.31526593036892
 21
57.0
 31
0.0
  0
LINE
  5
C07
  8
0
 62
     0
 10
658.31005927596482
 20
57.0
 30
0.0
 11
680.75554395919517
 21
57.0
 31
0.0
  0
LINE
  5
C08
  8
0
 62
     0
 10
471.88054395919528
 20
57.0
 30
0.0
 11
494.31804395919471
 21
57.0
 31
0.0
  0
LINE
  5
C09
  8
0
 62
     0
 10
592.3105295599421
 20
58.5
 30
0.0
 11
626.32704361386709
 21
58.5
 31
0.0
  0
LINE
  5
C0A
  8
0
 62
     0
 10
526.31804395919551
 20
58.5
 30
0.0
 11
560.31526593036892
 21
58.5
 31
0.0
  0
LINE
  5
C0B
  8
0
 62
     0
 10
658.31005927596482
 20
58.5
 30
0.0
 11
680.75554395919517
 21
58.5
 31
0.0
  0
LINE
  5
C0C
  8
0
 62
     0
 10
471.88054395919528
 20
58.5
 30
0.0
 11
494.31804395919471
 21
58.5
 31
0.0
  0
LINE
  5
C0D
  8
0
 62
     0
 10
592.3105295599421
 20
60.0
 30
0.0
 11
626.32704361386709
 21
60.0
 31
0.0
  0
LINE
  5
C0E
  8
0
 62
     0
 10
526.31804395919551
 20
60.0
 30
0.0
 11
560.31526593036892
 21
60.0
 31
0.0
  0
LINE
  5
C0F
  8
0
 62
     0
 10
658.31005927596482
 20
60.0
 30
0.0
 11
680.75554395919517
 21
60.0
 31
0.0
  0
LINE
  5
C10
  8
0
 62
     0
 10
471.88054395919528
 20
60.0
 30
0.0
 11
494.31804395919471
 21
60.0
 31
0.0
  0
LINE
  5
C11
  8
0
 62
     0
 10
592.3105295599421
 20
61.5
 30
0.0
 11
626.32704361386709
 21
61.5
 31
0.0
  0
LINE
  5
C12
  8
0
 62
     0
 10
526.31804395919551
 20
61.5
 30
0.0
 11
560.31526593036892
 21
61.5
 31
0.0
  0
LINE
  5
C13
  8
0
 62
     0
 10
658.31005927596482
 20
61.5
 30
0.0
 11
680.75554395919517
 21
61.5
 31
0.0
  0
LINE
  5
C14
  8
0
 62
     0
 10
471.88054395919528
 20
61.5
 30
0.0
 11
494.31804395919471
 21
61.5
 31
0.0
  0
LINE
  5
C15
  8
0
 62
     0
 10
592.3105295599421
 20
63.0
 30
0.0
 11
626.32704361386709
 21
63.0
 31
0.0
  0
LINE
  5
C16
  8
0
 62
     0
 10
526.31804395919551
 20
63.0
 30
0.0
 11
560.31526593036892
 21
63.0
 31
0.0
  0
LINE
  5
C17
  8
0
 62
     0
 10
658.31005927596482
 20
63.0
 30
0.0
 11
680.75554395919517
 21
63.0
 31
0.0
  0
LINE
  5
C18
  8
0
 62
     0
 10
471.88054395919528
 20
63.0
 30
0.0
 11
494.31804395919471
 21
63.0
 31
0.0
  0
LINE
  5
C19
  8
0
 62
     0
 10
592.3105295599421
 20
64.5
 30
0.0
 11
626.32704361386709
 21
64.5
 31
0.0
  0
LINE
  5
C1A
  8
0
 62
     0
 10
526.31804395919551
 20
64.5
 30
0.0
 11
560.31526593036892
 21
64.5
 31
0.0
  0
LINE
  5
C1B
  8
0
 62
     0
 10
658.31005927596482
 20
64.5
 30
0.0
 11
680.75554395919505
 21
64.5
 31
0.0
  0
LINE
  5
C1C
  8
0
 62
     0
 10
471.88054395919528
 20
64.5
 30
0.0
 11
494.31804395919471
 21
64.5
 31
0.0
  0
LINE
  5
C1D
  8
0
 62
     0
 10
592.3105295599421
 20
66.0
 30
0.0
 11
626.32704361386709
 21
66.0
 31
0.0
  0
LINE
  5
C1E
  8
0
 62
     0
 10
526.31804395919551
 20
66.0
 30
0.0
 11
560.31526593036892
 21
66.0
 31
0.0
  0
LINE
  5
C1F
  8
0
 62
     0
 10
658.31005927596482
 20
66.0
 30
0.0
 11
680.75554395919505
 21
66.0
 31
0.0
  0
LINE
  5
C20
  8
0
 62
     0
 10
471.88054395919522
 20
66.0
 30
0.0
 11
494.31804395919471
 21
66.0
 31
0.0
  0
LINE
  5
C21
  8
0
 62
     0
 10
592.3105295599421
 20
67.5
 30
0.0
 11
626.32704361386709
 21
67.5
 31
0.0
  0
LINE
  5
C22
  8
0
 62
     0
 10
526.31804395919551
 20
67.5
 30
0.0
 11
560.31526593036892
 21
67.5
 31
0.0
  0
LINE
  5
C23
  8
0
 62
     0
 10
658.31005927596482
 20
67.5
 30
0.0
 11
680.75554395919505
 21
67.5
 31
0.0
  0
LINE
  5
C24
  8
0
 62
     0
 10
471.88054395919522
 20
67.5
 30
0.0
 11
494.31804395919471
 21
67.5
 31
0.0
  0
LINE
  5
C25
  8
0
 62
     0
 10
592.3105295599421
 20
69.0
 30
0.0
 11
626.32704361386709
 21
69.0
 31
0.0
  0
LINE
  5
C26
  8
0
 62
     0
 10
526.31804395919551
 20
69.0
 30
0.0
 11
560.31526593036892
 21
69.0
 31
0.0
  0
LINE
  5
C27
  8
0
 62
     0
 10
658.31005927596482
 20
69.0
 30
0.0
 11
680.75554395919505
 21
69.0
 31
0.0
  0
LINE
  5
C28
  8
0
 62
     0
 10
471.88054395919522
 20
69.0
 30
0.0
 11
494.31804395919471
 21
69.0
 31
0.0
  0
LINE
  5
C29
  8
0
 62
     0
 10
592.3105295599421
 20
70.5
 30
0.0
 11
626.32704361386709
 21
70.5
 31
0.0
  0
LINE
  5
C2A
  8
0
 62
     0
 10
526.31804395919551
 20
70.5
 30
0.0
 11
560.31526593036892
 21
70.5
 31
0.0
  0
LINE
  5
C2B
  8
0
 62
     0
 10
658.31005927596482
 20
70.5
 30
0.0
 11
680.75554395919505
 21
70.5
 31
0.0
  0
LINE
  5
C2C
  8
0
 62
     0
 10
471.88054395919522
 20
70.5
 30
0.0
 11
494.31804395919471
 21
70.5
 31
0.0
  0
LINE
  5
C2D
  8
0
 62
     0
 10
592.3105295599421
 20
72.0
 30
0.0
 11
626.32704361386709
 21
72.0
 31
0.0
  0
LINE
  5
C2E
  8
0
 62
     0
 10
526.31804395919551
 20
72.0
 30
0.0
 11
560.31526593036892
 21
72.0
 31
0.0
  0
LINE
  5
C2F
  8
0
 62
     0
 10
658.31005927596482
 20
72.0
 30
0.0
 11
680.75554395919505
 21
72.0
 31
0.0
  0
LINE
  5
C30
  8
0
 62
     0
 10
471.88054395919522
 20
72.0
 30
0.0
 11
494.31804395919471
 21
72.0
 31
0.0
  0
LINE
  5
C31
  8
0
 62
     0
 10
592.3105295599421
 20
73.5
 30
0.0
 11
626.32704361386709
 21
73.5
 31
0.0
  0
LINE
  5
C32
  8
0
 62
     0
 10
526.31804395919551
 20
73.5
 30
0.0
 11
560.31526593036892
 21
73.5
 31
0.0
  0
LINE
  5
C33
  8
0
 62
     0
 10
658.31005927596482
 20
73.5
 30
0.0
 11
680.75554395919505
 21
73.5
 31
0.0
  0
LINE
  5
C34
  8
0
 62
     0
 10
471.88054395919522
 20
73.5
 30
0.0
 11
494.31804395919471
 21
73.5
 31
0.0
  0
LINE
  5
C35
  8
0
 62
     0
 10
592.3105295599421
 20
75.0
 30
0.0
 11
626.32704361386709
 21
75.0
 31
0.0
  0
LINE
  5
C36
  8
0
 62
     0
 10
526.31804395919551
 20
75.0
 30
0.0
 11
560.31526593036892
 21
75.0
 31
0.0
  0
LINE
  5
C37
  8
0
 62
     0
 10
658.31005927596482
 20
75.0
 30
0.0
 11
680.75554395919505
 21
75.0
 31
0.0
  0
LINE
  5
C38
  8
0
 62
     0
 10
471.88054395919522
 20
75.0
 30
0.0
 11
494.31804395919471
 21
75.0
 31
0.0
  0
LINE
  5
C39
  8
0
 62
     0
 10
592.3105295599421
 20
76.5
 30
0.0
 11
626.32704361386709
 21
76.5
 31
0.0
  0
LINE
  5
C3A
  8
0
 62
     0
 10
526.31804395919551
 20
76.5
 30
0.0
 11
560.31526593036892
 21
76.5
 31
0.0
  0
LINE
  5
C3B
  8
0
 62
     0
 10
658.31005927596482
 20
76.5
 30
0.0
 11
680.75554395919505
 21
76.5
 31
0.0
  0
LINE
  5
C3C
  8
0
 62
     0
 10
471.88054395919511
 20
76.5
 30
0.0
 11
494.31804395919471
 21
76.5
 31
0.0
  0
LINE
  5
C3D
  8
0
 62
     0
 10
592.3105295599421
 20
78.0
 30
0.0
 11
626.32704361386709
 21
78.0
 31
0.0
  0
LINE
  5
C3E
  8
0
 62
     0
 10
526.31804395919551
 20
78.0
 30
0.0
 11
560.31526593036892
 21
78.0
 31
0.0
  0
LINE
  5
C3F
  8
0
 62
     0
 10
658.31005927596482
 20
78.0
 30
0.0
 11
680.75554395919505
 21
78.0
 31
0.0
  0
LINE
  5
C40
  8
0
 62
     0
 10
471.88054395919511
 20
78.0
 30
0.0
 11
494.31804395919471
 21
78.0
 31
0.0
  0
ENDBLK
  5
C42
  8
0
  0
BLOCK
  8
0
  2
*X4
 70
     1
 10
0.0
 20
0.0
 30
0.0
  3
*X4
  1

  0
LINE
  5
C44
  8
0
 62
     0
 10
388.29505141786962
 20
422.99999999999989
 30
0.0
 11
298.29505141786967
 21
422.99999999999989
 31
0.0
  0
LINE
  5
C45
  8
0
 62
     0
 10
388.29505141786962
 20
421.49999999999989
 30
0.0
 11
298.29505141786967
 21
421.49999999999989
 31
0.0
  0
LINE
  5
C46
  8
0
 62
     0
 10
388.29505141786962
 20
419.99999999999989
 30
0.0
 11
298.29505141786967
 21
419.99999999999989
 31
0.0
  0
LINE
  5
C47
  8
0
 62
     0
 10
388.29505141786962
 20
418.49999999999989
 30
0.0
 11
298.29505141786967
 21
418.49999999999989
 31
0.0
  0
LINE
  5
C48
  8
0
 62
     0
 10
388.29505141786962
 20
416.99999999999989
 30
0.0
 11
298.29505141786967
 21
416.99999999999989
 31
0.0
  0
LINE
  5
C49
  8
0
 62
     0
 10
388.29505141786962
 20
415.49999999999989
 30
0.0
 11
298.29505141786967
 21
415.49999999999989
 31
0.0
  0
LINE
  5
C4A
  8
0
 62
     0
 10
388.29505141786962
 20
413.99999999999989
 30
0.0
 11
298.29505141786967
 21
413.99999999999989
 31
0.0
  0
LINE
  5
C4B
  8
0
 62
     0
 10
388.29505141786962
 20
412.49999999999989
 30
0.0
 11
298.29505141786967
 21
412.49999999999989
 31
0.0
  0
LINE
  5
C4C
  8
0
 62
     0
 10
388.29505141786962
 20
410.99999999999989
 30
0.0
 11
298.29505141786967
 21
410.99999999999989
 31
0.0
  0
LINE
  5
C4D
  8
0
 62
     0
 10
388.29505141786962
 20
409.49999999999989
 30
0.0
 11
298.29505141786962
 21
409.49999999999989
 31
0.0
  0
LINE
  5
C4E
  8
0
 62
     0
 10
388.29505141786962
 20
407.99999999999989
 30
0.0
 11
298.29505141786962
 21
407.99999999999989
 31
0.0
  0
LINE
  5
C4F
  8
0
 62
     0
 10
388.29505141786962
 20
406.49999999999989
 30
0.0
 11
298.29505141786962
 21
406.49999999999989
 31
0.0
  0
LINE
  5
C50
  8
0
 62
     0
 10
388.29505141786962
 20
404.99999999999989
 30
0.0
 11
298.29505141786962
 21
404.99999999999989
 31
0.0
  0
LINE
  5
C51
  8
0
 62
     0
 10
388.29505141786962
 20
403.49999999999989
 30
0.0
 11
298.29505141786962
 21
403.49999999999989
 31
0.0
  0
LINE
  5
C52
  8
0
 62
     0
 10
388.29505141786962
 20
401.99999999999989
 30
0.0
 11
298.29505141786962
 21
401.99999999999989
 31
0.0
  0
LINE
  5
C53
  8
0
 62
     0
 10
388.29505141786962
 20
400.49999999999989
 30
0.0
 11
298.29505141786962
 21
400.49999999999989
 31
0.0
  0
LINE
  5
C54
  8
0
 62
     0
 10
388.29505141786962
 20
398.99999999999989
 30
0.0
 11
298.29505141786962
 21
398.99999999999989
 31
0.0
  0
LINE
  5
C55
  8
0
 62
     0
 10
388.29505141786962
 20
397.5
 30
0.0
 11
298.29505141786962
 21
397.5
 31
0.0
  0
LINE
  5
C56
  8
0
 62
     0
 10
388.29505141786962
 20
395.99999999999989
 30
0.0
 11
298.29505141786962
 21
395.99999999999989
 31
0.0
  0
LINE
  5
C57
  8
0
 62
     0
 10
388.29505141786962
 20
394.49999999999989
 30
0.0
 11
298.29505141786962
 21
394.49999999999989
 31
0.0
  0
LINE
  5
C58
  8
0
 62
     0
 10
388.29505141786962
 20
393.0
 30
0.0
 11
298.29505141786962
 21
393.0
 31
0.0
  0
LINE
  5
C59
  8
0
 62
     0
 10
388.29505141786962
 20
391.5
 30
0.0
 11
298.29505141786962
 21
391.5
 31
0.0
  0
LINE
  5
C5A
  8
0
 62
     0
 10
388.29505141786962
 20
390.0
 30
0.0
 11
298.29505141786962
 21
390.0
 31
0.0
  0
LINE
  5
C5B
  8
0
 62
     0
 10
388.29505141786962
 20
388.49999999999989
 30
0.0
 11
298.29505141786962
 21
388.49999999999989
 31
0.0
  0
LINE
  5
C5C
  8
0
 62
     0
 10
388.29505141786962
 20
387.0
 30
0.0
 11
298.29505141786962
 21
387.0
 31
0.0
  0
LINE
  5
C5D
  8
0
 62
     0
 10
388.29505141786962
 20
385.5
 30
0.0
 11
298.29505141786962
 21
385.5
 31
0.0
  0
LINE
  5
C5E
  8
0
 62
     0
 10
388.29505141786962
 20
383.99999999999989
 30
0.0
 11
298.29505141786962
 21
383.99999999999989
 31
0.0
  0
LINE
  5
C5F
  8
0
 62
     0
 10
388.29505141786962
 20
382.49999999999989
 30
0.0
 11
298.29505141786962
 21
382.49999999999989
 31
0.0
  0
LINE
  5
C60
  8
0
 62
     0
 10
388.29505141786962
 20
381.0
 30
0.0
 11
298.29505141786962
 21
381.0
 31
0.0
  0
LINE
  5
C61
  8
0
 62
     0
 10
388.29505141786962
 20
379.49999999999989
 30
0.0
 11
298.29505141786962
 21
379.49999999999989
 31
0.0
  0
LINE
  5
C62
  8
0
 62
     0
 10
388.2950514178695
 20
377.99999999999989
 30
0.0
 11
298.29505141786962
 21
377.99999999999989
 31
0.0
  0
LINE
  5
C63
  8
0
 62
     0
 10
388.2950514178695
 20
376.5
 30
0.0
 11
298.29505141786962
 21
376.5
 31
0.0
  0
LINE
  5
C64
  8
0
 62
     0
 10
388.2950514178695
 20
375.0
 30
0.0
 11
298.29505141786962
 21
375.0
 31
0.0
  0
LINE
  5
C65
  8
0
 62
     0
 10
388.2950514178695
 20
373.49999999999989
 30
0.0
 11
298.29505141786962
 21
373.49999999999989
 31
0.0
  0
LINE
  5
C66
  8
0
 62
     0
 10
388.2950514178695
 20
371.99999999999989
 30
0.0
 11
298.29505141786962
 21
371.99999999999989
 31
0.0
  0
LINE
  5
C67
  8
0
 62
     0
 10
388.2950514178695
 20
370.5
 30
0.0
 11
298.29505141786962
 21
370.5
 31
0.0
  0
LINE
  5
C68
  8
0
 62
     0
 10
388.2950514178695
 20
368.99999999999989
 30
0.0
 11
298.29505141786962
 21
368.99999999999989
 31
0.0
  0
LINE
  5
C69
  8
0
 62
     0
 10
388.2950514178695
 20
367.49999999999989
 30
0.0
 11
298.29505141786962
 21
367.49999999999989
 31
0.0
  0
LINE
  5
C6A
  8
0
 62
     0
 10
388.2950514178695
 20
366.0
 30
0.0
 11
298.29505141786962
 21
366.0
 31
0.0
  0
LINE
  5
C6B
  8
0
 62
     0
 10
388.2950514178695
 20
364.5
 30
0.0
 11
298.29505141786962
 21
364.5
 31
0.0
  0
LINE
  5
C6C
  8
0
 62
     0
 10
388.2950514178695
 20
362.99999999999989
 30
0.0
 11
298.29505141786962
 21
362.99999999999989
 31
0.0
  0
LINE
  5
C6D
  8
0
 62
     0
 10
388.2950514178695
 20
361.49999999999989
 30
0.0
 11
298.29505141786962
 21
361.49999999999989
 31
0.0
  0
LINE
  5
C6E
  8
0
 62
     0
 10
388.2950514178695
 20
360.0
 30
0.0
 11
298.29505141786962
 21
360.0
 31
0.0
  0
LINE
  5
C6F
  8
0
 62
     0
 10
388.2950514178695
 20
358.49999999999989
 30
0.0
 11
298.29505141786962
 21
358.49999999999989
 31
0.0
  0
LINE
  5
C70
  8
0
 62
     0
 10
388.2950514178695
 20
356.99999999999989
 30
0.0
 11
298.2950514178695
 21
356.99999999999989
 31
0.0
  0
LINE
  5
C71
  8
0
 62
     0
 10
388.2950514178695
 20
355.5
 30
0.0
 11
298.2950514178695
 21
355.5
 31
0.0
  0
LINE
  5
C72
  8
0
 62
     0
 10
388.2950514178695
 20
354.0
 30
0.0
 11
298.2950514178695
 21
354.0
 31
0.0
  0
LINE
  5
C73
  8
0
 62
     0
 10
388.2950514178695
 20
352.49999999999989
 30
0.0
 11
298.2950514178695
 21
352.49999999999989
 31
0.0
  0
LINE
  5
C74
  8
0
 62
     0
 10
388.2950514178695
 20
350.99999999999989
 30
0.0
 11
298.2950514178695
 21
350.99999999999989
 31
0.0
  0
LINE
  5
C75
  8
0
 62
     0
 10
388.2950514178695
 20
349.5
 30
0.0
 11
298.2950514178695
 21
349.5
 31
0.0
  0
LINE
  5
C76
  8
0
 62
     0
 10
388.29505141786939
 20
347.99999999999989
 30
0.0
 11
298.2950514178695
 21
347.99999999999989
 31
0.0
  0
LINE
  5
C77
  8
0
 62
     0
 10
388.29505141786939
 20
346.49999999999989
 30
0.0
 11
298.2950514178695
 21
346.49999999999989
 31
0.0
  0
LINE
  5
C78
  8
0
 62
     0
 10
388.29505141786939
 20
344.99999999999989
 30
0.0
 11
298.2950514178695
 21
344.99999999999989
 31
0.0
  0
LINE
  5
C79
  8
0
 62
     0
 10
388.29505141786939
 20
343.5
 30
0.0
 11
298.2950514178695
 21
343.5
 31
0.0
  0
LINE
  5
C7A
  8
0
 62
     0
 10
388.29505141786939
 20
341.99999999999989
 30
0.0
 11
298.2950514178695
 21
341.99999999999989
 31
0.0
  0
LINE
  5
C7B
  8
0
 62
     0
 10
388.29505141786939
 20
340.49999999999989
 30
0.0
 11
298.2950514178695
 21
340.49999999999989
 31
0.0
  0
LINE
  5
C7C
  8
0
 62
     0
 10
388.29505141786939
 20
339.0
 30
0.0
 11
298.2950514178695
 21
339.0
 31
0.0
  0
LINE
  5
C7D
  8
0
 62
     0
 10
388.29505141786939
 20
337.5
 30
0.0
 11
298.2950514178695
 21
337.5
 31
0.0
  0
LINE
  5
C7E
  8
0
 62
     0
 10
388.29505141786939
 20
335.99999999999989
 30
0.0
 11
298.2950514178695
 21
335.99999999999989
 31
0.0
  0
LINE
  5
C7F
  8
0
 62
     0
 10
388.29505141786939
 20
334.49999999999989
 30
0.0
 11
298.2950514178695
 21
334.49999999999989
 31
0.0
  0
LINE
  5
C80
  8
0
 62
     0
 10
388.29505141786939
 20
333.0
 30
0.0
 11
298.2950514178695
 21
333.0
 31
0.0
  0
LINE
  5
C81
  8
0
 62
     0
 10
388.29505141786939
 20
331.49999999999989
 30
0.0
 11
298.29505141786939
 21
331.49999999999989
 31
0.0
  0
LINE
  5
C82
  8
0
 62
     0
 10
388.29505141786939
 20
329.99999999999989
 30
0.0
 11
298.29505141786939
 21
329.99999999999989
 31
0.0
  0
LINE
  5
C83
  8
0
 62
     0
 10
388.29505141786939
 20
328.5
 30
0.0
 11
298.29505141786939
 21
328.5
 31
0.0
  0
LINE
  5
C84
  8
0
 62
     0
 10
388.29505141786939
 20
327.0
 30
0.0
 11
298.29505141786939
 21
327.0
 31
0.0
  0
LINE
  5
C85
  8
0
 62
     0
 10
388.29505141786939
 20
325.49999999999989
 30
0.0
 11
298.29505141786939
 21
325.49999999999989
 31
0.0
  0
LINE
  5
C86
  8
0
 62
     0
 10
388.29505141786939
 20
323.99999999999989
 30
0.0
 11
298.29505141786939
 21
323.99999999999989
 31
0.0
  0
LINE
  5
C87
  8
0
 62
     0
 10
388.29505141786939
 20
322.5
 30
0.0
 11
298.29505141786939
 21
322.5
 31
0.0
  0
LINE
  5
C88
  8
0
 62
     0
 10
388.29505141786939
 20
320.99999999999989
 30
0.0
 11
298.29505141786939
 21
320.99999999999989
 31
0.0
  0
LINE
  5
C89
  8
0
 62
     0
 10
388.29505141786939
 20
319.49999999999989
 30
0.0
 11
298.29505141786939
 21
319.49999999999989
 31
0.0
  0
LINE
  5
C8A
  8
0
 62
     0
 10
388.29505141786939
 20
318.0
 30
0.0
 11
298.29505141786939
 21
318.0
 31
0.0
  0
LINE
  5
C8B
  8
0
 62
     0
 10
388.29505141786939
 20
316.5
 30
0.0
 11
298.29505141786939
 21
316.5
 31
0.0
  0
LINE
  5
C8C
  8
0
 62
     0
 10
388.29505141786939
 20
314.99999999999989
 30
0.0
 11
298.29505141786939
 21
314.99999999999989
 31
0.0
  0
LINE
  5
C8D
  8
0
 62
     0
 10
388.29505141786939
 20
313.49999999999989
 30
0.0
 11
298.29505141786939
 21
313.49999999999989
 31
0.0
  0
LINE
  5
C8E
  8
0
 62
     0
 10
388.29505141786939
 20
312.0
 30
0.0
 11
298.29505141786939
 21
312.0
 31
0.0
  0
LINE
  5
C8F
  8
0
 62
     0
 10
388.29505141786939
 20
310.49999999999989
 30
0.0
 11
298.29505141786939
 21
310.49999999999989
 31
0.0
  0
LINE
  5
C90
  8
0
 62
     0
 10
388.29505141786939
 20
308.99999999999989
 30
0.0
 11
298.29505141786939
 21
308.99999999999989
 31
0.0
  0
LINE
  5
C91
  8
0
 62
     0
 10
388.29505141786939
 20
307.49999999999989
 30
0.0
 11
298.29505141786939
 21
307.49999999999989
 31
0.0
  0
LINE
  5
C92
  8
0
 62
     0
 10
388.29505141786939
 20
306.0
 30
0.0
 11
298.29505141786939
 21
306.0
 31
0.0
  0
LINE
  5
C93
  8
0
 62
     0
 10
388.29505141786939
 20
304.49999999999989
 30
0.0
 11
298.29505141786939
 21
304.49999999999989
 31
0.0
  0
LINE
  5
C94
  8
0
 62
     0
 10
388.29505141786939
 20
302.99999999999989
 30
0.0
 11
298.29505141786939
 21
302.99999999999989
 31
0.0
  0
LINE
  5
C95
  8
0
 62
     0
 10
388.29505141786939
 20
301.5
 30
0.0
 11
298.29505141786939
 21
301.5
 31
0.0
  0
LINE
  5
C96
  8
0
 62
     0
 10
388.29505141786939
 20
300.0
 30
0.0
 11
298.29505141786939
 21
300.0
 31
0.0
  0
LINE
  5
C97
  8
0
 62
     0
 10
388.29505141786939
 20
298.49999999999989
 30
0.0
 11
298.29505141786939
 21
298.49999999999989
 31
0.0
  0
LINE
  5
C98
  8
0
 62
     0
 10
388.29505141786939
 20
296.99999999999989
 30
0.0
 11
298.29505141786939
 21
296.99999999999989
 31
0.0
  0
LINE
  5
C99
  8
0
 62
     0
 10
388.29505141786939
 20
295.5
 30
0.0
 11
298.29505141786939
 21
295.5
 31
0.0
  0
LINE
  5
C9A
  8
0
 62
     0
 10
388.29505141786939
 20
293.99999999999989
 30
0.0
 11
298.29505141786939
 21
293.99999999999989
 31
0.0
  0
LINE
  5
C9B
  8
0
 62
     0
 10
388.29505141786939
 20
292.49999999999989
 30
0.0
 11
298.29505141786939
 21
292.49999999999989
 31
0.0
  0
LINE
  5
C9C
  8
0
 62
     0
 10
388.29505141786939
 20
291.0
 30
0.0
 11
298.29505141786939
 21
291.0
 31
0.0
  0
LINE
  5
C9D
  8
0
 62
     0
 10
388.29505141786939
 20
289.49999999999989
 30
0.0
 11
298.29505141786939
 21
289.49999999999989
 31
0.0
  0
LINE
  5
C9E
  8
0
 62
     0
 10
388.29505141786927
 20
287.99999999999989
 30
0.0
 11
298.29505141786939
 21
287.99999999999989
 31
0.0
  0
LINE
  5
C9F
  8
0
 62
     0
 10
388.29505141786927
 20
286.49999999999989
 30
0.0
 11
298.29505141786939
 21
286.49999999999989
 31
0.0
  0
LINE
  5
CA0
  8
0
 62
     0
 10
388.29505141786927
 20
285.0
 30
0.0
 11
298.29505141786939
 21
285.0
 31
0.0
  0
LINE
  5
CA1
  8
0
 62
     0
 10
388.29505141786927
 20
283.49999999999989
 30
0.0
 11
298.29505141786939
 21
283.49999999999989
 31
0.0
  0
LINE
  5
CA2
  8
0
 62
     0
 10
388.29505141786927
 20
281.99999999999989
 30
0.0
 11
298.29505141786939
 21
281.99999999999989
 31
0.0
  0
LINE
  5
CA3
  8
0
 62
     0
 10
388.29505141786927
 20
280.49999999999989
 30
0.0
 11
298.29505141786939
 21
280.49999999999989
 31
0.0
  0
LINE
  5
CA4
  8
0
 62
     0
 10
388.29505141786927
 20
279.0
 30
0.0
 11
298.29505141786927
 21
279.0
 31
0.0
  0
LINE
  5
CA5
  8
0
 62
     0
 10
388.29505141786927
 20
277.49999999999989
 30
0.0
 11
298.29505141786927
 21
277.49999999999989
 31
0.0
  0
LINE
  5
CA6
  8
0
 62
     0
 10
388.29505141786927
 20
275.99999999999989
 30
0.0
 11
298.29505141786927
 21
275.99999999999989
 31
0.0
  0
LINE
  5
CA7
  8
0
 62
     0
 10
388.29505141786927
 20
274.5
 30
0.0
 11
298.29505141786927
 21
274.5
 31
0.0
  0
LINE
  5
CA8
  8
0
 62
     0
 10
388.29505141786927
 20
272.99999999999989
 30
0.0
 11
298.29505141786927
 21
272.99999999999989
 31
0.0
  0
LINE
  5
CA9
  8
0
 62
     0
 10
388.29505141786927
 20
271.49999999999989
 30
0.0
 11
298.29505141786927
 21
271.49999999999989
 31
0.0
  0
LINE
  5
CAA
  8
0
 62
     0
 10
388.29505141786927
 20
269.99999999999989
 30
0.0
 11
298.29505141786927
 21
269.99999999999989
 31
0.0
  0
LINE
  5
CAB
  8
0
 62
     0
 10
388.29505141786927
 20
268.5
 30
0.0
 11
298.29505141786927
 21
268.5
 31
0.0
  0
LINE
  5
CAC
  8
0
 62
     0
 10
388.29505141786927
 20
266.99999999999989
 30
0.0
 11
298.29505141786927
 21
266.99999999999989
 31
0.0
  0
LINE
  5
CAD
  8
0
 62
     0
 10
388.29505141786927
 20
265.49999999999989
 30
0.0
 11
298.29505141786927
 21
265.49999999999989
 31
0.0
  0
LINE
  5
CAE
  8
0
 62
     0
 10
388.29505141786927
 20
264.0
 30
0.0
 11
298.29505141786927
 21
264.0
 31
0.0
  0
LINE
  5
CAF
  8
0
 62
     0
 10
388.29505141786927
 20
262.5
 30
0.0
 11
298.29505141786927
 21
262.5
 31
0.0
  0
LINE
  5
CB0
  8
0
 62
     0
 10
388.29505141786927
 20
260.99999999999989
 30
0.0
 11
298.29505141786927
 21
260.99999999999989
 31
0.0
  0
LINE
  5
CB1
  8
0
 62
     0
 10
388.29505141786927
 20
259.49999999999989
 30
0.0
 11
298.29505141786927
 21
259.49999999999989
 31
0.0
  0
LINE
  5
CB2
  8
0
 62
     0
 10
388.29505141786927
 20
258.0
 30
0.0
 11
298.29505141786927
 21
258.0
 31
0.0
  0
LINE
  5
CB3
  8
0
 62
     0
 10
388.29505141786927
 20
256.49999999999989
 30
0.0
 11
298.29505141786927
 21
256.49999999999989
 31
0.0
  0
LINE
  5
CB4
  8
0
 62
     0
 10
388.29505141786927
 20
254.99999999999989
 30
0.0
 11
298.29505141786927
 21
255.0
 31
0.0
  0
LINE
  5
CB5
  8
0
 62
     0
 10
388.29505141786927
 20
253.5
 30
0.0
 11
298.29505141786927
 21
253.5
 31
0.0
  0
LINE
  5
CB6
  8
0
 62
     0
 10
388.29505141786927
 20
252.0
 30
0.0
 11
298.29505141786927
 21
252.0
 31
0.0
  0
LINE
  5
CB7
  8
0
 62
     0
 10
388.29505141786927
 20
250.49999999999989
 30
0.0
 11
298.29505141786927
 21
250.5
 31
0.0
  0
LINE
  5
CB8
  8
0
 62
     0
 10
388.29505141786927
 20
248.99999999999989
 30
0.0
 11
298.29505141786927
 21
249.0
 31
0.0
  0
LINE
  5
CB9
  8
0
 62
     0
 10
388.29505141786927
 20
247.5
 30
0.0
 11
298.29505141786927
 21
247.5
 31
0.0
  0
LINE
  5
CBA
  8
0
 62
     0
 10
388.29505141786927
 20
245.99999999999989
 30
0.0
 11
298.29505141786927
 21
246.0
 31
0.0
  0
LINE
  5
CBB
  8
0
 62
     0
 10
388.29505141786927
 20
244.49999999999989
 30
0.0
 11
298.29505141786927
 21
244.5
 31
0.0
  0
LINE
  5
CBC
  8
0
 62
     0
 10
388.29505141786927
 20
242.99999999999989
 30
0.0
 11
298.29505141786927
 21
243.0
 31
0.0
  0
LINE
  5
CBD
  8
0
 62
     0
 10
388.29505141786927
 20
241.5
 30
0.0
 11
298.29505141786927
 21
241.5
 31
0.0
  0
LINE
  5
CBE
  8
0
 62
     0
 10
388.29505141786927
 20
239.99999999999989
 30
0.0
 11
298.29505141786927
 21
240.0
 31
0.0
  0
LINE
  5
CBF
  8
0
 62
     0
 10
388.29505141786927
 20
238.49999999999989
 30
0.0
 11
298.29505141786927
 21
238.5
 31
0.0
  0
LINE
  5
CC0
  8
0
 62
     0
 10
388.29505141786927
 20
237.0
 30
0.0
 11
298.29505141786927
 21
237.0
 31
0.0
  0
LINE
  5
CC1
  8
0
 62
     0
 10
388.29505141786927
 20
235.49999999999989
 30
0.0
 11
298.29505141786927
 21
235.5
 31
0.0
  0
LINE
  5
CC2
  8
0
 62
     0
 10
388.29505141786927
 20
233.99999999999989
 30
0.0
 11
298.29505141786927
 21
234.0
 31
0.0
  0
LINE
  5
CC3
  8
0
 62
     0
 10
388.29505141786927
 20
232.49999999999989
 30
0.0
 11
298.29505141786927
 21
232.5
 31
0.0
  0
LINE
  5
CC4
  8
0
 62
     0
 10
388.29505141786927
 20
231.0
 30
0.0
 11
298.29505141786927
 21
231.0
 31
0.0
  0
LINE
  5
CC5
  8
0
 62
     0
 10
388.29505141786927
 20
229.49999999999989
 30
0.0
 11
298.29505141786927
 21
229.5
 31
0.0
  0
LINE
  5
CC6
  8
0
 62
     0
 10
388.29505141786922
 20
227.99999999999989
 30
0.0
 11
298.29505141786927
 21
228.0
 31
0.0
  0
LINE
  5
CC7
  8
0
 62
     0
 10
388.29505141786922
 20
226.5
 30
0.0
 11
298.29505141786922
 21
226.5
 31
0.0
  0
LINE
  5
CC8
  8
0
 62
     0
 10
388.29505141786922
 20
225.0
 30
0.0
 11
298.29505141786922
 21
225.0
 31
0.0
  0
LINE
  5
CC9
  8
0
 62
     0
 10
388.29505141786922
 20
223.49999999999989
 30
0.0
 11
298.29505141786922
 21
223.5
 31
0.0
  0
LINE
  5
CCA
  8
0
 62
     0
 10
388.29505141786922
 20
221.99999999999989
 30
0.0
 11
298.29505141786922
 21
222.0
 31
0.0
  0
LINE
  5
CCB
  8
0
 62
     0
 10
388.29505141786922
 20
220.5
 30
0.0
 11
298.29505141786922
 21
220.5
 31
0.0
  0
LINE
  5
CCC
  8
0
 62
     0
 10
388.29505141786922
 20
218.99999999999989
 30
0.0
 11
298.29505141786922
 21
219.0
 31
0.0
  0
LINE
  5
CCD
  8
0
 62
     0
 10
388.29505141786922
 20
217.49999999999989
 30
0.0
 11
298.29505141786922
 21
217.5
 31
0.0
  0
LINE
  5
CCE
  8
0
 62
     0
 10
388.29505141786922
 20
216.0
 30
0.0
 11
298.29505141786922
 21
216.0
 31
0.0
  0
LINE
  5
CCF
  8
0
 62
     0
 10
388.29505141786922
 20
214.5
 30
0.0
 11
298.29505141786922
 21
214.5
 31
0.0
  0
ENDBLK
  5
CD1
  8
0
  0
ENDSEC
  0
SECTION
  2
ENTITIES
  0
LINE
  5
35B
  8
0
 10
296.67005141786927
 20
135.37500450375751
 30
0.0
 11
389.92005141786638
 21
135.37500450375751
 31
0.0
  0
LINE
  5
35C
  8
0
 10
389.92005141786638
 20
80.750004503757779
 30
0.0
 11
296.67005141786927
 21
80.750004503757779
 31
0.0
  0
LINE
  5
35D
  8
0
 10
296.67005141786927
 20
80.750004503757779
 30
0.0
 11
296.67005141786927
 21
135.37500450375751
 31
0.0
  0
LINE
  5
35E
  8
0
 10
389.92005141786638
 20
80.750004503757779
 30
0.0
 11
389.92005141786638
 21
135.37500450375751
 31
0.0
  0
LINE
  5
35F
  8
0
 10
296.67005141787001
 20
80.750004503757751
 30
0.0
 11
391.04505141787001
 21
80.750004503757751
 31
0.0
  0
LINE
  5
360
  8
0
 10
391.04505141787001
 20
0.0000045037577365
 30
0.0
 11
296.67005141787001
 21
0.0000045037577365
 31
0.0
  0
LINE
  5
361
  8
0
 10
296.67005141787001
 20
80.750004503757751
 30
0.0
 11
296.67005141787001
 21
0.0000045037577365
 31
0.0
  0
LINE
  5
362
  8
0
 10
391.04505141787001
 20
0.0000045037577365
 30
0.0
 11
391.04505141787001
 21
80.750004503757751
 31
0.0
  0
LINE
  5
363
  8
0
 10
296.42005141786967
 20
5.6250045037577348
 30
0.0
 11
296.67005141787018
 21
5.6250045037577348
 31
0.0
  0
LINE
  5
364
  8
0
 10
296.67005141787018
 20
7.6250045037576211
 30
0.0
 11
296.42005141786967
 21
7.6250045037576211
 31
0.0
  0
LINE
  5
365
  8
0
 10
296.4200514178691
 20
6.6250045037577614
 30
0.0
 11
296.4200514178691
 21
6.883823548860283
 31
0.0
  0
LINE
  5
366
  8
0
 10
296.4200514178691
 20
6.8838238598010228
 30
0.0
 11
296.4200514178691
 21
7.4910299075422024
 31
0.0
  0
LINE
  5
367
  8
0
 10
296.4200514178691
 20
7.4910302776756881
 30
0.0
 11
296.4200514178691
 21
7.5909303300468327
 31
0.0
  0
LINE
  5
368
  8
0
 10
296.4200514178691
 20
7.5909310142285076
 30
0.0
 11
296.4200514178691
 21
7.6250045037577658
 31
0.0
  0
LINE
  5
369
  8
0
 10
296.4200514178691
 20
5.6250045037577658
 30
0.0
 11
296.4200514178691
 21
5.6590784673940187
 31
0.0
  0
LINE
  5
36A
  8
0
 10
296.4200514178691
 20
5.6590786774686981
 30
0.0
 11
296.4200514178691
 21
5.7589790422400906
 31
0.0
  0
LINE
  5
36B
  8
0
 10
296.4200514178691
 20
5.7589790999733257
 30
0.0
 11
296.4200514178691
 21
6.1250045037577641
 31
0.0
  0
LINE
  5
36C
  8
0
 10
296.4200514178691
 20
6.1250047278856643
 30
0.0
 11
296.4200514178691
 21
6.3661853976966594
 31
0.0
  0
LINE
  5
36D
  8
0
 10
296.4200514178691
 20
6.3661854586552407
 30
0.0
 11
296.4200514178691
 21
6.6250042625935928
 31
0.0
  0
LINE
  5
36E
  8
0
 10
390.17005141787109
 20
131.62500450375799
 30
0.0
 11
389.92005141787058
 21
131.62500450375799
 31
0.0
  0
LINE
  5
36F
  8
0
 10
389.92005141787058
 20
123.62500450375779
 30
0.0
 11
390.17005141787109
 21
123.62500450375779
 31
0.0
  0
LINE
  5
370
  8
0
 10
390.17005141786979
 20
131.62500450375779
 30
0.0
 11
390.17005141786979
 21
131.488707808914
 31
0.0
  0
LINE
  5
371
  8
0
 10
390.17005141786979
 20
131.48870615499621
 30
0.0
 11
390.17005141786979
 21
130.45343162850401
 31
0.0
  0
LINE
  5
372
  8
0
 10
390.17005141786979
 20
130.45342753618439
 30
0.0
 11
390.17005141786979
 21
129.62500450375779
 31
0.0
  0
LINE
  5
373
  8
0
 10
390.17005141786979
 20
129.6250009177067
 30
0.0
 11
390.17005141786979
 21
128.6602806841679
 31
0.0
  0
LINE
  5
374
  8
0
 10
390.17005141786979
 20
128.6602753206659
 30
0.0
 11
390.17005141786979
 21
127.625008362382
 31
0.0
  0
LINE
  5
375
  8
0
 10
390.17005141786979
 20
127.62500450375779
 30
0.0
 11
390.17005141786979
 21
126.5897299597036
 31
0.0
  0
LINE
  5
376
  8
0
 10
390.17005141786979
 20
126.5897283233477
 30
0.0
 11
390.17005141786979
 21
124.7965780616025
 31
0.0
  0
LINE
  5
377
  8
0
 10
390.17005141786979
 20
124.79657737901159
 30
0.0
 11
390.17005141786979
 21
123.7613011986015
 31
0.0
  0
LINE
  5
378
  8
0
 10
390.17005141786979
 20
123.7612984618732
 30
0.0
 11
390.17005141786979
 21
123.62500450375769
 31
0.0
  0
ARC
  5
379
  8
0
 10
334.29505141786939
 20
50.000004503758127
 30
0.0
 40
0.75
 50
0.0
 51
180.0
  0
ARC
  5
37A
  8
0
 10
334.29505141786939
 20
50.000004503758127
 30
0.0
 40
0.75
 50
180.0
 51
0.0
  0
ARC
  5
37B
  8
0
 10
301.42005141786939
 20
33.500004503758142
 30
0.0
 40
1.5000000000000031
 50
359.9999999999992
 51
179.99999999999929
  0
ARC
  5
37C
  8
0
 10
301.42005141786939
 20
33.500004503758142
 30
0.0
 40
1.4999999999999949
 50
180.0000000000004
 51
359.99999999999949
  0
ARC
  5
37D
  8
0
 10
305.42005141786939
 20
12.00000450375817
 30
0.0
 40
4.0000000000000062
 50
359.99999999999932
 51
179.99999999999949
  0
ARC
  5
37E
  8
0
 10
305.42005141786939
 20
12.00000450375817
 30
0.0
 40
3.999999999999996
 50
180.0000000000004
 51
359.9999999999996
  0
CIRCLE
  5
37F
  8
0
 10
313.4200514178695
 20
50.125004503757737
 30
0.0
 40
11.187499999999989
  0
LINE
  5
380
  8
0
 10
470.25554395920147
 20
135.37500450375751
 30
0.0
 11
682.38054395919585
 21
135.37500450375751
 31
0.0
  0
LINE
  5
381
  8
0
 10
470.25554395920147
 20
80.750004503757779
 30
0.0
 11
470.25554395920147
 21
135.37500450375751
 31
0.0
  0
LINE
  5
382
  8
0
 10
682.38054395919585
 20
80.750004503757779
 30
0.0
 11
682.38054395919585
 21
135.37500450375751
 31
0.0
  0
LINE
  5
383
  8
0
 10
561.31804395919698
 20
6.0000045037577348
 30
0.0
 11
591.3180439591971
 21
6.0000045037584178
 31
0.0
  0
LINE
  5
384
  8
0
 10
561.31804395919517
 20
68.406158526918958
 30
0.0
 11
591.31804395919505
 21
68.406158526919285
 31
0.0
  0
LINE
  5
385
  8
0
 10
591.31804395919585
 20
4.0000045037577818
 30
0.0
 11
591.31804395919585
 21
79.125004503758333
 31
0.0
  0
LINE
  5
386
  8
0
 10
592.31052955994232
 20
79.125004503758333
 30
0.0
 11
592.3105295599421
 21
4.0000045037577836
 31
0.0
  0
LINE
  5
387
  8
0
 10
591.31804395919585
 20
4.0000045037577818
 30
0.0
 11
592.3105295599421
 21
4.00000450375778
 31
0.0
  0
LINE
  5
388
  8
0
 10
592.31052955994232
 20
79.125004503758333
 30
0.0
 11
591.31804395919585
 21
79.125004503758333
 31
0.0
  0
LINE
  5
389
  8
0
 10
560.31526593036915
 20
4.0000045037578262
 30
0.0
 11
560.31526593036915
 21
79.12500450375839
 31
0.0
  0
LINE
  5
38A
  8
0
 10
561.31804395919596
 20
79.12500450375839
 30
0.0
 11
561.31804395919585
 21
4.000004503757828
 31
0.0
  0
LINE
  5
38B
  8
0
 10
560.31526593036915
 20
4.0000045037578262
 30
0.0
 11
561.31804395919585
 21
4.0000045037578236
 31
0.0
  0
LINE
  5
38C
  8
0
 10
561.31804395919596
 20
79.12500450375839
 30
0.0
 11
560.31526593036915
 21
79.12500450375839
 31
0.0
  0
LINE
  5
38D
  8
0
 10
627.31804395919687
 20
6.0000045037573919
 30
0.0
 11
657.31804395919562
 21
6.0000045037573919
 31
0.0
  0
LINE
  5
38E
  8
0
 10
627.31804395919607
 20
68.406158526918745
 30
0.0
 11
657.31804395919596
 21
68.406158526918674
 31
0.0
  0
LINE
  5
38F
  8
0
 10
626.3270436138672
 20
4.0000045037577214
 30
0.0
 11
626.32704361386732
 21
79.125004503758277
 31
0.0
  0
LINE
  5
390
  8
0
 10
627.31804395919596
 20
79.125004503758277
 30
0.0
 11
627.31804395919585
 21
4.0000045037577214
 31
0.0
  0
LINE
  5
391
  8
0
 10
626.3270436138672
 20
4.0000045037577214
 30
0.0
 11
627.31804395919585
 21
4.0000045037577214
 31
0.0
  0
LINE
  5
392
  8
0
 10
627.31804395919596
 20
79.125004503758277
 30
0.0
 11
626.32704361386732
 21
79.125004503758277
 31
0.0
  0
LINE
  5
393
  8
0
 10
657.31804395919585
 20
4.000004503757669
 30
0.0
 11
657.31804395919585
 21
79.125004503758234
 31
0.0
  0
LINE
  5
394
  8
0
 10
658.31005927596505
 20
79.125004503758234
 30
0.0
 11
658.31005927596493
 21
4.0000045037576681
 31
0.0
  0
LINE
  5
395
  8
0
 10
658.31005927596493
 20
4.0000045037576681
 30
0.0
 11
657.31804395919585
 21
4.000004503757669
 31
0.0
  0
LINE
  5
396
  8
0
 10
658.31005927596505
 20
79.125004503758234
 30
0.0
 11
657.31804395919585
 21
79.125004503758234
 31
0.0
  0
LINE
  5
397
  8
0
 10
495.3180439591971
 20
6.0000045037573919
 30
0.0
 11
525.3180439591971
 21
6.0000045037573919
 31
0.0
  0
LINE
  5
398
  8
0
 10
495.31804395919511
 20
68.406158526918276
 30
0.0
 11
525.31804395919505
 21
68.406158526918588
 31
0.0
  0
LINE
  5
399
  8
0
 10
525.31804395919573
 20
4.0000045037578804
 30
0.0
 11
525.31804395919585
 21
79.125004503758447
 31
0.0
  0
LINE
  5
39A
  8
0
 10
526.31804395919585
 20
79.125004503758447
 30
0.0
 11
526.31804395919573
 21
4.0000045037578804
 31
0.0
  0
LINE
  5
39B
  8
0
 10
525.31804395919573
 20
4.0000045037578804
 30
0.0
 11
526.31804395919573
 21
4.0000045037578804
 31
0.0
  0
LINE
  5
39C
  8
0
 10
526.31804395919585
 20
79.125004503758447
 30
0.0
 11
525.31804395919585
 21
79.125004503758447
 31
0.0
  0
LINE
  5
39D
  8
0
 10
494.31804395919568
 20
4.0000045037579337
 30
0.0
 11
494.31804395919602
 21
79.125004503758504
 31
0.0
  0
LINE
  5
39E
  8
0
 10
495.3180439591959
 20
79.125004503758504
 30
0.0
 11
495.31804395919568
 21
4.0000045037579337
 31
0.0
  0
LINE
  5
39F
  8
0
 10
494.31804395919568
 20
4.0000045037579337
 30
0.0
 11
495.31804395919568
 21
4.0000045037579337
 31
0.0
  0
LINE
  5
3A0
  8
0
 10
495.3180439591959
 20
79.125004503758504
 30
0.0
 11
494.31804395919602
 21
79.125004503758504
 31
0.0
  0
LINE
  5
3A1
  8
0
 10
471.88054395919568
 20
79.125004503759584
 30
0.0
 11
471.88054395919568
 21
4.0000045037577321
 31
0.0
  0
LINE
  5
3A2
  8
0
 10
471.88054395919568
 20
4.0000045037577321
 30
0.0
 11
494.31804395919471
 21
4.0000045037577321
 31
0.0
  0
LINE
  5
3A3
  8
0
 10
494.31804395919471
 20
4.0000045037577321
 30
0.0
 11
494.31804395919471
 21
79.125004503759584
 31
0.0
1001
ACAD
1000
ASC_BOUNDS
1002
{
1070
    19
1005
4F1
1002
}
  0
LINE
  5
3A4
  8
0
 10
494.31804395919471
 20
79.125004503759584
 30
0.0
 11
471.88054395919568
 21
79.125004503759584
 31
0.0
  0
LINE
  5
3A5
  8
0
 10
560.31526593036892
 20
79.125004503758447
 30
0.0
 11
526.31804395919551
 21
79.125004503758475
 31
0.0
  0
LINE
  5
3A6
  8
0
 10
526.31804395919551
 20
79.125004503758475
 30
0.0
 11
526.31804395919551
 21
4.0000045037578911
 31
0.0
1001
ACAD
1000
ASC_BOUNDS
1002
{
1070
    19
1005
4F1
1002
}
  0
LINE
  5
3A7
  8
0
 10
526.31804395919551
 20
4.0000045037578804
 30
0.0
 11
560.31526593036892
 21
4.0000045037578804
 31
0.0
  0
LINE
  5
3A8
  8
0
 10
560.31526593036892
 20
4.0000045037578804
 30
0.0
 11
560.31526593036892
 21
79.125004503758447
 31
0.0
1001
ACAD
1000
ASC_BOUNDS
1002
{
1070
    19
1005
4F1
1002
}
  0
LINE
  5
3A9
  8
0
 10
680.75554395919562
 20
79.125004503758447
 30
0.0
 11
658.31005927596482
 21
79.125004503758475
 31
0.0
  0
LINE
  5
3AA
  8
0
 10
658.31005927596482
 20
79.125004503758475
 30
0.0
 11
658.31005927596482
 21
4.0000045037578911
 31
0.0
1001
ACAD
1000
ASC_BOUNDS
1002
{
1070
    19
1005
4F1
1002
}
  0
LINE
  5
3AB
  8
0
 10
658.31005927596482
 20
4.0000045037578804
 30
0.0
 11
680.75554395919562
 21
4.0000045037578804
 31
0.0
  0
LINE
  5
3AC
  8
0
 10
680.75554395919562
 20
4.0000045037578804
 30
0.0
 11
680.75554395919562
 21
79.125004503758447
 31
0.0
  0
LINE
  5
3AD
  8
0
 10
626.32704361386709
 20
79.125004503758447
 30
0.0
 11
592.3105295599421
 21
79.125004503758475
 31
0.0
  0
LINE
  5
3AE
  8
0
 10
592.3105295599421
 20
79.125004503758475
 30
0.0
 11
592.3105295599421
 21
4.0000045037578911
 31
0.0
1001
ACAD
1000
ASC_BOUNDS
1002
{
1070
    19
1005
4F1
1002
}
  0
LINE
  5
3AF
  8
0
 10
592.3105295599421
 20
4.0000045037578804
 30
0.0
 11
626.32704361386709
 21
4.0000045037578804
 31
0.0
  0
LINE
  5
3B0
  8
0
 10
626.32704361386709
 20
4.0000045037578804
 30
0.0
 11
626.32704361386709
 21
79.125004503758447
 31
0.0
1001
ACAD
1000
ASC_BOUNDS
1002
{
1070
    19
1005
4F1
1002
}
  0
LINE
  5
3B1
  8
0
 10
470.25554395919607
 20
80.750004503757751
 30
0.0
 11
682.38054395919607
 21
80.750004503757751
 31
0.0
  0
LINE
  5
3B2
  8
0
 10
682.38054395919607
 20
0.0000045037577365
 30
0.0
 11
470.25554395919607
 21
0.0000045037577365
 31
0.0
  0
LINE
  5
3B3
  8
0
 10
470.25554395919607
 20
0.0000045037577365
 30
0.0
 11
470.25554395919607
 21
80.750004503757751
 31
0.0
  0
LINE
  5
3B4
  8
0
 10
471.8805439591959
 20
4.0000045037562391
 30
0.0
 11
471.88054395919511
 21
79.125004503756784
 31
0.0
1001
ACAD
1000
ASC_BOUNDS
1002
{
1070
    19
1005
4F1
1002
}
  0
LINE
  5
3B5
  8
0
 10
471.88054395919511
 20
79.125004503756784
 30
0.0
 11
680.75554395919505
 21
79.12500450375893
 31
0.0
1001
ACAD
1000
ASC_BOUNDS
1002
{
1070
    19
1005
4F1
1005
4F1
1005
4F1
1005
4F1
1002
}
  0
LINE
  5
3B6
  8
0
 10
680.75554395919505
 20
79.12500450375893
 30
0.0
 11
680.75554395919585
 21
4.000004503758392
 31
0.0
1001
ACAD
1000
ASC_BOUNDS
1002
{
1070
    19
1005
4F1
1002
}
  0
LINE
  5
3B7
  8
0
 10
680.75554395919585
 20
4.0000045037583813
 30
0.0
 11
471.8805439591959
 21
4.0000045037562391
 31
0.0
1001
ACAD
1000
ASC_BOUNDS
1002
{
1070
    19
1005
4F1
1005
4F1
1005
4F1
1005
4F1
1002
}
  0
LINE
  5
3B8
  8
0
 10
682.38054395919607
 20
0.0000045037577365
 30
0.0
 11
682.38054395919607
 21
80.750004503757751
 31
0.0
  0
ARC
  5
3B9
  8
0
 10
576.31804395919539
 20
105.3750045037584
 30
0.0
 40
8.2500000000000053
 50
179.9999999999996
 51
359.99999999999881
  0
ARC
  5
3BA
  8
0
 10
576.31804395919539
 20
105.3750045037584
 30
0.0
 40
8.2500000000000089
 50
359.99999999999949
 51
179.9999999999996
  0
ARC
  5
3BB
  8
0
 10
576.31804395919539
 20
105.3750045037584
 30
0.0
 40
7.6874999999999956
 50
0.0000000000006679
 51
180.00000000000011
  0
ARC
  5
3BC
  8
0
 10
576.31804395919539
 20
105.3750045037584
 30
0.0
 40
7.687499999999992
 50
180.00000000000011
 51
359.9999999999996
  0
LINE
  5
3BD
  8
0
 10
581.44054473318317
 20
102.933148654961
 30
0.0
 11
581.24560425699281
 21
102.4842399248022
 31
0.0
  0
LINE
  5
3BE
  8
0
 10
581.24560425699281
 20
102.4842399248022
 30
0.0
 11
580.79471139984992
 21
102.3269978613102
 31
0.0
  0
LINE
  5
3BF
  8
0
 10
580.79471139984992
 20
102.3269978613102
 30
0.0
 11
580.47018263000848
 21
102.3912339724213
 31
0.0
  0
LINE
  5
3C0
  8
0
 10
580.47018263000848
 20
102.3912339724213
 30
0.0
 11
580.23469155858015
 21
102.5839423057546
 31
0.0
  0
LINE
  5
3C1
  8
0
 10
580.23469155858015
 20
102.5839423057546
 30
0.0
 11
580.04371933635775
 21
103.3418788136911
 31
0.0
  0
LINE
  5
3C2
  8
0
 10
580.04371933635775
 20
103.3418788136911
 30
0.0
 11
580.2277471141357
 21
104.10576770258
 31
0.0
  0
LINE
  5
3C3
  8
0
 10
580.2277471141357
 20
104.10576770258
 30
0.0
 11
580.45753382048485
 21
104.29549984543721
 31
0.0
  0
LINE
  5
3C4
  8
0
 10
580.45753382048485
 20
104.29549984543721
 30
0.0
 11
580.7788383839769
 21
104.3587438930562
 31
0.0
  0
LINE
  5
3C5
  8
0
 10
580.7788383839769
 20
104.3587438930562
 30
0.0
 11
581.24709235223077
 21
104.21539071845299
 31
0.0
  0
LINE
  5
3C6
  8
0
 10
581.24709235223077
 20
104.21539071845299
 30
0.0
 11
581.44054473318317
 21
103.79029151210381
 31
0.0
  0
LINE
  5
3C7
  8
0
 10
581.44054473318317
 20
103.79029151210381
 30
0.0
 11
582.5834018760404
 21
103.79029151210381
 31
0.0
  0
LINE
  5
3C8
  8
0
 10
582.5834018760404
 20
103.79029151210381
 30
0.0
 11
582.4231836220722
 21
104.4379849644848
 31
0.0
  0
LINE
  5
3C9
  8
0
 10
582.4231836220722
 20
104.4379849644848
 30
0.0
 11
582.05562409826246
 21
104.91677960734199
 31
0.0
  0
LINE
  5
3CA
  8
0
 10
582.05562409826246
 20
104.91677960734199
 30
0.0
 11
581.49659632048485
 21
105.2125385359134
 31
0.0
  0
LINE
  5
3CB
  8
0
 10
581.49659632048485
 20
105.2125385359134
 30
0.0
 11
580.76197330461184
 21
105.31112484543721
 31
0.0
  0
LINE
  5
3CC
  8
0
 10
580.76197330461184
 20
105.31112484543721
 30
0.0
 11
579.96398223318317
 21
105.17918040099271
 31
0.0
  0
LINE
  5
3CD
  8
0
 10
579.96398223318317
 20
105.17918040099271
 30
0.0
 11
579.35373917762774
 21
104.78334706765941
 31
0.0
  0
LINE
  5
3CE
  8
0
 10
579.35373917762774
 20
104.78334706765941
 30
0.0
 11
578.96646239191341
 21
104.1593391311515
 31
0.0
  0
LINE
  5
3CF
  8
0
 10
578.96646239191341
 20
104.1593391311515
 30
0.0
 11
578.83737013000859
 21
103.3428708771832
 31
0.0
  0
LINE
  5
3D0
  8
0
 10
578.83737013000859
 20
103.3428708771832
 30
0.0
 11
578.96708243159605
 21
102.5245425041673
 31
0.0
  0
LINE
  5
3D1
  8
0
 10
578.96708243159605
 20
102.5245425041673
 30
0.0
 11
579.35621933635787
 21
101.9009065914689
 31
0.0
  0
LINE
  5
3D2
  8
0
 10
579.35621933635787
 20
101.9009065914689
 30
0.0
 11
579.97154671731016
 21
101.50618932956409
 31
0.0
  0
LINE
  5
3D3
  8
0
 10
579.97154671731016
 20
101.50618932956409
 30
0.0
 11
580.77983044746895
 21
101.3746169089293
 31
0.0
  0
LINE
  5
3D4
  8
0
 10
580.77983044746895
 20
101.3746169089293
 30
0.0
 11
581.50292072524667
 21
101.4767994486118
 31
0.0
  0
LINE
  5
3D5
  8
0
 10
581.50292072524667
 20
101.4767994486118
 30
0.0
 11
582.05909632048485
 21
101.78334706765941
 31
0.0
  0
LINE
  5
3D6
  8
0
 10
582.05909632048485
 20
101.78334706765941
 30
0.0
 11
582.42653183635775
 21
102.2751625438499
 31
0.0
  0
LINE
  5
3D7
  8
0
 10
582.42653183635775
 20
102.2751625438499
 30
0.0
 11
582.5834018760404
 21
102.933148654961
 31
0.0
  0
LINE
  5
3D8
  8
0
 10
582.5834018760404
 20
102.933148654961
 30
0.0
 11
581.44054473318317
 21
102.933148654961
 31
0.0
  0
LINE
  5
3D9
  8
0
 10
574.21881735541547
 20
103.7072228438842
 30
0.0
 11
575.39639672049486
 21
103.7072228438842
 31
0.0
  0
LINE
  5
3DA
  8
0
 10
575.39639672049486
 20
103.7072228438842
 30
0.0
 11
575.5432221173204
 21
104.2151593518207
 31
0.0
  0
LINE
  5
3DB
  8
0
 10
575.5432221173204
 20
104.2151593518207
 30
0.0
 11
576.74659513319341
 21
104.2151593518207
 31
0.0
  0
LINE
  5
3DC
  8
0
 10
576.74659513319341
 20
104.2151593518207
 30
0.0
 11
576.88846021255836
 21
103.7072228438842
 31
0.0
  0
LINE
  5
3DD
  8
0
 10
576.88846021255836
 20
103.7072228438842
 30
0.0
 11
578.09183322843137
 21
103.7072228438842
 31
0.0
  0
LINE
  5
3DE
  8
0
 10
578.09183322843137
 20
103.7072228438842
 30
0.0
 11
576.76246814906642
 21
107.51674665340801
 31
0.0
  0
LINE
  5
3DF
  8
0
 10
576.76246814906642
 20
107.51674665340801
 30
0.0
 11
575.53330148239979
 21
107.51674665340801
 31
0.0
  0
LINE
  5
3E0
  8
0
 10
575.53330148239979
 20
107.51674665340801
 30
0.0
 11
574.21881735541547
 21
103.7072228438842
 31
0.0
  0
LINE
  5
3E1
  8
0
 10
575.76346021255836
 20
105.0405561772175
 30
0.0
 11
576.14937291097112
 21
106.3441276057889
 31
0.0
  0
LINE
  5
3E2
  8
0
 10
576.14937291097112
 20
106.3441276057889
 30
0.0
 11
576.52635703795522
 21
105.0405561772175
 31
0.0
  0
LINE
  5
3E3
  8
0
 10
576.52635703795522
 20
105.0405561772175
 30
0.0
 11
575.76346021255836
 21
105.0405561772175
 31
0.0
  0
LINE
  5
3E4
  8
0
 10
570.45808616515421
 20
105.4476111530644
 30
0.0
 11
572.1574909270588
 21
105.4476111530644
 31
0.0
  0
LINE
  5
3E5
  8
0
 10
572.1574909270588
 20
105.4476111530644
 30
0.0
 11
572.92534806991614
 21
105.4863016292549
 31
0.0
  0
LINE
  5
3E6
  8
0
 10
572.92534806991614
 20
105.4863016292549
 30
0.0
 11
573.33804648261446
 21
105.6182460736994
 31
0.0
  0
LINE
  5
3E7
  8
0
 10
573.33804648261446
 20
105.6182460736994
 30
0.0
 11
573.74628060959867
 21
106.0011825816359
 31
0.0
  0
LINE
  5
3E8
  8
0
 10
573.74628060959867
 20
106.0011825816359
 30
0.0
 11
573.88665759372554
 21
106.5884841689375
 31
0.0
  0
LINE
  5
3E9
  8
0
 10
573.88665759372554
 20
106.5884841689375
 30
0.0
 11
573.7428083873765
 21
107.15148020068349
 31
0.0
  0
LINE
  5
3EA
  8
0
 10
573.7428083873765
 20
107.15148020068349
 30
0.0
 11
573.29935600642398
 21
107.47638099433431
 31
0.0
  0
LINE
  5
3EB
  8
0
 10
573.29935600642398
 20
107.47638099433431
 30
0.0
 11
573.64459410166205
 21
107.79384131179459
 31
0.0
  0
LINE
  5
3EC
  8
0
 10
573.64459410166205
 20
107.79384131179459
 30
0.0
 11
573.75967346674145
 21
108.2462222641755
 31
0.0
  0
LINE
  5
3ED
  8
0
 10
573.75967346674145
 20
108.2462222641755
 30
0.0
 11
573.60590362547157
 21
108.80624210544541
 31
0.0
  0
LINE
  5
3EE
  8
0
 10
573.60590362547157
 20
108.80624210544541
 30
0.0
 11
573.16344330801144
 21
109.1460238514772
 31
0.0
  0
LINE
  5
3EF
  8
0
 10
573.16344330801144
 20
109.1460238514772
 30
0.0
 11
572.76810600642409
 21
109.23134131179459
 31
0.0
  0
LINE
  5
3F0
  8
0
 10
572.76810600642409
 20
109.23134131179459
 30
0.0
 11
572.03447505404313
 21
109.2571349625883
 31
0.0
  0
LINE
  5
3F1
  8
0
 10
572.03447505404313
 20
109.2571349625883
 30
0.0
 11
570.45808616515421
 21
109.2571349625883
 31
0.0
  0
LINE
  5
3F2
  8
0
 10
570.45808616515421
 20
109.2571349625883
 30
0.0
 11
570.45808616515421
 21
105.4476111530644
 31
0.0
  0
LINE
  5
3F3
  8
0
 10
571.66443537150337
 20
106.3365000419533
 30
0.0
 11
571.66443537150337
 21
107.034912740366
 31
0.0
  0
LINE
  5
3F4
  8
0
 10
571.66443537150337
 20
107.034912740366
 30
0.0
 11
572.21304648261446
 21
107.034912740366
 31
0.0
  0
LINE
  5
3F5
  8
0
 10
572.21304648261446
 20
107.034912740366
 30
0.0
 11
572.62227267309072
 21
106.95554766100091
 31
0.0
  0
LINE
  5
3F6
  8
0
 10
572.62227267309072
 20
106.95554766100091
 30
0.0
 11
572.74380045086855
 21
106.6886825816359
 31
0.0
  0
LINE
  5
3F7
  8
0
 10
572.74380045086855
 20
106.6886825816359
 30
0.0
 11
572.62475283182084
 21
106.41884131179459
 31
0.0
  0
LINE
  5
3F8
  8
0
 10
572.62475283182084
 20
106.41884131179459
 30
0.0
 11
572.22395918102711
 21
106.3365000419533
 31
0.0
  0
LINE
  5
3F9
  8
0
 10
572.22395918102711
 20
106.3365000419533
 30
0.0
 11
571.66443537150337
 21
106.3365000419533
 31
0.0
  0
LINE
  5
3FA
  8
0
 10
571.66443537150337
 20
107.73332543877871
 30
0.0
 11
571.66443537150337
 21
108.3682460736994
 31
0.0
  0
LINE
  5
3FB
  8
0
 10
571.66443537150337
 20
108.3682460736994
 30
0.0
 11
571.99876076832879
 21
108.3682460736994
 31
0.0
  0
LINE
  5
3FC
  8
0
 10
571.99876076832879
 20
108.3682460736994
 30
0.0
 11
572.50719330801144
 21
108.30078575623909
 31
0.0
  0
LINE
  5
3FD
  8
0
 10
572.50719330801144
 20
108.30078575623909
 30
0.0
 11
572.61681632388434
 21
108.05078575623899
 31
0.0
  0
LINE
  5
3FE
  8
0
 10
572.61681632388434
 20
108.05078575623899
 30
0.0
 11
572.51463378420169
 21
107.8057460736994
 31
0.0
  0
LINE
  5
3FF
  8
0
 10
572.51463378420169
 20
107.8057460736994
 30
0.0
 11
572.16245124451927
 21
107.73332543877871
 31
0.0
  0
LINE
  5
400
  8
0
 10
572.16245124451927
 20
107.73332543877871
 30
0.0
 11
571.66443537150337
 21
107.73332543877871
 31
0.0
  0
ARC
  5
401
  8
0
 10
576.31804395919494
 20
105.375004503759
 30
0.0
 40
9.0000000000000089
 50
179.99999999999969
 51
359.99999999999881
  0
ARC
  5
402
  8
0
 10
576.31804395919494
 20
105.375004503759
 30
0.0
 40
9.0000000000000089
 50
359.99999999999937
 51
179.99999999999969
  0
ARC
  5
403
  8
0
 10
576.31804395919301
 20
127.62500450375769
 30
0.0
 40
4.0000000000000133
 50
90.0
 51
270.0
  0
ARC
  5
404
  8
0
 10
576.31804395919301
 20
127.62500450375769
 30
0.0
 40
3.9999999999999978
 50
270.0
 51
90.0
  0
LINE
  5
405
  8
0
 10
470.00554395919721
 20
49.250004503757957
 30
0.0
 11
470.25554395919761
 21
49.250004503757957
 31
0.0
  0
LINE
  5
406
  8
0
 10
470.25554395919761
 20
50.750004503758298
 30
0.0
 11
470.00554395919721
 21
50.750004503758298
 31
0.0
  0
LINE
  5
407
  8
0
 10
470.00554395919733
 20
32.000004503757957
 30
0.0
 11
470.25554395919789
 21
32.000004503757957
 31
0.0
  0
LINE
  5
408
  8
0
 10
470.25554395919789
 20
35.000004503757957
 30
0.0
 11
470.00554395919733
 21
35.000004503757957
 31
0.0
  0
LINE
  5
409
  8
0
 10
470.00554395919607
 20
50.000004503758127
 30
0.0
 11
470.00554395919607
 21
50.649523485624002
 31
0.0
  0
LINE
  5
40A
  8
0
 10
470.00554395919607
 20
50.649523556596442
 30
0.0
 11
470.00554395919607
 21
50.724448239941488
 31
0.0
  0
LINE
  5
40B
  8
0
 10
470.00554395919607
 20
50.724448873474927
 30
0.0
 11
470.00554395919607
 21
50.750004503758127
 31
0.0
  0
LINE
  5
40C
  8
0
 10
470.00554395919607
 20
49.25000450375812
 30
0.0
 11
470.00554395919607
 21
49.275560134041321
 31
0.0
  0
LINE
  5
40D
  8
0
 10
470.00554395919607
 20
49.275562061288042
 30
0.0
 11
470.00554395919607
 21
49.350485450919798
 31
0.0
  0
LINE
  5
40E
  8
0
 10
470.00554395919607
 20
49.35048709296165
 30
0.0
 11
470.00554395919607
 21
49.469671529667409
 31
0.0
  0
LINE
  5
40F
  8
0
 10
470.00554395919607
 20
49.469674417868212
 30
0.0
 11
470.00554395919607
 21
49.625002415737782
 31
0.0
  0
LINE
  5
410
  8
0
 10
470.00554395919607
 20
49.625004503758127
 30
0.0
 11
470.00554395919607
 21
49.805887799380159
 31
0.0
  0
LINE
  5
411
  8
0
 10
470.00554395919607
 20
49.805890219931229
 30
0.0
 11
470.00554395919607
 21
50.000002574445581
 31
0.0
  0
LINE
  5
412
  8
0
 10
470.0055439591963
 20
33.500005468413562
 30
0.0
 11
470.0055439591963
 21
34.250004503758127
 31
0.0
  0
LINE
  5
413
  8
0
 10
470.0055439591963
 20
34.250005547768133
 30
0.0
 11
470.0055439591963
 21
34.799041681957313
 31
0.0
  0
LINE
  5
414
  8
0
 10
470.0055439591963
 20
34.7990426094348
 30
0.0
 11
470.0055439591963
 21
34.948893243191733
 31
0.0
  0
LINE
  5
415
  8
0
 10
470.0055439591963
 20
34.948893321248363
 30
0.0
 11
470.00554395919642
 21
35.000004503758127
 31
0.0
  0
LINE
  5
416
  8
0
 10
470.0055439591963
 20
32.000004503758142
 30
0.0
 11
470.0055439591963
 21
32.051113789843143
 31
0.0
  0
LINE
  5
417
  8
0
 10
470.0055439591963
 20
32.051115764324521
 30
0.0
 11
470.0055439591963
 21
32.200966398081484
 31
0.0
  0
LINE
  5
418
  8
0
 10
470.0055439591963
 20
32.200966540025362
 30
0.0
 11
470.0055439591963
 21
32.439344110111541
 31
0.0
  0
LINE
  5
419
  8
0
 10
470.0055439591963
 20
32.439344331978333
 30
0.0
 11
470.0055439591963
 21
33.500004503758127
 31
0.0
  0
LINE
  5
41A
  8
0
 10
470.00554395919733
 20
8.0000045037583032
 30
0.0
 11
470.25554395919789
 21
8.0000045037583032
 31
0.0
  0
LINE
  5
41B
  8
0
 10
470.25554395919789
 20
16.000004503758181
 30
0.0
 11
470.00554395919733
 21
16.000004503758181
 31
0.0
  0
LINE
  5
41C
  8
0
 10
470.0055439591963
 20
12.00000450375815
 30
0.0
 11
470.0055439591963
 21
13.035280684168219
 31
0.0
  0
LINE
  5
41D
  8
0
 10
470.0055439591963
 20
13.03528142796559
 30
0.0
 11
470.0055439591963
 21
14.0000040555016
 31
0.0
  0
LINE
  5
41E
  8
0
 10
470.0055439591963
 20
14.00000450375815
 30
0.0
 11
470.0055439591963
 21
14.82843162850433
 31
0.0
  0
LINE
  5
41F
  8
0
 10
470.0055439591963
 20
14.828431849844071
 30
0.0
 11
470.0055439591963
 21
15.464106118895909
 31
0.0
  0
LINE
  5
420
  8
0
 10
470.0055439591963
 20
15.46410697462845
 30
0.0
 11
470.0055439591963
 21
15.863707448683311
 31
0.0
  0
LINE
  5
421
  8
0
 10
470.0055439591963
 20
15.86370780891442
 30
0.0
 11
470.0055439591963
 21
16.000004503758149
 31
0.0
  0
LINE
  5
422
  8
0
 10
470.0055439591963
 20
8.0000045037581646
 30
0.0
 11
470.0055439591963
 21
8.1363008324130135
 31
0.0
  0
LINE
  5
423
  8
0
 10
470.0055439591963
 20
8.1363011986018918
 30
0.0
 11
470.0055439591963
 21
8.5359028886204094
 31
0.0
  0
LINE
  5
424
  8
0
 10
470.0055439591963
 20
8.5359029398326918
 30
0.0
 11
470.0055439591963
 21
9.1715771576712761
 31
0.0
  0
LINE
  5
425
  8
0
 10
470.0055439591963
 20
9.1715773790119712
 30
0.0
 11
470.0055439591963
 21
10.00000424275526
 31
0.0
  0
LINE
  5
426
  8
0
 10
470.0055439591963
 20
10.00000450375815
 30
0.0
 11
470.0055439591963
 21
12.00000450375815
 31
0.0
  0
LINE
  5
427
  8
0
 10
0.0000064154708639
 20
135.37500450375751
 30
0.0
 11
212.12500641546529
 21
135.37500450375751
 31
0.0
  0
LINE
  5
428
  8
0
 10
212.12500641546529
 20
80.750004503757779
 30
0.0
 11
0.0000064154708639
 21
80.750004503757779
 31
0.0
  0
LINE
  5
429
  8
0
 10
0.0000064154708639
 20
135.37500450375751
 30
0.0
 11
0.0000064154708639
 21
80.750004503757779
 31
0.0
  0
LINE
  5
42A
  8
0
 10
212.12500641546529
 20
80.750004503757779
 30
0.0
 11
212.12500641546529
 21
135.37500450375751
 31
0.0
  0
LINE
  5
42B
  8
0
 10
0.0000064154708355
 20
80.750004503757751
 30
0.0
 11
212.12500641547069
 21
80.750004503757751
 31
0.0
  0
LINE
  5
42C
  8
0
 10
212.12500641547069
 20
0.0000045037577365
 30
0.0
 11
0.0000064154708355
 21
0.0000045037577365
 31
0.0
  0
LINE
  5
42D
  8
0
 10
212.12500641547069
 20
80.750004503757751
 30
0.0
 11
212.12500641547069
 21
0.0000045037577365
 31
0.0
  0
LINE
  5
42E
  8
0
 10
0.0000064154708355
 20
0.0000045037577365
 30
0.0
 11
0.0000064154708355
 21
80.750004503757751
 31
0.0
  0
ARC
  5
42F
  8
0
 10
106.0625064154716
 20
105.3750045037592
 30
0.0
 40
8.2500000000000018
 50
179.99999999999969
 51
359.99999999999881
  0
ARC
  5
430
  8
0
 10
106.0625064154716
 20
105.3750045037592
 30
0.0
 40
8.25
 50
359.99999999999937
 51
179.99999999999969
  0
ARC
  5
431
  8
0
 10
106.0625064154716
 20
105.3750045037592
 30
0.0
 40
7.6875000000000018
 50
0.0000000000006107
 51
180.0000000000002
  0
ARC
  5
432
  8
0
 10
106.0625064154716
 20
105.3750045037592
 30
0.0
 40
7.6874999999999831
 50
180.00000000000031
 51
359.9999999999996
  0
LINE
  5
433
  8
0
 10
111.1850071894594
 20
102.9331486549618
 30
0.0
 11
110.990066713269
 21
102.48423992480301
 31
0.0
  0
LINE
  5
434
  8
0
 10
110.990066713269
 20
102.48423992480301
 30
0.0
 11
110.5391738561261
 21
102.326997861311
 31
0.0
  0
LINE
  5
435
  8
0
 10
110.5391738561261
 20
102.326997861311
 30
0.0
 11
110.2146450862848
 21
102.3912339724221
 31
0.0
  0
LINE
  5
436
  8
0
 10
110.2146450862848
 20
102.3912339724221
 30
0.0
 11
109.97915401485621
 21
102.5839423057554
 31
0.0
  0
LINE
  5
437
  8
0
 10
109.97915401485621
 20
102.5839423057554
 30
0.0
 11
109.78818179263401
 21
103.34187881369191
 31
0.0
  0
LINE
  5
438
  8
0
 10
109.78818179263401
 20
103.34187881369191
 30
0.0
 11
109.97220957041181
 21
104.10576770258081
 31
0.0
  0
LINE
  5
439
  8
0
 10
109.97220957041181
 20
104.10576770258081
 30
0.0
 11
110.20199627676099
 21
104.295499845438
 31
0.0
  0
LINE
  5
43A
  8
0
 10
110.20199627676099
 20
104.295499845438
 30
0.0
 11
110.5233008402531
 21
104.358743893057
 31
0.0
  0
LINE
  5
43B
  8
0
 10
110.5233008402531
 20
104.358743893057
 30
0.0
 11
110.9915548085071
 21
104.2153907184538
 31
0.0
  0
LINE
  5
43C
  8
0
 10
110.9915548085071
 20
104.2153907184538
 30
0.0
 11
111.1850071894594
 21
103.7902915121046
 31
0.0
  0
LINE
  5
43D
  8
0
 10
111.1850071894594
 20
103.7902915121046
 30
0.0
 11
112.32786433231659
 21
103.7902915121046
 31
0.0
  0
LINE
  5
43E
  8
0
 10
112.32786433231659
 20
103.7902915121046
 30
0.0
 11
112.1676460783483
 21
104.43798496448559
 31
0.0
  0
LINE
  5
43F
  8
0
 10
112.1676460783483
 20
104.43798496448559
 30
0.0
 11
111.80008655453879
 21
104.9167796073427
 31
0.0
  0
LINE
  5
440
  8
0
 10
111.80008655453879
 20
104.9167796073427
 30
0.0
 11
111.24105877676099
 21
105.21253853591421
 31
0.0
  0
LINE
  5
441
  8
0
 10
111.24105877676099
 20
105.21253853591421
 30
0.0
 11
110.506435760888
 21
105.311124845438
 31
0.0
  0
LINE
  5
442
  8
0
 10
110.506435760888
 20
105.311124845438
 30
0.0
 11
109.7084446894594
 21
105.1791804009935
 31
0.0
  0
LINE
  5
443
  8
0
 10
109.7084446894594
 20
105.1791804009935
 30
0.0
 11
109.0982016339039
 21
104.7833470676602
 31
0.0
  0
LINE
  5
444
  8
0
 10
109.0982016339039
 20
104.7833470676602
 30
0.0
 11
108.71092484818961
 21
104.15933913115229
 31
0.0
  0
LINE
  5
445
  8
0
 10
108.71092484818961
 20
104.15933913115229
 30
0.0
 11
108.5818325862848
 21
103.342870877184
 31
0.0
  0
LINE
  5
446
  8
0
 10
108.5818325862848
 20
103.342870877184
 30
0.0
 11
108.71154488787209
 21
102.5245425041681
 31
0.0
  0
LINE
  5
447
  8
0
 10
108.71154488787209
 20
102.5245425041681
 30
0.0
 11
109.10068179263401
 21
101.90090659146971
 31
0.0
  0
LINE
  5
448
  8
0
 10
109.10068179263401
 20
101.90090659146971
 30
0.0
 11
109.7160091735864
 21
101.5061893295649
 31
0.0
  0
LINE
  5
449
  8
0
 10
109.7160091735864
 20
101.5061893295649
 30
0.0
 11
110.52429290374511
 21
101.37461690892999
 31
0.0
  0
LINE
  5
44A
  8
0
 10
110.52429290374511
 20
101.37461690892999
 30
0.0
 11
111.24738318152291
 21
101.4767994486126
 31
0.0
  0
LINE
  5
44B
  8
0
 10
111.24738318152291
 20
101.4767994486126
 30
0.0
 11
111.80355877676099
 21
101.7833470676602
 31
0.0
  0
LINE
  5
44C
  8
0
 10
111.80355877676099
 20
101.7833470676602
 30
0.0
 11
112.17099429263401
 21
102.2751625438506
 31
0.0
  0
LINE
  5
44D
  8
0
 10
112.17099429263401
 20
102.2751625438506
 30
0.0
 11
112.32786433231659
 21
102.9331486549618
 31
0.0
  0
LINE
  5
44E
  8
0
 10
112.32786433231659
 20
102.9331486549618
 30
0.0
 11
111.1850071894594
 21
102.9331486549618
 31
0.0
  0
LINE
  5
44F
  8
0
 10
103.96327981169171
 20
103.70722284388501
 30
0.0
 11
105.1408591767711
 21
103.70722284388501
 31
0.0
  0
LINE
  5
450
  8
0
 10
105.1408591767711
 20
103.70722284388501
 30
0.0
 11
105.28768457359649
 21
104.2151593518215
 31
0.0
  0
LINE
  5
451
  8
0
 10
105.28768457359649
 20
104.2151593518215
 30
0.0
 11
106.49105758946951
 21
104.2151593518215
 31
0.0
  0
LINE
  5
452
  8
0
 10
106.49105758946951
 20
104.2151593518215
 30
0.0
 11
106.6329226688346
 21
103.70722284388501
 31
0.0
  0
LINE
  5
453
  8
0
 10
106.6329226688346
 20
103.70722284388501
 30
0.0
 11
107.83629568470759
 21
103.70722284388501
 31
0.0
  0
LINE
  5
454
  8
0
 10
107.83629568470759
 20
103.70722284388501
 30
0.0
 11
106.5069306053426
 21
107.5167466534088
 31
0.0
  0
LINE
  5
455
  8
0
 10
106.5069306053426
 20
107.5167466534088
 30
0.0
 11
105.2777639386759
 21
107.5167466534088
 31
0.0
  0
LINE
  5
456
  8
0
 10
105.2777639386759
 20
107.5167466534088
 30
0.0
 11
103.96327981169171
 21
103.70722284388501
 31
0.0
  0
LINE
  5
457
  8
0
 10
105.5079226688346
 20
105.04055617721831
 30
0.0
 11
105.89383536724731
 21
106.34412760578969
 31
0.0
  0
LINE
  5
458
  8
0
 10
105.89383536724731
 20
106.34412760578969
 30
0.0
 11
106.2708194942314
 21
105.04055617721831
 31
0.0
  0
LINE
  5
459
  8
0
 10
106.2708194942314
 20
105.04055617721831
 30
0.0
 11
105.5079226688346
 21
105.04055617721831
 31
0.0
  0
LINE
  5
45A
  8
0
 10
100.2025486214304
 20
105.4476111530652
 30
0.0
 11
101.9019533833351
 21
105.4476111530652
 31
0.0
  0
LINE
  5
45B
  8
0
 10
101.9019533833351
 20
105.4476111530652
 30
0.0
 11
102.66981052619229
 21
105.48630162925571
 31
0.0
  0
LINE
  5
45C
  8
0
 10
102.66981052619229
 20
105.48630162925571
 30
0.0
 11
103.0825089388907
 21
105.61824607370011
 31
0.0
  0
LINE
  5
45D
  8
0
 10
103.0825089388907
 20
105.61824607370011
 30
0.0
 11
103.4907430658748
 21
106.0011825816367
 31
0.0
  0
LINE
  5
45E
  8
0
 10
103.4907430658748
 20
106.0011825816367
 30
0.0
 11
103.6311200500018
 21
106.58848416893829
 31
0.0
  0
LINE
  5
45F
  8
0
 10
103.6311200500018
 20
106.58848416893829
 30
0.0
 11
103.4872708436526
 21
107.1514802006843
 31
0.0
  0
LINE
  5
460
  8
0
 10
103.4872708436526
 20
107.1514802006843
 30
0.0
 11
103.0438184627002
 21
107.4763809943351
 31
0.0
  0
LINE
  5
461
  8
0
 10
103.0438184627002
 20
107.4763809943351
 30
0.0
 11
103.3890565579383
 21
107.7938413117954
 31
0.0
  0
LINE
  5
462
  8
0
 10
103.3890565579383
 20
107.7938413117954
 30
0.0
 11
103.5041359230177
 21
108.2462222641763
 31
0.0
  0
LINE
  5
463
  8
0
 10
103.5041359230177
 20
108.2462222641763
 30
0.0
 11
103.35036608174779
 21
108.8062421054462
 31
0.0
  0
LINE
  5
464
  8
0
 10
103.35036608174779
 20
108.8062421054462
 30
0.0
 11
102.90790576428751
 21
109.14602385147801
 31
0.0
  0
LINE
  5
465
  8
0
 10
102.90790576428751
 20
109.14602385147801
 30
0.0
 11
102.5125684627002
 21
109.2313413117954
 31
0.0
  0
LINE
  5
466
  8
0
 10
102.5125684627002
 20
109.2313413117954
 30
0.0
 11
101.7789375103193
 21
109.25713496258911
 31
0.0
  0
LINE
  5
467
  8
0
 10
101.7789375103193
 20
109.25713496258911
 30
0.0
 11
100.2025486214304
 21
109.25713496258911
 31
0.0
  0
LINE
  5
468
  8
0
 10
100.2025486214304
 20
109.25713496258911
 30
0.0
 11
100.2025486214304
 21
105.4476111530652
 31
0.0
  0
LINE
  5
469
  8
0
 10
101.4088978277795
 20
106.3365000419541
 30
0.0
 11
101.4088978277795
 21
107.03491274036681
 31
0.0
  0
LINE
  5
46A
  8
0
 10
101.4088978277795
 20
107.03491274036681
 30
0.0
 11
101.9575089388907
 21
107.03491274036681
 31
0.0
  0
LINE
  5
46B
  8
0
 10
101.9575089388907
 20
107.03491274036681
 30
0.0
 11
102.3667351293669
 21
106.9555476610017
 31
0.0
  0
LINE
  5
46C
  8
0
 10
102.3667351293669
 20
106.9555476610017
 30
0.0
 11
102.4882629071447
 21
106.6886825816367
 31
0.0
  0
LINE
  5
46D
  8
0
 10
102.4882629071447
 20
106.6886825816367
 30
0.0
 11
102.369215288097
 21
106.4188413117954
 31
0.0
  0
LINE
  5
46E
  8
0
 10
102.369215288097
 20
106.4188413117954
 30
0.0
 11
101.96842163730329
 21
106.3365000419541
 31
0.0
  0
LINE
  5
46F
  8
0
 10
101.96842163730329
 20
106.3365000419541
 30
0.0
 11
101.4088978277795
 21
106.3365000419541
 31
0.0
  0
LINE
  5
470
  8
0
 10
101.4088978277795
 20
107.7333254387795
 30
0.0
 11
101.4088978277795
 21
108.36824607370021
 31
0.0
  0
LINE
  5
471
  8
0
 10
101.4088978277795
 20
108.36824607370021
 30
0.0
 11
101.743223224605
 21
108.36824607370021
 31
0.0
  0
LINE
  5
472
  8
0
 10
101.743223224605
 20
108.36824607370021
 30
0.0
 11
102.25165576428751
 21
108.3007857562398
 31
0.0
  0
LINE
  5
473
  8
0
 10
102.25165576428751
 20
108.3007857562398
 30
0.0
 11
102.3612787801605
 21
108.0507857562398
 31
0.0
  0
LINE
  5
474
  8
0
 10
102.3612787801605
 20
108.0507857562398
 30
0.0
 11
102.259096240478
 21
107.80574607370021
 31
0.0
  0
LINE
  5
475
  8
0
 10
102.259096240478
 20
107.80574607370021
 30
0.0
 11
101.9069137007954
 21
107.7333254387795
 31
0.0
  0
LINE
  5
476
  8
0
 10
101.9069137007954
 20
107.7333254387795
 30
0.0
 11
101.4088978277795
 21
107.7333254387795
 31
0.0
  0
ARC
  5
477
  8
0
 10
106.06250641547111
 20
105.3750045037598
 30
0.0
 40
9.0000000000000124
 50
179.99999999999969
 51
359.99999999999881
  0
ARC
  5
478
  8
0
 10
106.06250641547111
 20
105.3750045037598
 30
0.0
 40
9.0000000000000124
 50
359.99999999999949
 51
179.9999999999996
  0
ARC
  5
479
  8
0
 10
208.00000641547189
 20
6.6250045037577658
 30
0.0
 40
0.9999999999999998
 50
359.99999999999949
 51
179.9999999999998
  0
ARC
  5
47A
  8
0
 10
208.00000641547189
 20
6.6250045037577658
 30
0.0
 40
1.0
 50
180.00000000000011
 51
359.9999999999992
  0
LINE
  5
47B
  8
0
 10
212.12500641547089
 20
49.250004503757957
 30
0.0
 11
212.37500641547001
 21
49.250004503757957
 31
0.0
  0
LINE
  5
47C
  8
0
 10
212.37500641547001
 20
50.750004503758298
 30
0.0
 11
212.12500641547089
 21
50.750004503758298
 31
0.0
  0
LINE
  5
47D
  8
0
 10
212.12500641547089
 20
32.000004503757957
 30
0.0
 11
212.37500641547001
 21
32.000004503757957
 31
0.0
  0
LINE
  5
47E
  8
0
 10
212.37500641547001
 20
35.000004503757957
 30
0.0
 11
212.12500641547089
 21
35.000004503757957
 31
0.0
  0
LINE
  5
47F
  8
0
 10
212.37500641547109
 20
50.750004503758127
 30
0.0
 11
212.37500641547109
 21
50.37500450375812
 31
0.0
  0
LINE
  5
480
  8
0
 10
212.37500641547109
 20
50.3750027107317
 30
0.0
 11
212.37500641547109
 21
50.194118787585019
 31
0.0
  0
LINE
  5
481
  8
0
 10
212.37500641547109
 20
50.194117316034529
 30
0.0
 11
212.37500641547109
 21
50.000004503758127
 31
0.0
  0
LINE
  5
482
  8
0
 10
212.37500641547109
 20
50.000002574445581
 30
0.0
 11
212.37500641547109
 21
49.805890219931229
 31
0.0
  0
LINE
  5
483
  8
0
 10
212.37500641547109
 20
49.805887799380173
 30
0.0
 11
212.37500641547109
 21
49.625004503758127
 31
0.0
  0
LINE
  5
484
  8
0
 10
212.37500641547109
 20
49.625002415737782
 30
0.0
 11
212.37500641547109
 21
49.469674417868212
 31
0.0
  0
LINE
  5
485
  8
0
 10
212.37500641547109
 20
49.469671529667423
 30
0.0
 11
212.37500641547109
 21
49.25000450375812
 31
0.0
  0
LINE
  5
486
  8
0
 10
212.37500641547089
 20
35.000004503758127
 30
0.0
 11
212.37500641547089
 21
34.94889332124837
 31
0.0
  0
LINE
  5
487
  8
0
 10
212.37500641547089
 20
34.948893243191748
 30
0.0
 11
212.37500641547089
 21
34.25000554776814
 31
0.0
  0
LINE
  5
488
  8
0
 10
212.37500641547089
 20
34.250004503758149
 30
0.0
 11
212.37500641547089
 21
33.888233071411932
 31
0.0
  0
LINE
  5
489
  8
0
 10
212.37500641547089
 20
33.888231991884858
 30
0.0
 11
212.37500641547089
 21
33.500005468413583
 31
0.0
  0
LINE
  5
48A
  8
0
 10
212.37500641547109
 20
33.500004503758127
 30
0.0
 11
212.37500641547109
 21
33.111776083844113
 31
0.0
  0
LINE
  5
48B
  8
0
 10
212.37500641547109
 20
33.111775936104351
 30
0.0
 11
212.37500641547109
 21
32.750005400270233
 31
0.0
  0
LINE
  5
48C
  8
0
 10
212.37500641547109
 20
32.750004503758127
 30
0.0
 11
212.37500641547109
 21
32.439344331978312
 31
0.0
  0
LINE
  5
48D
  8
0
 10
212.37500641547109
 20
32.439344110111527
 30
0.0
 11
212.37500641547109
 21
32.051115764324521
 31
0.0
  0
LINE
  5
48E
  8
0
 10
212.37500641547109
 20
32.051113789843143
 30
0.0
 11
212.37500641547109
 21
32.000004503758142
 31
0.0
  0
LINE
  5
48F
  8
0
 10
212.12500641547089
 20
8.0000045037583032
 30
0.0
 11
212.37500641547001
 21
8.0000045037583032
 31
0.0
  0
LINE
  5
490
  8
0
 10
212.37500641547001
 20
16.000004503758181
 30
0.0
 11
212.12500641547089
 21
16.000004503758181
 31
0.0
  0
LINE
  5
491
  8
0
 10
212.37500641547109
 20
16.000004503758149
 30
0.0
 11
212.37500641547109
 21
15.46410697462847
 31
0.0
  0
LINE
  5
492
  8
0
 10
212.37500641547109
 20
15.464106118895931
 30
0.0
 11
212.37500641547109
 21
14.828431849844099
 31
0.0
  0
LINE
  5
493
  8
0
 10
212.37500641547109
 20
14.82843162850437
 30
0.0
 11
212.37500641547109
 21
13.03528142796563
 31
0.0
  0
LINE
  5
494
  8
0
 10
212.37500641547109
 20
13.03528068416826
 30
0.0
 11
212.37500641547109
 21
12.000004503758181
 31
0.0
  0
LINE
  5
495
  8
0
 10
212.37500641547109
 20
12.000004503758131
 30
0.0
 11
212.37500641547109
 21
10.00000450375814
 31
0.0
  0
LINE
  5
496
  8
0
 10
212.37500641547109
 20
10.000004242755249
 30
0.0
 11
212.37500641547109
 21
9.1715773790119641
 31
0.0
  0
LINE
  5
497
  8
0
 10
212.37500641547109
 20
9.1715771576712708
 30
0.0
 11
212.37500641547109
 21
8.1363011986018883
 31
0.0
  0
LINE
  5
498
  8
0
 10
212.37500641547109
 20
8.1363008324130117
 30
0.0
 11
212.37500641547109
 21
8.0000045037581646
 31
0.0
  0
LINE
  5
499
  8
0
 10
296.67005141786927
 20
424.78821243830282
 30
0.0
 11
296.67005141786927
 21
212.66321243830839
 31
0.0
  0
LINE
  5
49A
  8
0
 10
296.67005141786927
 20
212.66321243830839
 30
0.0
 11
389.92005141786632
 21
212.66321243830819
 31
0.0
  0
LINE
  5
49B
  8
0
 10
389.92005141786632
 20
212.66321243830819
 30
0.0
 11
389.92005141786672
 21
424.78821243830259
 31
0.0
  0
LINE
  5
49C
  8
0
 10
389.92005141786672
 20
424.78821243830259
 30
0.0
 11
296.67005141786927
 21
424.78821243830282
 31
0.0
  0
LINE
  5
49D
  8
0
 10
388.29505141786962
 20
423.16321243830282
 30
0.0
 11
388.29505141786922
 21
214.28821243830291
 31
0.0
1001
ACAD
1000
ASC_BOUNDS
1002
{
1070
    19
1005
4FA
1002
}
  0
LINE
  5
49E
  8
0
 10
388.29505141786922
 20
214.28821243830291
 30
0.0
 11
298.29505141786922
 21
214.28821243830311
 31
0.0
1001
ACAD
1000
ASC_BOUNDS
1002
{
1070
    19
1005
4FA
1002
}
  0
LINE
  5
49F
  8
0
 10
298.29505141786922
 20
214.28821243830311
 30
0.0
 11
298.29505141786967
 21
423.16321243830299
 31
0.0
1001
ACAD
1000
ASC_BOUNDS
1002
{
1070
    19
1005
4FA
1002
}
  0
LINE
  5
4A0
  8
0
 10
298.29505141786967
 20
423.16321243830299
 30
0.0
 11
388.29505141786962
 21
423.16321243830282
 31
0.0
1001
ACAD
1000
ASC_BOUNDS
1002
{
1070
    19
1005
4FA
1002
}
  0
LINE
  5
4A1
  8
0
 10
389.92005141786632
 20
212.66321243830279
 30
0.0
 11
391.0450514178699
 21
212.66321243830279
 31
0.0
  0
LINE
  5
4A2
  8
0
 10
391.0450514178699
 20
212.66321243830279
 30
0.0
 11
391.0450514178699
 21
424.78821243830282
 31
0.0
  0
LINE
  5
4A3
  8
0
 10
391.0450514178699
 20
424.78821243830282
 30
0.0
 11
389.92005141786672
 21
424.78821243830282
 31
0.0
  0
LINE
  5
4A4
  8
0
 10
296.42005141786899
 20
215.7882124383022
 30
0.0
 11
296.6700514178691
 21
215.7882124383022
 31
0.0
  0
LINE
  5
4A5
  8
0
 10
296.6700514178691
 20
217.7882124383018
 30
0.0
 11
296.42005141786899
 21
217.7882124383018
 31
0.0
  0
LINE
  5
4A6
  8
0
 10
296.4200514178691
 20
215.78821243830151
 30
0.0
 11
296.4200514178691
 21
215.8222866120125
 31
0.0
  0
LINE
  5
4A7
  8
0
 10
296.4200514178691
 20
215.8222881957702
 30
0.0
 11
296.4200514178691
 21
215.92218361437011
 31
0.0
  0
LINE
  5
4A8
  8
0
 10
296.4200514178691
 20
215.92218703451709
 30
0.0
 11
296.4200514178691
 21
216.28821223909989
 31
0.0
  0
LINE
  5
4A9
  8
0
 10
296.4200514178691
 20
216.2882124383016
 30
0.0
 11
296.4200514178691
 21
216.529393393199
 31
0.0
  0
LINE
  5
4AA
  8
0
 10
296.4200514178691
 20
216.52939641985699
 30
0.0
 11
296.4200514178691
 21
216.7882124383016
 31
0.0
  0
LINE
  5
4AB
  8
0
 10
296.4200514178691
 20
216.78821611286449
 30
0.0
 11
296.4200514178691
 21
217.04703148340411
 31
0.0
  0
LINE
  5
4AC
  8
0
 10
296.4200514178691
 20
217.04703585325001
 30
0.0
 11
296.4200514178691
 21
217.2882086811878
 31
0.0
  0
LINE
  5
4AD
  8
0
 10
296.4200514178691
 20
217.2882124383016
 30
0.0
 11
296.4200514178691
 21
217.4953192194881
 31
0.0
  0
LINE
  5
4AE
  8
0
 10
296.4200514178691
 20
217.49532433966129
 30
0.0
 11
296.4200514178691
 21
217.65423655019259
 31
0.0
  0
LINE
  5
4AF
  8
0
 10
296.4200514178691
 20
217.65423784208599
 30
0.0
 11
296.4200514178691
 21
217.75413826459061
 31
0.0
  0
LINE
  5
4B0
  8
0
 10
296.4200514178691
 20
217.754148068441
 30
0.0
 11
296.4200514178691
 21
217.7882124383016
 31
0.0
  0
LINE
  5
4B1
  8
0
 10
390.17005141787001
 20
322.72571243829992
 30
0.0
 11
389.9200514178699
 21
322.72571243829992
 31
0.0
  0
LINE
  5
4B2
  8
0
 10
389.9200514178699
 20
314.72571243829901
 30
0.0
 11
390.17005141787001
 21
314.72571243829901
 31
0.0
  0
LINE
  5
4B3
  8
0
 10
390.17005141786979
 20
318.72571128958413
 30
0.0
 11
390.17005141786979
 21
317.69043625788947
 31
0.0
  0
LINE
  5
4B4
  8
0
 10
390.17005141786979
 20
317.69043582326611
 30
0.0
 11
390.17005141786979
 21
315.89728531355343
 31
0.0
  0
LINE
  5
4B5
  8
0
 10
390.17005141786979
 20
315.89728376933931
 30
0.0
 11
390.17005141786979
 21
315.26161082316179
 31
0.0
  0
LINE
  5
4B6
  8
0
 10
390.17005141786979
 20
315.26161035379982
 30
0.0
 11
390.17005141786979
 21
314.86200913314332
 31
0.0
  0
LINE
  5
4B7
  8
0
 10
390.17005141786979
 20
314.86200793099999
 30
0.0
 11
390.17005141786979
 21
314.72571243829958
 31
0.0
  0
LINE
  5
4B8
  8
0
 10
390.17005141786979
 20
322.72571243829969
 30
0.0
 11
390.17005141786979
 21
322.58941811834001
 31
0.0
  0
LINE
  5
4B9
  8
0
 10
390.17005141786979
 20
322.5894157434559
 30
0.0
 11
390.17005141786979
 21
322.18981529554242
 31
0.0
  0
LINE
  5
4BA
  8
0
 10
390.17005141786979
 20
322.18981405343737
 30
0.0
 11
390.17005141786979
 21
319.76098967168349
 31
0.0
  0
LINE
  5
4BB
  8
0
 10
390.17005141786979
 20
319.76098861870969
 30
0.0
 11
390.17005141786979
 21
318.72571243829969
 31
0.0
  0
LINE
  5
4BC
  8
0
 10
335.04505141786967
 20
212.4132124383022
 30
0.0
 11
335.04505141786967
 21
212.66321243830271
 31
0.0
  0
LINE
  5
4BD
  8
0
 10
333.54505141786927
 20
212.66321243830271
 30
0.0
 11
333.54505141786927
 21
212.4132124383022
 31
0.0
  0
LINE
  5
4BE
  8
0
 10
302.9200514178695
 20
212.4132124383022
 30
0.0
 11
302.9200514178695
 21
212.66321243830271
 31
0.0
  0
LINE
  5
4BF
  8
0
 10
299.92005141786922
 20
212.66321243830271
 30
0.0
 11
299.92005141786922
 21
212.4132124383022
 31
0.0
  0
LINE
  5
4C0
  8
0
 10
335.04505141786927
 20
212.41321243830251
 30
0.0
 11
334.67005246188529
 21
212.41321243830251
 31
0.0
  0
LINE
  5
4C1
  8
0
 10
334.67005141786927
 20
212.41321243830251
 30
0.0
 11
334.48916712232318
 21
212.41321243830251
 31
0.0
  0
LINE
  5
4C2
  8
0
 10
334.48916570169621
 20
212.41321243830251
 30
0.0
 11
334.29505238253017
 21
212.41321243830251
 31
0.0
  0
LINE
  5
4C3
  8
0
 10
334.29505141786927
 20
212.41321243830251
 30
0.0
 11
333.64553236503099
 21
212.41321243830251
 31
0.0
  0
LINE
  5
4C4
  8
0
 10
333.64553122833928
 20
212.41321243830251
 30
0.0
 11
333.57060704815251
 21
212.41321243830251
 31
0.0
  0
LINE
  5
4C5
  8
0
 10
333.5706070091336
 20
212.41321243830251
 30
0.0
 11
333.54505141786927
 21
212.41321243830251
 31
0.0
  0
LINE
  5
4C6
  8
0
 10
302.92005141786927
 20
212.41321243830259
 30
0.0
 11
302.71908952354602
 21
212.41321243830259
 31
0.0
  0
LINE
  5
4C7
  8
0
 10
302.71908938160578
 20
212.41321243830259
 30
0.0
 11
302.17005350589562
 21
212.41321243830259
 31
0.0
  0
LINE
  5
4C8
  8
0
 10
302.17005141786927
 20
212.41321243830259
 30
0.0
 11
301.80828282677192
 21
212.41321243830259
 31
0.0
  0
LINE
  5
4C9
  8
0
 10
301.80827998552309
 20
212.41321243830259
 30
0.0
 11
301.42005334718652
 21
212.41321243830259
 31
0.0
  0
LINE
  5
4CA
  8
0
 10
301.42005141786927
 20
212.41321243830259
 30
0.0
 11
301.03182392974702
 21
212.41321243830259
 31
0.0
  0
LINE
  5
4CB
  8
0
 10
301.03182285021558
 20
212.41321243830259
 30
0.0
 11
300.12101331219259
 21
212.41321243830259
 31
0.0
  0
LINE
  5
4CC
  8
0
 10
300.12101103880292
 20
212.41321243830259
 30
0.0
 11
299.97116267843569
 21
212.41321243830259
 31
0.0
  0
LINE
  5
4CD
  8
0
 10
299.97116260038808
 20
212.41321243830259
 30
0.0
 11
299.92005141786939
 21
212.41321243830259
 31
0.0
  0
LINE
  5
4CE
  8
0
 10
309.4200514178695
 20
212.4132124383022
 30
0.0
 11
309.4200514178695
 21
212.66321243830271
 31
0.0
  0
LINE
  5
4CF
  8
0
 10
309.4200514178695
 20
212.41321243830259
 30
0.0
 11
309.28375472302582
 21
212.41321243830259
 31
0.0
  0
LINE
  5
4D0
  8
0
 10
309.2837530691113
 20
212.41321243830259
 30
0.0
 11
308.8841532639467
 21
212.41321243830259
 31
0.0
  0
LINE
  5
4D1
  8
0
 10
308.88415303300718
 20
212.41321243830259
 30
0.0
 11
308.24847987487078
 21
212.41321243830259
 31
0.0
  0
LINE
  5
4D2
  8
0
 10
308.24847854261571
 20
212.41321243830259
 30
0.0
 11
307.42005350589591
 21
212.41321243830259
 31
0.0
  0
LINE
  5
4D3
  8
0
 10
307.4200514178695
 20
212.41321243830259
 30
0.0
 11
306.45532784211781
 21
212.41321243830259
 31
0.0
  0
LINE
  5
4D4
  8
0
 10
306.45532759827961
 20
212.41321243830259
 30
0.0
 11
305.4200514178695
 21
212.41321243830259
 31
0.0
  0
LINE
  5
4D5
  8
0
 10
305.42004948856243
 20
212.41321243830259
 30
0.0
 11
302.89988097631817
 21
212.41321243830259
 31
0.0
  0
INSERT
  5
4F1
  8
0
  6
CONTINUOUS
  2
*X3
 10
0.0
 20
0.0
 30
0.0
1001
GRADIENTCOLOR1ACI
1070
     5
1001
GRADIENTCOLOR2ACI
1070
     2
1001
ACAD
1000
HATCH
1002
{
1070
    19
1000
NET
1040
12.0
1040
0.0
1000
ASC_BOUNDS
1070
     4
1070
     1
1070
     4
1005
3B6
1005
3B7
1005
3AA
1005
3B5
1070
     1
1070
     4
1005
3B0
1005
3B7
1005
3AE
1005
3B5
1070
     1
1070
     4
1005
3A8
1005
3B7
1005
3A6
1005
3B5
1070
     1
1070
     4
1005
3A3
1005
3B7
1005
3B4
1005
3B5
1000
ASC_SEEDPOINT
1011
483.27867569287241
1021
0.0
1031
0.0
1021
60.897525191152909
1031
0.0
1000
R14_HATCH_DATA
1000
4F1
1011
1.0
1021
0.0
1031
0.0
1021
0.0
1031
0.0
1011
0.0
1021
0.0
1031
0.0
1021
1.0
1031
0.0
1011
0.0
1021
0.0
1031
0.0
1021
0.0
1031
1.0
1040
0.0
1010
0.0
1020
0.0
1030
1.0
1000
NET
1070
     0
1070
     1
1071
        4
1071
        7
1070
     0
1070
     1
1071
        4
1040
494.31804395919471
1040
79.125004503757012
1040
471.88054395919511
1040
79.125004503756784
1040
471.8805439591959
1040
4.0000045037562302
1040
494.31804395919471
1040
4.0000045037564567
1071
        4
1005
3B5
1005
3B4
1005
3B7
1005
3A3
1071
        7
1070
     0
1070
     1
1071
        4
1040
560.31526593036892
1040
79.125004503757694
1040
526.31804395919551
1040
79.125004503757339
1040
526.31804395919551
1040
4.0000045037567977
1040
560.31526593036892
1040
4.0000045037571459
1071
        4
1005
3B5
1005
3A6
1005
3B7
1005
3A8
1071
        7
1070
     0
1070
     1
1071
        4
1040
626.32704361386709
1040
79.125004503758362
1040
592.3105295599421
1040
79.125004503758021
1040
592.3105295599421
1040
4.0000045037574727
1040
626.32704361386709
1040
4.0000045037578209
1071
        4
1005
3B5
1005
3AE
1005
3B7
1005
3B0
1071
        7
1070
     0
1070
     1
1071
        4
1040
680.75554395919505
1040
79.12500450375893
1040
658.31005927596482
1040
79.125004503758703
1040
658.31005927596482
1040
4.0000045037581478
1040
680.75554395919585
1040
4.000004503758376
1071
        4
1005
3B5
1005
3AA
1005
3B7
1005
3B6
1070
     1
1070
     1
1040
0.0
1040
12.0
1070
     0
1070
     2
1040
0.0
1040
0.0
1040
0.0
1040
0.0
1040
1.5
1070
     0
1040
1.5707963267948959
1040
0.0
1040
0.0
1040
-1.5
1040
0.0000000000000001
1070
     0
1040
0.1864200147640547
1071
        4
1040
483.27867569287241
1040
60.897525191152909
1040
0.0
1040
545.0134811715709
1040
55.118504507190771
1040
0.0
1040
602.8315759413897
1040
32.934522523991973
1040
0.0
1040
670.9077207213752
1040
32.934522523991973
1040
0.0
1002
}
  0
INSERT
  5
4FA
  8
0
  6
CONTINUOUS
  2
*X4
 10
0.0
 20
0.0
 30
0.0
1001
GRADIENTCOLOR1ACI
1070
     5
1001
GRADIENTCOLOR2ACI
1070
     2
1001
ACAD
1000
HATCH
1002
{
1070
    19
1000
ANSI31
1040
12.0
1040
2.3561944901923439
1000
ASC_BOUNDS
1070
     1
1070
     1
1070
     4
1005
49D
1005
49E
1005
49F
1005
4A0
1000
ASC_SEEDPOINT
1011
337.51322761499802
1021
0.0
1031
0.0
1021
369.99473229996698
1031
0.0
1000
R14_HATCH_DATA
1000
4FA
1011
1.0
1021
0.0
1031
0.0
1021
0.0
1031
0.0
1011
0.0
1021
0.0
1031
0.0
1021
1.0
1031
0.0
1011
0.0
1021
0.0
1031
0.0
1021
0.0
1031
1.0
1040
0.0
1010
0.0
1020
0.0
1030
1.0
1000
ANSI31
1070
     0
1070
     1
1071
        1
1071
        7
1070
     0
1070
     1
1071
        4
1040
388.29505141786962
1040
423.16321243830282
1040
298.29505141786967
1040
423.16321243830299
1040
298.29505141786922
1040
214.28821243830311
1040
388.29505141786922
1040
214.28821243830291
1071
        4
1005
4A0
1005
49F
1005
49E
1005
49D
1070
     1
1070
     1
1040
2.3561944901923439
1040
12.0
1070
     0
1070
     1
1040
3.1415926535897931
1040
0.0
1040
0.0
1040
-0.0000000000000002
1040
-1.5
1070
     0
1040
0.2999087696582595
1071
        1
1040
337.51322761499802
1040
369.99473229996698
1040
0.0
1002
}
  0
ENDSEC
  0
EOF
