  0
SECTION
  2
HEADER
  9
$ACADVER
  1
AC1009
  9
$INSBASE
 10
0.0
 20
0.0
 30
0.0
  9
$EXTMIN
 10
-0.0208230127943807
 20
-0.0129625184375755
 30
-0.0015258207003583
  9
$EXTMAX
 10
682.40137014957281
 20
447.55213255301248
 30
0.0000000349246037
  9
$LIMMIN
 10
0.0
 20
0.0
  9
$LIMMAX
 10
12.0
 20
9.0
  9
$ORTHOMODE
 70
     1
  9
$REGENMODE
 70
     1
  9
$FILLMODE
 70
     1
  9
$QTEXTMODE
 70
     0
  9
$MIRRTEXT
 70
     0
  9
$DRAGMODE
 70
     2
  9
$LTSCALE
 40
1.0
  9
$OSMODE
 70
    37
  9
$ATTMODE
 70
     1
  9
$TEXTSIZE
 40
0.2
  9
$TRACEWID
 40
0.05
  9
$TEXTSTYLE
  7
ROMANS
  9
$CLAYER
  8
0
  9
$CELTYPE
  6
BYLAYER
  9
$CECOLOR
 62
   256
  9
$DIMSCALE
 40
1.0
  9
$DIMASZ
 40
0.09375
  9
$DIMEXO
 40
0.0625
  9
$DIMDLI
 40
0.375
  9
$DIMRND
 40
0.0
  9
$DIMDLE
 40
0.0
  9
$DIMEXE
 40
0.03125
  9
$DIMTP
 40
0.0
  9
$DIMTM
 40
0.0
  9
$DIMTXT
 40
0.09375
  9
$DIMCEN
 40
0.09375
  9
$DIMTSZ
 40
0.0
  9
$DIMTOL
 70
     0
  9
$DIMLIM
 70
     0
  9
$DIMTIH
 70
     0
  9
$DIMTOH
 70
     0
  9
$DIMSE1
 70
     0
  9
$DIMSE2
 70
     0
  9
$DIMTAD
 70
     0
  9
$DIMZIN
 70
     0
  9
$DIMBLK
  1

  9
$DIMASO
 70
     1
  9
$DIMSHO
 70
     1
  9
$DIMPOST
  1

  9
$DIMAPOST
  1

  9
$DIMALT
 70
     0
  9
$DIMALTD
 70
     2
  9
$DIMALTF
 40
25.399999999999999
  9
$DIMLFAC
 40
1.0
  9
$DIMTOFL
 70
     0
  9
$DIMTVP
 40
0.0
  9
$DIMTIX
 70
     0
  9
$DIMSOXD
 70
     0
  9
$DIMSAH
 70
     0
  9
$DIMBLK1
  1

  9
$DIMBLK2
  1

  9
$DIMSTYLE
  2
BAC
  9
$DIMCLRD
 70
     0
  9
$DIMCLRE
 70
     6
  9
$DIMCLRT
 70
     0
  9
$DIMTFAC
 40
1.0
  9
$DIMGAP
 40
0.0625
  9
$LUNITS
 70
     5
  9
$LUPREC
 70
     6
  9
$SKETCHINC
 40
0.1
  9
$FILLETRAD
 40
0.5
  9
$AUNITS
 70
     0
  9
$AUPREC
 70
     0
  9
$MENU
  1
.
  9
$ELEVATION
 40
0.0
  9
$PELEVATION
 40
0.0
  9
$THICKNESS
 40
0.0
  9
$LIMCHECK
 70
     0
  9
$BLIPMODE
 70
     0
  9
$CHAMFERA
 40
0.5
  9
$CHAMFERB
 40
0.5
  9
$SKPOLY
 70
     0
  9
$TDCREATE
 40
2456834.6176485652
  9
$TDUPDATE
 40
2456834.6192660769
  9
$TDINDWG
 40
0.0016192245
  9
$TDUSRTIMER
 40
0.00161875
  9
$USRTIMER
 70
     1
  9
$ANGBASE
 50
0.0
  9
$ANGDIR
 70
     0
  9
$PDMODE
 70
     0
  9
$PDSIZE
 40
0.0
  9
$PLINEWID
 40
0.0
  9
$COORDS
 70
     1
  9
$SPLFRAME
 70
     0
  9
$SPLINETYPE
 70
     6
  9
$SPLINESEGS
 70
     8
  9
$ATTDIA
 70
     0
  9
$ATTREQ
 70
     1
  9
$HANDLING
 70
     1
  9
$HANDSEED
  5
AE1
  9
$SURFTAB1
 70
     6
  9
$SURFTAB2
 70
     6
  9
$SURFTYPE
 70
     6
  9
$SURFU
 70
     6
  9
$SURFV
 70
     6
  9
$UCSNAME
  2

  9
$UCSORG
 10
0.0
 20
0.0
 30
0.0
  9
$UCSXDIR
 10
1.0
 20
0.0
 30
0.0
  9
$UCSYDIR
 10
0.0
 20
1.0
 30
0.0
  9
$PUCSNAME
  2

  9
$PUCSORG
 10
0.0
 20
0.0
 30
0.0
  9
$PUCSXDIR
 10
1.0
 20
0.0
 30
0.0
  9
$PUCSYDIR
 10
0.0
 20
1.0
 30
0.0
  9
$USERI1
 70
     0
  9
$USERI2
 70
     0
  9
$USERI3
 70
     0
  9
$USERI4
 70
     0
  9
$USERI5
 70
     0
  9
$USERR1
 40
0.0
  9
$USERR2
 40
0.0
  9
$USERR3
 40
0.0
  9
$USERR4
 40
0.0
  9
$USERR5
 40
0.0
  9
$WORLDVIEW
 70
     1
  9
$SHADEDGE
 70
     3
  9
$SHADEDIF
 70
    70
  9
$TILEMODE
 70
     1
  9
$MAXACTVP
 70
    48
  9
$PLIMCHECK
 70
     0
  9
$PEXTMIN
 10
1.0000000000000000E+020
 20
1.0000000000000000E+020
 30
1.0000000000000000E+020
  9
$PEXTMAX
 10
-1.0000000000000000E+020
 20
-1.0000000000000000E+020
 30
-1.0000000000000000E+020
  9
$PLIMMIN
 10
0.0
 20
0.0
  9
$PLIMMAX
 10
12.0
 20
9.0
  9
$UNITMODE
 70
     0
  9
$VISRETAIN
 70
     1
  9
$PLINEGEN
 70
     0
  9
$PSLTSCALE
 70
     1
  0
ENDSEC
  0
SECTION
  2
TABLES
  0
TABLE
  2
VPORT
 70
     1
  0
VPORT
  2
*ACTIVE
 70
     0
 10
0.0
 20
0.0
 11
1.0
 21
1.0
 12
341.19027356838922
 22
223.76958501728751
 13
0.0
 23
0.0
 14
0.5
 24
0.5
 15
0.5
 25
0.5
 16
0.0
 26
0.0
 36
1.0
 17
0.0
 27
0.0
 37
0.0
 40
450.54224647990748
 41
1.7702552719200879
 42
50.0
 43
0.0
 44
0.0
 50
0.0
 51
0.0
 71
     0
 72
   100
 73
     1
 74
     1
 75
     0
 76
     0
 77
     0
 78
     0
  0
ENDTAB
  0
TABLE
  2
LTYPE
 70
    20
  0
LTYPE
  2
CONTINUOUS
 70
     0
  3
Solid line
 72
    65
 73
     0
 40
0.0
  0
LTYPE
  2
CENTER
 70
     0
  3
Center ____ _ ____ _ ____ _ ____ _ ____ _ ____
 72
    65
 73
     4
 40
2.0
 49
1.25
 49
-0.25
 49
0.25
 49
-0.25
  0
LTYPE
  2
CENTER2
 70
     0
  3
Center (.5x) ___ _ ___ _ ___ _ ___ _ ___ _ ___
 72
    65
 73
     4
 40
1.125
 49
0.75
 49
-0.125
 49
0.125
 49
-0.125
  0
LTYPE
  2
HIDDEN
 70
     0
  3
Hidden __ __ __ __ __ __ __ __ __ __ __ __ __ _
 72
    65
 73
     2
 40
0.375
 49
0.25
 49
-0.125
  0
LTYPE
  2
HIDDEN2
 70
     0
  3
Hidden (.5x) _ _ _ _ _ _ _ _ _ _ _ _ _ _ _ _ _
 72
    65
 73
     2
 40
0.1875
 49
0.125
 49
-0.0625
  0
LTYPE
  2
PHANTOM2
 70
     0
  3
Phantom (.5x) ___ _ _ ___ _ _ ___ _ _ ___ _ _
 72
    65
 73
     6
 40
1.25
 49
0.625
 49
-0.125
 49
0.125
 49
-0.125
 49
0.125
 49
-0.125
  0
LTYPE
  2
AMCONSTR
 70
     0
  3
_______________________
 72
    65
 73
     2
 40
9999.0
 49
9999.0
 49
0.0
  0
LTYPE
  2
AMZIGZAG2
 70
     0
  3
/\/-/\/-/\/-/\/-/\/-/\/
 72
    65
 73
     2
 40
0.4401
 49
0.0001
 49
-0.4400000000000001
  0
LTYPE
  2
ACANSTGB
 70
     0
  3
__ . . __ . .
 72
    65
 73
     6
 40
0.35433070866
 49
0.15748031496
 49
-0.03937007874
 49
0.03937007874
 49
-0.03937007874
 49
0.03937007874
 49
-0.03937007874
  0
LTYPE
  2
ACANSTGL
 70
     0
  3
_ _ _ _ _
 72
    65
 73
     2
 40
0.11811023622
 49
0.07874015748
 49
-0.03937007874
  0
ENDTAB
  0
TABLE
  2
LAYER
 70
     8
  0
LAYER
  2
0
 70
     0
 62
     7
  6
CONTINUOUS
  0
ENDTAB
  0
TABLE
  2
STYLE
 70
    11
  0
STYLE
  2
STANDARD
 70
     0
 40
0.0
 41
1.0
 50
0.0
 71
     0
 42
0.2
  3
txt
  4

  0
STYLE
  2
ROMANS
 70
     0
 40
0.0
 41
0.75
 50
0.0
 71
     0
 42
0.2
  3
romans.shx
  4

  0
STYLE
  2

 70
     1
 40
0.0
 41
1.0
 50
0.0
 71
     0
 42
0.2
  3
genltshp.shx
  4

  0
STYLE
  2
ACANSGDT
 70
     0
 40
0.0
 41
1.0
 50
0.0
 71
     0
 42
0.2
  3
amgdt.shx
  4

  0
ENDTAB
  0
TABLE
  2
VIEW
 70
     0
  0
ENDTAB
  0
TABLE
  2
UCS
 70
     0
  0
ENDTAB
  0
TABLE
  2
APPID
 70
    15
  0
APPID
  2
ACAD
 70
     0
  0
APPID
  2
ACAD_MLEADERVER
 70
     0
  0
APPID
  2
ACAD_DSTYLE_DIMJAG
 70
     0
  0
APPID
  2
ACAD_DSTYLE_DIMTALN
 70
     0
  0
APPID
  2
ACAD_PSEXT
 70
     0
  0
APPID
  2
ACADANNOPO
 70
     0
  0
APPID
  2
MCAD_NO_VIS
 70
     0
  0
APPID
  2
ACAD_TEMP_GRAPHIC
 70
     0
  0
APPID
  2
ACATTRIBSERVICES
 70
     0
  0
APPID
  2
DESIGNERASSEMBLIES
 70
     0
  0
APPID
  2
ACAD_DSTYLE_DIMBREAK
 70
     0
  0
APPID
  2
ACAD_NAV_VCDISPLAY
 70
     0
  0
APPID
  2
GRADIENTCOLOR1ACI
 70
     0
  0
APPID
  2
GRADIENTCOLOR2ACI
 70
     0
  0
APPID
  2
ACAD_EXEMPT_FROM_CAD_STANDARDS
 70
     0
  0
ENDTAB
  0
TABLE
  2
DIMSTYLE
 70
    14
  0
DIMSTYLE
  2
BAC
 70
     0
  3

  4

  5

  6

  7

 40
1.0
 41
0.09375
 42
0.0625
 43
0.375
 44
0.03125
 45
0.0
 46
0.0
 47
0.0
 48
0.0
140
0.09375
141
0.09375
142
0.0
143
25.399999999999999
144
1.0
145
0.0
146
1.0
147
0.0625
 71
     0
 72
     0
 73
     0
 74
     0
 75
     0
 76
     0
 77
     0
 78
     0
170
     0
171
     2
172
     0
173
     0
174
     0
175
     0
176
     0
177
     6
178
     0
  0
DIMSTYLE
  2
AM_ANSI
 70
     0
  3

  4
mm
  5

  6

  7

 40
1.0
 41
0.12
 42
0.05
 43
0.5
 44
0.1
 45
0.0
 46
0.0
 47
0.1
 48
0.1
140
0.12
141
0.0
142
0.0
143
25.399999999999999
144
1.0
145
0.0
146
0.71
147
0.06
 71
     0
 72
     0
 73
     1
 74
     1
 75
     0
 76
     0
 77
     0
 78
     7
170
     0
171
     2
172
     0
173
     0
174
     0
175
     0
176
   256
177
   256
178
     2
  0
DIMSTYLE
  2
AM_ANSI$3
 70
     0
  3

  4
mm
  5

  6

  7

 40
1.0
 41
0.12
 42
0.05
 43
0.5
 44
0.1
 45
0.0
 46
0.0
 47
0.1
 48
0.1
140
0.12
141
0.0
142
0.0
143
25.399999999999999
144
1.0
145
0.0
146
0.71
147
0.06
 71
     0
 72
     0
 73
     1
 74
     1
 75
     0
 76
     0
 77
     0
 78
     7
170
     0
171
     2
172
     0
173
     0
174
     0
175
     0
176
   256
177
   256
178
     2
  0
DIMSTYLE
  2
AM_ANSI$4
 70
     0
  3

  4
mm
  5

  6

  7

 40
1.0
 41
0.12
 42
0.05
 43
0.5
 44
0.1
 45
0.0
 46
0.0
 47
0.1
 48
0.1
140
0.12
141
0.0
142
0.0
143
25.399999999999999
144
1.0
145
0.0
146
0.71
147
0.06
 71
     0
 72
     0
 73
     1
 74
     1
 75
     0
 76
     0
 77
     0
 78
     7
170
     0
171
     2
172
     0
173
     0
174
     0
175
     0
176
   256
177
   256
178
     2
  0
DIMSTYLE
  2
AM_ANSI$7
 70
     0
  3

  4
mm
  5

  6

  7

 40
1.0
 41
0.12
 42
0.05
 43
0.5
 44
0.1
 45
0.0
 46
0.0
 47
0.1
 48
0.1
140
0.12
141
0.0
142
0.0
143
25.399999999999999
144
1.0
145
0.0
146
0.71
147
0.06
 71
     0
 72
     0
 73
     1
 74
     1
 75
     0
 76
     0
 77
     0
 78
     7
170
     0
171
     2
172
     0
173
     0
174
     0
175
     0
176
   256
177
   256
178
     2
  0
DIMSTYLE
  2
AM_ANSI$SF
 70
     0
  3

  4
mm
  5

  6

  7

 40
1.0
 41
0.12
 42
0.05
 43
0.5
 44
0.1
 45
0.0
 46
0.0
 47
0.1
 48
0.1
140
0.12
141
0.0
142
0.0
143
25.399999999999999
144
1.0
145
0.0
146
0.71
147
0.06
 71
     0
 72
     0
 73
     1
 74
     1
 75
     1
 76
     1
 77
     0
 78
     7
170
     0
171
     2
172
     0
173
     0
174
     0
175
     0
176
   256
177
   256
178
     2
  0
DIMSTYLE
  2
AM_ANSI$SH
 70
     0
  3

  4
mm
  5

  6
GENAXEH
  7

 40
1.0
 41
0.12
 42
0.05
 43
0.5
 44
0.1
 45
0.0
 46
0.0
 47
0.1
 48
0.1
140
0.12
141
0.0
142
0.0
143
25.399999999999999
144
1.0
145
0.0
146
0.71
147
0.06
 71
     0
 72
     0
 73
     1
 74
     1
 75
     1
 76
     1
 77
     0
 78
     7
170
     0
171
     2
172
     0
173
     1
174
     0
175
     0
176
   256
177
   256
178
     2
  0
DIMSTYLE
  2
STANDARD
 70
     0
  3

  4

  5

  6

  7

 40
1.0
 41
0.18
 42
0.0625
 43
0.38
 44
0.18
 45
0.0
 46
0.0
 47
0.0
 48
0.0
140
0.18
141
0.09
142
0.0
143
25.399999999999999
144
1.0
145
0.0
146
1.0
147
0.09
 71
     0
 72
     0
 73
     1
 74
     1
 75
     0
 76
     0
 77
     0
 78
     0
170
     0
171
     2
172
     0
173
     0
174
     0
175
     0
176
     0
177
     0
178
     0
  0
ENDTAB
  0
ENDSEC
  0
SECTION
  2
BLOCKS
  0
BLOCK
  8
0
  2
$MODEL_SPACE
 70
     0
 10
0.0
 20
0.0
 30
0.0
  3
$MODEL_SPACE
  1

  0
ENDBLK
  5
1A
  8
0
  0
BLOCK
 67
     1
  8
0
  2
$PAPER_SPACE
 70
     0
 10
0.0
 20
0.0
 30
0.0
  3
$PAPER_SPACE
  1

  0
ENDBLK
  5
17
 67
     1
  8
0
  0
BLOCK
  8
0
  2
*U0
 70
     1
 10
0.0
 20
0.0
 30
0.0
  3
*U0
  1

  0
ENDBLK
  5
17A
  8
0
  0
BLOCK
  8
0
  2
GENAXEH
 70
     0
 10
0.0
 20
0.0
 30
0.0
  3
GENAXEH
  1

  0
LINE
  5
1AD
  8
0
 10
-1.0
 20
0.0
 30
0.0
 11
1.0
 21
0.0
 31
0.0
  0
ENDBLK
  5
1AF
  8
0
  0
BLOCK
  8
0
  2
*X4
 70
     1
 10
0.0
 20
0.0
 30
0.0
  3
*X4
  1

  0
LINE
  5
939
  8
0
 62
     0
 10
679.49999999999989
 20
4.0000045037583627
 30
0.0
 11
679.49999999999989
 21
79.125004503758916
 31
0.0
  0
LINE
  5
93A
  8
0
 62
     0
 10
678.0
 20
4.0000045037583476
 30
0.0
 11
678.0
 21
79.125004503758902
 31
0.0
  0
LINE
  5
93B
  8
0
 62
     0
 10
676.5
 20
4.0000045037583316
 30
0.0
 11
676.5
 21
79.125004503758888
 31
0.0
  0
LINE
  5
93C
  8
0
 62
     0
 10
675.0
 20
4.0000045037583174
 30
0.0
 11
675.0
 21
79.125004503758873
 31
0.0
  0
LINE
  5
93D
  8
0
 62
     0
 10
673.5
 20
4.0000045037583023
 30
0.0
 11
673.5
 21
79.125004503758859
 31
0.0
  0
LINE
  5
93E
  8
0
 62
     0
 10
672.0
 20
4.0000045037582872
 30
0.0
 11
672.0
 21
79.125004503758845
 31
0.0
  0
LINE
  5
93F
  8
0
 62
     0
 10
670.5
 20
4.0000045037582721
 30
0.0
 11
670.5
 21
79.125004503758831
 31
0.0
  0
LINE
  5
940
  8
0
 62
     0
 10
669.0
 20
4.000004503758257
 30
0.0
 11
669.0
 21
79.125004503758817
 31
0.0
  0
LINE
  5
941
  8
0
 62
     0
 10
667.49999999999989
 20
4.000004503758241
 30
0.0
 11
667.49999999999989
 21
79.125004503758802
 31
0.0
  0
LINE
  5
942
  8
0
 62
     0
 10
666.0
 20
4.0000045037582259
 30
0.0
 11
666.0
 21
79.125004503758774
 31
0.0
  0
LINE
  5
943
  8
0
 62
     0
 10
664.5
 20
4.0000045037582108
 30
0.0
 11
664.5
 21
79.12500450375876
 31
0.0
  0
LINE
  5
944
  8
0
 62
     0
 10
663.0
 20
4.0000045037581948
 30
0.0
 11
663.0
 21
79.125004503758745
 31
0.0
  0
LINE
  5
945
  8
0
 62
     0
 10
661.5
 20
4.0000045037581797
 30
0.0
 11
661.5
 21
79.125004503758731
 31
0.0
  0
LINE
  5
946
  8
0
 62
     0
 10
660.0
 20
4.0000045037581646
 30
0.0
 11
660.0
 21
79.125004503758717
 31
0.0
  0
LINE
  5
947
  8
0
 62
     0
 10
658.49999999999989
 20
4.0000045037581504
 30
0.0
 11
658.49999999999989
 21
79.125004503758703
 31
0.0
  0
LINE
  5
948
  8
0
 62
     0
 10
625.49999999999989
 20
4.000004503757812
 30
0.0
 11
625.49999999999989
 21
79.125004503758333
 31
0.0
  0
LINE
  5
949
  8
0
 62
     0
 10
624.0
 20
4.0000045037577969
 30
0.0
 11
624.0
 21
79.125004503758333
 31
0.0
  0
LINE
  5
94A
  8
0
 62
     0
 10
622.5
 20
4.0000045037577818
 30
0.0
 11
622.5
 21
79.125004503758319
 31
0.0
  0
LINE
  5
94B
  8
0
 62
     0
 10
621.0
 20
4.0000045037577667
 30
0.0
 11
621.0
 21
79.125004503758305
 31
0.0
  0
LINE
  5
94C
  8
0
 62
     0
 10
619.5
 20
4.0000045037577507
 30
0.0
 11
619.5
 21
79.125004503758291
 31
0.0
  0
LINE
  5
94D
  8
0
 62
     0
 10
618.0
 20
4.0000045037577356
 30
0.0
 11
618.0
 21
79.125004503758277
 31
0.0
  0
LINE
  5
94E
  8
0
 62
     0
 10
616.5
 20
4.0000045037577214
 30
0.0
 11
616.5
 21
79.125004503758262
 31
0.0
  0
LINE
  5
94F
  8
0
 62
     0
 10
615.0
 20
4.0000045037577054
 30
0.0
 11
615.0
 21
79.125004503758248
 31
0.0
  0
LINE
  5
950
  8
0
 62
     0
 10
613.49999999999989
 20
4.0000045037576903
 30
0.0
 11
613.49999999999989
 21
79.125004503758234
 31
0.0
  0
LINE
  5
951
  8
0
 62
     0
 10
612.0
 20
4.0000045037576752
 30
0.0
 11
612.0
 21
79.12500450375822
 31
0.0
  0
LINE
  5
952
  8
0
 62
     0
 10
610.5
 20
4.0000045037576601
 30
0.0
 11
610.5
 21
79.125004503758205
 31
0.0
  0
LINE
  5
953
  8
0
 62
     0
 10
609.0
 20
4.0000045037576442
 30
0.0
 11
609.0
 21
79.125004503758191
 31
0.0
  0
LINE
  5
954
  8
0
 62
     0
 10
607.5
 20
4.0000045037576291
 30
0.0
 11
607.5
 21
79.125004503758177
 31
0.0
  0
LINE
  5
955
  8
0
 62
     0
 10
606.0
 20
4.0000045037576131
 30
0.0
 11
606.0
 21
79.125004503758163
 31
0.0
  0
LINE
  5
956
  8
0
 62
     0
 10
604.49999999999989
 20
4.0000045037575971
 30
0.0
 11
604.49999999999989
 21
79.125004503758149
 31
0.0
  0
LINE
  5
957
  8
0
 62
     0
 10
603.0
 20
4.000004503757582
 30
0.0
 11
603.0
 21
79.125004503758134
 31
0.0
  0
LINE
  5
958
  8
0
 62
     0
 10
601.5
 20
4.0000045037575669
 30
0.0
 11
601.5
 21
79.125004503758106
 31
0.0
  0
LINE
  5
959
  8
0
 62
     0
 10
600.0
 20
4.0000045037575518
 30
0.0
 11
600.0
 21
79.125004503758092
 31
0.0
  0
LINE
  5
95A
  8
0
 62
     0
 10
598.5
 20
4.0000045037575358
 30
0.0
 11
598.5
 21
79.125004503758078
 31
0.0
  0
LINE
  5
95B
  8
0
 62
     0
 10
597.0
 20
4.0000045037575207
 30
0.0
 11
597.0
 21
79.125004503758063
 31
0.0
  0
LINE
  5
95C
  8
0
 62
     0
 10
595.5
 20
4.0000045037575056
 30
0.0
 11
595.5
 21
79.125004503758049
 31
0.0
  0
LINE
  5
95D
  8
0
 62
     0
 10
594.0
 20
4.0000045037574896
 30
0.0
 11
594.0
 21
79.125004503758035
 31
0.0
  0
LINE
  5
95E
  8
0
 62
     0
 10
592.49999999999989
 20
4.0000045037574754
 30
0.0
 11
592.49999999999989
 21
79.125004503758021
 31
0.0
  0
LINE
  5
95F
  8
0
 62
     0
 10
559.49999999999989
 20
4.0000045037571379
 30
0.0
 11
559.49999999999989
 21
79.12500450375768
 31
0.0
  0
LINE
  5
960
  8
0
 62
     0
 10
558.0
 20
4.0000045037571219
 30
0.0
 11
558.0
 21
79.125004503757665
 31
0.0
  0
LINE
  5
961
  8
0
 62
     0
 10
556.5
 20
4.0000045037571068
 30
0.0
 11
556.5
 21
79.125004503757651
 31
0.0
  0
LINE
  5
962
  8
0
 62
     0
 10
555.0
 20
4.0000045037570917
 30
0.0
 11
555.0
 21
79.125004503757637
 31
0.0
  0
LINE
  5
963
  8
0
 62
     0
 10
553.5
 20
4.0000045037570757
 30
0.0
 11
553.5
 21
79.125004503757623
 31
0.0
  0
LINE
  5
964
  8
0
 62
     0
 10
552.0
 20
4.0000045037570606
 30
0.0
 11
552.0
 21
79.125004503757609
 31
0.0
  0
LINE
  5
965
  8
0
 62
     0
 10
550.49999999999989
 20
4.0000045037570464
 30
0.0
 11
550.49999999999989
 21
79.125004503757594
 31
0.0
  0
LINE
  5
966
  8
0
 62
     0
 10
549.0
 20
4.0000045037570313
 30
0.0
 11
549.0
 21
79.12500450375758
 31
0.0
  0
LINE
  5
967
  8
0
 62
     0
 10
547.5
 20
4.0000045037570153
 30
0.0
 11
547.5
 21
79.125004503757566
 31
0.0
  0
LINE
  5
968
  8
0
 62
     0
 10
546.0
 20
4.0000045037570002
 30
0.0
 11
546.0
 21
79.125004503757538
 31
0.0
  0
LINE
  5
969
  8
0
 62
     0
 10
544.5
 20
4.0000045037569851
 30
0.0
 11
544.5
 21
79.125004503757523
 31
0.0
  0
LINE
  5
96A
  8
0
 62
     0
 10
543.0
 20
4.0000045037569691
 30
0.0
 11
543.0
 21
79.125004503757509
 31
0.0
  0
LINE
  5
96B
  8
0
 62
     0
 10
541.5
 20
4.000004503756954
 30
0.0
 11
541.5
 21
79.125004503757495
 31
0.0
  0
LINE
  5
96C
  8
0
 62
     0
 10
540.0
 20
4.0000045037569381
 30
0.0
 11
540.0
 21
79.125004503757481
 31
0.0
  0
LINE
  5
96D
  8
0
 62
     0
 10
538.49999999999989
 20
4.0000045037569221
 30
0.0
 11
538.49999999999989
 21
79.125004503757467
 31
0.0
  0
LINE
  5
96E
  8
0
 62
     0
 10
537.0
 20
4.000004503756907
 30
0.0
 11
537.0
 21
79.125004503757452
 31
0.0
  0
LINE
  5
96F
  8
0
 62
     0
 10
535.5
 20
4.0000045037568919
 30
0.0
 11
535.5
 21
79.125004503757438
 31
0.0
  0
LINE
  5
970
  8
0
 62
     0
 10
534.0
 20
4.0000045037568768
 30
0.0
 11
534.0
 21
79.125004503757424
 31
0.0
  0
LINE
  5
971
  8
0
 62
     0
 10
532.5
 20
4.0000045037568608
 30
0.0
 11
532.5
 21
79.12500450375741
 31
0.0
  0
LINE
  5
972
  8
0
 62
     0
 10
531.0
 20
4.0000045037568457
 30
0.0
 11
531.0
 21
79.125004503757381
 31
0.0
  0
LINE
  5
973
  8
0
 62
     0
 10
529.49999999999989
 20
4.0000045037568306
 30
0.0
 11
529.49999999999989
 21
79.125004503757367
 31
0.0
  0
LINE
  5
974
  8
0
 62
     0
 10
528.0
 20
4.0000045037568146
 30
0.0
 11
528.0
 21
79.125004503757353
 31
0.0
  0
LINE
  5
975
  8
0
 62
     0
 10
526.49999999999989
 20
4.0000045037568004
 30
0.0
 11
526.49999999999989
 21
79.125004503757339
 31
0.0
  0
LINE
  5
976
  8
0
 62
     0
 10
493.5
 20
4.0000045037564487
 30
0.0
 11
493.5
 21
79.125004503756983
 31
0.0
  0
LINE
  5
977
  8
0
 62
     0
 10
492.0
 20
4.0000045037564336
 30
0.0
 11
492.0
 21
79.125004503756983
 31
0.0
  0
LINE
  5
978
  8
0
 62
     0
 10
490.5
 20
4.0000045037564176
 30
0.0
 11
490.5
 21
79.125004503756969
 31
0.0
  0
LINE
  5
979
  8
0
 62
     0
 10
489.0
 20
4.0000045037564034
 30
0.0
 11
489.0
 21
79.125004503756955
 31
0.0
  0
LINE
  5
97A
  8
0
 62
     0
 10
487.5
 20
4.0000045037563883
 30
0.0
 11
487.5
 21
79.125004503756941
 31
0.0
  0
LINE
  5
97B
  8
0
 62
     0
 10
486.0
 20
4.0000045037563732
 30
0.0
 11
486.0
 21
79.125004503756927
 31
0.0
  0
LINE
  5
97C
  8
0
 62
     0
 10
484.49999999999989
 20
4.0000045037563581
 30
0.0
 11
484.49999999999989
 21
79.125004503756912
 31
0.0
  0
LINE
  5
97D
  8
0
 62
     0
 10
483.0
 20
4.0000045037563421
 30
0.0
 11
483.0
 21
79.125004503756898
 31
0.0
  0
LINE
  5
97E
  8
0
 62
     0
 10
481.5
 20
4.000004503756327
 30
0.0
 11
481.5
 21
79.125004503756884
 31
0.0
  0
LINE
  5
97F
  8
0
 62
     0
 10
480.0
 20
4.0000045037563119
 30
0.0
 11
480.0
 21
79.12500450375687
 31
0.0
  0
LINE
  5
980
  8
0
 62
     0
 10
478.5
 20
4.0000045037562968
 30
0.0
 11
478.5
 21
79.125004503756855
 31
0.0
  0
LINE
  5
981
  8
0
 62
     0
 10
477.0
 20
4.0000045037562808
 30
0.0
 11
477.0
 21
79.125004503756841
 31
0.0
  0
LINE
  5
982
  8
0
 62
     0
 10
475.49999999999989
 20
4.0000045037562657
 30
0.0
 11
475.49999999999989
 21
79.125004503756827
 31
0.0
  0
LINE
  5
983
  8
0
 62
     0
 10
474.0
 20
4.0000045037562506
 30
0.0
 11
474.0
 21
79.125004503756813
 31
0.0
  0
LINE
  5
984
  8
0
 62
     0
 10
472.5
 20
4.0000045037562364
 30
0.0
 11
472.5
 21
79.125004503756784
 31
0.0
  0
LINE
  5
985
  8
0
 62
     0
 10
592.3105295599421
 20
4.5
 30
0.0
 11
626.32704361386709
 21
4.5
 31
0.0
  0
LINE
  5
986
  8
0
 62
     0
 10
526.31804395919551
 20
4.5
 30
0.0
 11
560.31526593036892
 21
4.5
 31
0.0
  0
LINE
  5
987
  8
0
 62
     0
 10
658.31005927596482
 20
4.5
 30
0.0
 11
680.75554395919585
 21
4.5
 31
0.0
  0
LINE
  5
988
  8
0
 62
     0
 10
471.8805439591959
 20
4.5
 30
0.0
 11
494.31804395919471
 21
4.5
 31
0.0
  0
LINE
  5
989
  8
0
 62
     0
 10
592.3105295599421
 20
6.0
 30
0.0
 11
626.32704361386709
 21
6.0
 31
0.0
  0
LINE
  5
98A
  8
0
 62
     0
 10
526.31804395919551
 20
6.0
 30
0.0
 11
560.31526593036892
 21
6.0
 31
0.0
  0
LINE
  5
98B
  8
0
 62
     0
 10
658.31005927596482
 20
6.0
 30
0.0
 11
680.75554395919585
 21
6.0
 31
0.0
  0
LINE
  5
98C
  8
0
 62
     0
 10
471.8805439591959
 20
6.0
 30
0.0
 11
494.31804395919471
 21
6.0
 31
0.0
  0
LINE
  5
98D
  8
0
 62
     0
 10
592.3105295599421
 20
7.5
 30
0.0
 11
626.32704361386709
 21
7.5
 31
0.0
  0
LINE
  5
98E
  8
0
 62
     0
 10
526.31804395919551
 20
7.5
 30
0.0
 11
560.31526593036892
 21
7.5
 31
0.0
  0
LINE
  5
98F
  8
0
 62
     0
 10
658.31005927596482
 20
7.5
 30
0.0
 11
680.75554395919585
 21
7.5
 31
0.0
  0
LINE
  5
990
  8
0
 62
     0
 10
471.88054395919579
 20
7.5
 30
0.0
 11
494.31804395919471
 21
7.5
 31
0.0
  0
LINE
  5
991
  8
0
 62
     0
 10
592.3105295599421
 20
9.0
 30
0.0
 11
626.32704361386709
 21
9.0
 31
0.0
  0
LINE
  5
992
  8
0
 62
     0
 10
526.31804395919551
 20
9.0
 30
0.0
 11
560.31526593036892
 21
9.0
 31
0.0
  0
LINE
  5
993
  8
0
 62
     0
 10
658.31005927596482
 20
9.0
 30
0.0
 11
680.75554395919585
 21
9.0
 31
0.0
  0
LINE
  5
994
  8
0
 62
     0
 10
471.88054395919579
 20
9.0
 30
0.0
 11
494.31804395919471
 21
9.0
 31
0.0
  0
LINE
  5
995
  8
0
 62
     0
 10
592.3105295599421
 20
10.5
 30
0.0
 11
626.32704361386709
 21
10.5
 31
0.0
  0
LINE
  5
996
  8
0
 62
     0
 10
526.31804395919551
 20
10.5
 30
0.0
 11
560.31526593036892
 21
10.5
 31
0.0
  0
LINE
  5
997
  8
0
 62
     0
 10
658.31005927596482
 20
10.5
 30
0.0
 11
680.75554395919573
 21
10.5
 31
0.0
  0
LINE
  5
998
  8
0
 62
     0
 10
471.88054395919579
 20
10.5
 30
0.0
 11
494.31804395919471
 21
10.5
 31
0.0
  0
LINE
  5
999
  8
0
 62
     0
 10
592.3105295599421
 20
12.0
 30
0.0
 11
626.32704361386709
 21
12.0
 31
0.0
  0
LINE
  5
99A
  8
0
 62
     0
 10
526.31804395919551
 20
12.0
 30
0.0
 11
560.31526593036892
 21
12.0
 31
0.0
  0
LINE
  5
99B
  8
0
 62
     0
 10
658.31005927596482
 20
12.0
 30
0.0
 11
680.75554395919573
 21
12.0
 31
0.0
  0
LINE
  5
99C
  8
0
 62
     0
 10
471.88054395919579
 20
12.0
 30
0.0
 11
494.31804395919471
 21
12.0
 31
0.0
  0
LINE
  5
99D
  8
0
 62
     0
 10
592.3105295599421
 20
13.5
 30
0.0
 11
626.32704361386709
 21
13.5
 31
0.0
  0
LINE
  5
99E
  8
0
 62
     0
 10
526.31804395919551
 20
13.5
 30
0.0
 11
560.31526593036892
 21
13.5
 31
0.0
  0
LINE
  5
99F
  8
0
 62
     0
 10
658.31005927596482
 20
13.5
 30
0.0
 11
680.75554395919573
 21
13.5
 31
0.0
  0
LINE
  5
9A0
  8
0
 62
     0
 10
471.88054395919579
 20
13.5
 30
0.0
 11
494.31804395919471
 21
13.5
 31
0.0
  0
LINE
  5
9A1
  8
0
 62
     0
 10
592.3105295599421
 20
15.0
 30
0.0
 11
626.32704361386709
 21
15.0
 31
0.0
  0
LINE
  5
9A2
  8
0
 62
     0
 10
526.31804395919551
 20
15.0
 30
0.0
 11
560.31526593036892
 21
15.0
 31
0.0
  0
LINE
  5
9A3
  8
0
 62
     0
 10
658.31005927596482
 20
15.0
 30
0.0
 11
680.75554395919573
 21
15.0
 31
0.0
  0
LINE
  5
9A4
  8
0
 62
     0
 10
471.88054395919579
 20
15.0
 30
0.0
 11
494.31804395919471
 21
15.0
 31
0.0
  0
LINE
  5
9A5
  8
0
 62
     0
 10
592.3105295599421
 20
16.5
 30
0.0
 11
626.32704361386709
 21
16.5
 31
0.0
  0
LINE
  5
9A6
  8
0
 62
     0
 10
526.31804395919551
 20
16.5
 30
0.0
 11
560.31526593036892
 21
16.5
 31
0.0
  0
LINE
  5
9A7
  8
0
 62
     0
 10
658.31005927596482
 20
16.5
 30
0.0
 11
680.75554395919573
 21
16.5
 31
0.0
  0
LINE
  5
9A8
  8
0
 62
     0
 10
471.88054395919579
 20
16.5
 30
0.0
 11
494.31804395919471
 21
16.5
 31
0.0
  0
LINE
  5
9A9
  8
0
 62
     0
 10
592.3105295599421
 20
18.0
 30
0.0
 11
626.32704361386709
 21
18.0
 31
0.0
  0
LINE
  5
9AA
  8
0
 62
     0
 10
526.31804395919551
 20
18.0
 30
0.0
 11
560.31526593036892
 21
18.0
 31
0.0
  0
LINE
  5
9AB
  8
0
 62
     0
 10
658.31005927596482
 20
18.0
 30
0.0
 11
680.75554395919573
 21
18.0
 31
0.0
  0
LINE
  5
9AC
  8
0
 62
     0
 10
471.88054395919579
 20
18.0
 30
0.0
 11
494.31804395919471
 21
18.0
 31
0.0
  0
LINE
  5
9AD
  8
0
 62
     0
 10
592.3105295599421
 20
19.5
 30
0.0
 11
626.32704361386709
 21
19.5
 31
0.0
  0
LINE
  5
9AE
  8
0
 62
     0
 10
526.31804395919551
 20
19.5
 30
0.0
 11
560.31526593036892
 21
19.5
 31
0.0
  0
LINE
  5
9AF
  8
0
 62
     0
 10
658.31005927596482
 20
19.5
 30
0.0
 11
680.75554395919573
 21
19.5
 31
0.0
  0
LINE
  5
9B0
  8
0
 62
     0
 10
471.88054395919579
 20
19.5
 30
0.0
 11
494.31804395919471
 21
19.5
 31
0.0
  0
LINE
  5
9B1
  8
0
 62
     0
 10
592.3105295599421
 20
21.0
 30
0.0
 11
626.32704361386709
 21
21.0
 31
0.0
  0
LINE
  5
9B2
  8
0
 62
     0
 10
526.31804395919551
 20
21.0
 30
0.0
 11
560.31526593036892
 21
21.0
 31
0.0
  0
LINE
  5
9B3
  8
0
 62
     0
 10
658.31005927596482
 20
21.0
 30
0.0
 11
680.75554395919562
 21
21.0
 31
0.0
  0
LINE
  5
9B4
  8
0
 62
     0
 10
471.88054395919579
 20
21.0
 30
0.0
 11
494.31804395919471
 21
21.0
 31
0.0
  0
LINE
  5
9B5
  8
0
 62
     0
 10
592.3105295599421
 20
22.5
 30
0.0
 11
626.32704361386709
 21
22.5
 31
0.0
  0
LINE
  5
9B6
  8
0
 62
     0
 10
526.31804395919551
 20
22.5
 30
0.0
 11
560.31526593036892
 21
22.5
 31
0.0
  0
LINE
  5
9B7
  8
0
 62
     0
 10
658.31005927596482
 20
22.5
 30
0.0
 11
680.75554395919562
 21
22.5
 31
0.0
  0
LINE
  5
9B8
  8
0
 62
     0
 10
471.88054395919579
 20
22.5
 30
0.0
 11
494.31804395919471
 21
22.5
 31
0.0
  0
LINE
  5
9B9
  8
0
 62
     0
 10
592.3105295599421
 20
24.0
 30
0.0
 11
626.32704361386709
 21
24.0
 31
0.0
  0
LINE
  5
9BA
  8
0
 62
     0
 10
526.31804395919551
 20
24.0
 30
0.0
 11
560.31526593036892
 21
24.0
 31
0.0
  0
LINE
  5
9BB
  8
0
 62
     0
 10
658.31005927596482
 20
24.0
 30
0.0
 11
680.75554395919562
 21
24.0
 31
0.0
  0
LINE
  5
9BC
  8
0
 62
     0
 10
471.88054395919568
 20
24.0
 30
0.0
 11
494.31804395919471
 21
24.0
 31
0.0
  0
LINE
  5
9BD
  8
0
 62
     0
 10
592.3105295599421
 20
25.5
 30
0.0
 11
626.32704361386709
 21
25.5
 31
0.0
  0
LINE
  5
9BE
  8
0
 62
     0
 10
526.31804395919551
 20
25.5
 30
0.0
 11
560.31526593036892
 21
25.5
 31
0.0
  0
LINE
  5
9BF
  8
0
 62
     0
 10
658.31005927596482
 20
25.5
 30
0.0
 11
680.75554395919562
 21
25.5
 31
0.0
  0
LINE
  5
9C0
  8
0
 62
     0
 10
471.88054395919568
 20
25.5
 30
0.0
 11
494.31804395919471
 21
25.5
 31
0.0
  0
LINE
  5
9C1
  8
0
 62
     0
 10
592.3105295599421
 20
27.0
 30
0.0
 11
626.32704361386709
 21
27.0
 31
0.0
  0
LINE
  5
9C2
  8
0
 62
     0
 10
526.31804395919551
 20
27.0
 30
0.0
 11
560.31526593036892
 21
27.0
 31
0.0
  0
LINE
  5
9C3
  8
0
 62
     0
 10
658.31005927596482
 20
27.0
 30
0.0
 11
680.75554395919562
 21
27.0
 31
0.0
  0
LINE
  5
9C4
  8
0
 62
     0
 10
471.88054395919568
 20
27.0
 30
0.0
 11
494.31804395919471
 21
27.0
 31
0.0
  0
LINE
  5
9C5
  8
0
 62
     0
 10
592.3105295599421
 20
28.5
 30
0.0
 11
626.32704361386709
 21
28.5
 31
0.0
  0
LINE
  5
9C6
  8
0
 62
     0
 10
526.31804395919551
 20
28.5
 30
0.0
 11
560.31526593036892
 21
28.5
 31
0.0
  0
LINE
  5
9C7
  8
0
 62
     0
 10
658.31005927596482
 20
28.5
 30
0.0
 11
680.75554395919562
 21
28.5
 31
0.0
  0
LINE
  5
9C8
  8
0
 62
     0
 10
471.88054395919568
 20
28.5
 30
0.0
 11
494.31804395919471
 21
28.5
 31
0.0
  0
LINE
  5
9C9
  8
0
 62
     0
 10
592.3105295599421
 20
30.0
 30
0.0
 11
626.32704361386709
 21
30.0
 31
0.0
  0
LINE
  5
9CA
  8
0
 62
     0
 10
526.31804395919551
 20
30.0
 30
0.0
 11
560.31526593036892
 21
30.0
 31
0.0
  0
LINE
  5
9CB
  8
0
 62
     0
 10
658.31005927596482
 20
30.0
 30
0.0
 11
680.75554395919562
 21
30.0
 31
0.0
  0
LINE
  5
9CC
  8
0
 62
     0
 10
471.88054395919568
 20
30.0
 30
0.0
 11
494.31804395919471
 21
30.0
 31
0.0
  0
LINE
  5
9CD
  8
0
 62
     0
 10
592.3105295599421
 20
31.5
 30
0.0
 11
626.32704361386709
 21
31.5
 31
0.0
  0
LINE
  5
9CE
  8
0
 62
     0
 10
526.31804395919551
 20
31.5
 30
0.0
 11
560.31526593036892
 21
31.5
 31
0.0
  0
LINE
  5
9CF
  8
0
 62
     0
 10
658.31005927596482
 20
31.5
 30
0.0
 11
680.75554395919551
 21
31.5
 31
0.0
  0
LINE
  5
9D0
  8
0
 62
     0
 10
471.88054395919568
 20
31.5
 30
0.0
 11
494.31804395919471
 21
31.5
 31
0.0
  0
LINE
  5
9D1
  8
0
 62
     0
 10
592.3105295599421
 20
33.0
 30
0.0
 11
626.32704361386709
 21
33.0
 31
0.0
  0
LINE
  5
9D2
  8
0
 62
     0
 10
526.31804395919551
 20
33.0
 30
0.0
 11
560.31526593036892
 21
33.0
 31
0.0
  0
LINE
  5
9D3
  8
0
 62
     0
 10
658.31005927596482
 20
33.0
 30
0.0
 11
680.75554395919551
 21
33.0
 31
0.0
  0
LINE
  5
9D4
  8
0
 62
     0
 10
471.88054395919568
 20
33.0
 30
0.0
 11
494.31804395919471
 21
33.0
 31
0.0
  0
LINE
  5
9D5
  8
0
 62
     0
 10
592.3105295599421
 20
34.5
 30
0.0
 11
626.32704361386709
 21
34.5
 31
0.0
  0
LINE
  5
9D6
  8
0
 62
     0
 10
526.31804395919551
 20
34.5
 30
0.0
 11
560.31526593036892
 21
34.5
 31
0.0
  0
LINE
  5
9D7
  8
0
 62
     0
 10
658.31005927596482
 20
34.5
 30
0.0
 11
680.75554395919551
 21
34.5
 31
0.0
  0
LINE
  5
9D8
  8
0
 62
     0
 10
471.88054395919562
 20
34.5
 30
0.0
 11
494.31804395919471
 21
34.5
 31
0.0
  0
LINE
  5
9D9
  8
0
 62
     0
 10
592.3105295599421
 20
36.0
 30
0.0
 11
626.32704361386709
 21
36.0
 31
0.0
  0
LINE
  5
9DA
  8
0
 62
     0
 10
526.31804395919551
 20
36.0
 30
0.0
 11
560.31526593036892
 21
36.0
 31
0.0
  0
LINE
  5
9DB
  8
0
 62
     0
 10
658.31005927596482
 20
36.0
 30
0.0
 11
680.75554395919551
 21
36.0
 31
0.0
  0
LINE
  5
9DC
  8
0
 62
     0
 10
471.88054395919562
 20
36.0
 30
0.0
 11
494.31804395919471
 21
36.0
 31
0.0
  0
LINE
  5
9DD
  8
0
 62
     0
 10
592.3105295599421
 20
37.5
 30
0.0
 11
626.32704361386709
 21
37.5
 31
0.0
  0
LINE
  5
9DE
  8
0
 62
     0
 10
526.31804395919551
 20
37.5
 30
0.0
 11
560.31526593036892
 21
37.5
 31
0.0
  0
LINE
  5
9DF
  8
0
 62
     0
 10
658.31005927596482
 20
37.5
 30
0.0
 11
680.75554395919551
 21
37.5
 31
0.0
  0
LINE
  5
9E0
  8
0
 62
     0
 10
471.88054395919562
 20
37.5
 30
0.0
 11
494.31804395919471
 21
37.5
 31
0.0
  0
LINE
  5
9E1
  8
0
 62
     0
 10
592.3105295599421
 20
39.0
 30
0.0
 11
626.32704361386709
 21
39.0
 31
0.0
  0
LINE
  5
9E2
  8
0
 62
     0
 10
526.31804395919551
 20
39.0
 30
0.0
 11
560.31526593036892
 21
39.0
 31
0.0
  0
LINE
  5
9E3
  8
0
 62
     0
 10
658.31005927596482
 20
39.0
 30
0.0
 11
680.75554395919551
 21
39.0
 31
0.0
  0
LINE
  5
9E4
  8
0
 62
     0
 10
471.88054395919551
 20
39.0
 30
0.0
 11
494.31804395919471
 21
39.0
 31
0.0
  0
LINE
  5
9E5
  8
0
 62
     0
 10
592.3105295599421
 20
40.499999999999993
 30
0.0
 11
626.32704361386709
 21
40.499999999999993
 31
0.0
  0
LINE
  5
9E6
  8
0
 62
     0
 10
526.31804395919551
 20
40.499999999999993
 30
0.0
 11
560.31526593036892
 21
40.499999999999993
 31
0.0
  0
LINE
  5
9E7
  8
0
 62
     0
 10
658.31005927596482
 20
40.499999999999993
 30
0.0
 11
680.75554395919551
 21
40.499999999999993
 31
0.0
  0
LINE
  5
9E8
  8
0
 62
     0
 10
471.88054395919551
 20
40.499999999999993
 30
0.0
 11
494.31804395919471
 21
40.499999999999993
 31
0.0
  0
LINE
  5
9E9
  8
0
 62
     0
 10
592.3105295599421
 20
42.0
 30
0.0
 11
626.32704361386709
 21
42.0
 31
0.0
  0
LINE
  5
9EA
  8
0
 62
     0
 10
526.31804395919551
 20
42.0
 30
0.0
 11
560.31526593036892
 21
42.0
 31
0.0
  0
LINE
  5
9EB
  8
0
 62
     0
 10
658.31005927596482
 20
42.0
 30
0.0
 11
680.75554395919528
 21
42.0
 31
0.0
  0
LINE
  5
9EC
  8
0
 62
     0
 10
471.88054395919551
 20
42.0
 30
0.0
 11
494.31804395919471
 21
42.0
 31
0.0
  0
LINE
  5
9ED
  8
0
 62
     0
 10
592.3105295599421
 20
43.5
 30
0.0
 11
626.32704361386709
 21
43.5
 31
0.0
  0
LINE
  5
9EE
  8
0
 62
     0
 10
526.31804395919551
 20
43.5
 30
0.0
 11
560.31526593036892
 21
43.5
 31
0.0
  0
LINE
  5
9EF
  8
0
 62
     0
 10
658.31005927596482
 20
43.5
 30
0.0
 11
680.75554395919528
 21
43.5
 31
0.0
  0
LINE
  5
9F0
  8
0
 62
     0
 10
471.88054395919551
 20
43.5
 30
0.0
 11
494.31804395919471
 21
43.5
 31
0.0
  0
LINE
  5
9F1
  8
0
 62
     0
 10
592.3105295599421
 20
45.0
 30
0.0
 11
626.32704361386709
 21
45.0
 31
0.0
  0
LINE
  5
9F2
  8
0
 62
     0
 10
526.31804395919551
 20
45.0
 30
0.0
 11
560.31526593036892
 21
45.0
 31
0.0
  0
LINE
  5
9F3
  8
0
 62
     0
 10
658.31005927596482
 20
45.0
 30
0.0
 11
680.75554395919528
 21
45.0
 31
0.0
  0
LINE
  5
9F4
  8
0
 62
     0
 10
471.88054395919551
 20
45.0
 30
0.0
 11
494.31804395919471
 21
45.0
 31
0.0
  0
LINE
  5
9F5
  8
0
 62
     0
 10
592.3105295599421
 20
46.5
 30
0.0
 11
626.32704361386709
 21
46.5
 31
0.0
  0
LINE
  5
9F6
  8
0
 62
     0
 10
526.31804395919551
 20
46.5
 30
0.0
 11
560.31526593036892
 21
46.5
 31
0.0
  0
LINE
  5
9F7
  8
0
 62
     0
 10
658.31005927596482
 20
46.5
 30
0.0
 11
680.75554395919528
 21
46.5
 31
0.0
  0
LINE
  5
9F8
  8
0
 62
     0
 10
471.88054395919551
 20
46.5
 30
0.0
 11
494.31804395919471
 21
46.5
 31
0.0
  0
LINE
  5
9F9
  8
0
 62
     0
 10
592.3105295599421
 20
48.0
 30
0.0
 11
626.32704361386709
 21
48.0
 31
0.0
  0
LINE
  5
9FA
  8
0
 62
     0
 10
526.31804395919551
 20
48.0
 30
0.0
 11
560.31526593036892
 21
48.0
 31
0.0
  0
LINE
  5
9FB
  8
0
 62
     0
 10
658.31005927596482
 20
48.0
 30
0.0
 11
680.75554395919528
 21
48.0
 31
0.0
  0
LINE
  5
9FC
  8
0
 62
     0
 10
471.88054395919551
 20
48.0
 30
0.0
 11
494.31804395919471
 21
48.0
 31
0.0
  0
LINE
  5
9FD
  8
0
 62
     0
 10
592.3105295599421
 20
49.5
 30
0.0
 11
626.32704361386709
 21
49.5
 31
0.0
  0
LINE
  5
9FE
  8
0
 62
     0
 10
526.31804395919551
 20
49.5
 30
0.0
 11
560.31526593036892
 21
49.5
 31
0.0
  0
LINE
  5
9FF
  8
0
 62
     0
 10
658.31005927596482
 20
49.5
 30
0.0
 11
680.75554395919528
 21
49.5
 31
0.0
  0
LINE
  5
A00
  8
0
 62
     0
 10
471.88054395919551
 20
49.5
 30
0.0
 11
494.31804395919471
 21
49.5
 31
0.0
  0
LINE
  5
A01
  8
0
 62
     0
 10
592.3105295599421
 20
51.0
 30
0.0
 11
626.32704361386709
 21
51.0
 31
0.0
  0
LINE
  5
A02
  8
0
 62
     0
 10
526.31804395919551
 20
51.0
 30
0.0
 11
560.31526593036892
 21
51.0
 31
0.0
  0
LINE
  5
A03
  8
0
 62
     0
 10
658.31005927596482
 20
51.0
 30
0.0
 11
680.75554395919528
 21
51.0
 31
0.0
  0
LINE
  5
A04
  8
0
 62
     0
 10
471.88054395919539
 20
51.0
 30
0.0
 11
494.31804395919471
 21
51.0
 31
0.0
  0
LINE
  5
A05
  8
0
 62
     0
 10
592.3105295599421
 20
52.5
 30
0.0
 11
626.32704361386709
 21
52.5
 31
0.0
  0
LINE
  5
A06
  8
0
 62
     0
 10
526.31804395919551
 20
52.5
 30
0.0
 11
560.31526593036892
 21
52.5
 31
0.0
  0
LINE
  5
A07
  8
0
 62
     0
 10
658.31005927596482
 20
52.5
 30
0.0
 11
680.75554395919517
 21
52.5
 31
0.0
  0
LINE
  5
A08
  8
0
 62
     0
 10
471.88054395919539
 20
52.5
 30
0.0
 11
494.31804395919471
 21
52.5
 31
0.0
  0
LINE
  5
A09
  8
0
 62
     0
 10
592.3105295599421
 20
54.0
 30
0.0
 11
626.32704361386709
 21
54.0
 31
0.0
  0
LINE
  5
A0A
  8
0
 62
     0
 10
526.31804395919551
 20
54.0
 30
0.0
 11
560.31526593036892
 21
54.0
 31
0.0
  0
LINE
  5
A0B
  8
0
 62
     0
 10
658.31005927596482
 20
54.0
 30
0.0
 11
680.75554395919517
 21
54.0
 31
0.0
  0
LINE
  5
A0C
  8
0
 62
     0
 10
471.88054395919539
 20
54.0
 30
0.0
 11
494.31804395919471
 21
54.0
 31
0.0
  0
LINE
  5
A0D
  8
0
 62
     0
 10
592.3105295599421
 20
55.5
 30
0.0
 11
626.32704361386709
 21
55.5
 31
0.0
  0
LINE
  5
A0E
  8
0
 62
     0
 10
526.31804395919551
 20
55.5
 30
0.0
 11
560.31526593036892
 21
55.5
 31
0.0
  0
LINE
  5
A0F
  8
0
 62
     0
 10
658.31005927596482
 20
55.5
 30
0.0
 11
680.75554395919517
 21
55.5
 31
0.0
  0
LINE
  5
A10
  8
0
 62
     0
 10
471.88054395919528
 20
55.5
 30
0.0
 11
494.31804395919471
 21
55.5
 31
0.0
  0
LINE
  5
A11
  8
0
 62
     0
 10
592.3105295599421
 20
57.0
 30
0.0
 11
626.32704361386709
 21
57.0
 31
0.0
  0
LINE
  5
A12
  8
0
 62
     0
 10
526.31804395919551
 20
57.0
 30
0.0
 11
560.31526593036892
 21
57.0
 31
0.0
  0
LINE
  5
A13
  8
0
 62
     0
 10
658.31005927596482
 20
57.0
 30
0.0
 11
680.75554395919517
 21
57.0
 31
0.0
  0
LINE
  5
A14
  8
0
 62
     0
 10
471.88054395919528
 20
57.0
 30
0.0
 11
494.31804395919471
 21
57.0
 31
0.0
  0
LINE
  5
A15
  8
0
 62
     0
 10
592.3105295599421
 20
58.5
 30
0.0
 11
626.32704361386709
 21
58.5
 31
0.0
  0
LINE
  5
A16
  8
0
 62
     0
 10
526.31804395919551
 20
58.5
 30
0.0
 11
560.31526593036892
 21
58.5
 31
0.0
  0
LINE
  5
A17
  8
0
 62
     0
 10
658.31005927596482
 20
58.5
 30
0.0
 11
680.75554395919517
 21
58.5
 31
0.0
  0
LINE
  5
A18
  8
0
 62
     0
 10
471.88054395919528
 20
58.5
 30
0.0
 11
494.31804395919471
 21
58.5
 31
0.0
  0
LINE
  5
A19
  8
0
 62
     0
 10
592.3105295599421
 20
60.0
 30
0.0
 11
626.32704361386709
 21
60.0
 31
0.0
  0
LINE
  5
A1A
  8
0
 62
     0
 10
526.31804395919551
 20
60.0
 30
0.0
 11
560.31526593036892
 21
60.0
 31
0.0
  0
LINE
  5
A1B
  8
0
 62
     0
 10
658.31005927596482
 20
60.0
 30
0.0
 11
680.75554395919517
 21
60.0
 31
0.0
  0
LINE
  5
A1C
  8
0
 62
     0
 10
471.88054395919528
 20
60.0
 30
0.0
 11
494.31804395919471
 21
60.0
 31
0.0
  0
LINE
  5
A1D
  8
0
 62
     0
 10
592.3105295599421
 20
61.5
 30
0.0
 11
626.32704361386709
 21
61.5
 31
0.0
  0
LINE
  5
A1E
  8
0
 62
     0
 10
526.31804395919551
 20
61.5
 30
0.0
 11
560.31526593036892
 21
61.5
 31
0.0
  0
LINE
  5
A1F
  8
0
 62
     0
 10
658.31005927596482
 20
61.5
 30
0.0
 11
680.75554395919517
 21
61.5
 31
0.0
  0
LINE
  5
A20
  8
0
 62
     0
 10
471.88054395919528
 20
61.5
 30
0.0
 11
494.31804395919471
 21
61.5
 31
0.0
  0
LINE
  5
A21
  8
0
 62
     0
 10
592.3105295599421
 20
63.0
 30
0.0
 11
626.32704361386709
 21
63.0
 31
0.0
  0
LINE
  5
A22
  8
0
 62
     0
 10
526.31804395919551
 20
63.0
 30
0.0
 11
560.31526593036892
 21
63.0
 31
0.0
  0
LINE
  5
A23
  8
0
 62
     0
 10
658.31005927596482
 20
63.0
 30
0.0
 11
680.75554395919517
 21
63.0
 31
0.0
  0
LINE
  5
A24
  8
0
 62
     0
 10
471.88054395919528
 20
63.0
 30
0.0
 11
494.31804395919471
 21
63.0
 31
0.0
  0
LINE
  5
A25
  8
0
 62
     0
 10
592.3105295599421
 20
64.5
 30
0.0
 11
626.32704361386709
 21
64.5
 31
0.0
  0
LINE
  5
A26
  8
0
 62
     0
 10
526.31804395919551
 20
64.5
 30
0.0
 11
560.31526593036892
 21
64.5
 31
0.0
  0
LINE
  5
A27
  8
0
 62
     0
 10
658.31005927596482
 20
64.5
 30
0.0
 11
680.75554395919505
 21
64.5
 31
0.0
  0
LINE
  5
A28
  8
0
 62
     0
 10
471.88054395919528
 20
64.5
 30
0.0
 11
494.31804395919471
 21
64.5
 31
0.0
  0
LINE
  5
A29
  8
0
 62
     0
 10
592.3105295599421
 20
66.0
 30
0.0
 11
626.32704361386709
 21
66.0
 31
0.0
  0
LINE
  5
A2A
  8
0
 62
     0
 10
526.31804395919551
 20
66.0
 30
0.0
 11
560.31526593036892
 21
66.0
 31
0.0
  0
LINE
  5
A2B
  8
0
 62
     0
 10
658.31005927596482
 20
66.0
 30
0.0
 11
680.75554395919505
 21
66.0
 31
0.0
  0
LINE
  5
A2C
  8
0
 62
     0
 10
471.88054395919522
 20
66.0
 30
0.0
 11
494.31804395919471
 21
66.0
 31
0.0
  0
LINE
  5
A2D
  8
0
 62
     0
 10
592.3105295599421
 20
67.5
 30
0.0
 11
626.32704361386709
 21
67.5
 31
0.0
  0
LINE
  5
A2E
  8
0
 62
     0
 10
526.31804395919551
 20
67.5
 30
0.0
 11
560.31526593036892
 21
67.5
 31
0.0
  0
LINE
  5
A2F
  8
0
 62
     0
 10
658.31005927596482
 20
67.5
 30
0.0
 11
680.75554395919505
 21
67.5
 31
0.0
  0
LINE
  5
A30
  8
0
 62
     0
 10
471.88054395919522
 20
67.5
 30
0.0
 11
494.31804395919471
 21
67.5
 31
0.0
  0
LINE
  5
A31
  8
0
 62
     0
 10
592.3105295599421
 20
69.0
 30
0.0
 11
626.32704361386709
 21
69.0
 31
0.0
  0
LINE
  5
A32
  8
0
 62
     0
 10
526.31804395919551
 20
69.0
 30
0.0
 11
560.31526593036892
 21
69.0
 31
0.0
  0
LINE
  5
A33
  8
0
 62
     0
 10
658.31005927596482
 20
69.0
 30
0.0
 11
680.75554395919505
 21
69.0
 31
0.0
  0
LINE
  5
A34
  8
0
 62
     0
 10
471.88054395919522
 20
69.0
 30
0.0
 11
494.31804395919471
 21
69.0
 31
0.0
  0
LINE
  5
A35
  8
0
 62
     0
 10
592.3105295599421
 20
70.5
 30
0.0
 11
626.32704361386709
 21
70.5
 31
0.0
  0
LINE
  5
A36
  8
0
 62
     0
 10
526.31804395919551
 20
70.5
 30
0.0
 11
560.31526593036892
 21
70.5
 31
0.0
  0
LINE
  5
A37
  8
0
 62
     0
 10
658.31005927596482
 20
70.5
 30
0.0
 11
680.75554395919505
 21
70.5
 31
0.0
  0
LINE
  5
A38
  8
0
 62
     0
 10
471.88054395919522
 20
70.5
 30
0.0
 11
494.31804395919471
 21
70.5
 31
0.0
  0
LINE
  5
A39
  8
0
 62
     0
 10
592.3105295599421
 20
72.0
 30
0.0
 11
626.32704361386709
 21
72.0
 31
0.0
  0
LINE
  5
A3A
  8
0
 62
     0
 10
526.31804395919551
 20
72.0
 30
0.0
 11
560.31526593036892
 21
72.0
 31
0.0
  0
LINE
  5
A3B
  8
0
 62
     0
 10
658.31005927596482
 20
72.0
 30
0.0
 11
680.75554395919505
 21
72.0
 31
0.0
  0
LINE
  5
A3C
  8
0
 62
     0
 10
471.88054395919522
 20
72.0
 30
0.0
 11
494.31804395919471
 21
72.0
 31
0.0
  0
LINE
  5
A3D
  8
0
 62
     0
 10
592.3105295599421
 20
73.5
 30
0.0
 11
626.32704361386709
 21
73.5
 31
0.0
  0
LINE
  5
A3E
  8
0
 62
     0
 10
526.31804395919551
 20
73.5
 30
0.0
 11
560.31526593036892
 21
73.5
 31
0.0
  0
LINE
  5
A3F
  8
0
 62
     0
 10
658.31005927596482
 20
73.5
 30
0.0
 11
680.75554395919505
 21
73.5
 31
0.0
  0
LINE
  5
A40
  8
0
 62
     0
 10
471.88054395919522
 20
73.5
 30
0.0
 11
494.31804395919471
 21
73.5
 31
0.0
  0
LINE
  5
A41
  8
0
 62
     0
 10
592.3105295599421
 20
75.0
 30
0.0
 11
626.32704361386709
 21
75.0
 31
0.0
  0
LINE
  5
A42
  8
0
 62
     0
 10
526.31804395919551
 20
75.0
 30
0.0
 11
560.31526593036892
 21
75.0
 31
0.0
  0
LINE
  5
A43
  8
0
 62
     0
 10
658.31005927596482
 20
75.0
 30
0.0
 11
680.75554395919505
 21
75.0
 31
0.0
  0
LINE
  5
A44
  8
0
 62
     0
 10
471.88054395919522
 20
75.0
 30
0.0
 11
494.31804395919471
 21
75.0
 31
0.0
  0
LINE
  5
A45
  8
0
 62
     0
 10
592.3105295599421
 20
76.5
 30
0.0
 11
626.32704361386709
 21
76.5
 31
0.0
  0
LINE
  5
A46
  8
0
 62
     0
 10
526.31804395919551
 20
76.5
 30
0.0
 11
560.31526593036892
 21
76.5
 31
0.0
  0
LINE
  5
A47
  8
0
 62
     0
 10
658.31005927596482
 20
76.5
 30
0.0
 11
680.75554395919505
 21
76.5
 31
0.0
  0
LINE
  5
A48
  8
0
 62
     0
 10
471.88054395919511
 20
76.5
 30
0.0
 11
494.31804395919471
 21
76.5
 31
0.0
  0
LINE
  5
A49
  8
0
 62
     0
 10
592.3105295599421
 20
78.0
 30
0.0
 11
626.32704361386709
 21
78.0
 31
0.0
  0
LINE
  5
A4A
  8
0
 62
     0
 10
526.31804395919551
 20
78.0
 30
0.0
 11
560.31526593036892
 21
78.0
 31
0.0
  0
LINE
  5
A4B
  8
0
 62
     0
 10
658.31005927596482
 20
78.0
 30
0.0
 11
680.75554395919505
 21
78.0
 31
0.0
  0
LINE
  5
A4C
  8
0
 62
     0
 10
471.88054395919511
 20
78.0
 30
0.0
 11
494.31804395919471
 21
78.0
 31
0.0
  0
ENDBLK
  5
A4E
  8
0
  0
BLOCK
  8
0
  2
*X5
 70
     1
 10
0.0
 20
0.0
 30
0.0
  3
*X5
  1

  0
LINE
  5
A50
  8
0
 62
     0
 10
388.29505141786962
 20
445.74999999999989
 30
0.0
 11
298.29505141786967
 21
445.74999999999989
 31
0.0
  0
LINE
  5
A51
  8
0
 62
     0
 10
388.29505141786962
 20
444.24999999999989
 30
0.0
 11
298.29505141786967
 21
444.24999999999989
 31
0.0
  0
LINE
  5
A52
  8
0
 62
     0
 10
388.29505141786962
 20
442.74999999999989
 30
0.0
 11
298.29505141786967
 21
442.74999999999989
 31
0.0
  0
LINE
  5
A53
  8
0
 62
     0
 10
388.29505141786962
 20
441.24999999999989
 30
0.0
 11
298.29505141786967
 21
441.24999999999989
 31
0.0
  0
LINE
  5
A54
  8
0
 62
     0
 10
388.29505141786962
 20
439.74999999999989
 30
0.0
 11
298.29505141786967
 21
439.74999999999989
 31
0.0
  0
LINE
  5
A55
  8
0
 62
     0
 10
388.29505141786962
 20
438.24999999999989
 30
0.0
 11
298.29505141786967
 21
438.24999999999989
 31
0.0
  0
LINE
  5
A56
  8
0
 62
     0
 10
388.29505141786962
 20
436.74999999999989
 30
0.0
 11
298.29505141786967
 21
436.74999999999989
 31
0.0
  0
LINE
  5
A57
  8
0
 62
     0
 10
388.29505141786962
 20
435.24999999999989
 30
0.0
 11
298.29505141786967
 21
435.24999999999989
 31
0.0
  0
LINE
  5
A58
  8
0
 62
     0
 10
388.29505141786962
 20
433.74999999999989
 30
0.0
 11
298.29505141786967
 21
433.74999999999989
 31
0.0
  0
LINE
  5
A59
  8
0
 62
     0
 10
388.29505141786962
 20
432.24999999999989
 30
0.0
 11
298.29505141786962
 21
432.24999999999989
 31
0.0
  0
LINE
  5
A5A
  8
0
 62
     0
 10
388.29505141786962
 20
430.74999999999989
 30
0.0
 11
298.29505141786962
 21
430.74999999999989
 31
0.0
  0
LINE
  5
A5B
  8
0
 62
     0
 10
388.29505141786962
 20
429.24999999999989
 30
0.0
 11
298.29505141786962
 21
429.24999999999989
 31
0.0
  0
LINE
  5
A5C
  8
0
 62
     0
 10
388.29505141786962
 20
427.74999999999989
 30
0.0
 11
298.29505141786962
 21
427.74999999999989
 31
0.0
  0
LINE
  5
A5D
  8
0
 62
     0
 10
388.29505141786962
 20
426.24999999999989
 30
0.0
 11
298.29505141786962
 21
426.24999999999989
 31
0.0
  0
LINE
  5
A5E
  8
0
 62
     0
 10
388.29505141786962
 20
424.74999999999989
 30
0.0
 11
298.29505141786962
 21
424.74999999999989
 31
0.0
  0
LINE
  5
A5F
  8
0
 62
     0
 10
388.29505141786962
 20
423.24999999999989
 30
0.0
 11
298.29505141786962
 21
423.24999999999989
 31
0.0
  0
LINE
  5
A60
  8
0
 62
     0
 10
388.29505141786962
 20
421.74999999999989
 30
0.0
 11
298.29505141786962
 21
421.74999999999989
 31
0.0
  0
LINE
  5
A61
  8
0
 62
     0
 10
388.29505141786962
 20
420.24999999999989
 30
0.0
 11
298.29505141786962
 21
420.24999999999989
 31
0.0
  0
LINE
  5
A62
  8
0
 62
     0
 10
388.29505141786962
 20
418.74999999999989
 30
0.0
 11
298.29505141786962
 21
418.74999999999989
 31
0.0
  0
LINE
  5
A63
  8
0
 62
     0
 10
388.29505141786962
 20
417.24999999999989
 30
0.0
 11
298.29505141786962
 21
417.24999999999989
 31
0.0
  0
LINE
  5
A64
  8
0
 62
     0
 10
388.29505141786962
 20
415.74999999999989
 30
0.0
 11
298.29505141786962
 21
415.74999999999989
 31
0.0
  0
LINE
  5
A65
  8
0
 62
     0
 10
388.29505141786962
 20
414.24999999999989
 30
0.0
 11
298.29505141786962
 21
414.24999999999989
 31
0.0
  0
LINE
  5
A66
  8
0
 62
     0
 10
388.29505141786962
 20
412.74999999999989
 30
0.0
 11
298.29505141786962
 21
412.74999999999989
 31
0.0
  0
LINE
  5
A67
  8
0
 62
     0
 10
388.29505141786962
 20
411.24999999999989
 30
0.0
 11
298.29505141786962
 21
411.24999999999989
 31
0.0
  0
LINE
  5
A68
  8
0
 62
     0
 10
388.29505141786962
 20
409.74999999999989
 30
0.0
 11
298.29505141786962
 21
409.74999999999989
 31
0.0
  0
LINE
  5
A69
  8
0
 62
     0
 10
388.29505141786962
 20
408.24999999999989
 30
0.0
 11
298.29505141786962
 21
408.24999999999989
 31
0.0
  0
LINE
  5
A6A
  8
0
 62
     0
 10
388.29505141786962
 20
406.74999999999989
 30
0.0
 11
298.29505141786962
 21
406.74999999999989
 31
0.0
  0
LINE
  5
A6B
  8
0
 62
     0
 10
388.29505141786962
 20
405.24999999999989
 30
0.0
 11
298.29505141786962
 21
405.24999999999989
 31
0.0
  0
LINE
  5
A6C
  8
0
 62
     0
 10
388.29505141786962
 20
403.74999999999989
 30
0.0
 11
298.29505141786962
 21
403.74999999999989
 31
0.0
  0
LINE
  5
A6D
  8
0
 62
     0
 10
388.29505141786962
 20
402.24999999999989
 30
0.0
 11
298.29505141786962
 21
402.24999999999989
 31
0.0
  0
LINE
  5
A6E
  8
0
 62
     0
 10
388.2950514178695
 20
400.74999999999989
 30
0.0
 11
298.29505141786962
 21
400.74999999999989
 31
0.0
  0
LINE
  5
A6F
  8
0
 62
     0
 10
388.2950514178695
 20
399.25
 30
0.0
 11
298.29505141786962
 21
399.25
 31
0.0
  0
LINE
  5
A70
  8
0
 62
     0
 10
388.2950514178695
 20
397.75
 30
0.0
 11
298.29505141786962
 21
397.75
 31
0.0
  0
LINE
  5
A71
  8
0
 62
     0
 10
388.2950514178695
 20
396.25
 30
0.0
 11
298.29505141786962
 21
396.25
 31
0.0
  0
LINE
  5
A72
  8
0
 62
     0
 10
388.2950514178695
 20
394.74999999999989
 30
0.0
 11
298.29505141786962
 21
394.74999999999989
 31
0.0
  0
LINE
  5
A73
  8
0
 62
     0
 10
388.2950514178695
 20
393.25
 30
0.0
 11
298.29505141786962
 21
393.25
 31
0.0
  0
LINE
  5
A74
  8
0
 62
     0
 10
388.2950514178695
 20
391.75
 30
0.0
 11
298.29505141786962
 21
391.75
 31
0.0
  0
LINE
  5
A75
  8
0
 62
     0
 10
388.2950514178695
 20
390.24999999999989
 30
0.0
 11
298.29505141786962
 21
390.24999999999989
 31
0.0
  0
LINE
  5
A76
  8
0
 62
     0
 10
388.2950514178695
 20
388.75
 30
0.0
 11
298.29505141786962
 21
388.75
 31
0.0
  0
LINE
  5
A77
  8
0
 62
     0
 10
388.2950514178695
 20
387.25
 30
0.0
 11
298.29505141786962
 21
387.25
 31
0.0
  0
LINE
  5
A78
  8
0
 62
     0
 10
388.2950514178695
 20
385.74999999999989
 30
0.0
 11
298.29505141786962
 21
385.74999999999989
 31
0.0
  0
LINE
  5
A79
  8
0
 62
     0
 10
388.2950514178695
 20
384.24999999999989
 30
0.0
 11
298.29505141786962
 21
384.24999999999989
 31
0.0
  0
LINE
  5
A7A
  8
0
 62
     0
 10
388.2950514178695
 20
382.75
 30
0.0
 11
298.29505141786962
 21
382.75
 31
0.0
  0
LINE
  5
A7B
  8
0
 62
     0
 10
388.2950514178695
 20
381.25
 30
0.0
 11
298.29505141786962
 21
381.25
 31
0.0
  0
LINE
  5
A7C
  8
0
 62
     0
 10
388.2950514178695
 20
379.74999999999989
 30
0.0
 11
298.2950514178695
 21
379.74999999999989
 31
0.0
  0
LINE
  5
A7D
  8
0
 62
     0
 10
388.2950514178695
 20
378.24999999999989
 30
0.0
 11
298.2950514178695
 21
378.24999999999989
 31
0.0
  0
LINE
  5
A7E
  8
0
 62
     0
 10
388.2950514178695
 20
376.75
 30
0.0
 11
298.2950514178695
 21
376.75
 31
0.0
  0
LINE
  5
A7F
  8
0
 62
     0
 10
388.2950514178695
 20
375.24999999999989
 30
0.0
 11
298.2950514178695
 21
375.24999999999989
 31
0.0
  0
LINE
  5
A80
  8
0
 62
     0
 10
388.2950514178695
 20
373.74999999999989
 30
0.0
 11
298.2950514178695
 21
373.74999999999989
 31
0.0
  0
LINE
  5
A81
  8
0
 62
     0
 10
388.2950514178695
 20
372.25
 30
0.0
 11
298.2950514178695
 21
372.25
 31
0.0
  0
LINE
  5
A82
  8
0
 62
     0
 10
388.29505141786939
 20
370.75
 30
0.0
 11
298.2950514178695
 21
370.75
 31
0.0
  0
LINE
  5
A83
  8
0
 62
     0
 10
388.29505141786939
 20
369.24999999999989
 30
0.0
 11
298.2950514178695
 21
369.24999999999989
 31
0.0
  0
LINE
  5
A84
  8
0
 62
     0
 10
388.29505141786939
 20
367.74999999999989
 30
0.0
 11
298.2950514178695
 21
367.74999999999989
 31
0.0
  0
LINE
  5
A85
  8
0
 62
     0
 10
388.29505141786939
 20
366.25
 30
0.0
 11
298.2950514178695
 21
366.25
 31
0.0
  0
LINE
  5
A86
  8
0
 62
     0
 10
388.29505141786939
 20
364.74999999999989
 30
0.0
 11
298.2950514178695
 21
364.74999999999989
 31
0.0
  0
LINE
  5
A87
  8
0
 62
     0
 10
388.29505141786939
 20
363.24999999999989
 30
0.0
 11
298.2950514178695
 21
363.24999999999989
 31
0.0
  0
LINE
  5
A88
  8
0
 62
     0
 10
388.29505141786939
 20
361.75
 30
0.0
 11
298.2950514178695
 21
361.75
 31
0.0
  0
LINE
  5
A89
  8
0
 62
     0
 10
388.29505141786939
 20
360.25
 30
0.0
 11
298.2950514178695
 21
360.25
 31
0.0
  0
LINE
  5
A8A
  8
0
 62
     0
 10
388.29505141786939
 20
358.74999999999989
 30
0.0
 11
298.2950514178695
 21
358.74999999999989
 31
0.0
  0
LINE
  5
A8B
  8
0
 62
     0
 10
388.29505141786939
 20
357.24999999999989
 30
0.0
 11
298.2950514178695
 21
357.24999999999989
 31
0.0
  0
LINE
  5
A8C
  8
0
 62
     0
 10
388.29505141786939
 20
355.75
 30
0.0
 11
298.2950514178695
 21
355.75
 31
0.0
  0
LINE
  5
A8D
  8
0
 62
     0
 10
388.29505141786939
 20
354.24999999999989
 30
0.0
 11
298.29505141786939
 21
354.24999999999989
 31
0.0
  0
LINE
  5
A8E
  8
0
 62
     0
 10
388.29505141786939
 20
352.74999999999989
 30
0.0
 11
298.29505141786939
 21
352.74999999999989
 31
0.0
  0
LINE
  5
A8F
  8
0
 62
     0
 10
388.29505141786939
 20
351.24999999999989
 30
0.0
 11
298.29505141786939
 21
351.24999999999989
 31
0.0
  0
LINE
  5
A90
  8
0
 62
     0
 10
388.29505141786939
 20
349.75
 30
0.0
 11
298.29505141786939
 21
349.75
 31
0.0
  0
LINE
  5
A91
  8
0
 62
     0
 10
388.29505141786939
 20
348.24999999999989
 30
0.0
 11
298.29505141786939
 21
348.24999999999989
 31
0.0
  0
LINE
  5
A92
  8
0
 62
     0
 10
388.29505141786939
 20
346.74999999999989
 30
0.0
 11
298.29505141786939
 21
346.74999999999989
 31
0.0
  0
LINE
  5
A93
  8
0
 62
     0
 10
388.29505141786939
 20
345.25
 30
0.0
 11
298.29505141786939
 21
345.25
 31
0.0
  0
LINE
  5
A94
  8
0
 62
     0
 10
388.29505141786939
 20
343.75
 30
0.0
 11
298.29505141786939
 21
343.75
 31
0.0
  0
LINE
  5
A95
  8
0
 62
     0
 10
388.29505141786939
 20
342.24999999999989
 30
0.0
 11
298.29505141786939
 21
342.24999999999989
 31
0.0
  0
LINE
  5
A96
  8
0
 62
     0
 10
388.29505141786939
 20
340.74999999999989
 30
0.0
 11
298.29505141786939
 21
340.74999999999989
 31
0.0
  0
LINE
  5
A97
  8
0
 62
     0
 10
388.29505141786939
 20
339.25
 30
0.0
 11
298.29505141786939
 21
339.25
 31
0.0
  0
LINE
  5
A98
  8
0
 62
     0
 10
388.29505141786939
 20
337.74999999999989
 30
0.0
 11
298.29505141786939
 21
337.74999999999989
 31
0.0
  0
LINE
  5
A99
  8
0
 62
     0
 10
388.29505141786939
 20
336.24999999999989
 30
0.0
 11
298.29505141786939
 21
336.24999999999989
 31
0.0
  0
LINE
  5
A9A
  8
0
 62
     0
 10
388.29505141786939
 20
334.75
 30
0.0
 11
298.29505141786939
 21
334.75
 31
0.0
  0
LINE
  5
A9B
  8
0
 62
     0
 10
388.29505141786939
 20
333.25
 30
0.0
 11
298.29505141786939
 21
333.25
 31
0.0
  0
LINE
  5
A9C
  8
0
 62
     0
 10
388.29505141786939
 20
331.74999999999989
 30
0.0
 11
298.29505141786939
 21
331.74999999999989
 31
0.0
  0
LINE
  5
A9D
  8
0
 62
     0
 10
388.29505141786939
 20
330.24999999999989
 30
0.0
 11
298.29505141786939
 21
330.24999999999989
 31
0.0
  0
LINE
  5
A9E
  8
0
 62
     0
 10
388.29505141786939
 20
328.75
 30
0.0
 11
298.29505141786939
 21
328.75
 31
0.0
  0
LINE
  5
A9F
  8
0
 62
     0
 10
388.29505141786939
 20
327.24999999999989
 30
0.0
 11
298.29505141786939
 21
327.24999999999989
 31
0.0
  0
LINE
  5
AA0
  8
0
 62
     0
 10
388.29505141786939
 20
325.74999999999989
 30
0.0
 11
298.29505141786939
 21
325.74999999999989
 31
0.0
  0
LINE
  5
AA1
  8
0
 62
     0
 10
388.29505141786939
 20
324.25
 30
0.0
 11
298.29505141786939
 21
324.25
 31
0.0
  0
LINE
  5
AA2
  8
0
 62
     0
 10
388.29505141786939
 20
322.75
 30
0.0
 11
298.29505141786939
 21
322.75
 31
0.0
  0
LINE
  5
AA3
  8
0
 62
     0
 10
388.29505141786939
 20
321.24999999999989
 30
0.0
 11
298.29505141786939
 21
321.24999999999989
 31
0.0
  0
LINE
  5
AA4
  8
0
 62
     0
 10
388.29505141786939
 20
319.74999999999989
 30
0.0
 11
298.29505141786939
 21
319.74999999999989
 31
0.0
  0
LINE
  5
AA5
  8
0
 62
     0
 10
388.29505141786939
 20
318.25
 30
0.0
 11
298.29505141786939
 21
318.25
 31
0.0
  0
LINE
  5
AA6
  8
0
 62
     0
 10
388.29505141786939
 20
316.74999999999989
 30
0.0
 11
298.29505141786939
 21
316.74999999999989
 31
0.0
  0
LINE
  5
AA7
  8
0
 62
     0
 10
388.29505141786939
 20
315.24999999999989
 30
0.0
 11
298.29505141786939
 21
315.24999999999989
 31
0.0
  0
LINE
  5
AA8
  8
0
 62
     0
 10
388.29505141786939
 20
313.74999999999989
 30
0.0
 11
298.29505141786939
 21
313.74999999999989
 31
0.0
  0
LINE
  5
AA9
  8
0
 62
     0
 10
388.29505141786939
 20
312.25
 30
0.0
 11
298.29505141786939
 21
312.25
 31
0.0
  0
LINE
  5
AAA
  8
0
 62
     0
 10
388.29505141786927
 20
310.74999999999989
 30
0.0
 11
298.29505141786939
 21
310.74999999999989
 31
0.0
  0
LINE
  5
AAB
  8
0
 62
     0
 10
388.29505141786927
 20
309.24999999999989
 30
0.0
 11
298.29505141786939
 21
309.24999999999989
 31
0.0
  0
LINE
  5
AAC
  8
0
 62
     0
 10
388.29505141786927
 20
307.75
 30
0.0
 11
298.29505141786939
 21
307.75
 31
0.0
  0
LINE
  5
AAD
  8
0
 62
     0
 10
388.29505141786927
 20
306.25
 30
0.0
 11
298.29505141786939
 21
306.25
 31
0.0
  0
LINE
  5
AAE
  8
0
 62
     0
 10
388.29505141786927
 20
304.74999999999989
 30
0.0
 11
298.29505141786939
 21
304.74999999999989
 31
0.0
  0
LINE
  5
AAF
  8
0
 62
     0
 10
388.29505141786927
 20
303.24999999999989
 30
0.0
 11
298.29505141786939
 21
303.24999999999989
 31
0.0
  0
LINE
  5
AB0
  8
0
 62
     0
 10
388.29505141786927
 20
301.75
 30
0.0
 11
298.29505141786927
 21
301.75
 31
0.0
  0
LINE
  5
AB1
  8
0
 62
     0
 10
388.29505141786927
 20
300.24999999999989
 30
0.0
 11
298.29505141786927
 21
300.24999999999989
 31
0.0
  0
LINE
  5
AB2
  8
0
 62
     0
 10
388.29505141786927
 20
298.74999999999989
 30
0.0
 11
298.29505141786927
 21
298.74999999999989
 31
0.0
  0
LINE
  5
AB3
  8
0
 62
     0
 10
388.29505141786927
 20
297.25
 30
0.0
 11
298.29505141786927
 21
297.25
 31
0.0
  0
LINE
  5
AB4
  8
0
 62
     0
 10
388.29505141786927
 20
295.74999999999989
 30
0.0
 11
298.29505141786927
 21
295.74999999999989
 31
0.0
  0
LINE
  5
AB5
  8
0
 62
     0
 10
388.29505141786927
 20
294.24999999999989
 30
0.0
 11
298.29505141786927
 21
294.24999999999989
 31
0.0
  0
LINE
  5
AB6
  8
0
 62
     0
 10
388.29505141786927
 20
292.74999999999989
 30
0.0
 11
298.29505141786927
 21
292.74999999999989
 31
0.0
  0
LINE
  5
AB7
  8
0
 62
     0
 10
388.29505141786927
 20
291.25
 30
0.0
 11
298.29505141786927
 21
291.25
 31
0.0
  0
LINE
  5
AB8
  8
0
 62
     0
 10
388.29505141786927
 20
289.74999999999989
 30
0.0
 11
298.29505141786927
 21
289.74999999999989
 31
0.0
  0
LINE
  5
AB9
  8
0
 62
     0
 10
388.29505141786927
 20
288.24999999999989
 30
0.0
 11
298.29505141786927
 21
288.24999999999989
 31
0.0
  0
LINE
  5
ABA
  8
0
 62
     0
 10
388.29505141786927
 20
286.74999999999989
 30
0.0
 11
298.29505141786927
 21
286.74999999999989
 31
0.0
  0
LINE
  5
ABB
  8
0
 62
     0
 10
388.29505141786927
 20
285.25
 30
0.0
 11
298.29505141786927
 21
285.25
 31
0.0
  0
LINE
  5
ABC
  8
0
 62
     0
 10
388.29505141786927
 20
283.75
 30
0.0
 11
298.29505141786927
 21
283.75
 31
0.0
  0
LINE
  5
ABD
  8
0
 62
     0
 10
388.29505141786927
 20
282.24999999999989
 30
0.0
 11
298.29505141786927
 21
282.24999999999989
 31
0.0
  0
LINE
  5
ABE
  8
0
 62
     0
 10
388.29505141786927
 20
280.75
 30
0.0
 11
298.29505141786927
 21
280.75
 31
0.0
  0
LINE
  5
ABF
  8
0
 62
     0
 10
388.29505141786927
 20
279.24999999999989
 30
0.0
 11
298.29505141786927
 21
279.24999999999989
 31
0.0
  0
LINE
  5
AC0
  8
0
 62
     0
 10
388.29505141786927
 20
277.74999999999989
 30
0.0
 11
298.29505141786927
 21
277.74999999999989
 31
0.0
  0
LINE
  5
AC1
  8
0
 62
     0
 10
388.29505141786927
 20
276.24999999999989
 30
0.0
 11
298.29505141786927
 21
276.24999999999989
 31
0.0
  0
LINE
  5
AC2
  8
0
 62
     0
 10
388.29505141786927
 20
274.75
 30
0.0
 11
298.29505141786927
 21
274.75
 31
0.0
  0
LINE
  5
AC3
  8
0
 62
     0
 10
388.29505141786927
 20
273.24999999999989
 30
0.0
 11
298.29505141786927
 21
273.24999999999989
 31
0.0
  0
LINE
  5
AC4
  8
0
 62
     0
 10
388.29505141786927
 20
271.74999999999989
 30
0.0
 11
298.29505141786927
 21
271.74999999999989
 31
0.0
  0
LINE
  5
AC5
  8
0
 62
     0
 10
388.29505141786927
 20
270.25
 30
0.0
 11
298.29505141786927
 21
270.25
 31
0.0
  0
LINE
  5
AC6
  8
0
 62
     0
 10
388.29505141786927
 20
268.75
 30
0.0
 11
298.29505141786927
 21
268.75
 31
0.0
  0
LINE
  5
AC7
  8
0
 62
     0
 10
388.29505141786927
 20
267.24999999999989
 30
0.0
 11
298.29505141786927
 21
267.24999999999989
 31
0.0
  0
LINE
  5
AC8
  8
0
 62
     0
 10
388.29505141786927
 20
265.74999999999989
 30
0.0
 11
298.29505141786927
 21
265.74999999999989
 31
0.0
  0
LINE
  5
AC9
  8
0
 62
     0
 10
388.29505141786927
 20
264.25
 30
0.0
 11
298.29505141786927
 21
264.25
 31
0.0
  0
LINE
  5
ACA
  8
0
 62
     0
 10
388.29505141786927
 20
262.74999999999989
 30
0.0
 11
298.29505141786927
 21
262.74999999999989
 31
0.0
  0
LINE
  5
ACB
  8
0
 62
     0
 10
388.29505141786927
 20
261.24999999999989
 30
0.0
 11
298.29505141786927
 21
261.24999999999989
 31
0.0
  0
LINE
  5
ACC
  8
0
 62
     0
 10
388.29505141786927
 20
259.75
 30
0.0
 11
298.29505141786927
 21
259.75
 31
0.0
  0
LINE
  5
ACD
  8
0
 62
     0
 10
388.29505141786927
 20
258.25
 30
0.0
 11
298.29505141786927
 21
258.25
 31
0.0
  0
LINE
  5
ACE
  8
0
 62
     0
 10
388.29505141786927
 20
256.74999999999989
 30
0.0
 11
298.29505141786927
 21
256.74999999999989
 31
0.0
  0
LINE
  5
ACF
  8
0
 62
     0
 10
388.29505141786927
 20
255.24999999999989
 30
0.0
 11
298.29505141786927
 21
255.25
 31
0.0
  0
LINE
  5
AD0
  8
0
 62
     0
 10
388.29505141786927
 20
253.75
 30
0.0
 11
298.29505141786927
 21
253.75
 31
0.0
  0
LINE
  5
AD1
  8
0
 62
     0
 10
388.29505141786927
 20
252.24999999999989
 30
0.0
 11
298.29505141786927
 21
252.25
 31
0.0
  0
LINE
  5
AD2
  8
0
 62
     0
 10
388.29505141786922
 20
250.74999999999989
 30
0.0
 11
298.29505141786927
 21
250.75
 31
0.0
  0
LINE
  5
AD3
  8
0
 62
     0
 10
388.29505141786922
 20
249.24999999999989
 30
0.0
 11
298.29505141786922
 21
249.25
 31
0.0
  0
LINE
  5
AD4
  8
0
 62
     0
 10
388.29505141786922
 20
247.75
 30
0.0
 11
298.29505141786922
 21
247.75
 31
0.0
  0
LINE
  5
AD5
  8
0
 62
     0
 10
388.29505141786922
 20
246.24999999999989
 30
0.0
 11
298.29505141786922
 21
246.25
 31
0.0
  0
LINE
  5
AD6
  8
0
 62
     0
 10
388.29505141786922
 20
244.74999999999989
 30
0.0
 11
298.29505141786922
 21
244.75
 31
0.0
  0
LINE
  5
AD7
  8
0
 62
     0
 10
388.29505141786922
 20
243.25
 30
0.0
 11
298.29505141786922
 21
243.25
 31
0.0
  0
LINE
  5
AD8
  8
0
 62
     0
 10
388.29505141786922
 20
241.74999999999989
 30
0.0
 11
298.29505141786922
 21
241.75
 31
0.0
  0
LINE
  5
AD9
  8
0
 62
     0
 10
388.29505141786922
 20
240.24999999999989
 30
0.0
 11
298.29505141786922
 21
240.25
 31
0.0
  0
LINE
  5
ADA
  8
0
 62
     0
 10
388.29505141786922
 20
238.74999999999989
 30
0.0
 11
298.29505141786922
 21
238.75
 31
0.0
  0
LINE
  5
ADB
  8
0
 62
     0
 10
388.29505141786922
 20
237.25
 30
0.0
 11
298.29505141786922
 21
237.25
 31
0.0
  0
ENDBLK
  5
ADD
  8
0
  0
ENDSEC
  0
SECTION
  2
ENTITIES
  0
LINE
  5
35B
  8
0
 10
296.67005141786927
 20
158.12500450375751
 30
0.0
 11
389.92005141786638
 21
158.12500450375751
 31
0.0
  0
LINE
  5
35C
  8
0
 10
389.92005141786638
 20
80.750004503757779
 30
0.0
 11
296.67005141786927
 21
80.750004503757779
 31
0.0
  0
LINE
  5
35D
  8
0
 10
296.67005141786927
 20
80.750004503757779
 30
0.0
 11
296.67005141786927
 21
158.12500450375751
 31
0.0
  0
LINE
  5
35E
  8
0
 10
389.92005141786638
 20
80.750004503757779
 30
0.0
 11
389.92005141786638
 21
158.12500450375751
 31
0.0
  0
LINE
  5
35F
  8
0
 10
296.67005141787001
 20
80.750004503757751
 30
0.0
 11
391.04505141787001
 21
80.750004503757751
 31
0.0
  0
LINE
  5
360
  8
0
 10
391.04505141787001
 20
0.0000045037577365
 30
0.0
 11
296.67005141787001
 21
0.0000045037577365
 31
0.0
  0
LINE
  5
361
  8
0
 10
296.67005141787001
 20
80.750004503757751
 30
0.0
 11
296.67005141787001
 21
0.0000045037577365
 31
0.0
  0
LINE
  5
362
  8
0
 10
391.04505141787001
 20
0.0000045037577365
 30
0.0
 11
391.04505141787001
 21
80.750004503757751
 31
0.0
  0
LINE
  5
363
  8
0
 10
296.42005141786967
 20
5.6250045037577348
 30
0.0
 11
296.67005141787018
 21
5.6250045037577348
 31
0.0
  0
LINE
  5
364
  8
0
 10
296.67005141787018
 20
7.6250045037576211
 30
0.0
 11
296.42005141786967
 21
7.6250045037576211
 31
0.0
  0
LINE
  5
365
  8
0
 10
296.4200514178691
 20
6.6250045037577614
 30
0.0
 11
296.4200514178691
 21
6.883823548860283
 31
0.0
  0
LINE
  5
366
  8
0
 10
296.4200514178691
 20
6.8838238598010228
 30
0.0
 11
296.4200514178691
 21
7.4910299075422024
 31
0.0
  0
LINE
  5
367
  8
0
 10
296.4200514178691
 20
7.4910302776756881
 30
0.0
 11
296.4200514178691
 21
7.5909303300468327
 31
0.0
  0
LINE
  5
368
  8
0
 10
296.4200514178691
 20
7.5909310142285076
 30
0.0
 11
296.4200514178691
 21
7.6250045037577658
 31
0.0
  0
LINE
  5
369
  8
0
 10
296.4200514178691
 20
5.6250045037577658
 30
0.0
 11
296.4200514178691
 21
5.6590784673940187
 31
0.0
  0
LINE
  5
36A
  8
0
 10
296.4200514178691
 20
5.6590786774686981
 30
0.0
 11
296.4200514178691
 21
5.7589790422400906
 31
0.0
  0
LINE
  5
36B
  8
0
 10
296.4200514178691
 20
5.7589790999733257
 30
0.0
 11
296.4200514178691
 21
6.1250045037577641
 31
0.0
  0
LINE
  5
36C
  8
0
 10
296.4200514178691
 20
6.1250047278856643
 30
0.0
 11
296.4200514178691
 21
6.3661853976966594
 31
0.0
  0
LINE
  5
36D
  8
0
 10
296.4200514178691
 20
6.3661854586552407
 30
0.0
 11
296.4200514178691
 21
6.6250042625935928
 31
0.0
  0
LINE
  5
36E
  8
0
 10
390.17005141787109
 20
154.37500450375799
 30
0.0
 11
389.92005141787058
 21
154.37500450375799
 31
0.0
  0
LINE
  5
36F
  8
0
 10
389.92005141787058
 20
146.37500450375779
 30
0.0
 11
390.17005141787109
 21
146.37500450375779
 31
0.0
  0
LINE
  5
370
  8
0
 10
390.17005141786979
 20
154.37500450375779
 30
0.0
 11
390.17005141786979
 21
154.238707808914
 31
0.0
  0
LINE
  5
371
  8
0
 10
390.17005141786979
 20
154.23870615499621
 30
0.0
 11
390.17005141786979
 21
153.20343162850401
 31
0.0
  0
LINE
  5
372
  8
0
 10
390.17005141786979
 20
153.20342753618439
 30
0.0
 11
390.17005141786979
 21
152.37500450375779
 31
0.0
  0
LINE
  5
373
  8
0
 10
390.17005141786979
 20
152.3750009177067
 30
0.0
 11
390.17005141786979
 21
151.4102806841679
 31
0.0
  0
LINE
  5
374
  8
0
 10
390.17005141786979
 20
151.4102753206659
 30
0.0
 11
390.17005141786979
 21
150.375008362382
 31
0.0
  0
LINE
  5
375
  8
0
 10
390.17005141786979
 20
150.37500450375779
 30
0.0
 11
390.17005141786979
 21
149.33972995970359
 31
0.0
  0
LINE
  5
376
  8
0
 10
390.17005141786979
 20
149.33972832334771
 30
0.0
 11
390.17005141786979
 21
147.5465780616025
 31
0.0
  0
LINE
  5
377
  8
0
 10
390.17005141786979
 20
147.54657737901161
 30
0.0
 11
390.17005141786979
 21
146.5113011986015
 31
0.0
  0
LINE
  5
378
  8
0
 10
390.17005141786979
 20
146.5112984618732
 30
0.0
 11
390.17005141786979
 21
146.37500450375771
 31
0.0
  0
ARC
  5
379
  8
0
 10
334.29505141786939
 20
50.000004503758127
 30
0.0
 40
0.75
 50
0.0
 51
180.0
  0
ARC
  5
37A
  8
0
 10
334.29505141786939
 20
50.000004503758127
 30
0.0
 40
0.75
 50
180.0
 51
0.0
  0
ARC
  5
37B
  8
0
 10
301.42005141786939
 20
33.500004503758142
 30
0.0
 40
1.5000000000000031
 50
359.9999999999992
 51
179.99999999999929
  0
ARC
  5
37C
  8
0
 10
301.42005141786939
 20
33.500004503758142
 30
0.0
 40
1.4999999999999949
 50
180.0000000000004
 51
359.99999999999949
  0
ARC
  5
37D
  8
0
 10
305.42005141786939
 20
12.00000450375817
 30
0.0
 40
4.0000000000000062
 50
359.99999999999932
 51
179.99999999999949
  0
ARC
  5
37E
  8
0
 10
305.42005141786939
 20
12.00000450375817
 30
0.0
 40
3.999999999999996
 50
180.0000000000004
 51
359.9999999999996
  0
CIRCLE
  5
37F
  8
0
 10
313.4200514178695
 20
50.125004503757737
 30
0.0
 40
11.187499999999989
  0
LINE
  5
380
  8
0
 10
470.25554395920147
 20
158.12500450375751
 30
0.0
 11
682.38054395919585
 21
158.12500450375751
 31
0.0
  0
LINE
  5
381
  8
0
 10
470.25554395920147
 20
80.750004503757779
 30
0.0
 11
470.25554395920147
 21
158.12500450375751
 31
0.0
  0
LINE
  5
382
  8
0
 10
682.38054395919585
 20
80.750004503757779
 30
0.0
 11
682.38054395919585
 21
158.12500450375751
 31
0.0
  0
LINE
  5
383
  8
0
 10
561.31804395919698
 20
6.0000045037577348
 30
0.0
 11
591.3180439591971
 21
6.0000045037584178
 31
0.0
  0
LINE
  5
384
  8
0
 10
561.31804395919517
 20
68.406158526918958
 30
0.0
 11
591.31804395919505
 21
68.406158526919285
 31
0.0
  0
LINE
  5
385
  8
0
 10
591.31804395919585
 20
4.0000045037577818
 30
0.0
 11
591.31804395919585
 21
79.125004503758333
 31
0.0
  0
LINE
  5
386
  8
0
 10
592.31052955994232
 20
79.125004503758333
 30
0.0
 11
592.3105295599421
 21
4.0000045037577836
 31
0.0
  0
LINE
  5
387
  8
0
 10
591.31804395919585
 20
4.0000045037577818
 30
0.0
 11
592.3105295599421
 21
4.00000450375778
 31
0.0
  0
LINE
  5
388
  8
0
 10
592.31052955994232
 20
79.125004503758333
 30
0.0
 11
591.31804395919585
 21
79.125004503758333
 31
0.0
  0
LINE
  5
389
  8
0
 10
560.31526593036915
 20
4.0000045037578262
 30
0.0
 11
560.31526593036915
 21
79.12500450375839
 31
0.0
  0
LINE
  5
38A
  8
0
 10
561.31804395919596
 20
79.12500450375839
 30
0.0
 11
561.31804395919585
 21
4.000004503757828
 31
0.0
  0
LINE
  5
38B
  8
0
 10
560.31526593036915
 20
4.0000045037578262
 30
0.0
 11
561.31804395919585
 21
4.0000045037578236
 31
0.0
  0
LINE
  5
38C
  8
0
 10
561.31804395919596
 20
79.12500450375839
 30
0.0
 11
560.31526593036915
 21
79.12500450375839
 31
0.0
  0
LINE
  5
38D
  8
0
 10
627.31804395919687
 20
6.0000045037573919
 30
0.0
 11
657.31804395919562
 21
6.0000045037573919
 31
0.0
  0
LINE
  5
38E
  8
0
 10
627.31804395919607
 20
68.406158526918745
 30
0.0
 11
657.31804395919596
 21
68.406158526918674
 31
0.0
  0
LINE
  5
38F
  8
0
 10
626.3270436138672
 20
4.0000045037577214
 30
0.0
 11
626.32704361386732
 21
79.125004503758277
 31
0.0
  0
LINE
  5
390
  8
0
 10
627.31804395919596
 20
79.125004503758277
 30
0.0
 11
627.31804395919585
 21
4.0000045037577214
 31
0.0
  0
LINE
  5
391
  8
0
 10
626.3270436138672
 20
4.0000045037577214
 30
0.0
 11
627.31804395919585
 21
4.0000045037577214
 31
0.0
  0
LINE
  5
392
  8
0
 10
627.31804395919596
 20
79.125004503758277
 30
0.0
 11
626.32704361386732
 21
79.125004503758277
 31
0.0
  0
LINE
  5
393
  8
0
 10
657.31804395919585
 20
4.000004503757669
 30
0.0
 11
657.31804395919585
 21
79.125004503758234
 31
0.0
  0
LINE
  5
394
  8
0
 10
658.31005927596505
 20
79.125004503758234
 30
0.0
 11
658.31005927596493
 21
4.0000045037576681
 31
0.0
  0
LINE
  5
395
  8
0
 10
658.31005927596493
 20
4.0000045037576681
 30
0.0
 11
657.31804395919585
 21
4.000004503757669
 31
0.0
  0
LINE
  5
396
  8
0
 10
658.31005927596505
 20
79.125004503758234
 30
0.0
 11
657.31804395919585
 21
79.125004503758234
 31
0.0
  0
LINE
  5
397
  8
0
 10
495.3180439591971
 20
6.0000045037573919
 30
0.0
 11
525.3180439591971
 21
6.0000045037573919
 31
0.0
  0
LINE
  5
398
  8
0
 10
495.31804395919511
 20
68.406158526918276
 30
0.0
 11
525.31804395919505
 21
68.406158526918588
 31
0.0
  0
LINE
  5
399
  8
0
 10
525.31804395919573
 20
4.0000045037578804
 30
0.0
 11
525.31804395919585
 21
79.125004503758447
 31
0.0
  0
LINE
  5
39A
  8
0
 10
526.31804395919585
 20
79.125004503758447
 30
0.0
 11
526.31804395919573
 21
4.0000045037578804
 31
0.0
  0
LINE
  5
39B
  8
0
 10
525.31804395919573
 20
4.0000045037578804
 30
0.0
 11
526.31804395919573
 21
4.0000045037578804
 31
0.0
  0
LINE
  5
39C
  8
0
 10
526.31804395919585
 20
79.125004503758447
 30
0.0
 11
525.31804395919585
 21
79.125004503758447
 31
0.0
  0
LINE
  5
39D
  8
0
 10
494.31804395919568
 20
4.0000045037579337
 30
0.0
 11
494.31804395919602
 21
79.125004503758504
 31
0.0
  0
LINE
  5
39E
  8
0
 10
495.3180439591959
 20
79.125004503758504
 30
0.0
 11
495.31804395919568
 21
4.0000045037579337
 31
0.0
  0
LINE
  5
39F
  8
0
 10
494.31804395919568
 20
4.0000045037579337
 30
0.0
 11
495.31804395919568
 21
4.0000045037579337
 31
0.0
  0
LINE
  5
3A0
  8
0
 10
495.3180439591959
 20
79.125004503758504
 30
0.0
 11
494.31804395919602
 21
79.125004503758504
 31
0.0
  0
LINE
  5
3A1
  8
0
 10
471.88054395919568
 20
79.125004503759584
 30
0.0
 11
471.88054395919568
 21
4.0000045037577321
 31
0.0
  0
LINE
  5
3A2
  8
0
 10
471.88054395919568
 20
4.0000045037577321
 30
0.0
 11
494.31804395919471
 21
4.0000045037577321
 31
0.0
  0
LINE
  5
3A3
  8
0
 10
494.31804395919471
 20
4.0000045037577321
 30
0.0
 11
494.31804395919471
 21
79.125004503759584
 31
0.0
1001
ACAD
1000
ASC_BOUNDS
1002
{
1070
    19
1005
4F1
1002
}
  0
LINE
  5
3A4
  8
0
 10
494.31804395919471
 20
79.125004503759584
 30
0.0
 11
471.88054395919568
 21
79.125004503759584
 31
0.0
  0
LINE
  5
3A5
  8
0
 10
560.31526593036892
 20
79.125004503758447
 30
0.0
 11
526.31804395919551
 21
79.125004503758475
 31
0.0
  0
LINE
  5
3A6
  8
0
 10
526.31804395919551
 20
79.125004503758475
 30
0.0
 11
526.31804395919551
 21
4.0000045037578911
 31
0.0
1001
ACAD
1000
ASC_BOUNDS
1002
{
1070
    19
1005
4F1
1002
}
  0
LINE
  5
3A7
  8
0
 10
526.31804395919551
 20
4.0000045037578804
 30
0.0
 11
560.31526593036892
 21
4.0000045037578804
 31
0.0
  0
LINE
  5
3A8
  8
0
 10
560.31526593036892
 20
4.0000045037578804
 30
0.0
 11
560.31526593036892
 21
79.125004503758447
 31
0.0
1001
ACAD
1000
ASC_BOUNDS
1002
{
1070
    19
1005
4F1
1002
}
  0
LINE
  5
3A9
  8
0
 10
680.75554395919562
 20
79.125004503758447
 30
0.0
 11
658.31005927596482
 21
79.125004503758475
 31
0.0
  0
LINE
  5
3AA
  8
0
 10
658.31005927596482
 20
79.125004503758475
 30
0.0
 11
658.31005927596482
 21
4.0000045037578911
 31
0.0
1001
ACAD
1000
ASC_BOUNDS
1002
{
1070
    19
1005
4F1
1002
}
  0
LINE
  5
3AB
  8
0
 10
658.31005927596482
 20
4.0000045037578804
 30
0.0
 11
680.75554395919562
 21
4.0000045037578804
 31
0.0
  0
LINE
  5
3AC
  8
0
 10
680.75554395919562
 20
4.0000045037578804
 30
0.0
 11
680.75554395919562
 21
79.125004503758447
 31
0.0
  0
LINE
  5
3AD
  8
0
 10
626.32704361386709
 20
79.125004503758447
 30
0.0
 11
592.3105295599421
 21
79.125004503758475
 31
0.0
  0
LINE
  5
3AE
  8
0
 10
592.3105295599421
 20
79.125004503758475
 30
0.0
 11
592.3105295599421
 21
4.0000045037578911
 31
0.0
1001
ACAD
1000
ASC_BOUNDS
1002
{
1070
    19
1005
4F1
1002
}
  0
LINE
  5
3AF
  8
0
 10
592.3105295599421
 20
4.0000045037578804
 30
0.0
 11
626.32704361386709
 21
4.0000045037578804
 31
0.0
  0
LINE
  5
3B0
  8
0
 10
626.32704361386709
 20
4.0000045037578804
 30
0.0
 11
626.32704361386709
 21
79.125004503758447
 31
0.0
1001
ACAD
1000
ASC_BOUNDS
1002
{
1070
    19
1005
4F1
1002
}
  0
LINE
  5
3B1
  8
0
 10
470.25554395919607
 20
80.750004503757751
 30
0.0
 11
682.38054395919607
 21
80.750004503757751
 31
0.0
  0
LINE
  5
3B2
  8
0
 10
682.38054395919607
 20
0.0000045037577365
 30
0.0
 11
470.25554395919607
 21
0.0000045037577365
 31
0.0
  0
LINE
  5
3B3
  8
0
 10
470.25554395919607
 20
0.0000045037577365
 30
0.0
 11
470.25554395919607
 21
80.750004503757751
 31
0.0
  0
LINE
  5
3B4
  8
0
 10
471.8805439591959
 20
4.0000045037562391
 30
0.0
 11
471.88054395919511
 21
79.125004503756784
 31
0.0
1001
ACAD
1000
ASC_BOUNDS
1002
{
1070
    19
1005
4F1
1002
}
  0
LINE
  5
3B5
  8
0
 10
471.88054395919511
 20
79.125004503756784
 30
0.0
 11
680.75554395919505
 21
79.12500450375893
 31
0.0
1001
ACAD
1000
ASC_BOUNDS
1002
{
1070
    19
1005
4F1
1005
4F1
1005
4F1
1005
4F1
1002
}
  0
LINE
  5
3B6
  8
0
 10
680.75554395919505
 20
79.12500450375893
 30
0.0
 11
680.75554395919585
 21
4.000004503758392
 31
0.0
1001
ACAD
1000
ASC_BOUNDS
1002
{
1070
    19
1005
4F1
1002
}
  0
LINE
  5
3B7
  8
0
 10
680.75554395919585
 20
4.0000045037583813
 30
0.0
 11
471.8805439591959
 21
4.0000045037562391
 31
0.0
1001
ACAD
1000
ASC_BOUNDS
1002
{
1070
    19
1005
4F1
1005
4F1
1005
4F1
1005
4F1
1002
}
  0
LINE
  5
3B8
  8
0
 10
682.38054395919607
 20
0.0000045037577365
 30
0.0
 11
682.38054395919607
 21
80.750004503757751
 31
0.0
  0
ARC
  5
3B9
  8
0
 10
576.31804395919539
 20
128.12500450375839
 30
0.0
 40
8.2500000000000053
 50
179.9999999999996
 51
359.99999999999881
  0
ARC
  5
3BA
  8
0
 10
576.31804395919539
 20
128.12500450375839
 30
0.0
 40
8.2500000000000089
 50
359.99999999999949
 51
179.9999999999996
  0
ARC
  5
3BB
  8
0
 10
576.31804395919539
 20
128.12500450375839
 30
0.0
 40
7.6874999999999956
 50
0.0000000000006679
 51
180.00000000000011
  0
ARC
  5
3BC
  8
0
 10
576.31804395919539
 20
128.12500450375839
 30
0.0
 40
7.687499999999992
 50
180.00000000000011
 51
359.9999999999996
  0
LINE
  5
3BD
  8
0
 10
581.44054473318317
 20
125.683148654961
 30
0.0
 11
581.24560425699281
 21
125.2342399248022
 31
0.0
  0
LINE
  5
3BE
  8
0
 10
581.24560425699281
 20
125.2342399248022
 30
0.0
 11
580.79471139984992
 21
125.0769978613102
 31
0.0
  0
LINE
  5
3BF
  8
0
 10
580.79471139984992
 20
125.0769978613102
 30
0.0
 11
580.47018263000848
 21
125.1412339724213
 31
0.0
  0
LINE
  5
3C0
  8
0
 10
580.47018263000848
 20
125.1412339724213
 30
0.0
 11
580.23469155858015
 21
125.3339423057546
 31
0.0
  0
LINE
  5
3C1
  8
0
 10
580.23469155858015
 20
125.3339423057546
 30
0.0
 11
580.04371933635775
 21
126.0918788136911
 31
0.0
  0
LINE
  5
3C2
  8
0
 10
580.04371933635775
 20
126.0918788136911
 30
0.0
 11
580.2277471141357
 21
126.85576770258
 31
0.0
  0
LINE
  5
3C3
  8
0
 10
580.2277471141357
 20
126.85576770258
 30
0.0
 11
580.45753382048485
 21
127.04549984543721
 31
0.0
  0
LINE
  5
3C4
  8
0
 10
580.45753382048485
 20
127.04549984543721
 30
0.0
 11
580.7788383839769
 21
127.1087438930562
 31
0.0
  0
LINE
  5
3C5
  8
0
 10
580.7788383839769
 20
127.1087438930562
 30
0.0
 11
581.24709235223077
 21
126.96539071845299
 31
0.0
  0
LINE
  5
3C6
  8
0
 10
581.24709235223077
 20
126.96539071845299
 30
0.0
 11
581.44054473318317
 21
126.54029151210381
 31
0.0
  0
LINE
  5
3C7
  8
0
 10
581.44054473318317
 20
126.54029151210381
 30
0.0
 11
582.5834018760404
 21
126.54029151210381
 31
0.0
  0
LINE
  5
3C8
  8
0
 10
582.5834018760404
 20
126.54029151210381
 30
0.0
 11
582.4231836220722
 21
127.1879849644848
 31
0.0
  0
LINE
  5
3C9
  8
0
 10
582.4231836220722
 20
127.1879849644848
 30
0.0
 11
582.05562409826246
 21
127.66677960734199
 31
0.0
  0
LINE
  5
3CA
  8
0
 10
582.05562409826246
 20
127.66677960734199
 30
0.0
 11
581.49659632048485
 21
127.9625385359134
 31
0.0
  0
LINE
  5
3CB
  8
0
 10
581.49659632048485
 20
127.9625385359134
 30
0.0
 11
580.76197330461184
 21
128.06112484543721
 31
0.0
  0
LINE
  5
3CC
  8
0
 10
580.76197330461184
 20
128.06112484543721
 30
0.0
 11
579.96398223318317
 21
127.92918040099271
 31
0.0
  0
LINE
  5
3CD
  8
0
 10
579.96398223318317
 20
127.92918040099271
 30
0.0
 11
579.35373917762774
 21
127.53334706765941
 31
0.0
  0
LINE
  5
3CE
  8
0
 10
579.35373917762774
 20
127.53334706765941
 30
0.0
 11
578.96646239191341
 21
126.9093391311515
 31
0.0
  0
LINE
  5
3CF
  8
0
 10
578.96646239191341
 20
126.9093391311515
 30
0.0
 11
578.83737013000859
 21
126.0928708771832
 31
0.0
  0
LINE
  5
3D0
  8
0
 10
578.83737013000859
 20
126.0928708771832
 30
0.0
 11
578.96708243159605
 21
125.2745425041673
 31
0.0
  0
LINE
  5
3D1
  8
0
 10
578.96708243159605
 20
125.2745425041673
 30
0.0
 11
579.35621933635787
 21
124.6509065914689
 31
0.0
  0
LINE
  5
3D2
  8
0
 10
579.35621933635787
 20
124.6509065914689
 30
0.0
 11
579.97154671731016
 21
124.25618932956409
 31
0.0
  0
LINE
  5
3D3
  8
0
 10
579.97154671731016
 20
124.25618932956409
 30
0.0
 11
580.77983044746895
 21
124.1246169089293
 31
0.0
  0
LINE
  5
3D4
  8
0
 10
580.77983044746895
 20
124.1246169089293
 30
0.0
 11
581.50292072524667
 21
124.2267994486118
 31
0.0
  0
LINE
  5
3D5
  8
0
 10
581.50292072524667
 20
124.2267994486118
 30
0.0
 11
582.05909632048485
 21
124.53334706765941
 31
0.0
  0
LINE
  5
3D6
  8
0
 10
582.05909632048485
 20
124.53334706765941
 30
0.0
 11
582.42653183635775
 21
125.0251625438499
 31
0.0
  0
LINE
  5
3D7
  8
0
 10
582.42653183635775
 20
125.0251625438499
 30
0.0
 11
582.5834018760404
 21
125.683148654961
 31
0.0
  0
LINE
  5
3D8
  8
0
 10
582.5834018760404
 20
125.683148654961
 30
0.0
 11
581.44054473318317
 21
125.683148654961
 31
0.0
  0
LINE
  5
3D9
  8
0
 10
574.21881735541547
 20
126.4572228438842
 30
0.0
 11
575.39639672049486
 21
126.4572228438842
 31
0.0
  0
LINE
  5
3DA
  8
0
 10
575.39639672049486
 20
126.4572228438842
 30
0.0
 11
575.5432221173204
 21
126.9651593518207
 31
0.0
  0
LINE
  5
3DB
  8
0
 10
575.5432221173204
 20
126.9651593518207
 30
0.0
 11
576.74659513319341
 21
126.9651593518207
 31
0.0
  0
LINE
  5
3DC
  8
0
 10
576.74659513319341
 20
126.9651593518207
 30
0.0
 11
576.88846021255836
 21
126.4572228438842
 31
0.0
  0
LINE
  5
3DD
  8
0
 10
576.88846021255836
 20
126.4572228438842
 30
0.0
 11
578.09183322843137
 21
126.4572228438842
 31
0.0
  0
LINE
  5
3DE
  8
0
 10
578.09183322843137
 20
126.4572228438842
 30
0.0
 11
576.76246814906642
 21
130.26674665340801
 31
0.0
  0
LINE
  5
3DF
  8
0
 10
576.76246814906642
 20
130.26674665340801
 30
0.0
 11
575.53330148239979
 21
130.26674665340801
 31
0.0
  0
LINE
  5
3E0
  8
0
 10
575.53330148239979
 20
130.26674665340801
 30
0.0
 11
574.21881735541547
 21
126.4572228438842
 31
0.0
  0
LINE
  5
3E1
  8
0
 10
575.76346021255836
 20
127.7905561772175
 30
0.0
 11
576.14937291097112
 21
129.09412760578891
 31
0.0
  0
LINE
  5
3E2
  8
0
 10
576.14937291097112
 20
129.09412760578891
 30
0.0
 11
576.52635703795522
 21
127.7905561772175
 31
0.0
  0
LINE
  5
3E3
  8
0
 10
576.52635703795522
 20
127.7905561772175
 30
0.0
 11
575.76346021255836
 21
127.7905561772175
 31
0.0
  0
LINE
  5
3E4
  8
0
 10
570.45808616515421
 20
128.1976111530644
 30
0.0
 11
572.1574909270588
 21
128.1976111530644
 31
0.0
  0
LINE
  5
3E5
  8
0
 10
572.1574909270588
 20
128.1976111530644
 30
0.0
 11
572.92534806991614
 21
128.23630162925491
 31
0.0
  0
LINE
  5
3E6
  8
0
 10
572.92534806991614
 20
128.23630162925491
 30
0.0
 11
573.33804648261446
 21
128.3682460736994
 31
0.0
  0
LINE
  5
3E7
  8
0
 10
573.33804648261446
 20
128.3682460736994
 30
0.0
 11
573.74628060959867
 21
128.7511825816359
 31
0.0
  0
LINE
  5
3E8
  8
0
 10
573.74628060959867
 20
128.7511825816359
 30
0.0
 11
573.88665759372554
 21
129.3384841689375
 31
0.0
  0
LINE
  5
3E9
  8
0
 10
573.88665759372554
 20
129.3384841689375
 30
0.0
 11
573.7428083873765
 21
129.90148020068349
 31
0.0
  0
LINE
  5
3EA
  8
0
 10
573.7428083873765
 20
129.90148020068349
 30
0.0
 11
573.29935600642398
 21
130.22638099433431
 31
0.0
  0
LINE
  5
3EB
  8
0
 10
573.29935600642398
 20
130.22638099433431
 30
0.0
 11
573.64459410166205
 21
130.54384131179461
 31
0.0
  0
LINE
  5
3EC
  8
0
 10
573.64459410166205
 20
130.54384131179461
 30
0.0
 11
573.75967346674145
 21
130.99622226417549
 31
0.0
  0
LINE
  5
3ED
  8
0
 10
573.75967346674145
 20
130.99622226417549
 30
0.0
 11
573.60590362547157
 21
131.55624210544539
 31
0.0
  0
LINE
  5
3EE
  8
0
 10
573.60590362547157
 20
131.55624210544539
 30
0.0
 11
573.16344330801144
 21
131.8960238514772
 31
0.0
  0
LINE
  5
3EF
  8
0
 10
573.16344330801144
 20
131.8960238514772
 30
0.0
 11
572.76810600642409
 21
131.98134131179461
 31
0.0
  0
LINE
  5
3F0
  8
0
 10
572.76810600642409
 20
131.98134131179461
 30
0.0
 11
572.03447505404313
 21
132.00713496258831
 31
0.0
  0
LINE
  5
3F1
  8
0
 10
572.03447505404313
 20
132.00713496258831
 30
0.0
 11
570.45808616515421
 21
132.00713496258831
 31
0.0
  0
LINE
  5
3F2
  8
0
 10
570.45808616515421
 20
132.00713496258831
 30
0.0
 11
570.45808616515421
 21
128.1976111530644
 31
0.0
  0
LINE
  5
3F3
  8
0
 10
571.66443537150337
 20
129.08650004195329
 30
0.0
 11
571.66443537150337
 21
129.784912740366
 31
0.0
  0
LINE
  5
3F4
  8
0
 10
571.66443537150337
 20
129.784912740366
 30
0.0
 11
572.21304648261446
 21
129.784912740366
 31
0.0
  0
LINE
  5
3F5
  8
0
 10
572.21304648261446
 20
129.784912740366
 30
0.0
 11
572.62227267309072
 21
129.70554766100091
 31
0.0
  0
LINE
  5
3F6
  8
0
 10
572.62227267309072
 20
129.70554766100091
 30
0.0
 11
572.74380045086855
 21
129.4386825816359
 31
0.0
  0
LINE
  5
3F7
  8
0
 10
572.74380045086855
 20
129.4386825816359
 30
0.0
 11
572.62475283182084
 21
129.16884131179461
 31
0.0
  0
LINE
  5
3F8
  8
0
 10
572.62475283182084
 20
129.16884131179461
 30
0.0
 11
572.22395918102711
 21
129.08650004195329
 31
0.0
  0
LINE
  5
3F9
  8
0
 10
572.22395918102711
 20
129.08650004195329
 30
0.0
 11
571.66443537150337
 21
129.08650004195329
 31
0.0
  0
LINE
  5
3FA
  8
0
 10
571.66443537150337
 20
130.48332543877871
 30
0.0
 11
571.66443537150337
 21
131.1182460736994
 31
0.0
  0
LINE
  5
3FB
  8
0
 10
571.66443537150337
 20
131.1182460736994
 30
0.0
 11
571.99876076832879
 21
131.1182460736994
 31
0.0
  0
LINE
  5
3FC
  8
0
 10
571.99876076832879
 20
131.1182460736994
 30
0.0
 11
572.50719330801144
 21
131.05078575623909
 31
0.0
  0
LINE
  5
3FD
  8
0
 10
572.50719330801144
 20
131.05078575623909
 30
0.0
 11
572.61681632388434
 21
130.80078575623901
 31
0.0
  0
LINE
  5
3FE
  8
0
 10
572.61681632388434
 20
130.80078575623901
 30
0.0
 11
572.51463378420169
 21
130.5557460736994
 31
0.0
  0
LINE
  5
3FF
  8
0
 10
572.51463378420169
 20
130.5557460736994
 30
0.0
 11
572.16245124451927
 21
130.48332543877871
 31
0.0
  0
LINE
  5
400
  8
0
 10
572.16245124451927
 20
130.48332543877871
 30
0.0
 11
571.66443537150337
 21
130.48332543877871
 31
0.0
  0
ARC
  5
401
  8
0
 10
576.31804395919494
 20
128.12500450375899
 30
0.0
 40
9.0000000000000089
 50
179.99999999999969
 51
359.99999999999881
  0
ARC
  5
402
  8
0
 10
576.31804395919494
 20
128.12500450375899
 30
0.0
 40
9.0000000000000089
 50
359.99999999999937
 51
179.99999999999969
  0
ARC
  5
403
  8
0
 10
576.31804395919301
 20
150.37500450375771
 30
0.0
 40
4.0000000000000133
 50
90.0
 51
270.0
  0
ARC
  5
404
  8
0
 10
576.31804395919301
 20
150.37500450375771
 30
0.0
 40
3.9999999999999978
 50
270.0
 51
90.0
  0
LINE
  5
405
  8
0
 10
470.00554395919721
 20
49.250004503757957
 30
0.0
 11
470.25554395919761
 21
49.250004503757957
 31
0.0
  0
LINE
  5
406
  8
0
 10
470.25554395919761
 20
50.750004503758298
 30
0.0
 11
470.00554395919721
 21
50.750004503758298
 31
0.0
  0
LINE
  5
407
  8
0
 10
470.00554395919733
 20
32.000004503757957
 30
0.0
 11
470.25554395919789
 21
32.000004503757957
 31
0.0
  0
LINE
  5
408
  8
0
 10
470.25554395919789
 20
35.000004503757957
 30
0.0
 11
470.00554395919733
 21
35.000004503757957
 31
0.0
  0
LINE
  5
409
  8
0
 10
470.00554395919607
 20
50.000004503758127
 30
0.0
 11
470.00554395919607
 21
50.649523485624002
 31
0.0
  0
LINE
  5
40A
  8
0
 10
470.00554395919607
 20
50.649523556596442
 30
0.0
 11
470.00554395919607
 21
50.724448239941488
 31
0.0
  0
LINE
  5
40B
  8
0
 10
470.00554395919607
 20
50.724448873474927
 30
0.0
 11
470.00554395919607
 21
50.750004503758127
 31
0.0
  0
LINE
  5
40C
  8
0
 10
470.00554395919607
 20
49.25000450375812
 30
0.0
 11
470.00554395919607
 21
49.275560134041321
 31
0.0
  0
LINE
  5
40D
  8
0
 10
470.00554395919607
 20
49.275562061288042
 30
0.0
 11
470.00554395919607
 21
49.350485450919798
 31
0.0
  0
LINE
  5
40E
  8
0
 10
470.00554395919607
 20
49.35048709296165
 30
0.0
 11
470.00554395919607
 21
49.469671529667409
 31
0.0
  0
LINE
  5
40F
  8
0
 10
470.00554395919607
 20
49.469674417868212
 30
0.0
 11
470.00554395919607
 21
49.625002415737782
 31
0.0
  0
LINE
  5
410
  8
0
 10
470.00554395919607
 20
49.625004503758127
 30
0.0
 11
470.00554395919607
 21
49.805887799380159
 31
0.0
  0
LINE
  5
411
  8
0
 10
470.00554395919607
 20
49.805890219931229
 30
0.0
 11
470.00554395919607
 21
50.000002574445581
 31
0.0
  0
LINE
  5
412
  8
0
 10
470.0055439591963
 20
33.500005468413562
 30
0.0
 11
470.0055439591963
 21
34.250004503758127
 31
0.0
  0
LINE
  5
413
  8
0
 10
470.0055439591963
 20
34.250005547768133
 30
0.0
 11
470.0055439591963
 21
34.799041681957313
 31
0.0
  0
LINE
  5
414
  8
0
 10
470.0055439591963
 20
34.7990426094348
 30
0.0
 11
470.0055439591963
 21
34.948893243191733
 31
0.0
  0
LINE
  5
415
  8
0
 10
470.0055439591963
 20
34.948893321248363
 30
0.0
 11
470.00554395919642
 21
35.000004503758127
 31
0.0
  0
LINE
  5
416
  8
0
 10
470.0055439591963
 20
32.000004503758142
 30
0.0
 11
470.0055439591963
 21
32.051113789843143
 31
0.0
  0
LINE
  5
417
  8
0
 10
470.0055439591963
 20
32.051115764324521
 30
0.0
 11
470.0055439591963
 21
32.200966398081484
 31
0.0
  0
LINE
  5
418
  8
0
 10
470.0055439591963
 20
32.200966540025362
 30
0.0
 11
470.0055439591963
 21
32.439344110111541
 31
0.0
  0
LINE
  5
419
  8
0
 10
470.0055439591963
 20
32.439344331978333
 30
0.0
 11
470.0055439591963
 21
33.500004503758127
 31
0.0
  0
LINE
  5
41A
  8
0
 10
470.00554395919733
 20
8.0000045037583032
 30
0.0
 11
470.25554395919789
 21
8.0000045037583032
 31
0.0
  0
LINE
  5
41B
  8
0
 10
470.25554395919789
 20
16.000004503758181
 30
0.0
 11
470.00554395919733
 21
16.000004503758181
 31
0.0
  0
LINE
  5
41C
  8
0
 10
470.0055439591963
 20
12.00000450375815
 30
0.0
 11
470.0055439591963
 21
13.035280684168219
 31
0.0
  0
LINE
  5
41D
  8
0
 10
470.0055439591963
 20
13.03528142796559
 30
0.0
 11
470.0055439591963
 21
14.0000040555016
 31
0.0
  0
LINE
  5
41E
  8
0
 10
470.0055439591963
 20
14.00000450375815
 30
0.0
 11
470.0055439591963
 21
14.82843162850433
 31
0.0
  0
LINE
  5
41F
  8
0
 10
470.0055439591963
 20
14.828431849844071
 30
0.0
 11
470.0055439591963
 21
15.464106118895909
 31
0.0
  0
LINE
  5
420
  8
0
 10
470.0055439591963
 20
15.46410697462845
 30
0.0
 11
470.0055439591963
 21
15.863707448683311
 31
0.0
  0
LINE
  5
421
  8
0
 10
470.0055439591963
 20
15.86370780891442
 30
0.0
 11
470.0055439591963
 21
16.000004503758149
 31
0.0
  0
LINE
  5
422
  8
0
 10
470.0055439591963
 20
8.0000045037581646
 30
0.0
 11
470.0055439591963
 21
8.1363008324130135
 31
0.0
  0
LINE
  5
423
  8
0
 10
470.0055439591963
 20
8.1363011986018918
 30
0.0
 11
470.0055439591963
 21
8.5359028886204094
 31
0.0
  0
LINE
  5
424
  8
0
 10
470.0055439591963
 20
8.5359029398326918
 30
0.0
 11
470.0055439591963
 21
9.1715771576712761
 31
0.0
  0
LINE
  5
425
  8
0
 10
470.0055439591963
 20
9.1715773790119712
 30
0.0
 11
470.0055439591963
 21
10.00000424275526
 31
0.0
  0
LINE
  5
426
  8
0
 10
470.0055439591963
 20
10.00000450375815
 30
0.0
 11
470.0055439591963
 21
12.00000450375815
 31
0.0
  0
LINE
  5
427
  8
0
 10
0.0000064154708639
 20
158.12500450375751
 30
0.0
 11
212.12500641546529
 21
158.12500450375751
 31
0.0
  0
LINE
  5
428
  8
0
 10
212.12500641546529
 20
80.750004503757779
 30
0.0
 11
0.0000064154708639
 21
80.750004503757779
 31
0.0
  0
LINE
  5
429
  8
0
 10
0.0000064154708639
 20
158.12500450375751
 30
0.0
 11
0.0000064154708639
 21
80.750004503757779
 31
0.0
  0
LINE
  5
42A
  8
0
 10
212.12500641546529
 20
80.750004503757779
 30
0.0
 11
212.12500641546529
 21
158.12500450375751
 31
0.0
  0
LINE
  5
42B
  8
0
 10
0.0000064154708355
 20
80.750004503757751
 30
0.0
 11
212.12500641547069
 21
80.750004503757751
 31
0.0
  0
LINE
  5
42C
  8
0
 10
212.12500641547069
 20
0.0000045037577365
 30
0.0
 11
0.0000064154708355
 21
0.0000045037577365
 31
0.0
  0
LINE
  5
42D
  8
0
 10
212.12500641547069
 20
80.750004503757751
 30
0.0
 11
212.12500641547069
 21
0.0000045037577365
 31
0.0
  0
LINE
  5
42E
  8
0
 10
0.0000064154708355
 20
0.0000045037577365
 30
0.0
 11
0.0000064154708355
 21
80.750004503757751
 31
0.0
  0
ARC
  5
42F
  8
0
 10
106.0625064154716
 20
128.12500450375919
 30
0.0
 40
8.2500000000000018
 50
179.99999999999969
 51
359.99999999999881
  0
ARC
  5
430
  8
0
 10
106.0625064154716
 20
128.12500450375919
 30
0.0
 40
8.25
 50
359.99999999999937
 51
179.99999999999969
  0
ARC
  5
431
  8
0
 10
106.0625064154716
 20
128.12500450375919
 30
0.0
 40
7.6875000000000018
 50
0.0000000000006107
 51
180.0000000000002
  0
ARC
  5
432
  8
0
 10
106.0625064154716
 20
128.12500450375919
 30
0.0
 40
7.6874999999999831
 50
180.00000000000031
 51
359.9999999999996
  0
LINE
  5
433
  8
0
 10
111.1850071894594
 20
125.6831486549618
 30
0.0
 11
110.990066713269
 21
125.23423992480301
 31
0.0
  0
LINE
  5
434
  8
0
 10
110.990066713269
 20
125.23423992480301
 30
0.0
 11
110.5391738561261
 21
125.076997861311
 31
0.0
  0
LINE
  5
435
  8
0
 10
110.5391738561261
 20
125.076997861311
 30
0.0
 11
110.2146450862848
 21
125.1412339724221
 31
0.0
  0
LINE
  5
436
  8
0
 10
110.2146450862848
 20
125.1412339724221
 30
0.0
 11
109.97915401485621
 21
125.3339423057554
 31
0.0
  0
LINE
  5
437
  8
0
 10
109.97915401485621
 20
125.3339423057554
 30
0.0
 11
109.78818179263401
 21
126.09187881369191
 31
0.0
  0
LINE
  5
438
  8
0
 10
109.78818179263401
 20
126.09187881369191
 30
0.0
 11
109.97220957041181
 21
126.85576770258081
 31
0.0
  0
LINE
  5
439
  8
0
 10
109.97220957041181
 20
126.85576770258081
 30
0.0
 11
110.20199627676099
 21
127.045499845438
 31
0.0
  0
LINE
  5
43A
  8
0
 10
110.20199627676099
 20
127.045499845438
 30
0.0
 11
110.5233008402531
 21
127.108743893057
 31
0.0
  0
LINE
  5
43B
  8
0
 10
110.5233008402531
 20
127.108743893057
 30
0.0
 11
110.9915548085071
 21
126.9653907184538
 31
0.0
  0
LINE
  5
43C
  8
0
 10
110.9915548085071
 20
126.9653907184538
 30
0.0
 11
111.1850071894594
 21
126.5402915121046
 31
0.0
  0
LINE
  5
43D
  8
0
 10
111.1850071894594
 20
126.5402915121046
 30
0.0
 11
112.32786433231659
 21
126.5402915121046
 31
0.0
  0
LINE
  5
43E
  8
0
 10
112.32786433231659
 20
126.5402915121046
 30
0.0
 11
112.1676460783483
 21
127.18798496448559
 31
0.0
  0
LINE
  5
43F
  8
0
 10
112.1676460783483
 20
127.18798496448559
 30
0.0
 11
111.80008655453879
 21
127.6667796073427
 31
0.0
  0
LINE
  5
440
  8
0
 10
111.80008655453879
 20
127.6667796073427
 30
0.0
 11
111.24105877676099
 21
127.96253853591421
 31
0.0
  0
LINE
  5
441
  8
0
 10
111.24105877676099
 20
127.96253853591421
 30
0.0
 11
110.506435760888
 21
128.061124845438
 31
0.0
  0
LINE
  5
442
  8
0
 10
110.506435760888
 20
128.061124845438
 30
0.0
 11
109.7084446894594
 21
127.9291804009935
 31
0.0
  0
LINE
  5
443
  8
0
 10
109.7084446894594
 20
127.9291804009935
 30
0.0
 11
109.0982016339039
 21
127.5333470676602
 31
0.0
  0
LINE
  5
444
  8
0
 10
109.0982016339039
 20
127.5333470676602
 30
0.0
 11
108.71092484818961
 21
126.90933913115229
 31
0.0
  0
LINE
  5
445
  8
0
 10
108.71092484818961
 20
126.90933913115229
 30
0.0
 11
108.5818325862848
 21
126.092870877184
 31
0.0
  0
LINE
  5
446
  8
0
 10
108.5818325862848
 20
126.092870877184
 30
0.0
 11
108.71154488787209
 21
125.2745425041681
 31
0.0
  0
LINE
  5
447
  8
0
 10
108.71154488787209
 20
125.2745425041681
 30
0.0
 11
109.10068179263401
 21
124.65090659146971
 31
0.0
  0
LINE
  5
448
  8
0
 10
109.10068179263401
 20
124.65090659146971
 30
0.0
 11
109.7160091735864
 21
124.2561893295649
 31
0.0
  0
LINE
  5
449
  8
0
 10
109.7160091735864
 20
124.2561893295649
 30
0.0
 11
110.52429290374511
 21
124.12461690892999
 31
0.0
  0
LINE
  5
44A
  8
0
 10
110.52429290374511
 20
124.12461690892999
 30
0.0
 11
111.24738318152291
 21
124.2267994486126
 31
0.0
  0
LINE
  5
44B
  8
0
 10
111.24738318152291
 20
124.2267994486126
 30
0.0
 11
111.80355877676099
 21
124.5333470676602
 31
0.0
  0
LINE
  5
44C
  8
0
 10
111.80355877676099
 20
124.5333470676602
 30
0.0
 11
112.17099429263401
 21
125.0251625438506
 31
0.0
  0
LINE
  5
44D
  8
0
 10
112.17099429263401
 20
125.0251625438506
 30
0.0
 11
112.32786433231659
 21
125.6831486549618
 31
0.0
  0
LINE
  5
44E
  8
0
 10
112.32786433231659
 20
125.6831486549618
 30
0.0
 11
111.1850071894594
 21
125.6831486549618
 31
0.0
  0
LINE
  5
44F
  8
0
 10
103.96327981169171
 20
126.45722284388501
 30
0.0
 11
105.1408591767711
 21
126.45722284388501
 31
0.0
  0
LINE
  5
450
  8
0
 10
105.1408591767711
 20
126.45722284388501
 30
0.0
 11
105.28768457359649
 21
126.9651593518215
 31
0.0
  0
LINE
  5
451
  8
0
 10
105.28768457359649
 20
126.9651593518215
 30
0.0
 11
106.49105758946951
 21
126.9651593518215
 31
0.0
  0
LINE
  5
452
  8
0
 10
106.49105758946951
 20
126.9651593518215
 30
0.0
 11
106.6329226688346
 21
126.45722284388501
 31
0.0
  0
LINE
  5
453
  8
0
 10
106.6329226688346
 20
126.45722284388501
 30
0.0
 11
107.83629568470759
 21
126.45722284388501
 31
0.0
  0
LINE
  5
454
  8
0
 10
107.83629568470759
 20
126.45722284388501
 30
0.0
 11
106.5069306053426
 21
130.2667466534088
 31
0.0
  0
LINE
  5
455
  8
0
 10
106.5069306053426
 20
130.2667466534088
 30
0.0
 11
105.2777639386759
 21
130.2667466534088
 31
0.0
  0
LINE
  5
456
  8
0
 10
105.2777639386759
 20
130.2667466534088
 30
0.0
 11
103.96327981169171
 21
126.45722284388501
 31
0.0
  0
LINE
  5
457
  8
0
 10
105.5079226688346
 20
127.79055617721831
 30
0.0
 11
105.89383536724731
 21
129.09412760578971
 31
0.0
  0
LINE
  5
458
  8
0
 10
105.89383536724731
 20
129.09412760578971
 30
0.0
 11
106.2708194942314
 21
127.79055617721831
 31
0.0
  0
LINE
  5
459
  8
0
 10
106.2708194942314
 20
127.79055617721831
 30
0.0
 11
105.5079226688346
 21
127.79055617721831
 31
0.0
  0
LINE
  5
45A
  8
0
 10
100.2025486214304
 20
128.1976111530652
 30
0.0
 11
101.9019533833351
 21
128.1976111530652
 31
0.0
  0
LINE
  5
45B
  8
0
 10
101.9019533833351
 20
128.1976111530652
 30
0.0
 11
102.66981052619229
 21
128.23630162925571
 31
0.0
  0
LINE
  5
45C
  8
0
 10
102.66981052619229
 20
128.23630162925571
 30
0.0
 11
103.0825089388907
 21
128.36824607370011
 31
0.0
  0
LINE
  5
45D
  8
0
 10
103.0825089388907
 20
128.36824607370011
 30
0.0
 11
103.4907430658748
 21
128.7511825816367
 31
0.0
  0
LINE
  5
45E
  8
0
 10
103.4907430658748
 20
128.7511825816367
 30
0.0
 11
103.6311200500018
 21
129.33848416893829
 31
0.0
  0
LINE
  5
45F
  8
0
 10
103.6311200500018
 20
129.33848416893829
 30
0.0
 11
103.4872708436526
 21
129.90148020068429
 31
0.0
  0
LINE
  5
460
  8
0
 10
103.4872708436526
 20
129.90148020068429
 30
0.0
 11
103.0438184627002
 21
130.2263809943351
 31
0.0
  0
LINE
  5
461
  8
0
 10
103.0438184627002
 20
130.2263809943351
 30
0.0
 11
103.3890565579383
 21
130.5438413117954
 31
0.0
  0
LINE
  5
462
  8
0
 10
103.3890565579383
 20
130.5438413117954
 30
0.0
 11
103.5041359230177
 21
130.99622226417631
 31
0.0
  0
LINE
  5
463
  8
0
 10
103.5041359230177
 20
130.99622226417631
 30
0.0
 11
103.35036608174779
 21
131.55624210544619
 31
0.0
  0
LINE
  5
464
  8
0
 10
103.35036608174779
 20
131.55624210544619
 30
0.0
 11
102.90790576428751
 21
131.89602385147799
 31
0.0
  0
LINE
  5
465
  8
0
 10
102.90790576428751
 20
131.89602385147799
 30
0.0
 11
102.5125684627002
 21
131.9813413117954
 31
0.0
  0
LINE
  5
466
  8
0
 10
102.5125684627002
 20
131.9813413117954
 30
0.0
 11
101.7789375103193
 21
132.00713496258911
 31
0.0
  0
LINE
  5
467
  8
0
 10
101.7789375103193
 20
132.00713496258911
 30
0.0
 11
100.2025486214304
 21
132.00713496258911
 31
0.0
  0
LINE
  5
468
  8
0
 10
100.2025486214304
 20
132.00713496258911
 30
0.0
 11
100.2025486214304
 21
128.1976111530652
 31
0.0
  0
LINE
  5
469
  8
0
 10
101.4088978277795
 20
129.08650004195411
 30
0.0
 11
101.4088978277795
 21
129.78491274036679
 31
0.0
  0
LINE
  5
46A
  8
0
 10
101.4088978277795
 20
129.78491274036679
 30
0.0
 11
101.9575089388907
 21
129.78491274036679
 31
0.0
  0
LINE
  5
46B
  8
0
 10
101.9575089388907
 20
129.78491274036679
 30
0.0
 11
102.3667351293669
 21
129.7055476610017
 31
0.0
  0
LINE
  5
46C
  8
0
 10
102.3667351293669
 20
129.7055476610017
 30
0.0
 11
102.4882629071447
 21
129.4386825816367
 31
0.0
  0
LINE
  5
46D
  8
0
 10
102.4882629071447
 20
129.4386825816367
 30
0.0
 11
102.369215288097
 21
129.1688413117954
 31
0.0
  0
LINE
  5
46E
  8
0
 10
102.369215288097
 20
129.1688413117954
 30
0.0
 11
101.96842163730329
 21
129.08650004195411
 31
0.0
  0
LINE
  5
46F
  8
0
 10
101.96842163730329
 20
129.08650004195411
 30
0.0
 11
101.4088978277795
 21
129.08650004195411
 31
0.0
  0
LINE
  5
470
  8
0
 10
101.4088978277795
 20
130.4833254387795
 30
0.0
 11
101.4088978277795
 21
131.11824607370019
 31
0.0
  0
LINE
  5
471
  8
0
 10
101.4088978277795
 20
131.11824607370019
 30
0.0
 11
101.743223224605
 21
131.11824607370019
 31
0.0
  0
LINE
  5
472
  8
0
 10
101.743223224605
 20
131.11824607370019
 30
0.0
 11
102.25165576428751
 21
131.0507857562398
 31
0.0
  0
LINE
  5
473
  8
0
 10
102.25165576428751
 20
131.0507857562398
 30
0.0
 11
102.3612787801605
 21
130.8007857562398
 31
0.0
  0
LINE
  5
474
  8
0
 10
102.3612787801605
 20
130.8007857562398
 30
0.0
 11
102.259096240478
 21
130.55574607370019
 31
0.0
  0
LINE
  5
475
  8
0
 10
102.259096240478
 20
130.55574607370019
 30
0.0
 11
101.9069137007954
 21
130.4833254387795
 31
0.0
  0
LINE
  5
476
  8
0
 10
101.9069137007954
 20
130.4833254387795
 30
0.0
 11
101.4088978277795
 21
130.4833254387795
 31
0.0
  0
ARC
  5
477
  8
0
 10
106.06250641547111
 20
128.12500450375981
 30
0.0
 40
9.0000000000000124
 50
179.99999999999969
 51
359.99999999999881
  0
ARC
  5
478
  8
0
 10
106.06250641547111
 20
128.12500450375981
 30
0.0
 40
9.0000000000000124
 50
359.99999999999949
 51
179.9999999999996
  0
ARC
  5
479
  8
0
 10
208.00000641547189
 20
6.6250045037577658
 30
0.0
 40
0.9999999999999998
 50
359.99999999999949
 51
179.9999999999998
  0
ARC
  5
47A
  8
0
 10
208.00000641547189
 20
6.6250045037577658
 30
0.0
 40
1.0
 50
180.00000000000011
 51
359.9999999999992
  0
LINE
  5
47B
  8
0
 10
212.12500641547089
 20
49.250004503757957
 30
0.0
 11
212.37500641547001
 21
49.250004503757957
 31
0.0
  0
LINE
  5
47C
  8
0
 10
212.37500641547001
 20
50.750004503758298
 30
0.0
 11
212.12500641547089
 21
50.750004503758298
 31
0.0
  0
LINE
  5
47D
  8
0
 10
212.12500641547089
 20
32.000004503757957
 30
0.0
 11
212.37500641547001
 21
32.000004503757957
 31
0.0
  0
LINE
  5
47E
  8
0
 10
212.37500641547001
 20
35.000004503757957
 30
0.0
 11
212.12500641547089
 21
35.000004503757957
 31
0.0
  0
LINE
  5
47F
  8
0
 10
212.37500641547109
 20
50.750004503758127
 30
0.0
 11
212.37500641547109
 21
50.37500450375812
 31
0.0
  0
LINE
  5
480
  8
0
 10
212.37500641547109
 20
50.3750027107317
 30
0.0
 11
212.37500641547109
 21
50.194118787585019
 31
0.0
  0
LINE
  5
481
  8
0
 10
212.37500641547109
 20
50.194117316034529
 30
0.0
 11
212.37500641547109
 21
50.000004503758127
 31
0.0
  0
LINE
  5
482
  8
0
 10
212.37500641547109
 20
50.000002574445581
 30
0.0
 11
212.37500641547109
 21
49.805890219931229
 31
0.0
  0
LINE
  5
483
  8
0
 10
212.37500641547109
 20
49.805887799380173
 30
0.0
 11
212.37500641547109
 21
49.625004503758127
 31
0.0
  0
LINE
  5
484
  8
0
 10
212.37500641547109
 20
49.625002415737782
 30
0.0
 11
212.37500641547109
 21
49.469674417868212
 31
0.0
  0
LINE
  5
485
  8
0
 10
212.37500641547109
 20
49.469671529667423
 30
0.0
 11
212.37500641547109
 21
49.25000450375812
 31
0.0
  0
LINE
  5
486
  8
0
 10
212.37500641547089
 20
35.000004503758127
 30
0.0
 11
212.37500641547089
 21
34.94889332124837
 31
0.0
  0
LINE
  5
487
  8
0
 10
212.37500641547089
 20
34.948893243191748
 30
0.0
 11
212.37500641547089
 21
34.25000554776814
 31
0.0
  0
LINE
  5
488
  8
0
 10
212.37500641547089
 20
34.250004503758149
 30
0.0
 11
212.37500641547089
 21
33.888233071411932
 31
0.0
  0
LINE
  5
489
  8
0
 10
212.37500641547089
 20
33.888231991884858
 30
0.0
 11
212.37500641547089
 21
33.500005468413583
 31
0.0
  0
LINE
  5
48A
  8
0
 10
212.37500641547109
 20
33.500004503758127
 30
0.0
 11
212.37500641547109
 21
33.111776083844113
 31
0.0
  0
LINE
  5
48B
  8
0
 10
212.37500641547109
 20
33.111775936104351
 30
0.0
 11
212.37500641547109
 21
32.750005400270233
 31
0.0
  0
LINE
  5
48C
  8
0
 10
212.37500641547109
 20
32.750004503758127
 30
0.0
 11
212.37500641547109
 21
32.439344331978312
 31
0.0
  0
LINE
  5
48D
  8
0
 10
212.37500641547109
 20
32.439344110111527
 30
0.0
 11
212.37500641547109
 21
32.051115764324521
 31
0.0
  0
LINE
  5
48E
  8
0
 10
212.37500641547109
 20
32.051113789843143
 30
0.0
 11
212.37500641547109
 21
32.000004503758142
 31
0.0
  0
LINE
  5
48F
  8
0
 10
212.12500641547089
 20
8.0000045037583032
 30
0.0
 11
212.37500641547001
 21
8.0000045037583032
 31
0.0
  0
LINE
  5
490
  8
0
 10
212.37500641547001
 20
16.000004503758181
 30
0.0
 11
212.12500641547089
 21
16.000004503758181
 31
0.0
  0
LINE
  5
491
  8
0
 10
212.37500641547109
 20
16.000004503758149
 30
0.0
 11
212.37500641547109
 21
15.46410697462847
 31
0.0
  0
LINE
  5
492
  8
0
 10
212.37500641547109
 20
15.464106118895931
 30
0.0
 11
212.37500641547109
 21
14.828431849844099
 31
0.0
  0
LINE
  5
493
  8
0
 10
212.37500641547109
 20
14.82843162850437
 30
0.0
 11
212.37500641547109
 21
13.03528142796563
 31
0.0
  0
LINE
  5
494
  8
0
 10
212.37500641547109
 20
13.03528068416826
 30
0.0
 11
212.37500641547109
 21
12.000004503758181
 31
0.0
  0
LINE
  5
495
  8
0
 10
212.37500641547109
 20
12.000004503758131
 30
0.0
 11
212.37500641547109
 21
10.00000450375814
 31
0.0
  0
LINE
  5
496
  8
0
 10
212.37500641547109
 20
10.000004242755249
 30
0.0
 11
212.37500641547109
 21
9.1715773790119641
 31
0.0
  0
LINE
  5
497
  8
0
 10
212.37500641547109
 20
9.1715771576712708
 30
0.0
 11
212.37500641547109
 21
8.1363011986018883
 31
0.0
  0
LINE
  5
498
  8
0
 10
212.37500641547109
 20
8.1363008324130117
 30
0.0
 11
212.37500641547109
 21
8.0000045037581646
 31
0.0
  0
LINE
  5
499
  8
0
 10
296.67005141786927
 20
447.53821243830282
 30
0.0
 11
296.67005141786927
 21
235.41321243830839
 31
0.0
  0
LINE
  5
49A
  8
0
 10
296.67005141786927
 20
235.41321243830839
 30
0.0
 11
389.92005141786632
 21
235.41321243830819
 31
0.0
  0
LINE
  5
49B
  8
0
 10
389.92005141786632
 20
235.41321243830819
 30
0.0
 11
389.92005141786672
 21
447.53821243830259
 31
0.0
  0
LINE
  5
49C
  8
0
 10
389.92005141786672
 20
447.53821243830259
 30
0.0
 11
296.67005141786927
 21
447.53821243830282
 31
0.0
  0
LINE
  5
49D
  8
0
 10
388.29505141786962
 20
445.91321243830282
 30
0.0
 11
388.29505141786922
 21
237.03821243830291
 31
0.0
1001
ACAD
1000
ASC_BOUNDS
1002
{
1070
    19
1005
4FA
1002
}
  0
LINE
  5
49E
  8
0
 10
388.29505141786922
 20
237.03821243830291
 30
0.0
 11
298.29505141786922
 21
237.03821243830311
 31
0.0
1001
ACAD
1000
ASC_BOUNDS
1002
{
1070
    19
1005
4FA
1002
}
  0
LINE
  5
49F
  8
0
 10
298.29505141786922
 20
237.03821243830311
 30
0.0
 11
298.29505141786967
 21
445.91321243830299
 31
0.0
1001
ACAD
1000
ASC_BOUNDS
1002
{
1070
    19
1005
4FA
1002
}
  0
LINE
  5
4A0
  8
0
 10
298.29505141786967
 20
445.91321243830299
 30
0.0
 11
388.29505141786962
 21
445.91321243830282
 31
0.0
1001
ACAD
1000
ASC_BOUNDS
1002
{
1070
    19
1005
4FA
1002
}
  0
LINE
  5
4A1
  8
0
 10
389.92005141786632
 20
235.41321243830279
 30
0.0
 11
391.0450514178699
 21
235.41321243830279
 31
0.0
  0
LINE
  5
4A2
  8
0
 10
391.0450514178699
 20
235.41321243830279
 30
0.0
 11
391.0450514178699
 21
447.53821243830282
 31
0.0
  0
LINE
  5
4A3
  8
0
 10
391.0450514178699
 20
447.53821243830282
 30
0.0
 11
389.92005141786672
 21
447.53821243830282
 31
0.0
  0
LINE
  5
4A4
  8
0
 10
296.42005141786899
 20
238.5382124383022
 30
0.0
 11
296.6700514178691
 21
238.5382124383022
 31
0.0
  0
LINE
  5
4A5
  8
0
 10
296.6700514178691
 20
240.5382124383018
 30
0.0
 11
296.42005141786899
 21
240.5382124383018
 31
0.0
  0
LINE
  5
4A6
  8
0
 10
296.4200514178691
 20
238.53821243830151
 30
0.0
 11
296.4200514178691
 21
238.5722866120125
 31
0.0
  0
LINE
  5
4A7
  8
0
 10
296.4200514178691
 20
238.5722881957702
 30
0.0
 11
296.4200514178691
 21
238.67218361437011
 31
0.0
  0
LINE
  5
4A8
  8
0
 10
296.4200514178691
 20
238.67218703451709
 30
0.0
 11
296.4200514178691
 21
239.03821223909989
 31
0.0
  0
LINE
  5
4A9
  8
0
 10
296.4200514178691
 20
239.0382124383016
 30
0.0
 11
296.4200514178691
 21
239.279393393199
 31
0.0
  0
LINE
  5
4AA
  8
0
 10
296.4200514178691
 20
239.27939641985699
 30
0.0
 11
296.4200514178691
 21
239.5382124383016
 31
0.0
  0
LINE
  5
4AB
  8
0
 10
296.4200514178691
 20
239.53821611286449
 30
0.0
 11
296.4200514178691
 21
239.79703148340411
 31
0.0
  0
LINE
  5
4AC
  8
0
 10
296.4200514178691
 20
239.79703585325001
 30
0.0
 11
296.4200514178691
 21
240.03820868118771
 31
0.0
  0
LINE
  5
4AD
  8
0
 10
296.4200514178691
 20
240.0382124383016
 30
0.0
 11
296.4200514178691
 21
240.2453192194881
 31
0.0
  0
LINE
  5
4AE
  8
0
 10
296.4200514178691
 20
240.24532433966129
 30
0.0
 11
296.4200514178691
 21
240.40423655019259
 31
0.0
  0
LINE
  5
4AF
  8
0
 10
296.4200514178691
 20
240.40423784208599
 30
0.0
 11
296.4200514178691
 21
240.50413826459061
 31
0.0
  0
LINE
  5
4B0
  8
0
 10
296.4200514178691
 20
240.504148068441
 30
0.0
 11
296.4200514178691
 21
240.5382124383016
 31
0.0
  0
LINE
  5
4B1
  8
0
 10
390.17005141787001
 20
345.47571243829992
 30
0.0
 11
389.9200514178699
 21
345.47571243829992
 31
0.0
  0
LINE
  5
4B2
  8
0
 10
389.9200514178699
 20
337.47571243829901
 30
0.0
 11
390.17005141787001
 21
337.47571243829901
 31
0.0
  0
LINE
  5
4B3
  8
0
 10
390.17005141786979
 20
341.47571128958413
 30
0.0
 11
390.17005141786979
 21
340.44043625788947
 31
0.0
  0
LINE
  5
4B4
  8
0
 10
390.17005141786979
 20
340.44043582326611
 30
0.0
 11
390.17005141786979
 21
338.64728531355343
 31
0.0
  0
LINE
  5
4B5
  8
0
 10
390.17005141786979
 20
338.64728376933931
 30
0.0
 11
390.17005141786979
 21
338.01161082316179
 31
0.0
  0
LINE
  5
4B6
  8
0
 10
390.17005141786979
 20
338.01161035379982
 30
0.0
 11
390.17005141786979
 21
337.61200913314332
 31
0.0
  0
LINE
  5
4B7
  8
0
 10
390.17005141786979
 20
337.61200793099999
 30
0.0
 11
390.17005141786979
 21
337.47571243829958
 31
0.0
  0
LINE
  5
4B8
  8
0
 10
390.17005141786979
 20
345.47571243829969
 30
0.0
 11
390.17005141786979
 21
345.33941811834001
 31
0.0
  0
LINE
  5
4B9
  8
0
 10
390.17005141786979
 20
345.3394157434559
 30
0.0
 11
390.17005141786979
 21
344.93981529554242
 31
0.0
  0
LINE
  5
4BA
  8
0
 10
390.17005141786979
 20
344.93981405343737
 30
0.0
 11
390.17005141786979
 21
342.51098967168349
 31
0.0
  0
LINE
  5
4BB
  8
0
 10
390.17005141786979
 20
342.51098861870969
 30
0.0
 11
390.17005141786979
 21
341.47571243829969
 31
0.0
  0
LINE
  5
4BC
  8
0
 10
335.04505141786967
 20
235.1632124383022
 30
0.0
 11
335.04505141786967
 21
235.41321243830271
 31
0.0
  0
LINE
  5
4BD
  8
0
 10
333.54505141786927
 20
235.41321243830271
 30
0.0
 11
333.54505141786927
 21
235.1632124383022
 31
0.0
  0
LINE
  5
4BE
  8
0
 10
302.9200514178695
 20
235.1632124383022
 30
0.0
 11
302.9200514178695
 21
235.41321243830271
 31
0.0
  0
LINE
  5
4BF
  8
0
 10
299.92005141786922
 20
235.41321243830271
 30
0.0
 11
299.92005141786922
 21
235.1632124383022
 31
0.0
  0
LINE
  5
4C0
  8
0
 10
335.04505141786927
 20
235.16321243830251
 30
0.0
 11
334.67005246188529
 21
235.16321243830251
 31
0.0
  0
LINE
  5
4C1
  8
0
 10
334.67005141786927
 20
235.16321243830251
 30
0.0
 11
334.48916712232318
 21
235.16321243830251
 31
0.0
  0
LINE
  5
4C2
  8
0
 10
334.48916570169621
 20
235.16321243830251
 30
0.0
 11
334.29505238253017
 21
235.16321243830251
 31
0.0
  0
LINE
  5
4C3
  8
0
 10
334.29505141786927
 20
235.16321243830251
 30
0.0
 11
333.64553236503099
 21
235.16321243830251
 31
0.0
  0
LINE
  5
4C4
  8
0
 10
333.64553122833928
 20
235.16321243830251
 30
0.0
 11
333.57060704815251
 21
235.16321243830251
 31
0.0
  0
LINE
  5
4C5
  8
0
 10
333.5706070091336
 20
235.16321243830251
 30
0.0
 11
333.54505141786927
 21
235.16321243830251
 31
0.0
  0
LINE
  5
4C6
  8
0
 10
302.92005141786927
 20
235.16321243830259
 30
0.0
 11
302.71908952354602
 21
235.16321243830259
 31
0.0
  0
LINE
  5
4C7
  8
0
 10
302.71908938160578
 20
235.16321243830259
 30
0.0
 11
302.17005350589562
 21
235.16321243830259
 31
0.0
  0
LINE
  5
4C8
  8
0
 10
302.17005141786927
 20
235.16321243830259
 30
0.0
 11
301.80828282677192
 21
235.16321243830259
 31
0.0
  0
LINE
  5
4C9
  8
0
 10
301.80827998552309
 20
235.16321243830259
 30
0.0
 11
301.42005334718652
 21
235.16321243830259
 31
0.0
  0
LINE
  5
4CA
  8
0
 10
301.42005141786927
 20
235.16321243830259
 30
0.0
 11
301.03182392974702
 21
235.16321243830259
 31
0.0
  0
LINE
  5
4CB
  8
0
 10
301.03182285021558
 20
235.16321243830259
 30
0.0
 11
300.12101331219259
 21
235.16321243830259
 31
0.0
  0
LINE
  5
4CC
  8
0
 10
300.12101103880292
 20
235.16321243830259
 30
0.0
 11
299.97116267843569
 21
235.16321243830259
 31
0.0
  0
LINE
  5
4CD
  8
0
 10
299.97116260038808
 20
235.16321243830259
 30
0.0
 11
299.92005141786939
 21
235.16321243830259
 31
0.0
  0
LINE
  5
4CE
  8
0
 10
309.4200514178695
 20
235.1632124383022
 30
0.0
 11
309.4200514178695
 21
235.41321243830271
 31
0.0
  0
LINE
  5
4CF
  8
0
 10
309.4200514178695
 20
235.16321243830259
 30
0.0
 11
309.28375472302582
 21
235.16321243830259
 31
0.0
  0
LINE
  5
4D0
  8
0
 10
309.2837530691113
 20
235.16321243830259
 30
0.0
 11
308.8841532639467
 21
235.16321243830259
 31
0.0
  0
LINE
  5
4D1
  8
0
 10
308.88415303300718
 20
235.16321243830259
 30
0.0
 11
308.24847987487078
 21
235.16321243830259
 31
0.0
  0
LINE
  5
4D2
  8
0
 10
308.24847854261571
 20
235.16321243830259
 30
0.0
 11
307.42005350589591
 21
235.16321243830259
 31
0.0
  0
LINE
  5
4D3
  8
0
 10
307.4200514178695
 20
235.16321243830259
 30
0.0
 11
306.45532784211781
 21
235.16321243830259
 31
0.0
  0
LINE
  5
4D4
  8
0
 10
306.45532759827961
 20
235.16321243830259
 30
0.0
 11
305.4200514178695
 21
235.16321243830259
 31
0.0
  0
LINE
  5
4D5
  8
0
 10
305.42004948856243
 20
235.16321243830259
 30
0.0
 11
302.89988097631817
 21
235.16321243830259
 31
0.0
  0
INSERT
  5
4F1
  8
0
  6
CONTINUOUS
  2
*X4
 10
0.0
 20
0.0
 30
0.0
1001
GRADIENTCOLOR1ACI
1070
     5
1001
GRADIENTCOLOR2ACI
1070
     2
1001
ACAD
1000
HATCH
1002
{
1070
    19
1000
NET
1040
12.0
1040
0.0
1000
ASC_BOUNDS
1070
     4
1070
     1
1070
     4
1005
3B6
1005
3B7
1005
3AA
1005
3B5
1070
     1
1070
     4
1005
3B0
1005
3B7
1005
3AE
1005
3B5
1070
     1
1070
     4
1005
3A8
1005
3B7
1005
3A6
1005
3B5
1070
     1
1070
     4
1005
3A3
1005
3B7
1005
3B4
1005
3B5
1000
ASC_SEEDPOINT
1011
483.27867569287241
1021
0.0
1031
0.0
1021
60.897525191152909
1031
0.0
1000
R14_HATCH_DATA
1000
4F1
1011
1.0
1021
0.0
1031
0.0
1021
0.0
1031
0.0
1011
0.0
1021
0.0
1031
0.0
1021
1.0
1031
0.0
1011
0.0
1021
0.0
1031
0.0
1021
0.0
1031
1.0
1040
0.0
1010
0.0
1020
0.0
1030
1.0
1000
NET
1070
     0
1070
     1
1071
        4
1071
        7
1070
     0
1070
     1
1071
        4
1040
494.31804395919471
1040
79.125004503757012
1040
471.88054395919511
1040
79.125004503756784
1040
471.8805439591959
1040
4.0000045037562302
1040
494.31804395919471
1040
4.0000045037564567
1071
        4
1005
3B5
1005
3B4
1005
3B7
1005
3A3
1071
        7
1070
     0
1070
     1
1071
        4
1040
560.31526593036892
1040
79.125004503757694
1040
526.31804395919551
1040
79.125004503757339
1040
526.31804395919551
1040
4.0000045037567977
1040
560.31526593036892
1040
4.0000045037571459
1071
        4
1005
3B5
1005
3A6
1005
3B7
1005
3A8
1071
        7
1070
     0
1070
     1
1071
        4
1040
626.32704361386709
1040
79.125004503758362
1040
592.3105295599421
1040
79.125004503758021
1040
592.3105295599421
1040
4.0000045037574727
1040
626.32704361386709
1040
4.0000045037578209
1071
        4
1005
3B5
1005
3AE
1005
3B7
1005
3B0
1071
        7
1070
     0
1070
     1
1071
        4
1040
680.75554395919505
1040
79.12500450375893
1040
658.31005927596482
1040
79.125004503758703
1040
658.31005927596482
1040
4.0000045037581478
1040
680.75554395919585
1040
4.000004503758376
1071
        4
1005
3B5
1005
3AA
1005
3B7
1005
3B6
1070
     1
1070
     1
1040
0.0
1040
12.0
1070
     0
1070
     2
1040
0.0
1040
0.0
1040
0.0
1040
0.0
1040
1.5
1070
     0
1040
1.5707963267948959
1040
0.0
1040
0.0
1040
-1.5
1040
0.0000000000000001
1070
     0
1040
0.1864200147640547
1071
        4
1040
483.27867569287241
1040
60.897525191152909
1040
0.0
1040
545.0134811715709
1040
55.118504507190771
1040
0.0
1040
602.8315759413897
1040
32.934522523991973
1040
0.0
1040
670.9077207213752
1040
32.934522523991973
1040
0.0
1002
}
  0
INSERT
  5
4FA
  8
0
  6
CONTINUOUS
  2
*X5
 10
0.0
 20
0.0
 30
0.0
1001
GRADIENTCOLOR1ACI
1070
     5
1001
GRADIENTCOLOR2ACI
1070
     2
1001
ACAD
1000
HATCH
1002
{
1070
    19
1000
ANSI31
1040
12.0
1040
2.3561944901923439
1000
ASC_BOUNDS
1070
     1
1070
     1
1070
     4
1005
49D
1005
49E
1005
49F
1005
4A0
1000
ASC_SEEDPOINT
1011
337.51322761499802
1021
0.0
1031
0.0
1021
392.74473229996698
1031
0.0
1000
R14_HATCH_DATA
1000
4FA
1011
1.0
1021
0.0
1031
0.0
1021
0.0
1031
0.0
1011
0.0
1021
0.0
1031
0.0
1021
1.0
1031
0.0
1011
0.0
1021
0.0
1031
0.0
1021
0.0
1031
1.0
1040
0.0
1010
0.0
1020
0.0
1030
1.0
1000
ANSI31
1070
     0
1070
     1
1071
        1
1071
        7
1070
     0
1070
     1
1071
        4
1040
298.29505141786922
1040
237.03821243830311
1040
388.29505141786922
1040
237.03821243830291
1040
388.29505141786962
1040
445.91321243830282
1040
298.29505141786967
1040
445.91321243830299
1071
        4
1005
4A0
1005
49F
1005
49E
1005
49D
1070
     1
1070
     1
1040
2.3561944901923439
1040
12.0
1070
     0
1070
     1
1040
3.1415926535897931
1040
0.0
1040
22.75
1040
-0.0000000000000002
1040
-1.5
1070
     0
1040
0.2999087696582595
1071
        1
1040
337.51322761499802
1040
392.74473229996698
1040
0.0
1002
}
  0
ENDSEC
  0
EOF
