  0
SECTION
  2
HEADER
  9
$ACADVER
  1
AC1009
  9
$INSBASE
 10
0.0
 20
0.0
 30
0.0
  9
$EXTMIN
 10
-0.0246299840100619
 20
-0.0146129856482276
 30
-0.0015258207003583
  9
$EXTMAX
 10
806.99638374946505
 20
518.38407054065794
 30
0.0000000349246037
  9
$LIMMIN
 10
0.0
 20
0.0
  9
$LIMMAX
 10
12.0
 20
9.0
  9
$ORTHOMODE
 70
     1
  9
$REGENMODE
 70
     1
  9
$FILLMODE
 70
     1
  9
$QTEXTMODE
 70
     0
  9
$MIRRTEXT
 70
     0
  9
$DRAGMODE
 70
     2
  9
$LTSCALE
 40
1.0
  9
$OSMODE
 70
    37
  9
$ATTMODE
 70
     1
  9
$TEXTSIZE
 40
0.2
  9
$TRACEWID
 40
0.05
  9
$TEXTSTYLE
  7
ROMANS
  9
$CLAYER
  8
0
  9
$CELTYPE
  6
BYLAYER
  9
$CECOLOR
 62
   256
  9
$DIMSCALE
 40
1.0
  9
$DIMASZ
 40
0.09375
  9
$DIMEXO
 40
0.0625
  9
$DIMDLI
 40
0.375
  9
$DIMRND
 40
0.0
  9
$DIMDLE
 40
0.0
  9
$DIMEXE
 40
0.03125
  9
$DIMTP
 40
0.0
  9
$DIMTM
 40
0.0
  9
$DIMTXT
 40
0.09375
  9
$DIMCEN
 40
0.09375
  9
$DIMTSZ
 40
0.0
  9
$DIMTOL
 70
     0
  9
$DIMLIM
 70
     0
  9
$DIMTIH
 70
     0
  9
$DIMTOH
 70
     0
  9
$DIMSE1
 70
     0
  9
$DIMSE2
 70
     0
  9
$DIMTAD
 70
     0
  9
$DIMZIN
 70
     0
  9
$DIMBLK
  1

  9
$DIMASO
 70
     1
  9
$DIMSHO
 70
     1
  9
$DIMPOST
  1

  9
$DIMAPOST
  1

  9
$DIMALT
 70
     0
  9
$DIMALTD
 70
     2
  9
$DIMALTF
 40
25.399999999999999
  9
$DIMLFAC
 40
1.0
  9
$DIMTOFL
 70
     0
  9
$DIMTVP
 40
0.0
  9
$DIMTIX
 70
     0
  9
$DIMSOXD
 70
     0
  9
$DIMSAH
 70
     0
  9
$DIMBLK1
  1

  9
$DIMBLK2
  1

  9
$DIMSTYLE
  2
BAC
  9
$DIMCLRD
 70
     0
  9
$DIMCLRE
 70
     6
  9
$DIMCLRT
 70
     0
  9
$DIMTFAC
 40
1.0
  9
$DIMGAP
 40
0.0625
  9
$LUNITS
 70
     5
  9
$LUPREC
 70
     6
  9
$SKETCHINC
 40
0.1
  9
$FILLETRAD
 40
0.5
  9
$AUNITS
 70
     0
  9
$AUPREC
 70
     0
  9
$MENU
  1
.
  9
$ELEVATION
 40
0.0
  9
$PELEVATION
 40
0.0
  9
$THICKNESS
 40
0.0
  9
$LIMCHECK
 70
     0
  9
$BLIPMODE
 70
     0
  9
$CHAMFERA
 40
0.5
  9
$CHAMFERB
 40
0.5
  9
$SKPOLY
 70
     0
  9
$TDCREATE
 40
2456834.6263847221
  9
$TDUPDATE
 40
2456834.6288657058
  9
$TDINDWG
 40
0.0024826157
  9
$TDUSRTIMER
 40
0.0024821991
  9
$USRTIMER
 70
     1
  9
$ANGBASE
 50
0.0
  9
$ANGDIR
 70
     0
  9
$PDMODE
 70
     0
  9
$PDSIZE
 40
0.0
  9
$PLINEWID
 40
0.0
  9
$COORDS
 70
     1
  9
$SPLFRAME
 70
     0
  9
$SPLINETYPE
 70
     6
  9
$SPLINESEGS
 70
     8
  9
$ATTDIA
 70
     0
  9
$ATTREQ
 70
     1
  9
$HANDLING
 70
     1
  9
$HANDSEED
  5
F22
  9
$SURFTAB1
 70
     6
  9
$SURFTAB2
 70
     6
  9
$SURFTYPE
 70
     6
  9
$SURFU
 70
     6
  9
$SURFV
 70
     6
  9
$UCSNAME
  2

  9
$UCSORG
 10
0.0
 20
0.0
 30
0.0
  9
$UCSXDIR
 10
1.0
 20
0.0
 30
0.0
  9
$UCSYDIR
 10
0.0
 20
1.0
 30
0.0
  9
$PUCSNAME
  2

  9
$PUCSORG
 10
0.0
 20
0.0
 30
0.0
  9
$PUCSXDIR
 10
1.0
 20
0.0
 30
0.0
  9
$PUCSYDIR
 10
0.0
 20
1.0
 30
0.0
  9
$USERI1
 70
     0
  9
$USERI2
 70
     0
  9
$USERI3
 70
     0
  9
$USERI4
 70
     0
  9
$USERI5
 70
     0
  9
$USERR1
 40
0.0
  9
$USERR2
 40
0.0
  9
$USERR3
 40
0.0
  9
$USERR4
 40
0.0
  9
$USERR5
 40
0.0
  9
$WORLDVIEW
 70
     1
  9
$SHADEDGE
 70
     3
  9
$SHADEDIF
 70
    70
  9
$TILEMODE
 70
     1
  9
$MAXACTVP
 70
    48
  9
$PLIMCHECK
 70
     0
  9
$PEXTMIN
 10
1.0000000000000000E+020
 20
1.0000000000000000E+020
 30
1.0000000000000000E+020
  9
$PEXTMAX
 10
-1.0000000000000000E+020
 20
-1.0000000000000000E+020
 30
-1.0000000000000000E+020
  9
$PLIMMIN
 10
0.0
 20
0.0
  9
$PLIMMAX
 10
12.0
 20
9.0
  9
$UNITMODE
 70
     0
  9
$VISRETAIN
 70
     1
  9
$PLINEGEN
 70
     0
  9
$PSLTSCALE
 70
     1
  0
ENDSEC
  0
SECTION
  2
TABLES
  0
TABLE
  2
VPORT
 70
     1
  0
VPORT
  2
*ACTIVE
 70
     0
 10
0.0
 20
0.0
 11
1.0
 21
1.0
 12
403.4858768827275
 22
259.18472877750492
 13
0.0
 23
0.0
 14
0.5
 24
0.5
 15
0.5
 25
0.5
 16
0.0
 26
0.0
 36
1.0
 17
0.0
 27
0.0
 37
0.0
 40
521.84701179809986
 41
1.7702552719200879
 42
50.0
 43
0.0
 44
0.0
 50
0.0
 51
0.0
 71
     0
 72
   100
 73
     1
 74
     1
 75
     0
 76
     0
 77
     0
 78
     0
  0
ENDTAB
  0
TABLE
  2
LTYPE
 70
    20
  0
LTYPE
  2
CONTINUOUS
 70
     0
  3
Solid line
 72
    65
 73
     0
 40
0.0
  0
LTYPE
  2
CENTER
 70
     0
  3
Center ____ _ ____ _ ____ _ ____ _ ____ _ ____
 72
    65
 73
     4
 40
2.0
 49
1.25
 49
-0.25
 49
0.25
 49
-0.25
  0
LTYPE
  2
CENTER2
 70
     0
  3
Center (.5x) ___ _ ___ _ ___ _ ___ _ ___ _ ___
 72
    65
 73
     4
 40
1.125
 49
0.75
 49
-0.125
 49
0.125
 49
-0.125
  0
LTYPE
  2
HIDDEN
 70
     0
  3
Hidden __ __ __ __ __ __ __ __ __ __ __ __ __ _
 72
    65
 73
     2
 40
0.375
 49
0.25
 49
-0.125
  0
LTYPE
  2
HIDDEN2
 70
     0
  3
Hidden (.5x) _ _ _ _ _ _ _ _ _ _ _ _ _ _ _ _ _
 72
    65
 73
     2
 40
0.1875
 49
0.125
 49
-0.0625
  0
LTYPE
  2
PHANTOM2
 70
     0
  3
Phantom (.5x) ___ _ _ ___ _ _ ___ _ _ ___ _ _
 72
    65
 73
     6
 40
1.25
 49
0.625
 49
-0.125
 49
0.125
 49
-0.125
 49
0.125
 49
-0.125
  0
LTYPE
  2
AMCONSTR
 70
     0
  3
_______________________
 72
    65
 73
     2
 40
9999.0
 49
9999.0
 49
0.0
  0
LTYPE
  2
AMZIGZAG2
 70
     0
  3
/\/-/\/-/\/-/\/-/\/-/\/
 72
    65
 73
     2
 40
0.4401
 49
0.0001
 49
-0.4400000000000001
  0
LTYPE
  2
ACANSTGB
 70
     0
  3
__ . . __ . .
 72
    65
 73
     6
 40
0.35433070866
 49
0.15748031496
 49
-0.03937007874
 49
0.03937007874
 49
-0.03937007874
 49
0.03937007874
 49
-0.03937007874
  0
LTYPE
  2
ACANSTGL
 70
     0
  3
_ _ _ _ _
 72
    65
 73
     2
 40
0.11811023622
 49
0.07874015748
 49
-0.03937007874
  0
ENDTAB
  0
TABLE
  2
LAYER
 70
     8
  0
LAYER
  2
0
 70
     0
 62
     7
  6
CONTINUOUS
  0
ENDTAB
  0
TABLE
  2
STYLE
 70
    11
  0
STYLE
  2
STANDARD
 70
     0
 40
0.0
 41
1.0
 50
0.0
 71
     0
 42
0.2
  3
txt
  4

  0
STYLE
  2
ROMANS
 70
     0
 40
0.0
 41
0.75
 50
0.0
 71
     0
 42
0.2
  3
romans.shx
  4

  0
STYLE
  2

 70
     1
 40
0.0
 41
1.0
 50
0.0
 71
     0
 42
0.2
  3
genltshp.shx
  4

  0
STYLE
  2
ACANSGDT
 70
     0
 40
0.0
 41
1.0
 50
0.0
 71
     0
 42
0.2
  3
amgdt.shx
  4

  0
ENDTAB
  0
TABLE
  2
VIEW
 70
     0
  0
ENDTAB
  0
TABLE
  2
UCS
 70
     0
  0
ENDTAB
  0
TABLE
  2
APPID
 70
    15
  0
APPID
  2
ACAD
 70
     0
  0
APPID
  2
ACAD_MLEADERVER
 70
     0
  0
APPID
  2
ACAD_DSTYLE_DIMJAG
 70
     0
  0
APPID
  2
ACAD_DSTYLE_DIMTALN
 70
     0
  0
APPID
  2
ACAD_PSEXT
 70
     0
  0
APPID
  2
ACADANNOPO
 70
     0
  0
APPID
  2
MCAD_NO_VIS
 70
     0
  0
APPID
  2
ACAD_TEMP_GRAPHIC
 70
     0
  0
APPID
  2
ACATTRIBSERVICES
 70
     0
  0
APPID
  2
DESIGNERASSEMBLIES
 70
     0
  0
APPID
  2
ACAD_DSTYLE_DIMBREAK
 70
     0
  0
APPID
  2
ACAD_NAV_VCDISPLAY
 70
     0
  0
APPID
  2
GRADIENTCOLOR1ACI
 70
     0
  0
APPID
  2
GRADIENTCOLOR2ACI
 70
     0
  0
APPID
  2
ACAD_EXEMPT_FROM_CAD_STANDARDS
 70
     0
  0
ENDTAB
  0
TABLE
  2
DIMSTYLE
 70
    14
  0
DIMSTYLE
  2
BAC
 70
     0
  3

  4

  5

  6

  7

 40
1.0
 41
0.09375
 42
0.0625
 43
0.375
 44
0.03125
 45
0.0
 46
0.0
 47
0.0
 48
0.0
140
0.09375
141
0.09375
142
0.0
143
25.399999999999999
144
1.0
145
0.0
146
1.0
147
0.0625
 71
     0
 72
     0
 73
     0
 74
     0
 75
     0
 76
     0
 77
     0
 78
     0
170
     0
171
     2
172
     0
173
     0
174
     0
175
     0
176
     0
177
     6
178
     0
  0
DIMSTYLE
  2
AM_ANSI
 70
     0
  3

  4
mm
  5

  6

  7

 40
1.0
 41
0.12
 42
0.05
 43
0.5
 44
0.1
 45
0.0
 46
0.0
 47
0.1
 48
0.1
140
0.12
141
0.0
142
0.0
143
25.399999999999999
144
1.0
145
0.0
146
0.71
147
0.06
 71
     0
 72
     0
 73
     1
 74
     1
 75
     0
 76
     0
 77
     0
 78
     7
170
     0
171
     2
172
     0
173
     0
174
     0
175
     0
176
   256
177
   256
178
     2
  0
DIMSTYLE
  2
AM_ANSI$3
 70
     0
  3

  4
mm
  5

  6

  7

 40
1.0
 41
0.12
 42
0.05
 43
0.5
 44
0.1
 45
0.0
 46
0.0
 47
0.1
 48
0.1
140
0.12
141
0.0
142
0.0
143
25.399999999999999
144
1.0
145
0.0
146
0.71
147
0.06
 71
     0
 72
     0
 73
     1
 74
     1
 75
     0
 76
     0
 77
     0
 78
     7
170
     0
171
     2
172
     0
173
     0
174
     0
175
     0
176
   256
177
   256
178
     2
  0
DIMSTYLE
  2
AM_ANSI$4
 70
     0
  3

  4
mm
  5

  6

  7

 40
1.0
 41
0.12
 42
0.05
 43
0.5
 44
0.1
 45
0.0
 46
0.0
 47
0.1
 48
0.1
140
0.12
141
0.0
142
0.0
143
25.399999999999999
144
1.0
145
0.0
146
0.71
147
0.06
 71
     0
 72
     0
 73
     1
 74
     1
 75
     0
 76
     0
 77
     0
 78
     7
170
     0
171
     2
172
     0
173
     0
174
     0
175
     0
176
   256
177
   256
178
     2
  0
DIMSTYLE
  2
AM_ANSI$7
 70
     0
  3

  4
mm
  5

  6

  7

 40
1.0
 41
0.12
 42
0.05
 43
0.5
 44
0.1
 45
0.0
 46
0.0
 47
0.1
 48
0.1
140
0.12
141
0.0
142
0.0
143
25.399999999999999
144
1.0
145
0.0
146
0.71
147
0.06
 71
     0
 72
     0
 73
     1
 74
     1
 75
     0
 76
     0
 77
     0
 78
     7
170
     0
171
     2
172
     0
173
     0
174
     0
175
     0
176
   256
177
   256
178
     2
  0
DIMSTYLE
  2
AM_ANSI$SF
 70
     0
  3

  4
mm
  5

  6

  7

 40
1.0
 41
0.12
 42
0.05
 43
0.5
 44
0.1
 45
0.0
 46
0.0
 47
0.1
 48
0.1
140
0.12
141
0.0
142
0.0
143
25.399999999999999
144
1.0
145
0.0
146
0.71
147
0.06
 71
     0
 72
     0
 73
     1
 74
     1
 75
     1
 76
     1
 77
     0
 78
     7
170
     0
171
     2
172
     0
173
     0
174
     0
175
     0
176
   256
177
   256
178
     2
  0
DIMSTYLE
  2
AM_ANSI$SH
 70
     0
  3

  4
mm
  5

  6
GENAXEH
  7

 40
1.0
 41
0.12
 42
0.05
 43
0.5
 44
0.1
 45
0.0
 46
0.0
 47
0.1
 48
0.1
140
0.12
141
0.0
142
0.0
143
25.399999999999999
144
1.0
145
0.0
146
0.71
147
0.06
 71
     0
 72
     0
 73
     1
 74
     1
 75
     1
 76
     1
 77
     0
 78
     7
170
     0
171
     2
172
     0
173
     1
174
     0
175
     0
176
   256
177
   256
178
     2
  0
DIMSTYLE
  2
STANDARD
 70
     0
  3

  4

  5

  6

  7

 40
1.0
 41
0.18
 42
0.0625
 43
0.38
 44
0.18
 45
0.0
 46
0.0
 47
0.0
 48
0.0
140
0.18
141
0.09
142
0.0
143
25.399999999999999
144
1.0
145
0.0
146
1.0
147
0.09
 71
     0
 72
     0
 73
     1
 74
     1
 75
     0
 76
     0
 77
     0
 78
     0
170
     0
171
     2
172
     0
173
     0
174
     0
175
     0
176
     0
177
     0
178
     0
  0
ENDTAB
  0
ENDSEC
  0
SECTION
  2
BLOCKS
  0
BLOCK
  8
0
  2
$MODEL_SPACE
 70
     0
 10
0.0
 20
0.0
 30
0.0
  3
$MODEL_SPACE
  1

  0
ENDBLK
  5
1A
  8
0
  0
BLOCK
 67
     1
  8
0
  2
$PAPER_SPACE
 70
     0
 10
0.0
 20
0.0
 30
0.0
  3
$PAPER_SPACE
  1

  0
ENDBLK
  5
17
 67
     1
  8
0
  0
BLOCK
  8
0
  2
*U0
 70
     1
 10
0.0
 20
0.0
 30
0.0
  3
*U0
  1

  0
ENDBLK
  5
17A
  8
0
  0
BLOCK
  8
0
  2
GENAXEH
 70
     0
 10
0.0
 20
0.0
 30
0.0
  3
GENAXEH
  1

  0
LINE
  5
1AD
  8
0
 10
-1.0
 20
0.0
 30
0.0
 11
1.0
 21
0.0
 31
0.0
  0
ENDBLK
  5
1AF
  8
0
  0
BLOCK
  8
0
  2
*X4
 70
     1
 10
0.0
 20
0.0
 30
0.0
  3
*X4
  1

  0
LINE
  5
CDA
  8
0
 62
     0
 10
804.0
 20
4.000004503757828
 30
0.0
 11
804.0
 21
79.12500450375839
 31
0.0
  0
LINE
  5
CDB
  8
0
 62
     0
 10
802.5
 20
4.0000045037578271
 30
0.0
 11
802.5
 21
79.12500450375839
 31
0.0
  0
LINE
  5
CDC
  8
0
 62
     0
 10
801.0
 20
4.0000045037578262
 30
0.0
 11
801.0
 21
79.12500450375839
 31
0.0
  0
LINE
  5
CDD
  8
0
 62
     0
 10
799.5
 20
4.0000045037578253
 30
0.0
 11
799.5
 21
79.12500450375839
 31
0.0
  0
LINE
  5
CDE
  8
0
 62
     0
 10
798.0
 20
4.0000045037578236
 30
0.0
 11
798.0
 21
79.12500450375839
 31
0.0
  0
LINE
  5
CDF
  8
0
 62
     0
 10
796.49999999999989
 20
4.0000045037578227
 30
0.0
 11
796.49999999999989
 21
79.12500450375839
 31
0.0
  0
LINE
  5
CE0
  8
0
 62
     0
 10
795.0
 20
4.0000045037578218
 30
0.0
 11
795.0
 21
79.12500450375839
 31
0.0
  0
LINE
  5
CE1
  8
0
 62
     0
 10
793.5
 20
4.0000045037578209
 30
0.0
 11
793.5
 21
79.12500450375839
 31
0.0
  0
LINE
  5
CE2
  8
0
 62
     0
 10
792.0
 20
4.0000045037578209
 30
0.0
 11
792.0
 21
79.12500450375839
 31
0.0
  0
LINE
  5
CE3
  8
0
 62
     0
 10
790.5
 20
4.00000450375782
 30
0.0
 11
790.5
 21
79.12500450375839
 31
0.0
  0
LINE
  5
CE4
  8
0
 62
     0
 10
789.0
 20
4.00000450375782
 30
0.0
 11
789.0
 21
79.12500450375839
 31
0.0
  0
LINE
  5
CE5
  8
0
 62
     0
 10
787.5
 20
4.0000045037578191
 30
0.0
 11
787.5
 21
79.12500450375839
 31
0.0
  0
LINE
  5
CE6
  8
0
 62
     0
 10
786.0
 20
4.0000045037578182
 30
0.0
 11
786.0
 21
79.12500450375839
 31
0.0
  0
LINE
  5
CE7
  8
0
 62
     0
 10
784.49999999999989
 20
4.0000045037578174
 30
0.0
 11
784.49999999999989
 21
79.12500450375839
 31
0.0
  0
LINE
  5
CE8
  8
0
 62
     0
 10
783.0
 20
4.0000045037578156
 30
0.0
 11
783.0
 21
79.12500450375839
 31
0.0
  0
LINE
  5
CE9
  8
0
 62
     0
 10
781.5
 20
4.0000045037578147
 30
0.0
 11
781.5
 21
79.12500450375839
 31
0.0
  0
LINE
  5
CEA
  8
0
 62
     0
 10
747.0
 20
4.000004503757828
 30
0.0
 11
747.0
 21
79.12500450375839
 31
0.0
  0
LINE
  5
CEB
  8
0
 62
     0
 10
745.5
 20
4.0000045037578271
 30
0.0
 11
745.5
 21
79.12500450375839
 31
0.0
  0
LINE
  5
CEC
  8
0
 62
     0
 10
744.0
 20
4.0000045037578262
 30
0.0
 11
744.0
 21
79.12500450375839
 31
0.0
  0
LINE
  5
CED
  8
0
 62
     0
 10
742.49999999999989
 20
4.0000045037578253
 30
0.0
 11
742.49999999999989
 21
79.12500450375839
 31
0.0
  0
LINE
  5
CEE
  8
0
 62
     0
 10
741.0
 20
4.0000045037578236
 30
0.0
 11
741.0
 21
79.12500450375839
 31
0.0
  0
LINE
  5
CEF
  8
0
 62
     0
 10
739.5
 20
4.0000045037578227
 30
0.0
 11
739.5
 21
79.12500450375839
 31
0.0
  0
LINE
  5
CF0
  8
0
 62
     0
 10
738.0
 20
4.0000045037578218
 30
0.0
 11
738.0
 21
79.12500450375839
 31
0.0
  0
LINE
  5
CF1
  8
0
 62
     0
 10
736.5
 20
4.0000045037578209
 30
0.0
 11
736.5
 21
79.12500450375839
 31
0.0
  0
LINE
  5
CF2
  8
0
 62
     0
 10
735.0
 20
4.00000450375782
 30
0.0
 11
735.0
 21
79.12500450375839
 31
0.0
  0
LINE
  5
CF3
  8
0
 62
     0
 10
733.49999999999989
 20
4.0000045037578191
 30
0.0
 11
733.49999999999989
 21
79.12500450375839
 31
0.0
  0
LINE
  5
CF4
  8
0
 62
     0
 10
732.0
 20
4.0000045037578182
 30
0.0
 11
732.0
 21
79.12500450375839
 31
0.0
  0
LINE
  5
CF5
  8
0
 62
     0
 10
730.49999999999989
 20
4.0000045037578174
 30
0.0
 11
730.49999999999989
 21
79.12500450375839
 31
0.0
  0
LINE
  5
CF6
  8
0
 62
     0
 10
729.0
 20
4.0000045037578156
 30
0.0
 11
729.0
 21
79.12500450375839
 31
0.0
  0
LINE
  5
CF7
  8
0
 62
     0
 10
727.5
 20
4.0000045037578147
 30
0.0
 11
727.5
 21
79.12500450375839
 31
0.0
  0
LINE
  5
CF8
  8
0
 62
     0
 10
693.0
 20
4.0000045037577356
 30
0.0
 11
693.0
 21
79.125004503760181
 31
0.0
  0
LINE
  5
CF9
  8
0
 62
     0
 10
691.5
 20
4.0000045037577356
 30
0.0
 11
691.5
 21
79.125004503760181
 31
0.0
  0
LINE
  5
CFA
  8
0
 62
     0
 10
690.0
 20
4.0000045037577356
 30
0.0
 11
690.0
 21
79.125004503760181
 31
0.0
  0
LINE
  5
CFB
  8
0
 62
     0
 10
688.49999999999989
 20
4.0000045037577356
 30
0.0
 11
688.49999999999989
 21
79.125004503760181
 31
0.0
  0
LINE
  5
CFC
  8
0
 62
     0
 10
687.0
 20
4.0000045037577356
 30
0.0
 11
687.0
 21
79.125004503760181
 31
0.0
  0
LINE
  5
CFD
  8
0
 62
     0
 10
685.5
 20
4.0000045037577356
 30
0.0
 11
685.5
 21
79.125004503760181
 31
0.0
  0
LINE
  5
CFE
  8
0
 62
     0
 10
684.0
 20
4.0000045037577356
 30
0.0
 11
684.0
 21
79.125004503760181
 31
0.0
  0
LINE
  5
CFF
  8
0
 62
     0
 10
682.5
 20
4.0000045037577356
 30
0.0
 11
682.5
 21
79.125004503760181
 31
0.0
  0
LINE
  5
D00
  8
0
 62
     0
 10
681.0
 20
4.0000045037577356
 30
0.0
 11
681.0
 21
79.125004503760181
 31
0.0
  0
LINE
  5
D01
  8
0
 62
     0
 10
679.49999999999989
 20
4.0000045037577356
 30
0.0
 11
679.49999999999989
 21
79.125004503760181
 31
0.0
  0
LINE
  5
D02
  8
0
 62
     0
 10
678.0
 20
4.0000045037577356
 30
0.0
 11
678.0
 21
79.125004503760181
 31
0.0
  0
LINE
  5
D03
  8
0
 62
     0
 10
676.5
 20
4.0000045037577356
 30
0.0
 11
676.5
 21
79.125004503760181
 31
0.0
  0
LINE
  5
D04
  8
0
 62
     0
 10
675.0
 20
4.0000045037577356
 30
0.0
 11
675.0
 21
79.125004503760181
 31
0.0
  0
LINE
  5
D05
  8
0
 62
     0
 10
673.5
 20
4.0000045037577356
 30
0.0
 11
673.5
 21
79.125004503760181
 31
0.0
  0
LINE
  5
D06
  8
0
 62
     0
 10
672.0
 20
4.0000045037577356
 30
0.0
 11
672.0
 21
79.125004503760181
 31
0.0
  0
LINE
  5
D07
  8
0
 62
     0
 10
670.5
 20
4.0000045037577356
 30
0.0
 11
670.5
 21
79.125004503760181
 31
0.0
  0
LINE
  5
D08
  8
0
 62
     0
 10
669.0
 20
4.0000045037577356
 30
0.0
 11
669.0
 21
79.125004503760181
 31
0.0
  0
LINE
  5
D09
  8
0
 62
     0
 10
664.5
 20
4.0000045037579977
 30
0.0
 11
664.5
 21
79.125004503758561
 31
0.0
  0
LINE
  5
D0A
  8
0
 62
     0
 10
663.0
 20
4.0000045037579834
 30
0.0
 11
663.0
 21
79.125004503758547
 31
0.0
  0
LINE
  5
D0B
  8
0
 62
     0
 10
661.5
 20
4.0000045037579683
 30
0.0
 11
661.5
 21
79.125004503758532
 31
0.0
  0
LINE
  5
D0C
  8
0
 62
     0
 10
660.0
 20
4.0000045037579532
 30
0.0
 11
660.0
 21
79.125004503758504
 31
0.0
  0
LINE
  5
D0D
  8
0
 62
     0
 10
658.49999999999989
 20
4.0000045037579373
 30
0.0
 11
658.49999999999989
 21
79.12500450375849
 31
0.0
  0
LINE
  5
D0E
  8
0
 62
     0
 10
657.0
 20
4.0000045037579222
 30
0.0
 11
657.0
 21
79.125004503758475
 31
0.0
  0
LINE
  5
D0F
  8
0
 62
     0
 10
655.49999999999989
 20
4.0000045037579071
 30
0.0
 11
655.49999999999989
 21
79.125004503758461
 31
0.0
  0
LINE
  5
D10
  8
0
 62
     0
 10
654.0
 20
4.0000045037578911
 30
0.0
 11
654.0
 21
79.125004503758447
 31
0.0
  0
LINE
  5
D11
  8
0
 62
     0
 10
652.5
 20
4.000004503757876
 30
0.0
 11
652.5
 21
79.125004503758433
 31
0.0
  0
LINE
  5
D12
  8
0
 62
     0
 10
651.0
 20
4.0000045037578609
 30
0.0
 11
651.0
 21
79.125004503758419
 31
0.0
  0
LINE
  5
D13
  8
0
 62
     0
 10
649.5
 20
4.0000045037578458
 30
0.0
 11
649.5
 21
79.125004503758404
 31
0.0
  0
LINE
  5
D14
  8
0
 62
     0
 10
648.0
 20
4.0000045037578307
 30
0.0
 11
648.0
 21
79.12500450375839
 31
0.0
  0
LINE
  5
D15
  8
0
 62
     0
 10
646.49999999999989
 20
4.0000045037578156
 30
0.0
 11
646.49999999999989
 21
79.125004503758362
 31
0.0
  0
LINE
  5
D16
  8
0
 62
     0
 10
645.0
 20
4.0000045037578014
 30
0.0
 11
645.0
 21
79.125004503758333
 31
0.0
  0
LINE
  5
D17
  8
0
 62
     0
 10
643.5
 20
4.0000045037577854
 30
0.0
 11
643.5
 21
79.125004503758333
 31
0.0
  0
LINE
  5
D18
  8
0
 62
     0
 10
642.0
 20
4.0000045037577703
 30
0.0
 11
642.0
 21
79.125004503758319
 31
0.0
  0
LINE
  5
D19
  8
0
 62
     0
 10
640.5
 20
4.0000045037577552
 30
0.0
 11
640.5
 21
79.125004503758305
 31
0.0
  0
LINE
  5
D1A
  8
0
 62
     0
 10
606.0
 20
4.0000045037574026
 30
0.0
 11
606.0
 21
79.125004503757935
 31
0.0
  0
LINE
  5
D1B
  8
0
 62
     0
 10
604.49999999999989
 20
4.0000045037573884
 30
0.0
 11
604.49999999999989
 21
79.125004503757935
 31
0.0
  0
LINE
  5
D1C
  8
0
 62
     0
 10
603.0
 20
4.0000045037573733
 30
0.0
 11
603.0
 21
79.125004503757921
 31
0.0
  0
LINE
  5
D1D
  8
0
 62
     0
 10
601.5
 20
4.0000045037573582
 30
0.0
 11
601.5
 21
79.125004503757893
 31
0.0
  0
LINE
  5
D1E
  8
0
 62
     0
 10
600.0
 20
4.0000045037573431
 30
0.0
 11
600.0
 21
79.125004503757864
 31
0.0
  0
LINE
  5
D1F
  8
0
 62
     0
 10
598.5
 20
4.0000045037573271
 30
0.0
 11
598.5
 21
79.125004503757864
 31
0.0
  0
LINE
  5
D20
  8
0
 62
     0
 10
597.0
 20
4.000004503757312
 30
0.0
 11
597.0
 21
79.12500450375785
 31
0.0
  0
LINE
  5
D21
  8
0
 62
     0
 10
595.5
 20
4.0000045037572969
 30
0.0
 11
595.5
 21
79.125004503757836
 31
0.0
  0
LINE
  5
D22
  8
0
 62
     0
 10
594.0
 20
4.0000045037572827
 30
0.0
 11
594.0
 21
79.125004503757822
 31
0.0
  0
LINE
  5
D23
  8
0
 62
     0
 10
592.49999999999989
 20
4.0000045037572676
 30
0.0
 11
592.49999999999989
 21
79.125004503757793
 31
0.0
  0
LINE
  5
D24
  8
0
 62
     0
 10
591.0
 20
4.0000045037572534
 30
0.0
 11
591.0
 21
79.125004503757779
 31
0.0
  0
LINE
  5
D25
  8
0
 62
     0
 10
589.5
 20
4.0000045037572383
 30
0.0
 11
589.5
 21
79.125004503757765
 31
0.0
  0
LINE
  5
D26
  8
0
 62
     0
 10
588.0
 20
4.0000045037572232
 30
0.0
 11
588.0
 21
79.125004503757751
 31
0.0
  0
LINE
  5
D27
  8
0
 62
     0
 10
586.5
 20
4.0000045037572081
 30
0.0
 11
586.5
 21
79.125004503757737
 31
0.0
  0
LINE
  5
D28
  8
0
 62
     0
 10
552.0
 20
4.0000045037568421
 30
0.0
 11
552.0
 21
79.125004503757381
 31
0.0
  0
LINE
  5
D29
  8
0
 62
     0
 10
550.49999999999989
 20
4.000004503756827
 30
0.0
 11
550.49999999999989
 21
79.125004503757367
 31
0.0
  0
LINE
  5
D2A
  8
0
 62
     0
 10
549.0
 20
4.000004503756811
 30
0.0
 11
549.0
 21
79.125004503757353
 31
0.0
  0
LINE
  5
D2B
  8
0
 62
     0
 10
547.5
 20
4.0000045037567951
 30
0.0
 11
547.5
 21
79.125004503757339
 31
0.0
  0
LINE
  5
D2C
  8
0
 62
     0
 10
546.0
 20
4.00000450375678
 30
0.0
 11
546.0
 21
79.125004503757324
 31
0.0
  0
LINE
  5
D2D
  8
0
 62
     0
 10
544.5
 20
4.0000045037567649
 30
0.0
 11
544.5
 21
79.12500450375731
 31
0.0
  0
LINE
  5
D2E
  8
0
 62
     0
 10
543.0
 20
4.0000045037567498
 30
0.0
 11
543.0
 21
79.125004503757296
 31
0.0
  0
LINE
  5
D2F
  8
0
 62
     0
 10
541.5
 20
4.0000045037567347
 30
0.0
 11
541.5
 21
79.125004503757282
 31
0.0
  0
LINE
  5
D30
  8
0
 62
     0
 10
540.0
 20
4.0000045037567196
 30
0.0
 11
540.0
 21
79.125004503757253
 31
0.0
  0
LINE
  5
D31
  8
0
 62
     0
 10
538.49999999999989
 20
4.0000045037567054
 30
0.0
 11
538.49999999999989
 21
79.125004503757225
 31
0.0
  0
LINE
  5
D32
  8
0
 62
     0
 10
537.0
 20
4.0000045037566903
 30
0.0
 11
537.0
 21
79.125004503757225
 31
0.0
  0
LINE
  5
D33
  8
0
 62
     0
 10
535.5
 20
4.0000045037566743
 30
0.0
 11
535.5
 21
79.125004503757211
 31
0.0
  0
LINE
  5
D34
  8
0
 62
     0
 10
534.0
 20
4.0000045037566592
 30
0.0
 11
534.0
 21
79.125004503757197
 31
0.0
  0
LINE
  5
D35
  8
0
 62
     0
 10
532.5
 20
4.0000045037566441
 30
0.0
 11
532.5
 21
79.125004503757182
 31
0.0
  0
LINE
  5
D36
  8
0
 62
     0
 10
531.0
 20
4.0000045037566281
 30
0.0
 11
531.0
 21
79.125004503757154
 31
0.0
  0
LINE
  5
D37
  8
0
 62
     0
 10
529.49999999999989
 20
4.000004503756613
 30
0.0
 11
529.49999999999989
 21
79.125004503757154
 31
0.0
  0
LINE
  5
D38
  8
0
 62
     0
 10
668.8467550468248
 20
4.5
 30
0.0
 11
694.09675504682434
 21
4.5
 31
0.0
  0
LINE
  5
D39
  8
0
 62
     0
 10
639.33877036359422
 20
4.5
 30
0.0
 11
664.59675504682525
 21
4.5
 31
0.0
  0
LINE
  5
D3A
  8
0
 62
     0
 10
726.09675504682514
 20
4.5
 30
0.0
 11
748.10575470149638
 21
4.5
 31
0.0
  0
LINE
  5
D3B
  8
0
 62
     0
 10
585.34675504682514
 20
4.5
 30
0.0
 11
607.35575470149638
 21
4.5
 31
0.0
  0
LINE
  5
D3C
  8
0
 62
     0
 10
780.08877036359422
 20
4.5
 30
0.0
 11
805.34675504682502
 21
4.5
 31
0.0
  0
LINE
  5
D3D
  8
0
 62
     0
 10
528.09675504682525
 20
4.5
 30
0.0
 11
553.34675504682434
 21
4.5
 31
0.0
  0
LINE
  5
D3E
  8
0
 62
     0
 10
668.8467550468248
 20
6.0
 30
0.0
 11
694.09675504682434
 21
6.0
 31
0.0
  0
LINE
  5
D3F
  8
0
 62
     0
 10
639.33877036359422
 20
6.0
 30
0.0
 11
664.59675504682525
 21
6.0
 31
0.0
  0
LINE
  5
D40
  8
0
 62
     0
 10
726.09675504682514
 20
6.0
 30
0.0
 11
748.10575470149638
 21
6.0
 31
0.0
  0
LINE
  5
D41
  8
0
 62
     0
 10
585.34675504682514
 20
6.0
 30
0.0
 11
607.35575470149638
 21
6.0
 31
0.0
  0
LINE
  5
D42
  8
0
 62
     0
 10
780.08877036359422
 20
6.0
 30
0.0
 11
805.34675504682502
 21
6.0
 31
0.0
  0
LINE
  5
D43
  8
0
 62
     0
 10
528.09675504682525
 20
6.0
 30
0.0
 11
553.34675504682434
 21
6.0
 31
0.0
  0
LINE
  5
D44
  8
0
 62
     0
 10
668.8467550468248
 20
7.5
 30
0.0
 11
694.09675504682434
 21
7.5
 31
0.0
  0
LINE
  5
D45
  8
0
 62
     0
 10
639.33877036359422
 20
7.5
 30
0.0
 11
664.59675504682525
 21
7.5
 31
0.0
  0
LINE
  5
D46
  8
0
 62
     0
 10
726.09675504682514
 20
7.5
 30
0.0
 11
748.10575470149638
 21
7.5
 31
0.0
  0
LINE
  5
D47
  8
0
 62
     0
 10
585.34675504682514
 20
7.5
 30
0.0
 11
607.35575470149638
 21
7.5
 31
0.0
  0
LINE
  5
D48
  8
0
 62
     0
 10
780.08877036359422
 20
7.5
 30
0.0
 11
805.34675504682502
 21
7.5
 31
0.0
  0
LINE
  5
D49
  8
0
 62
     0
 10
528.09675504682525
 20
7.5
 30
0.0
 11
553.34675504682434
 21
7.5
 31
0.0
  0
LINE
  5
D4A
  8
0
 62
     0
 10
668.8467550468248
 20
9.0
 30
0.0
 11
694.09675504682434
 21
9.0
 31
0.0
  0
LINE
  5
D4B
  8
0
 62
     0
 10
639.33877036359422
 20
9.0
 30
0.0
 11
664.59675504682525
 21
9.0
 31
0.0
  0
LINE
  5
D4C
  8
0
 62
     0
 10
726.09675504682514
 20
9.0
 30
0.0
 11
748.10575470149638
 21
9.0
 31
0.0
  0
LINE
  5
D4D
  8
0
 62
     0
 10
585.34675504682514
 20
9.0
 30
0.0
 11
607.35575470149638
 21
9.0
 31
0.0
  0
LINE
  5
D4E
  8
0
 62
     0
 10
780.08877036359422
 20
9.0
 30
0.0
 11
805.34675504682502
 21
9.0
 31
0.0
  0
LINE
  5
D4F
  8
0
 62
     0
 10
528.09675504682525
 20
9.0
 30
0.0
 11
553.34675504682434
 21
9.0
 31
0.0
  0
LINE
  5
D50
  8
0
 62
     0
 10
668.8467550468248
 20
10.5
 30
0.0
 11
694.09675504682434
 21
10.5
 31
0.0
  0
LINE
  5
D51
  8
0
 62
     0
 10
639.33877036359422
 20
10.5
 30
0.0
 11
664.59675504682525
 21
10.5
 31
0.0
  0
LINE
  5
D52
  8
0
 62
     0
 10
726.09675504682514
 20
10.5
 30
0.0
 11
748.10575470149638
 21
10.5
 31
0.0
  0
LINE
  5
D53
  8
0
 62
     0
 10
585.34675504682514
 20
10.5
 30
0.0
 11
607.35575470149638
 21
10.5
 31
0.0
  0
LINE
  5
D54
  8
0
 62
     0
 10
780.08877036359422
 20
10.5
 30
0.0
 11
805.34675504682502
 21
10.5
 31
0.0
  0
LINE
  5
D55
  8
0
 62
     0
 10
528.09675504682525
 20
10.5
 30
0.0
 11
553.34675504682434
 21
10.5
 31
0.0
  0
LINE
  5
D56
  8
0
 62
     0
 10
668.8467550468248
 20
12.0
 30
0.0
 11
694.09675504682434
 21
12.0
 31
0.0
  0
LINE
  5
D57
  8
0
 62
     0
 10
639.33877036359422
 20
12.0
 30
0.0
 11
664.59675504682525
 21
12.0
 31
0.0
  0
LINE
  5
D58
  8
0
 62
     0
 10
726.09675504682514
 20
12.0
 30
0.0
 11
748.10575470149638
 21
12.0
 31
0.0
  0
LINE
  5
D59
  8
0
 62
     0
 10
585.34675504682514
 20
12.0
 30
0.0
 11
607.35575470149638
 21
12.0
 31
0.0
  0
LINE
  5
D5A
  8
0
 62
     0
 10
780.08877036359422
 20
12.0
 30
0.0
 11
805.34675504682502
 21
12.0
 31
0.0
  0
LINE
  5
D5B
  8
0
 62
     0
 10
528.09675504682525
 20
12.0
 30
0.0
 11
553.34675504682434
 21
12.0
 31
0.0
  0
LINE
  5
D5C
  8
0
 62
     0
 10
668.8467550468248
 20
13.5
 30
0.0
 11
694.09675504682434
 21
13.5
 31
0.0
  0
LINE
  5
D5D
  8
0
 62
     0
 10
639.33877036359422
 20
13.5
 30
0.0
 11
664.59675504682525
 21
13.5
 31
0.0
  0
LINE
  5
D5E
  8
0
 62
     0
 10
726.09675504682514
 20
13.5
 30
0.0
 11
748.10575470149638
 21
13.5
 31
0.0
  0
LINE
  5
D5F
  8
0
 62
     0
 10
585.34675504682514
 20
13.5
 30
0.0
 11
607.35575470149638
 21
13.5
 31
0.0
  0
LINE
  5
D60
  8
0
 62
     0
 10
780.08877036359422
 20
13.5
 30
0.0
 11
805.34675504682502
 21
13.5
 31
0.0
  0
LINE
  5
D61
  8
0
 62
     0
 10
528.09675504682525
 20
13.5
 30
0.0
 11
553.34675504682434
 21
13.5
 31
0.0
  0
LINE
  5
D62
  8
0
 62
     0
 10
668.8467550468248
 20
15.0
 30
0.0
 11
694.09675504682434
 21
15.0
 31
0.0
  0
LINE
  5
D63
  8
0
 62
     0
 10
639.33877036359422
 20
15.0
 30
0.0
 11
664.59675504682525
 21
15.0
 31
0.0
  0
LINE
  5
D64
  8
0
 62
     0
 10
726.09675504682514
 20
15.0
 30
0.0
 11
748.10575470149638
 21
15.0
 31
0.0
  0
LINE
  5
D65
  8
0
 62
     0
 10
585.34675504682514
 20
15.0
 30
0.0
 11
607.35575470149638
 21
15.0
 31
0.0
  0
LINE
  5
D66
  8
0
 62
     0
 10
780.08877036359422
 20
15.0
 30
0.0
 11
805.34675504682502
 21
15.0
 31
0.0
  0
LINE
  5
D67
  8
0
 62
     0
 10
528.09675504682525
 20
15.0
 30
0.0
 11
553.34675504682434
 21
15.0
 31
0.0
  0
LINE
  5
D68
  8
0
 62
     0
 10
668.8467550468248
 20
16.5
 30
0.0
 11
694.09675504682434
 21
16.5
 31
0.0
  0
LINE
  5
D69
  8
0
 62
     0
 10
639.33877036359422
 20
16.5
 30
0.0
 11
664.59675504682525
 21
16.5
 31
0.0
  0
LINE
  5
D6A
  8
0
 62
     0
 10
726.09675504682514
 20
16.5
 30
0.0
 11
748.10575470149638
 21
16.5
 31
0.0
  0
LINE
  5
D6B
  8
0
 62
     0
 10
585.34675504682514
 20
16.5
 30
0.0
 11
607.35575470149638
 21
16.5
 31
0.0
  0
LINE
  5
D6C
  8
0
 62
     0
 10
780.08877036359422
 20
16.5
 30
0.0
 11
805.34675504682502
 21
16.5
 31
0.0
  0
LINE
  5
D6D
  8
0
 62
     0
 10
528.09675504682525
 20
16.5
 30
0.0
 11
553.34675504682434
 21
16.5
 31
0.0
  0
LINE
  5
D6E
  8
0
 62
     0
 10
668.8467550468248
 20
18.0
 30
0.0
 11
694.09675504682434
 21
18.0
 31
0.0
  0
LINE
  5
D6F
  8
0
 62
     0
 10
639.33877036359422
 20
18.0
 30
0.0
 11
664.59675504682525
 21
18.0
 31
0.0
  0
LINE
  5
D70
  8
0
 62
     0
 10
726.09675504682514
 20
18.0
 30
0.0
 11
748.10575470149638
 21
18.0
 31
0.0
  0
LINE
  5
D71
  8
0
 62
     0
 10
585.34675504682514
 20
18.0
 30
0.0
 11
607.35575470149638
 21
18.0
 31
0.0
  0
LINE
  5
D72
  8
0
 62
     0
 10
780.08877036359422
 20
18.0
 30
0.0
 11
805.34675504682502
 21
18.0
 31
0.0
  0
LINE
  5
D73
  8
0
 62
     0
 10
528.09675504682525
 20
18.0
 30
0.0
 11
553.34675504682434
 21
18.0
 31
0.0
  0
LINE
  5
D74
  8
0
 62
     0
 10
668.8467550468248
 20
19.5
 30
0.0
 11
694.09675504682434
 21
19.5
 31
0.0
  0
LINE
  5
D75
  8
0
 62
     0
 10
639.33877036359422
 20
19.5
 30
0.0
 11
664.59675504682514
 21
19.5
 31
0.0
  0
LINE
  5
D76
  8
0
 62
     0
 10
726.09675504682514
 20
19.5
 30
0.0
 11
748.10575470149638
 21
19.5
 31
0.0
  0
LINE
  5
D77
  8
0
 62
     0
 10
585.34675504682514
 20
19.5
 30
0.0
 11
607.35575470149638
 21
19.5
 31
0.0
  0
LINE
  5
D78
  8
0
 62
     0
 10
780.08877036359422
 20
19.5
 30
0.0
 11
805.34675504682502
 21
19.5
 31
0.0
  0
LINE
  5
D79
  8
0
 62
     0
 10
528.09675504682525
 20
19.5
 30
0.0
 11
553.34675504682434
 21
19.5
 31
0.0
  0
LINE
  5
D7A
  8
0
 62
     0
 10
668.8467550468248
 20
21.0
 30
0.0
 11
694.09675504682434
 21
21.0
 31
0.0
  0
LINE
  5
D7B
  8
0
 62
     0
 10
639.33877036359422
 20
21.0
 30
0.0
 11
664.59675504682514
 21
21.0
 31
0.0
  0
LINE
  5
D7C
  8
0
 62
     0
 10
726.09675504682514
 20
21.0
 30
0.0
 11
748.10575470149638
 21
21.0
 31
0.0
  0
LINE
  5
D7D
  8
0
 62
     0
 10
585.34675504682514
 20
21.0
 30
0.0
 11
607.35575470149638
 21
21.0
 31
0.0
  0
LINE
  5
D7E
  8
0
 62
     0
 10
780.08877036359422
 20
21.0
 30
0.0
 11
805.34675504682502
 21
21.0
 31
0.0
  0
LINE
  5
D7F
  8
0
 62
     0
 10
528.09675504682514
 20
21.0
 30
0.0
 11
553.34675504682434
 21
21.0
 31
0.0
  0
LINE
  5
D80
  8
0
 62
     0
 10
668.8467550468248
 20
22.5
 30
0.0
 11
694.09675504682434
 21
22.5
 31
0.0
  0
LINE
  5
D81
  8
0
 62
     0
 10
639.33877036359422
 20
22.5
 30
0.0
 11
664.59675504682514
 21
22.5
 31
0.0
  0
LINE
  5
D82
  8
0
 62
     0
 10
726.09675504682514
 20
22.5
 30
0.0
 11
748.10575470149638
 21
22.5
 31
0.0
  0
LINE
  5
D83
  8
0
 62
     0
 10
585.34675504682514
 20
22.5
 30
0.0
 11
607.35575470149638
 21
22.5
 31
0.0
  0
LINE
  5
D84
  8
0
 62
     0
 10
780.08877036359422
 20
22.5
 30
0.0
 11
805.34675504682502
 21
22.5
 31
0.0
  0
LINE
  5
D85
  8
0
 62
     0
 10
528.09675504682514
 20
22.5
 30
0.0
 11
553.34675504682434
 21
22.5
 31
0.0
  0
LINE
  5
D86
  8
0
 62
     0
 10
668.8467550468248
 20
24.0
 30
0.0
 11
694.09675504682434
 21
24.0
 31
0.0
  0
LINE
  5
D87
  8
0
 62
     0
 10
639.33877036359422
 20
24.0
 30
0.0
 11
664.59675504682514
 21
24.0
 31
0.0
  0
LINE
  5
D88
  8
0
 62
     0
 10
726.09675504682514
 20
24.0
 30
0.0
 11
748.10575470149638
 21
24.0
 31
0.0
  0
LINE
  5
D89
  8
0
 62
     0
 10
585.34675504682514
 20
24.0
 30
0.0
 11
607.35575470149638
 21
24.0
 31
0.0
  0
LINE
  5
D8A
  8
0
 62
     0
 10
780.08877036359422
 20
24.0
 30
0.0
 11
805.34675504682502
 21
24.0
 31
0.0
  0
LINE
  5
D8B
  8
0
 62
     0
 10
528.09675504682514
 20
24.0
 30
0.0
 11
553.34675504682434
 21
24.0
 31
0.0
  0
LINE
  5
D8C
  8
0
 62
     0
 10
668.8467550468248
 20
25.5
 30
0.0
 11
694.09675504682434
 21
25.5
 31
0.0
  0
LINE
  5
D8D
  8
0
 62
     0
 10
639.33877036359422
 20
25.5
 30
0.0
 11
664.59675504682514
 21
25.5
 31
0.0
  0
LINE
  5
D8E
  8
0
 62
     0
 10
726.09675504682514
 20
25.5
 30
0.0
 11
748.10575470149638
 21
25.5
 31
0.0
  0
LINE
  5
D8F
  8
0
 62
     0
 10
585.34675504682514
 20
25.5
 30
0.0
 11
607.35575470149638
 21
25.5
 31
0.0
  0
LINE
  5
D90
  8
0
 62
     0
 10
780.08877036359422
 20
25.5
 30
0.0
 11
805.34675504682502
 21
25.5
 31
0.0
  0
LINE
  5
D91
  8
0
 62
     0
 10
528.09675504682514
 20
25.5
 30
0.0
 11
553.34675504682434
 21
25.5
 31
0.0
  0
LINE
  5
D92
  8
0
 62
     0
 10
668.8467550468248
 20
27.0
 30
0.0
 11
694.09675504682434
 21
27.0
 31
0.0
  0
LINE
  5
D93
  8
0
 62
     0
 10
639.33877036359422
 20
27.0
 30
0.0
 11
664.59675504682514
 21
27.0
 31
0.0
  0
LINE
  5
D94
  8
0
 62
     0
 10
726.09675504682514
 20
27.0
 30
0.0
 11
748.10575470149638
 21
27.0
 31
0.0
  0
LINE
  5
D95
  8
0
 62
     0
 10
585.34675504682514
 20
27.0
 30
0.0
 11
607.35575470149638
 21
27.0
 31
0.0
  0
LINE
  5
D96
  8
0
 62
     0
 10
780.08877036359422
 20
27.0
 30
0.0
 11
805.34675504682502
 21
27.0
 31
0.0
  0
LINE
  5
D97
  8
0
 62
     0
 10
528.09675504682514
 20
27.0
 30
0.0
 11
553.34675504682434
 21
27.0
 31
0.0
  0
LINE
  5
D98
  8
0
 62
     0
 10
668.8467550468248
 20
28.5
 30
0.0
 11
694.09675504682434
 21
28.5
 31
0.0
  0
LINE
  5
D99
  8
0
 62
     0
 10
639.33877036359422
 20
28.5
 30
0.0
 11
664.59675504682502
 21
28.5
 31
0.0
  0
LINE
  5
D9A
  8
0
 62
     0
 10
726.09675504682514
 20
28.5
 30
0.0
 11
748.10575470149638
 21
28.5
 31
0.0
  0
LINE
  5
D9B
  8
0
 62
     0
 10
585.34675504682514
 20
28.5
 30
0.0
 11
607.35575470149638
 21
28.5
 31
0.0
  0
LINE
  5
D9C
  8
0
 62
     0
 10
780.08877036359422
 20
28.5
 30
0.0
 11
805.34675504682502
 21
28.5
 31
0.0
  0
LINE
  5
D9D
  8
0
 62
     0
 10
528.09675504682514
 20
28.5
 30
0.0
 11
553.34675504682434
 21
28.5
 31
0.0
  0
LINE
  5
D9E
  8
0
 62
     0
 10
668.8467550468248
 20
30.0
 30
0.0
 11
694.09675504682434
 21
30.0
 31
0.0
  0
LINE
  5
D9F
  8
0
 62
     0
 10
639.33877036359422
 20
30.0
 30
0.0
 11
664.59675504682502
 21
30.0
 31
0.0
  0
LINE
  5
DA0
  8
0
 62
     0
 10
726.09675504682514
 20
30.0
 30
0.0
 11
748.10575470149638
 21
30.0
 31
0.0
  0
LINE
  5
DA1
  8
0
 62
     0
 10
585.34675504682514
 20
30.0
 30
0.0
 11
607.35575470149638
 21
30.0
 31
0.0
  0
LINE
  5
DA2
  8
0
 62
     0
 10
780.08877036359422
 20
30.0
 30
0.0
 11
805.34675504682502
 21
30.0
 31
0.0
  0
LINE
  5
DA3
  8
0
 62
     0
 10
528.09675504682514
 20
30.0
 30
0.0
 11
553.34675504682434
 21
30.0
 31
0.0
  0
LINE
  5
DA4
  8
0
 62
     0
 10
668.8467550468248
 20
31.5
 30
0.0
 11
694.09675504682434
 21
31.5
 31
0.0
  0
LINE
  5
DA5
  8
0
 62
     0
 10
639.33877036359422
 20
31.5
 30
0.0
 11
664.59675504682502
 21
31.5
 31
0.0
  0
LINE
  5
DA6
  8
0
 62
     0
 10
726.09675504682514
 20
31.5
 30
0.0
 11
748.10575470149638
 21
31.5
 31
0.0
  0
LINE
  5
DA7
  8
0
 62
     0
 10
585.34675504682514
 20
31.5
 30
0.0
 11
607.35575470149638
 21
31.5
 31
0.0
  0
LINE
  5
DA8
  8
0
 62
     0
 10
780.08877036359422
 20
31.5
 30
0.0
 11
805.34675504682502
 21
31.5
 31
0.0
  0
LINE
  5
DA9
  8
0
 62
     0
 10
528.09675504682502
 20
31.5
 30
0.0
 11
553.34675504682434
 21
31.5
 31
0.0
  0
LINE
  5
DAA
  8
0
 62
     0
 10
668.8467550468248
 20
33.0
 30
0.0
 11
694.09675504682434
 21
33.0
 31
0.0
  0
LINE
  5
DAB
  8
0
 62
     0
 10
639.33877036359422
 20
33.0
 30
0.0
 11
664.59675504682502
 21
33.0
 31
0.0
  0
LINE
  5
DAC
  8
0
 62
     0
 10
726.09675504682514
 20
33.0
 30
0.0
 11
748.10575470149638
 21
33.0
 31
0.0
  0
LINE
  5
DAD
  8
0
 62
     0
 10
585.34675504682514
 20
33.0
 30
0.0
 11
607.35575470149638
 21
33.0
 31
0.0
  0
LINE
  5
DAE
  8
0
 62
     0
 10
780.08877036359422
 20
33.0
 30
0.0
 11
805.34675504682502
 21
33.0
 31
0.0
  0
LINE
  5
DAF
  8
0
 62
     0
 10
528.09675504682502
 20
33.0
 30
0.0
 11
553.34675504682434
 21
33.0
 31
0.0
  0
LINE
  5
DB0
  8
0
 62
     0
 10
668.8467550468248
 20
34.5
 30
0.0
 11
694.09675504682434
 21
34.5
 31
0.0
  0
LINE
  5
DB1
  8
0
 62
     0
 10
639.33877036359422
 20
34.5
 30
0.0
 11
664.59675504682502
 21
34.5
 31
0.0
  0
LINE
  5
DB2
  8
0
 62
     0
 10
726.09675504682514
 20
34.5
 30
0.0
 11
748.10575470149638
 21
34.5
 31
0.0
  0
LINE
  5
DB3
  8
0
 62
     0
 10
585.34675504682514
 20
34.5
 30
0.0
 11
607.35575470149638
 21
34.5
 31
0.0
  0
LINE
  5
DB4
  8
0
 62
     0
 10
780.08877036359422
 20
34.5
 30
0.0
 11
805.34675504682502
 21
34.5
 31
0.0
  0
LINE
  5
DB5
  8
0
 62
     0
 10
528.09675504682502
 20
34.5
 30
0.0
 11
553.34675504682434
 21
34.5
 31
0.0
  0
LINE
  5
DB6
  8
0
 62
     0
 10
668.8467550468248
 20
36.0
 30
0.0
 11
694.09675504682434
 21
36.0
 31
0.0
  0
LINE
  5
DB7
  8
0
 62
     0
 10
639.33877036359422
 20
36.0
 30
0.0
 11
664.59675504682502
 21
36.0
 31
0.0
  0
LINE
  5
DB8
  8
0
 62
     0
 10
726.09675504682514
 20
36.0
 30
0.0
 11
748.10575470149638
 21
36.0
 31
0.0
  0
LINE
  5
DB9
  8
0
 62
     0
 10
585.34675504682514
 20
36.0
 30
0.0
 11
607.35575470149638
 21
36.0
 31
0.0
  0
LINE
  5
DBA
  8
0
 62
     0
 10
780.08877036359422
 20
36.0
 30
0.0
 11
805.34675504682502
 21
36.0
 31
0.0
  0
LINE
  5
DBB
  8
0
 62
     0
 10
528.09675504682502
 20
36.0
 30
0.0
 11
553.34675504682434
 21
36.0
 31
0.0
  0
LINE
  5
DBC
  8
0
 62
     0
 10
668.8467550468248
 20
37.5
 30
0.0
 11
694.09675504682434
 21
37.5
 31
0.0
  0
LINE
  5
DBD
  8
0
 62
     0
 10
639.33877036359422
 20
37.5
 30
0.0
 11
664.59675504682491
 21
37.5
 31
0.0
  0
LINE
  5
DBE
  8
0
 62
     0
 10
726.09675504682514
 20
37.5
 30
0.0
 11
748.10575470149638
 21
37.5
 31
0.0
  0
LINE
  5
DBF
  8
0
 62
     0
 10
585.34675504682514
 20
37.5
 30
0.0
 11
607.35575470149638
 21
37.5
 31
0.0
  0
LINE
  5
DC0
  8
0
 62
     0
 10
780.08877036359422
 20
37.5
 30
0.0
 11
805.34675504682502
 21
37.5
 31
0.0
  0
LINE
  5
DC1
  8
0
 62
     0
 10
528.09675504682502
 20
37.5
 30
0.0
 11
553.34675504682434
 21
37.5
 31
0.0
  0
LINE
  5
DC2
  8
0
 62
     0
 10
668.8467550468248
 20
39.0
 30
0.0
 11
694.09675504682434
 21
39.0
 31
0.0
  0
LINE
  5
DC3
  8
0
 62
     0
 10
639.33877036359422
 20
39.0
 30
0.0
 11
664.59675504682491
 21
39.0
 31
0.0
  0
LINE
  5
DC4
  8
0
 62
     0
 10
726.09675504682514
 20
39.0
 30
0.0
 11
748.10575470149638
 21
39.0
 31
0.0
  0
LINE
  5
DC5
  8
0
 62
     0
 10
585.34675504682514
 20
39.0
 30
0.0
 11
607.35575470149638
 21
39.0
 31
0.0
  0
LINE
  5
DC6
  8
0
 62
     0
 10
780.08877036359422
 20
39.0
 30
0.0
 11
805.34675504682502
 21
39.0
 31
0.0
  0
LINE
  5
DC7
  8
0
 62
     0
 10
528.09675504682502
 20
39.0
 30
0.0
 11
553.34675504682434
 21
39.0
 31
0.0
  0
LINE
  5
DC8
  8
0
 62
     0
 10
668.8467550468248
 20
40.499999999999993
 30
0.0
 11
694.09675504682434
 21
40.499999999999993
 31
0.0
  0
LINE
  5
DC9
  8
0
 62
     0
 10
639.33877036359422
 20
40.499999999999993
 30
0.0
 11
664.59675504682491
 21
40.499999999999993
 31
0.0
  0
LINE
  5
DCA
  8
0
 62
     0
 10
726.09675504682514
 20
40.499999999999993
 30
0.0
 11
748.10575470149638
 21
40.499999999999993
 31
0.0
  0
LINE
  5
DCB
  8
0
 62
     0
 10
585.34675504682514
 20
40.499999999999993
 30
0.0
 11
607.35575470149638
 21
40.499999999999993
 31
0.0
  0
LINE
  5
DCC
  8
0
 62
     0
 10
780.08877036359422
 20
40.499999999999993
 30
0.0
 11
805.34675504682502
 21
40.499999999999993
 31
0.0
  0
LINE
  5
DCD
  8
0
 62
     0
 10
528.09675504682502
 20
40.499999999999993
 30
0.0
 11
553.34675504682434
 21
40.499999999999993
 31
0.0
  0
LINE
  5
DCE
  8
0
 62
     0
 10
668.8467550468248
 20
42.0
 30
0.0
 11
694.09675504682434
 21
42.0
 31
0.0
  0
LINE
  5
DCF
  8
0
 62
     0
 10
639.33877036359422
 20
42.0
 30
0.0
 11
664.59675504682491
 21
42.0
 31
0.0
  0
LINE
  5
DD0
  8
0
 62
     0
 10
726.09675504682514
 20
42.0
 30
0.0
 11
748.10575470149638
 21
42.0
 31
0.0
  0
LINE
  5
DD1
  8
0
 62
     0
 10
585.34675504682514
 20
42.0
 30
0.0
 11
607.35575470149638
 21
42.0
 31
0.0
  0
LINE
  5
DD2
  8
0
 62
     0
 10
780.08877036359422
 20
42.0
 30
0.0
 11
805.34675504682502
 21
42.0
 31
0.0
  0
LINE
  5
DD3
  8
0
 62
     0
 10
528.09675504682491
 20
42.0
 30
0.0
 11
553.34675504682434
 21
42.0
 31
0.0
  0
LINE
  5
DD4
  8
0
 62
     0
 10
668.8467550468248
 20
43.5
 30
0.0
 11
694.09675504682434
 21
43.5
 31
0.0
  0
LINE
  5
DD5
  8
0
 62
     0
 10
639.33877036359422
 20
43.5
 30
0.0
 11
664.59675504682491
 21
43.5
 31
0.0
  0
LINE
  5
DD6
  8
0
 62
     0
 10
726.09675504682514
 20
43.5
 30
0.0
 11
748.10575470149638
 21
43.5
 31
0.0
  0
LINE
  5
DD7
  8
0
 62
     0
 10
585.34675504682514
 20
43.5
 30
0.0
 11
607.35575470149638
 21
43.5
 31
0.0
  0
LINE
  5
DD8
  8
0
 62
     0
 10
780.08877036359422
 20
43.5
 30
0.0
 11
805.34675504682502
 21
43.5
 31
0.0
  0
LINE
  5
DD9
  8
0
 62
     0
 10
528.09675504682491
 20
43.5
 30
0.0
 11
553.34675504682434
 21
43.5
 31
0.0
  0
LINE
  5
DDA
  8
0
 62
     0
 10
668.8467550468248
 20
45.0
 30
0.0
 11
694.09675504682434
 21
45.0
 31
0.0
  0
LINE
  5
DDB
  8
0
 62
     0
 10
639.33877036359422
 20
45.0
 30
0.0
 11
664.59675504682491
 21
45.0
 31
0.0
  0
LINE
  5
DDC
  8
0
 62
     0
 10
726.09675504682514
 20
45.0
 30
0.0
 11
748.10575470149638
 21
45.0
 31
0.0
  0
LINE
  5
DDD
  8
0
 62
     0
 10
585.34675504682514
 20
45.0
 30
0.0
 11
607.35575470149638
 21
45.0
 31
0.0
  0
LINE
  5
DDE
  8
0
 62
     0
 10
780.08877036359422
 20
45.0
 30
0.0
 11
805.34675504682502
 21
45.0
 31
0.0
  0
LINE
  5
DDF
  8
0
 62
     0
 10
528.09675504682491
 20
45.0
 30
0.0
 11
553.34675504682434
 21
45.0
 31
0.0
  0
LINE
  5
DE0
  8
0
 62
     0
 10
668.8467550468248
 20
46.5
 30
0.0
 11
694.09675504682434
 21
46.5
 31
0.0
  0
LINE
  5
DE1
  8
0
 62
     0
 10
639.33877036359422
 20
46.5
 30
0.0
 11
664.5967550468248
 21
46.5
 31
0.0
  0
LINE
  5
DE2
  8
0
 62
     0
 10
726.09675504682514
 20
46.5
 30
0.0
 11
748.10575470149638
 21
46.5
 31
0.0
  0
LINE
  5
DE3
  8
0
 62
     0
 10
585.34675504682514
 20
46.5
 30
0.0
 11
607.35575470149638
 21
46.5
 31
0.0
  0
LINE
  5
DE4
  8
0
 62
     0
 10
780.08877036359422
 20
46.5
 30
0.0
 11
805.34675504682502
 21
46.5
 31
0.0
  0
LINE
  5
DE5
  8
0
 62
     0
 10
528.09675504682491
 20
46.5
 30
0.0
 11
553.34675504682434
 21
46.5
 31
0.0
  0
LINE
  5
DE6
  8
0
 62
     0
 10
668.8467550468248
 20
48.0
 30
0.0
 11
694.09675504682434
 21
48.0
 31
0.0
  0
LINE
  5
DE7
  8
0
 62
     0
 10
639.33877036359422
 20
48.0
 30
0.0
 11
664.5967550468248
 21
48.0
 31
0.0
  0
LINE
  5
DE8
  8
0
 62
     0
 10
726.09675504682514
 20
48.0
 30
0.0
 11
748.10575470149638
 21
48.0
 31
0.0
  0
LINE
  5
DE9
  8
0
 62
     0
 10
585.34675504682514
 20
48.0
 30
0.0
 11
607.35575470149638
 21
48.0
 31
0.0
  0
LINE
  5
DEA
  8
0
 62
     0
 10
780.08877036359422
 20
48.0
 30
0.0
 11
805.34675504682502
 21
48.0
 31
0.0
  0
LINE
  5
DEB
  8
0
 62
     0
 10
528.09675504682491
 20
48.0
 30
0.0
 11
553.34675504682434
 21
48.0
 31
0.0
  0
LINE
  5
DEC
  8
0
 62
     0
 10
668.8467550468248
 20
49.5
 30
0.0
 11
694.09675504682434
 21
49.5
 31
0.0
  0
LINE
  5
DED
  8
0
 62
     0
 10
639.33877036359422
 20
49.5
 30
0.0
 11
664.5967550468248
 21
49.5
 31
0.0
  0
LINE
  5
DEE
  8
0
 62
     0
 10
726.09675504682514
 20
49.5
 30
0.0
 11
748.10575470149638
 21
49.5
 31
0.0
  0
LINE
  5
DEF
  8
0
 62
     0
 10
585.34675504682514
 20
49.5
 30
0.0
 11
607.35575470149638
 21
49.5
 31
0.0
  0
LINE
  5
DF0
  8
0
 62
     0
 10
780.08877036359422
 20
49.5
 30
0.0
 11
805.34675504682502
 21
49.5
 31
0.0
  0
LINE
  5
DF1
  8
0
 62
     0
 10
528.09675504682491
 20
49.5
 30
0.0
 11
553.34675504682434
 21
49.5
 31
0.0
  0
LINE
  5
DF2
  8
0
 62
     0
 10
668.8467550468248
 20
51.0
 30
0.0
 11
694.09675504682434
 21
51.0
 31
0.0
  0
LINE
  5
DF3
  8
0
 62
     0
 10
639.33877036359422
 20
51.0
 30
0.0
 11
664.5967550468248
 21
51.0
 31
0.0
  0
LINE
  5
DF4
  8
0
 62
     0
 10
726.09675504682514
 20
51.0
 30
0.0
 11
748.10575470149638
 21
51.0
 31
0.0
  0
LINE
  5
DF5
  8
0
 62
     0
 10
585.34675504682514
 20
51.0
 30
0.0
 11
607.35575470149638
 21
51.0
 31
0.0
  0
LINE
  5
DF6
  8
0
 62
     0
 10
780.08877036359422
 20
51.0
 30
0.0
 11
805.34675504682502
 21
51.0
 31
0.0
  0
LINE
  5
DF7
  8
0
 62
     0
 10
528.09675504682491
 20
51.0
 30
0.0
 11
553.34675504682434
 21
51.0
 31
0.0
  0
LINE
  5
DF8
  8
0
 62
     0
 10
668.8467550468248
 20
52.5
 30
0.0
 11
694.09675504682434
 21
52.5
 31
0.0
  0
LINE
  5
DF9
  8
0
 62
     0
 10
639.33877036359422
 20
52.5
 30
0.0
 11
664.5967550468248
 21
52.5
 31
0.0
  0
LINE
  5
DFA
  8
0
 62
     0
 10
726.09675504682514
 20
52.5
 30
0.0
 11
748.10575470149638
 21
52.5
 31
0.0
  0
LINE
  5
DFB
  8
0
 62
     0
 10
585.34675504682514
 20
52.5
 30
0.0
 11
607.35575470149638
 21
52.5
 31
0.0
  0
LINE
  5
DFC
  8
0
 62
     0
 10
780.08877036359422
 20
52.5
 30
0.0
 11
805.34675504682502
 21
52.5
 31
0.0
  0
LINE
  5
DFD
  8
0
 62
     0
 10
528.0967550468248
 20
52.5
 30
0.0
 11
553.34675504682434
 21
52.5
 31
0.0
  0
LINE
  5
DFE
  8
0
 62
     0
 10
668.8467550468248
 20
54.0
 30
0.0
 11
694.09675504682434
 21
54.0
 31
0.0
  0
LINE
  5
DFF
  8
0
 62
     0
 10
639.33877036359422
 20
54.0
 30
0.0
 11
664.5967550468248
 21
54.0
 31
0.0
  0
LINE
  5
E00
  8
0
 62
     0
 10
726.09675504682514
 20
54.0
 30
0.0
 11
748.10575470149638
 21
54.0
 31
0.0
  0
LINE
  5
E01
  8
0
 62
     0
 10
585.34675504682514
 20
54.0
 30
0.0
 11
607.35575470149638
 21
54.0
 31
0.0
  0
LINE
  5
E02
  8
0
 62
     0
 10
780.08877036359422
 20
54.0
 30
0.0
 11
805.34675504682502
 21
54.0
 31
0.0
  0
LINE
  5
E03
  8
0
 62
     0
 10
528.0967550468248
 20
54.0
 30
0.0
 11
553.34675504682434
 21
54.0
 31
0.0
  0
LINE
  5
E04
  8
0
 62
     0
 10
668.8467550468248
 20
55.5
 30
0.0
 11
694.09675504682434
 21
55.5
 31
0.0
  0
LINE
  5
E05
  8
0
 62
     0
 10
639.33877036359422
 20
55.5
 30
0.0
 11
664.5967550468248
 21
55.5
 31
0.0
  0
LINE
  5
E06
  8
0
 62
     0
 10
726.09675504682514
 20
55.5
 30
0.0
 11
748.10575470149638
 21
55.5
 31
0.0
  0
LINE
  5
E07
  8
0
 62
     0
 10
585.34675504682514
 20
55.5
 30
0.0
 11
607.35575470149638
 21
55.5
 31
0.0
  0
LINE
  5
E08
  8
0
 62
     0
 10
780.08877036359422
 20
55.5
 30
0.0
 11
805.34675504682502
 21
55.5
 31
0.0
  0
LINE
  5
E09
  8
0
 62
     0
 10
528.0967550468248
 20
55.5
 30
0.0
 11
553.34675504682434
 21
55.5
 31
0.0
  0
LINE
  5
E0A
  8
0
 62
     0
 10
668.8467550468248
 20
57.0
 30
0.0
 11
694.09675504682434
 21
57.0
 31
0.0
  0
LINE
  5
E0B
  8
0
 62
     0
 10
639.33877036359422
 20
57.0
 30
0.0
 11
664.59675504682457
 21
57.0
 31
0.0
  0
LINE
  5
E0C
  8
0
 62
     0
 10
726.09675504682514
 20
57.0
 30
0.0
 11
748.10575470149638
 21
57.0
 31
0.0
  0
LINE
  5
E0D
  8
0
 62
     0
 10
585.34675504682514
 20
57.0
 30
0.0
 11
607.35575470149638
 21
57.0
 31
0.0
  0
LINE
  5
E0E
  8
0
 62
     0
 10
780.08877036359422
 20
57.0
 30
0.0
 11
805.34675504682502
 21
57.0
 31
0.0
  0
LINE
  5
E0F
  8
0
 62
     0
 10
528.0967550468248
 20
57.0
 30
0.0
 11
553.34675504682434
 21
57.0
 31
0.0
  0
LINE
  5
E10
  8
0
 62
     0
 10
668.8467550468248
 20
58.5
 30
0.0
 11
694.09675504682434
 21
58.5
 31
0.0
  0
LINE
  5
E11
  8
0
 62
     0
 10
639.33877036359422
 20
58.5
 30
0.0
 11
664.59675504682457
 21
58.5
 31
0.0
  0
LINE
  5
E12
  8
0
 62
     0
 10
726.09675504682514
 20
58.5
 30
0.0
 11
748.10575470149638
 21
58.5
 31
0.0
  0
LINE
  5
E13
  8
0
 62
     0
 10
585.34675504682514
 20
58.5
 30
0.0
 11
607.35575470149638
 21
58.5
 31
0.0
  0
LINE
  5
E14
  8
0
 62
     0
 10
780.08877036359422
 20
58.5
 30
0.0
 11
805.34675504682502
 21
58.5
 31
0.0
  0
LINE
  5
E15
  8
0
 62
     0
 10
528.0967550468248
 20
58.5
 30
0.0
 11
553.34675504682434
 21
58.5
 31
0.0
  0
LINE
  5
E16
  8
0
 62
     0
 10
668.8467550468248
 20
60.0
 30
0.0
 11
694.09675504682434
 21
60.0
 31
0.0
  0
LINE
  5
E17
  8
0
 62
     0
 10
639.33877036359422
 20
60.0
 30
0.0
 11
664.59675504682457
 21
60.0
 31
0.0
  0
LINE
  5
E18
  8
0
 62
     0
 10
726.09675504682514
 20
60.0
 30
0.0
 11
748.10575470149638
 21
60.0
 31
0.0
  0
LINE
  5
E19
  8
0
 62
     0
 10
585.34675504682514
 20
60.0
 30
0.0
 11
607.35575470149638
 21
60.0
 31
0.0
  0
LINE
  5
E1A
  8
0
 62
     0
 10
780.08877036359422
 20
60.0
 30
0.0
 11
805.34675504682502
 21
60.0
 31
0.0
  0
LINE
  5
E1B
  8
0
 62
     0
 10
528.0967550468248
 20
60.0
 30
0.0
 11
553.34675504682434
 21
60.0
 31
0.0
  0
LINE
  5
E1C
  8
0
 62
     0
 10
668.8467550468248
 20
61.5
 30
0.0
 11
694.09675504682434
 21
61.5
 31
0.0
  0
LINE
  5
E1D
  8
0
 62
     0
 10
639.33877036359422
 20
61.5
 30
0.0
 11
664.59675504682457
 21
61.5
 31
0.0
  0
LINE
  5
E1E
  8
0
 62
     0
 10
726.09675504682514
 20
61.5
 30
0.0
 11
748.10575470149638
 21
61.5
 31
0.0
  0
LINE
  5
E1F
  8
0
 62
     0
 10
585.34675504682514
 20
61.5
 30
0.0
 11
607.35575470149638
 21
61.5
 31
0.0
  0
LINE
  5
E20
  8
0
 62
     0
 10
780.08877036359422
 20
61.5
 30
0.0
 11
805.34675504682502
 21
61.5
 31
0.0
  0
LINE
  5
E21
  8
0
 62
     0
 10
528.0967550468248
 20
61.5
 30
0.0
 11
553.34675504682434
 21
61.5
 31
0.0
  0
LINE
  5
E22
  8
0
 62
     0
 10
668.8467550468248
 20
63.0
 30
0.0
 11
694.09675504682434
 21
63.0
 31
0.0
  0
LINE
  5
E23
  8
0
 62
     0
 10
639.33877036359422
 20
63.0
 30
0.0
 11
664.59675504682457
 21
63.0
 31
0.0
  0
LINE
  5
E24
  8
0
 62
     0
 10
726.09675504682514
 20
63.0
 30
0.0
 11
748.10575470149638
 21
63.0
 31
0.0
  0
LINE
  5
E25
  8
0
 62
     0
 10
585.34675504682514
 20
63.0
 30
0.0
 11
607.35575470149638
 21
63.0
 31
0.0
  0
LINE
  5
E26
  8
0
 62
     0
 10
780.08877036359422
 20
63.0
 30
0.0
 11
805.34675504682502
 21
63.0
 31
0.0
  0
LINE
  5
E27
  8
0
 62
     0
 10
528.0967550468248
 20
63.0
 30
0.0
 11
553.34675504682434
 21
63.0
 31
0.0
  0
LINE
  5
E28
  8
0
 62
     0
 10
668.8467550468248
 20
64.5
 30
0.0
 11
694.09675504682434
 21
64.5
 31
0.0
  0
LINE
  5
E29
  8
0
 62
     0
 10
639.33877036359422
 20
64.5
 30
0.0
 11
664.59675504682457
 21
64.5
 31
0.0
  0
LINE
  5
E2A
  8
0
 62
     0
 10
726.09675504682514
 20
64.5
 30
0.0
 11
748.10575470149638
 21
64.5
 31
0.0
  0
LINE
  5
E2B
  8
0
 62
     0
 10
585.34675504682514
 20
64.5
 30
0.0
 11
607.35575470149638
 21
64.5
 31
0.0
  0
LINE
  5
E2C
  8
0
 62
     0
 10
780.08877036359422
 20
64.5
 30
0.0
 11
805.34675504682502
 21
64.5
 31
0.0
  0
LINE
  5
E2D
  8
0
 62
     0
 10
528.09675504682457
 20
64.5
 30
0.0
 11
553.34675504682434
 21
64.5
 31
0.0
  0
LINE
  5
E2E
  8
0
 62
     0
 10
668.8467550468248
 20
66.0
 30
0.0
 11
694.09675504682434
 21
66.0
 31
0.0
  0
LINE
  5
E2F
  8
0
 62
     0
 10
639.33877036359422
 20
66.0
 30
0.0
 11
664.59675504682446
 21
66.0
 31
0.0
  0
LINE
  5
E30
  8
0
 62
     0
 10
726.09675504682514
 20
66.0
 30
0.0
 11
748.10575470149638
 21
66.0
 31
0.0
  0
LINE
  5
E31
  8
0
 62
     0
 10
585.34675504682514
 20
66.0
 30
0.0
 11
607.35575470149638
 21
66.0
 31
0.0
  0
LINE
  5
E32
  8
0
 62
     0
 10
780.08877036359422
 20
66.0
 30
0.0
 11
805.34675504682502
 21
66.0
 31
0.0
  0
LINE
  5
E33
  8
0
 62
     0
 10
528.09675504682457
 20
66.0
 30
0.0
 11
553.34675504682434
 21
66.0
 31
0.0
  0
LINE
  5
E34
  8
0
 62
     0
 10
668.8467550468248
 20
67.5
 30
0.0
 11
694.09675504682434
 21
67.5
 31
0.0
  0
LINE
  5
E35
  8
0
 62
     0
 10
639.33877036359422
 20
67.5
 30
0.0
 11
664.59675504682446
 21
67.5
 31
0.0
  0
LINE
  5
E36
  8
0
 62
     0
 10
726.09675504682514
 20
67.5
 30
0.0
 11
748.10575470149638
 21
67.5
 31
0.0
  0
LINE
  5
E37
  8
0
 62
     0
 10
585.34675504682514
 20
67.5
 30
0.0
 11
607.35575470149638
 21
67.5
 31
0.0
  0
LINE
  5
E38
  8
0
 62
     0
 10
780.08877036359422
 20
67.5
 30
0.0
 11
805.34675504682502
 21
67.5
 31
0.0
  0
LINE
  5
E39
  8
0
 62
     0
 10
528.09675504682457
 20
67.5
 30
0.0
 11
553.34675504682434
 21
67.5
 31
0.0
  0
LINE
  5
E3A
  8
0
 62
     0
 10
668.8467550468248
 20
69.0
 30
0.0
 11
694.09675504682434
 21
69.0
 31
0.0
  0
LINE
  5
E3B
  8
0
 62
     0
 10
639.33877036359422
 20
69.0
 30
0.0
 11
664.59675504682446
 21
69.0
 31
0.0
  0
LINE
  5
E3C
  8
0
 62
     0
 10
726.09675504682514
 20
69.0
 30
0.0
 11
748.10575470149638
 21
69.0
 31
0.0
  0
LINE
  5
E3D
  8
0
 62
     0
 10
585.34675504682514
 20
69.0
 30
0.0
 11
607.35575470149638
 21
69.0
 31
0.0
  0
LINE
  5
E3E
  8
0
 62
     0
 10
780.08877036359422
 20
69.0
 30
0.0
 11
805.34675504682502
 21
69.0
 31
0.0
  0
LINE
  5
E3F
  8
0
 62
     0
 10
528.09675504682457
 20
69.0
 30
0.0
 11
553.34675504682434
 21
69.0
 31
0.0
  0
LINE
  5
E40
  8
0
 62
     0
 10
668.8467550468248
 20
70.5
 30
0.0
 11
694.09675504682434
 21
70.5
 31
0.0
  0
LINE
  5
E41
  8
0
 62
     0
 10
639.33877036359422
 20
70.5
 30
0.0
 11
664.59675504682446
 21
70.5
 31
0.0
  0
LINE
  5
E42
  8
0
 62
     0
 10
726.09675504682514
 20
70.5
 30
0.0
 11
748.10575470149638
 21
70.5
 31
0.0
  0
LINE
  5
E43
  8
0
 62
     0
 10
585.34675504682514
 20
70.5
 30
0.0
 11
607.35575470149638
 21
70.5
 31
0.0
  0
LINE
  5
E44
  8
0
 62
     0
 10
780.08877036359422
 20
70.5
 30
0.0
 11
805.34675504682502
 21
70.5
 31
0.0
  0
LINE
  5
E45
  8
0
 62
     0
 10
528.09675504682457
 20
70.5
 30
0.0
 11
553.34675504682434
 21
70.5
 31
0.0
  0
LINE
  5
E46
  8
0
 62
     0
 10
668.8467550468248
 20
72.0
 30
0.0
 11
694.09675504682434
 21
72.0
 31
0.0
  0
LINE
  5
E47
  8
0
 62
     0
 10
639.33877036359422
 20
72.0
 30
0.0
 11
664.59675504682446
 21
72.0
 31
0.0
  0
LINE
  5
E48
  8
0
 62
     0
 10
726.09675504682514
 20
72.0
 30
0.0
 11
748.10575470149638
 21
72.0
 31
0.0
  0
LINE
  5
E49
  8
0
 62
     0
 10
585.34675504682514
 20
72.0
 30
0.0
 11
607.35575470149638
 21
72.0
 31
0.0
  0
LINE
  5
E4A
  8
0
 62
     0
 10
780.08877036359422
 20
72.0
 30
0.0
 11
805.34675504682502
 21
72.0
 31
0.0
  0
LINE
  5
E4B
  8
0
 62
     0
 10
528.09675504682457
 20
72.0
 30
0.0
 11
553.34675504682434
 21
72.0
 31
0.0
  0
LINE
  5
E4C
  8
0
 62
     0
 10
668.8467550468248
 20
73.5
 30
0.0
 11
694.09675504682434
 21
73.5
 31
0.0
  0
LINE
  5
E4D
  8
0
 62
     0
 10
639.33877036359422
 20
73.5
 30
0.0
 11
664.59675504682446
 21
73.5
 31
0.0
  0
LINE
  5
E4E
  8
0
 62
     0
 10
726.09675504682514
 20
73.5
 30
0.0
 11
748.10575470149638
 21
73.5
 31
0.0
  0
LINE
  5
E4F
  8
0
 62
     0
 10
585.34675504682514
 20
73.5
 30
0.0
 11
607.35575470149638
 21
73.5
 31
0.0
  0
LINE
  5
E50
  8
0
 62
     0
 10
780.08877036359422
 20
73.5
 30
0.0
 11
805.34675504682502
 21
73.5
 31
0.0
  0
LINE
  5
E51
  8
0
 62
     0
 10
528.09675504682457
 20
73.5
 30
0.0
 11
553.34675504682434
 21
73.5
 31
0.0
  0
LINE
  5
E52
  8
0
 62
     0
 10
668.8467550468248
 20
75.0
 30
0.0
 11
694.09675504682434
 21
75.0
 31
0.0
  0
LINE
  5
E53
  8
0
 62
     0
 10
639.33877036359422
 20
75.0
 30
0.0
 11
664.59675504682446
 21
75.0
 31
0.0
  0
LINE
  5
E54
  8
0
 62
     0
 10
726.09675504682514
 20
75.0
 30
0.0
 11
748.10575470149638
 21
75.0
 31
0.0
  0
LINE
  5
E55
  8
0
 62
     0
 10
585.34675504682514
 20
75.0
 30
0.0
 11
607.35575470149638
 21
75.0
 31
0.0
  0
LINE
  5
E56
  8
0
 62
     0
 10
780.08877036359422
 20
75.0
 30
0.0
 11
805.34675504682502
 21
75.0
 31
0.0
  0
LINE
  5
E57
  8
0
 62
     0
 10
528.09675504682446
 20
75.0
 30
0.0
 11
553.34675504682434
 21
75.0
 31
0.0
  0
LINE
  5
E58
  8
0
 62
     0
 10
668.8467550468248
 20
76.5
 30
0.0
 11
694.09675504682434
 21
76.5
 31
0.0
  0
LINE
  5
E59
  8
0
 62
     0
 10
639.33877036359422
 20
76.5
 30
0.0
 11
664.59675504682446
 21
76.5
 31
0.0
  0
LINE
  5
E5A
  8
0
 62
     0
 10
726.09675504682514
 20
76.5
 30
0.0
 11
748.10575470149638
 21
76.5
 31
0.0
  0
LINE
  5
E5B
  8
0
 62
     0
 10
585.34675504682514
 20
76.5
 30
0.0
 11
607.35575470149638
 21
76.5
 31
0.0
  0
LINE
  5
E5C
  8
0
 62
     0
 10
780.08877036359422
 20
76.5
 30
0.0
 11
805.34675504682502
 21
76.5
 31
0.0
  0
LINE
  5
E5D
  8
0
 62
     0
 10
528.09675504682446
 20
76.5
 30
0.0
 11
553.34675504682434
 21
76.5
 31
0.0
  0
LINE
  5
E5E
  8
0
 62
     0
 10
668.8467550468248
 20
78.0
 30
0.0
 11
694.09675504682434
 21
78.0
 31
0.0
  0
LINE
  5
E5F
  8
0
 62
     0
 10
639.33877036359422
 20
78.0
 30
0.0
 11
664.59675504682446
 21
78.0
 31
0.0
  0
LINE
  5
E60
  8
0
 62
     0
 10
726.09675504682514
 20
78.0
 30
0.0
 11
748.10575470149638
 21
78.0
 31
0.0
  0
LINE
  5
E61
  8
0
 62
     0
 10
585.34675504682514
 20
78.0
 30
0.0
 11
607.35575470149638
 21
78.0
 31
0.0
  0
LINE
  5
E62
  8
0
 62
     0
 10
780.08877036359422
 20
78.0
 30
0.0
 11
805.34675504682502
 21
78.0
 31
0.0
  0
LINE
  5
E63
  8
0
 62
     0
 10
528.09675504682446
 20
78.0
 30
0.0
 11
553.34675504682434
 21
78.0
 31
0.0
  0
ENDBLK
  5
E65
  8
0
  0
BLOCK
  8
0
  2
*X5
 70
     1
 10
0.0
 20
0.0
 30
0.0
  3
*X5
  1

  0
LINE
  5
E67
  8
0
 62
     0
 10
446.88279772786677
 20
516.5
 30
0.0
 11
356.88279772786689
 21
516.5
 31
0.0
  0
LINE
  5
E68
  8
0
 62
     0
 10
446.88279772786677
 20
515.0
 30
0.0
 11
356.88279772786689
 21
515.0
 31
0.0
  0
LINE
  5
E69
  8
0
 62
     0
 10
446.88279772786677
 20
513.49999999999989
 30
0.0
 11
356.88279772786689
 21
513.49999999999989
 31
0.0
  0
LINE
  5
E6A
  8
0
 62
     0
 10
446.88279772786677
 20
511.99999999999989
 30
0.0
 11
356.88279772786689
 21
511.99999999999989
 31
0.0
  0
LINE
  5
E6B
  8
0
 62
     0
 10
446.88279772786677
 20
510.49999999999989
 30
0.0
 11
356.88279772786689
 21
510.49999999999989
 31
0.0
  0
LINE
  5
E6C
  8
0
 62
     0
 10
446.88279772786677
 20
508.99999999999989
 30
0.0
 11
356.88279772786689
 21
508.99999999999989
 31
0.0
  0
LINE
  5
E6D
  8
0
 62
     0
 10
446.88279772786677
 20
507.49999999999989
 30
0.0
 11
356.88279772786689
 21
507.49999999999989
 31
0.0
  0
LINE
  5
E6E
  8
0
 62
     0
 10
446.88279772786677
 20
505.99999999999989
 30
0.0
 11
356.88279772786689
 21
505.99999999999989
 31
0.0
  0
LINE
  5
E6F
  8
0
 62
     0
 10
446.88279772786677
 20
504.49999999999989
 30
0.0
 11
356.88279772786689
 21
504.49999999999989
 31
0.0
  0
LINE
  5
E70
  8
0
 62
     0
 10
446.88279772786677
 20
502.99999999999989
 30
0.0
 11
356.88279772786677
 21
502.99999999999989
 31
0.0
  0
LINE
  5
E71
  8
0
 62
     0
 10
446.88279772786677
 20
501.49999999999989
 30
0.0
 11
356.88279772786677
 21
501.49999999999989
 31
0.0
  0
LINE
  5
E72
  8
0
 62
     0
 10
446.88279772786677
 20
499.99999999999989
 30
0.0
 11
356.88279772786677
 21
499.99999999999989
 31
0.0
  0
LINE
  5
E73
  8
0
 62
     0
 10
446.88279772786677
 20
498.49999999999989
 30
0.0
 11
356.88279772786677
 21
498.49999999999989
 31
0.0
  0
LINE
  5
E74
  8
0
 62
     0
 10
446.88279772786677
 20
496.99999999999989
 30
0.0
 11
356.88279772786677
 21
496.99999999999989
 31
0.0
  0
LINE
  5
E75
  8
0
 62
     0
 10
446.88279772786677
 20
495.49999999999989
 30
0.0
 11
356.88279772786677
 21
495.49999999999989
 31
0.0
  0
LINE
  5
E76
  8
0
 62
     0
 10
446.88279772786677
 20
493.99999999999989
 30
0.0
 11
356.88279772786677
 21
493.99999999999989
 31
0.0
  0
LINE
  5
E77
  8
0
 62
     0
 10
446.88279772786677
 20
492.49999999999989
 30
0.0
 11
356.88279772786677
 21
492.49999999999989
 31
0.0
  0
LINE
  5
E78
  8
0
 62
     0
 10
446.88279772786677
 20
490.99999999999989
 30
0.0
 11
356.88279772786677
 21
490.99999999999989
 31
0.0
  0
LINE
  5
E79
  8
0
 62
     0
 10
446.88279772786677
 20
489.49999999999989
 30
0.0
 11
356.88279772786677
 21
489.49999999999989
 31
0.0
  0
LINE
  5
E7A
  8
0
 62
     0
 10
446.88279772786677
 20
487.99999999999989
 30
0.0
 11
356.88279772786677
 21
487.99999999999989
 31
0.0
  0
LINE
  5
E7B
  8
0
 62
     0
 10
446.88279772786677
 20
486.49999999999989
 30
0.0
 11
356.88279772786677
 21
486.49999999999989
 31
0.0
  0
LINE
  5
E7C
  8
0
 62
     0
 10
446.88279772786677
 20
484.99999999999989
 30
0.0
 11
356.88279772786677
 21
484.99999999999989
 31
0.0
  0
LINE
  5
E7D
  8
0
 62
     0
 10
446.88279772786677
 20
483.49999999999989
 30
0.0
 11
356.88279772786677
 21
483.49999999999989
 31
0.0
  0
LINE
  5
E7E
  8
0
 62
     0
 10
446.88279772786677
 20
481.99999999999989
 30
0.0
 11
356.88279772786677
 21
481.99999999999989
 31
0.0
  0
LINE
  5
E7F
  8
0
 62
     0
 10
446.88279772786677
 20
480.49999999999989
 30
0.0
 11
356.88279772786677
 21
480.49999999999989
 31
0.0
  0
LINE
  5
E80
  8
0
 62
     0
 10
446.88279772786677
 20
478.99999999999989
 30
0.0
 11
356.88279772786677
 21
478.99999999999989
 31
0.0
  0
LINE
  5
E81
  8
0
 62
     0
 10
446.88279772786677
 20
477.49999999999989
 30
0.0
 11
356.88279772786677
 21
477.49999999999989
 31
0.0
  0
LINE
  5
E82
  8
0
 62
     0
 10
446.88279772786677
 20
475.99999999999989
 30
0.0
 11
356.88279772786677
 21
475.99999999999989
 31
0.0
  0
LINE
  5
E83
  8
0
 62
     0
 10
446.88279772786672
 20
474.49999999999989
 30
0.0
 11
356.88279772786677
 21
474.49999999999989
 31
0.0
  0
LINE
  5
E84
  8
0
 62
     0
 10
446.88279772786672
 20
472.99999999999989
 30
0.0
 11
356.88279772786677
 21
472.99999999999989
 31
0.0
  0
LINE
  5
E85
  8
0
 62
     0
 10
446.88279772786672
 20
471.49999999999989
 30
0.0
 11
356.88279772786677
 21
471.49999999999989
 31
0.0
  0
LINE
  5
E86
  8
0
 62
     0
 10
446.88279772786672
 20
469.99999999999989
 30
0.0
 11
356.88279772786677
 21
469.99999999999989
 31
0.0
  0
LINE
  5
E87
  8
0
 62
     0
 10
446.88279772786672
 20
468.49999999999989
 30
0.0
 11
356.88279772786677
 21
468.49999999999989
 31
0.0
  0
LINE
  5
E88
  8
0
 62
     0
 10
446.88279772786672
 20
466.99999999999989
 30
0.0
 11
356.88279772786677
 21
466.99999999999989
 31
0.0
  0
LINE
  5
E89
  8
0
 62
     0
 10
446.88279772786672
 20
465.49999999999989
 30
0.0
 11
356.88279772786677
 21
465.49999999999989
 31
0.0
  0
LINE
  5
E8A
  8
0
 62
     0
 10
446.88279772786672
 20
463.99999999999989
 30
0.0
 11
356.88279772786677
 21
463.99999999999989
 31
0.0
  0
LINE
  5
E8B
  8
0
 62
     0
 10
446.88279772786672
 20
462.49999999999989
 30
0.0
 11
356.88279772786677
 21
462.49999999999989
 31
0.0
  0
LINE
  5
E8C
  8
0
 62
     0
 10
446.88279772786672
 20
460.99999999999989
 30
0.0
 11
356.88279772786677
 21
460.99999999999989
 31
0.0
  0
LINE
  5
E8D
  8
0
 62
     0
 10
446.88279772786672
 20
459.49999999999989
 30
0.0
 11
356.88279772786677
 21
459.49999999999989
 31
0.0
  0
LINE
  5
E8E
  8
0
 62
     0
 10
446.88279772786672
 20
457.99999999999989
 30
0.0
 11
356.88279772786677
 21
457.99999999999989
 31
0.0
  0
LINE
  5
E8F
  8
0
 62
     0
 10
446.88279772786672
 20
456.49999999999989
 30
0.0
 11
356.88279772786677
 21
456.49999999999989
 31
0.0
  0
LINE
  5
E90
  8
0
 62
     0
 10
446.88279772786672
 20
454.99999999999989
 30
0.0
 11
356.88279772786677
 21
454.99999999999989
 31
0.0
  0
LINE
  5
E91
  8
0
 62
     0
 10
446.88279772786672
 20
453.49999999999989
 30
0.0
 11
356.88279772786677
 21
453.49999999999989
 31
0.0
  0
LINE
  5
E92
  8
0
 62
     0
 10
446.88279772786672
 20
451.99999999999989
 30
0.0
 11
356.88279772786677
 21
451.99999999999989
 31
0.0
  0
LINE
  5
E93
  8
0
 62
     0
 10
446.88279772786672
 20
450.49999999999989
 30
0.0
 11
356.88279772786677
 21
450.49999999999989
 31
0.0
  0
LINE
  5
E94
  8
0
 62
     0
 10
446.88279772786672
 20
448.99999999999989
 30
0.0
 11
356.88279772786677
 21
448.99999999999989
 31
0.0
  0
LINE
  5
E95
  8
0
 62
     0
 10
446.8827977278666
 20
447.49999999999989
 30
0.0
 11
356.88279772786672
 21
447.49999999999989
 31
0.0
  0
LINE
  5
E96
  8
0
 62
     0
 10
446.8827977278666
 20
445.99999999999989
 30
0.0
 11
356.88279772786672
 21
445.99999999999989
 31
0.0
  0
LINE
  5
E97
  8
0
 62
     0
 10
446.8827977278666
 20
444.49999999999989
 30
0.0
 11
356.88279772786672
 21
444.49999999999989
 31
0.0
  0
LINE
  5
E98
  8
0
 62
     0
 10
446.8827977278666
 20
442.99999999999989
 30
0.0
 11
356.88279772786672
 21
442.99999999999989
 31
0.0
  0
LINE
  5
E99
  8
0
 62
     0
 10
446.8827977278666
 20
441.49999999999989
 30
0.0
 11
356.88279772786672
 21
441.49999999999989
 31
0.0
  0
LINE
  5
E9A
  8
0
 62
     0
 10
446.8827977278666
 20
439.99999999999989
 30
0.0
 11
356.88279772786672
 21
439.99999999999989
 31
0.0
  0
LINE
  5
E9B
  8
0
 62
     0
 10
446.8827977278666
 20
438.49999999999989
 30
0.0
 11
356.88279772786672
 21
438.49999999999989
 31
0.0
  0
LINE
  5
E9C
  8
0
 62
     0
 10
446.8827977278666
 20
436.99999999999989
 30
0.0
 11
356.88279772786672
 21
436.99999999999989
 31
0.0
  0
LINE
  5
E9D
  8
0
 62
     0
 10
446.8827977278666
 20
435.49999999999989
 30
0.0
 11
356.88279772786672
 21
435.49999999999989
 31
0.0
  0
LINE
  5
E9E
  8
0
 62
     0
 10
446.8827977278666
 20
433.99999999999989
 30
0.0
 11
356.88279772786672
 21
433.99999999999989
 31
0.0
  0
LINE
  5
E9F
  8
0
 62
     0
 10
446.8827977278666
 20
432.49999999999989
 30
0.0
 11
356.88279772786672
 21
432.49999999999989
 31
0.0
  0
LINE
  5
EA0
  8
0
 62
     0
 10
446.8827977278666
 20
430.99999999999989
 30
0.0
 11
356.88279772786672
 21
430.99999999999989
 31
0.0
  0
LINE
  5
EA1
  8
0
 62
     0
 10
446.8827977278666
 20
429.49999999999989
 30
0.0
 11
356.88279772786672
 21
429.49999999999989
 31
0.0
  0
LINE
  5
EA2
  8
0
 62
     0
 10
446.8827977278666
 20
427.99999999999989
 30
0.0
 11
356.88279772786672
 21
427.99999999999989
 31
0.0
  0
LINE
  5
EA3
  8
0
 62
     0
 10
446.8827977278666
 20
426.49999999999989
 30
0.0
 11
356.88279772786672
 21
426.49999999999989
 31
0.0
  0
LINE
  5
EA4
  8
0
 62
     0
 10
446.8827977278666
 20
424.99999999999989
 30
0.0
 11
356.88279772786672
 21
424.99999999999989
 31
0.0
  0
LINE
  5
EA5
  8
0
 62
     0
 10
446.8827977278666
 20
423.49999999999989
 30
0.0
 11
356.88279772786672
 21
423.49999999999989
 31
0.0
  0
LINE
  5
EA6
  8
0
 62
     0
 10
446.8827977278666
 20
421.99999999999989
 30
0.0
 11
356.88279772786672
 21
421.99999999999989
 31
0.0
  0
LINE
  5
EA7
  8
0
 62
     0
 10
446.8827977278666
 20
420.49999999999989
 30
0.0
 11
356.88279772786672
 21
420.49999999999989
 31
0.0
  0
LINE
  5
EA8
  8
0
 62
     0
 10
446.8827977278666
 20
418.99999999999989
 30
0.0
 11
356.88279772786672
 21
418.99999999999989
 31
0.0
  0
LINE
  5
EA9
  8
0
 62
     0
 10
446.8827977278666
 20
417.49999999999989
 30
0.0
 11
356.88279772786672
 21
417.49999999999989
 31
0.0
  0
LINE
  5
EAA
  8
0
 62
     0
 10
446.8827977278666
 20
415.99999999999989
 30
0.0
 11
356.88279772786672
 21
415.99999999999989
 31
0.0
  0
LINE
  5
EAB
  8
0
 62
     0
 10
446.8827977278666
 20
414.49999999999989
 30
0.0
 11
356.88279772786672
 21
414.49999999999989
 31
0.0
  0
LINE
  5
EAC
  8
0
 62
     0
 10
446.8827977278666
 20
412.99999999999989
 30
0.0
 11
356.88279772786672
 21
412.99999999999989
 31
0.0
  0
LINE
  5
EAD
  8
0
 62
     0
 10
446.8827977278666
 20
411.49999999999989
 30
0.0
 11
356.88279772786672
 21
411.49999999999989
 31
0.0
  0
LINE
  5
EAE
  8
0
 62
     0
 10
446.8827977278666
 20
409.99999999999989
 30
0.0
 11
356.88279772786672
 21
409.99999999999989
 31
0.0
  0
LINE
  5
EAF
  8
0
 62
     0
 10
446.8827977278666
 20
408.49999999999989
 30
0.0
 11
356.88279772786672
 21
408.49999999999989
 31
0.0
  0
LINE
  5
EB0
  8
0
 62
     0
 10
446.8827977278666
 20
406.99999999999989
 30
0.0
 11
356.88279772786672
 21
406.99999999999989
 31
0.0
  0
LINE
  5
EB1
  8
0
 62
     0
 10
446.8827977278666
 20
405.49999999999989
 30
0.0
 11
356.88279772786672
 21
405.49999999999989
 31
0.0
  0
LINE
  5
EB2
  8
0
 62
     0
 10
446.8827977278666
 20
403.99999999999989
 30
0.0
 11
356.88279772786672
 21
403.99999999999989
 31
0.0
  0
LINE
  5
EB3
  8
0
 62
     0
 10
446.8827977278666
 20
402.49999999999989
 30
0.0
 11
356.88279772786672
 21
402.49999999999989
 31
0.0
  0
LINE
  5
EB4
  8
0
 62
     0
 10
446.8827977278666
 20
400.99999999999989
 30
0.0
 11
356.88279772786672
 21
400.99999999999989
 31
0.0
  0
LINE
  5
EB5
  8
0
 62
     0
 10
446.8827977278666
 20
399.5
 30
0.0
 11
356.88279772786672
 21
399.5
 31
0.0
  0
LINE
  5
EB6
  8
0
 62
     0
 10
446.8827977278666
 20
398.0
 30
0.0
 11
356.88279772786672
 21
398.0
 31
0.0
  0
LINE
  5
EB7
  8
0
 62
     0
 10
446.8827977278666
 20
396.49999999999989
 30
0.0
 11
356.88279772786672
 21
396.49999999999989
 31
0.0
  0
LINE
  5
EB8
  8
0
 62
     0
 10
446.8827977278666
 20
395.0
 30
0.0
 11
356.88279772786672
 21
395.0
 31
0.0
  0
LINE
  5
EB9
  8
0
 62
     0
 10
446.8827977278666
 20
393.5
 30
0.0
 11
356.8827977278666
 21
393.5
 31
0.0
  0
LINE
  5
EBA
  8
0
 62
     0
 10
446.8827977278666
 20
391.99999999999989
 30
0.0
 11
356.8827977278666
 21
391.99999999999989
 31
0.0
  0
LINE
  5
EBB
  8
0
 62
     0
 10
446.8827977278666
 20
390.49999999999989
 30
0.0
 11
356.8827977278666
 21
390.49999999999989
 31
0.0
  0
LINE
  5
EBC
  8
0
 62
     0
 10
446.8827977278666
 20
389.0
 30
0.0
 11
356.8827977278666
 21
389.0
 31
0.0
  0
LINE
  5
EBD
  8
0
 62
     0
 10
446.8827977278666
 20
387.5
 30
0.0
 11
356.8827977278666
 21
387.5
 31
0.0
  0
LINE
  5
EBE
  8
0
 62
     0
 10
446.8827977278666
 20
385.99999999999989
 30
0.0
 11
356.8827977278666
 21
385.99999999999989
 31
0.0
  0
LINE
  5
EBF
  8
0
 62
     0
 10
446.8827977278666
 20
384.49999999999989
 30
0.0
 11
356.8827977278666
 21
384.49999999999989
 31
0.0
  0
LINE
  5
EC0
  8
0
 62
     0
 10
446.8827977278666
 20
383.0
 30
0.0
 11
356.8827977278666
 21
383.0
 31
0.0
  0
LINE
  5
EC1
  8
0
 62
     0
 10
446.8827977278666
 20
381.49999999999989
 30
0.0
 11
356.8827977278666
 21
381.49999999999989
 31
0.0
  0
LINE
  5
EC2
  8
0
 62
     0
 10
446.88279772786723
 20
375.49999999999989
 30
0.0
 11
356.88279772786723
 21
375.49999999999989
 31
0.0
  0
LINE
  5
EC3
  8
0
 62
     0
 10
446.88279772786723
 20
373.99999999999989
 30
0.0
 11
356.88279772786723
 21
373.99999999999989
 31
0.0
  0
LINE
  5
EC4
  8
0
 62
     0
 10
446.88279772786723
 20
372.5
 30
0.0
 11
356.88279772786723
 21
372.5
 31
0.0
  0
LINE
  5
EC5
  8
0
 62
     0
 10
446.88279772786723
 20
370.99999999999989
 30
0.0
 11
356.88279772786723
 21
370.99999999999989
 31
0.0
  0
LINE
  5
EC6
  8
0
 62
     0
 10
446.88279772786723
 20
369.49999999999989
 30
0.0
 11
356.88279772786723
 21
369.49999999999989
 31
0.0
  0
LINE
  5
EC7
  8
0
 62
     0
 10
446.88279772786723
 20
368.0
 30
0.0
 11
356.88279772786723
 21
368.0
 31
0.0
  0
LINE
  5
EC8
  8
0
 62
     0
 10
446.88279772786723
 20
366.5
 30
0.0
 11
356.88279772786723
 21
366.5
 31
0.0
  0
LINE
  5
EC9
  8
0
 62
     0
 10
446.88279772786723
 20
364.99999999999989
 30
0.0
 11
356.88279772786723
 21
364.99999999999989
 31
0.0
  0
LINE
  5
ECA
  8
0
 62
     0
 10
446.88279772786723
 20
363.49999999999989
 30
0.0
 11
356.88279772786723
 21
363.49999999999989
 31
0.0
  0
LINE
  5
ECB
  8
0
 62
     0
 10
446.88279772786711
 20
362.0
 30
0.0
 11
356.88279772786723
 21
362.0
 31
0.0
  0
LINE
  5
ECC
  8
0
 62
     0
 10
446.88279772786711
 20
360.49999999999989
 30
0.0
 11
356.88279772786723
 21
360.49999999999989
 31
0.0
  0
LINE
  5
ECD
  8
0
 62
     0
 10
446.88279772786711
 20
358.99999999999989
 30
0.0
 11
356.88279772786723
 21
358.99999999999989
 31
0.0
  0
LINE
  5
ECE
  8
0
 62
     0
 10
446.88279772786711
 20
357.49999999999989
 30
0.0
 11
356.88279772786723
 21
357.49999999999989
 31
0.0
  0
LINE
  5
ECF
  8
0
 62
     0
 10
446.88279772786711
 20
356.0
 30
0.0
 11
356.88279772786723
 21
356.0
 31
0.0
  0
LINE
  5
ED0
  8
0
 62
     0
 10
446.88279772786711
 20
354.49999999999989
 30
0.0
 11
356.88279772786723
 21
354.49999999999989
 31
0.0
  0
LINE
  5
ED1
  8
0
 62
     0
 10
446.88279772786711
 20
352.99999999999989
 30
0.0
 11
356.88279772786723
 21
352.99999999999989
 31
0.0
  0
LINE
  5
ED2
  8
0
 62
     0
 10
446.88279772786711
 20
351.5
 30
0.0
 11
356.88279772786723
 21
351.5
 31
0.0
  0
LINE
  5
ED3
  8
0
 62
     0
 10
446.88279772786711
 20
350.0
 30
0.0
 11
356.88279772786723
 21
350.0
 31
0.0
  0
LINE
  5
ED4
  8
0
 62
     0
 10
446.88279772786711
 20
348.49999999999989
 30
0.0
 11
356.88279772786723
 21
348.49999999999989
 31
0.0
  0
LINE
  5
ED5
  8
0
 62
     0
 10
446.88279772786711
 20
346.99999999999989
 30
0.0
 11
356.88279772786723
 21
346.99999999999989
 31
0.0
  0
LINE
  5
ED6
  8
0
 62
     0
 10
446.88279772786711
 20
345.5
 30
0.0
 11
356.88279772786723
 21
345.5
 31
0.0
  0
LINE
  5
ED7
  8
0
 62
     0
 10
446.88279772786711
 20
343.99999999999989
 30
0.0
 11
356.88279772786723
 21
343.99999999999989
 31
0.0
  0
LINE
  5
ED8
  8
0
 62
     0
 10
446.88279772786711
 20
342.49999999999989
 30
0.0
 11
356.88279772786723
 21
342.49999999999989
 31
0.0
  0
LINE
  5
ED9
  8
0
 62
     0
 10
446.88279772786711
 20
341.0
 30
0.0
 11
356.88279772786723
 21
341.0
 31
0.0
  0
LINE
  5
EDA
  8
0
 62
     0
 10
446.88279772786711
 20
339.5
 30
0.0
 11
356.88279772786723
 21
339.5
 31
0.0
  0
LINE
  5
EDB
  8
0
 62
     0
 10
446.88279772786711
 20
337.99999999999989
 30
0.0
 11
356.88279772786723
 21
337.99999999999989
 31
0.0
  0
LINE
  5
EDC
  8
0
 62
     0
 10
446.88279772786711
 20
336.49999999999989
 30
0.0
 11
356.88279772786723
 21
336.49999999999989
 31
0.0
  0
LINE
  5
EDD
  8
0
 62
     0
 10
446.88279772786711
 20
335.0
 30
0.0
 11
356.88279772786723
 21
335.0
 31
0.0
  0
LINE
  5
EDE
  8
0
 62
     0
 10
446.88279772786711
 20
333.49999999999989
 30
0.0
 11
356.88279772786723
 21
333.49999999999989
 31
0.0
  0
LINE
  5
EDF
  8
0
 62
     0
 10
446.88279772786711
 20
331.99999999999989
 30
0.0
 11
356.88279772786723
 21
331.99999999999989
 31
0.0
  0
LINE
  5
EE0
  8
0
 62
     0
 10
446.88279772786711
 20
330.5
 30
0.0
 11
356.88279772786723
 21
330.5
 31
0.0
  0
LINE
  5
EE1
  8
0
 62
     0
 10
446.88279772786711
 20
329.0
 30
0.0
 11
356.88279772786723
 21
329.0
 31
0.0
  0
LINE
  5
EE2
  8
0
 62
     0
 10
446.88279772786711
 20
327.49999999999989
 30
0.0
 11
356.88279772786723
 21
327.49999999999989
 31
0.0
  0
LINE
  5
EE3
  8
0
 62
     0
 10
446.88279772786711
 20
325.99999999999989
 30
0.0
 11
356.88279772786723
 21
325.99999999999989
 31
0.0
  0
LINE
  5
EE4
  8
0
 62
     0
 10
446.88279772786711
 20
324.5
 30
0.0
 11
356.88279772786711
 21
324.5
 31
0.0
  0
LINE
  5
EE5
  8
0
 62
     0
 10
446.88279772786711
 20
322.99999999999989
 30
0.0
 11
356.88279772786711
 21
322.99999999999989
 31
0.0
  0
LINE
  5
EE6
  8
0
 62
     0
 10
446.88279772786711
 20
321.49999999999989
 30
0.0
 11
356.88279772786711
 21
321.49999999999989
 31
0.0
  0
LINE
  5
EE7
  8
0
 62
     0
 10
446.88279772786711
 20
319.99999999999989
 30
0.0
 11
356.88279772786711
 21
319.99999999999989
 31
0.0
  0
LINE
  5
EE8
  8
0
 62
     0
 10
446.88279772786711
 20
318.5
 30
0.0
 11
356.88279772786711
 21
318.5
 31
0.0
  0
LINE
  5
EE9
  8
0
 62
     0
 10
446.88279772786711
 20
316.99999999999989
 30
0.0
 11
356.88279772786711
 21
316.99999999999989
 31
0.0
  0
LINE
  5
EEA
  8
0
 62
     0
 10
446.88279772786711
 20
315.49999999999989
 30
0.0
 11
356.88279772786711
 21
315.49999999999989
 31
0.0
  0
LINE
  5
EEB
  8
0
 62
     0
 10
446.88279772786711
 20
314.0
 30
0.0
 11
356.88279772786711
 21
314.0
 31
0.0
  0
LINE
  5
EEC
  8
0
 62
     0
 10
446.88279772786711
 20
312.5
 30
0.0
 11
356.88279772786711
 21
312.5
 31
0.0
  0
LINE
  5
EED
  8
0
 62
     0
 10
446.88279772786711
 20
310.99999999999989
 30
0.0
 11
356.88279772786711
 21
310.99999999999989
 31
0.0
  0
LINE
  5
EEE
  8
0
 62
     0
 10
446.88279772786711
 20
309.49999999999989
 30
0.0
 11
356.88279772786711
 21
309.49999999999989
 31
0.0
  0
LINE
  5
EEF
  8
0
 62
     0
 10
446.88279772786711
 20
308.0
 30
0.0
 11
356.88279772786711
 21
308.0
 31
0.0
  0
LINE
  5
EF0
  8
0
 62
     0
 10
446.882797727867
 20
306.49999999999989
 30
0.0
 11
356.88279772786711
 21
306.49999999999989
 31
0.0
  0
LINE
  5
EF1
  8
0
 62
     0
 10
446.882797727867
 20
304.99999999999989
 30
0.0
 11
356.88279772786711
 21
304.99999999999989
 31
0.0
  0
LINE
  5
EF2
  8
0
 62
     0
 10
446.882797727867
 20
303.5
 30
0.0
 11
356.88279772786711
 21
303.5
 31
0.0
  0
LINE
  5
EF3
  8
0
 62
     0
 10
446.882797727867
 20
302.0
 30
0.0
 11
356.88279772786711
 21
302.0
 31
0.0
  0
LINE
  5
EF4
  8
0
 62
     0
 10
446.882797727867
 20
300.49999999999989
 30
0.0
 11
356.88279772786711
 21
300.49999999999989
 31
0.0
  0
LINE
  5
EF5
  8
0
 62
     0
 10
446.882797727867
 20
298.99999999999989
 30
0.0
 11
356.88279772786711
 21
298.99999999999989
 31
0.0
  0
LINE
  5
EF6
  8
0
 62
     0
 10
446.882797727867
 20
297.5
 30
0.0
 11
356.88279772786711
 21
297.5
 31
0.0
  0
LINE
  5
EF7
  8
0
 62
     0
 10
446.882797727867
 20
295.99999999999989
 30
0.0
 11
356.88279772786711
 21
295.99999999999989
 31
0.0
  0
LINE
  5
EF8
  8
0
 62
     0
 10
446.882797727867
 20
294.49999999999989
 30
0.0
 11
356.88279772786711
 21
294.49999999999989
 31
0.0
  0
LINE
  5
EF9
  8
0
 62
     0
 10
446.882797727867
 20
292.99999999999989
 30
0.0
 11
356.88279772786711
 21
292.99999999999989
 31
0.0
  0
LINE
  5
EFA
  8
0
 62
     0
 10
446.882797727867
 20
291.5
 30
0.0
 11
356.88279772786711
 21
291.5
 31
0.0
  0
LINE
  5
EFB
  8
0
 62
     0
 10
446.882797727867
 20
290.0
 30
0.0
 11
356.88279772786711
 21
290.0
 31
0.0
  0
LINE
  5
EFC
  8
0
 62
     0
 10
446.882797727867
 20
288.49999999999989
 30
0.0
 11
356.88279772786711
 21
288.49999999999989
 31
0.0
  0
LINE
  5
EFD
  8
0
 62
     0
 10
446.882797727867
 20
287.0
 30
0.0
 11
356.88279772786711
 21
287.0
 31
0.0
  0
LINE
  5
EFE
  8
0
 62
     0
 10
446.882797727867
 20
285.5
 30
0.0
 11
356.88279772786711
 21
285.5
 31
0.0
  0
LINE
  5
EFF
  8
0
 62
     0
 10
446.882797727867
 20
283.99999999999989
 30
0.0
 11
356.88279772786711
 21
283.99999999999989
 31
0.0
  0
LINE
  5
F00
  8
0
 62
     0
 10
446.882797727867
 20
282.49999999999989
 30
0.0
 11
356.88279772786711
 21
282.49999999999989
 31
0.0
  0
LINE
  5
F01
  8
0
 62
     0
 10
446.882797727867
 20
281.0
 30
0.0
 11
356.88279772786711
 21
281.0
 31
0.0
  0
LINE
  5
F02
  8
0
 62
     0
 10
446.882797727867
 20
279.49999999999989
 30
0.0
 11
356.88279772786711
 21
279.49999999999989
 31
0.0
  0
LINE
  5
F03
  8
0
 62
     0
 10
446.882797727867
 20
277.99999999999989
 30
0.0
 11
356.88279772786711
 21
277.99999999999989
 31
0.0
  0
LINE
  5
F04
  8
0
 62
     0
 10
446.882797727867
 20
276.5
 30
0.0
 11
356.88279772786711
 21
276.5
 31
0.0
  0
LINE
  5
F05
  8
0
 62
     0
 10
446.882797727867
 20
275.0
 30
0.0
 11
356.88279772786711
 21
275.0
 31
0.0
  0
LINE
  5
F06
  8
0
 62
     0
 10
446.882797727867
 20
273.49999999999989
 30
0.0
 11
356.88279772786711
 21
273.49999999999989
 31
0.0
  0
LINE
  5
F07
  8
0
 62
     0
 10
446.882797727867
 20
271.99999999999989
 30
0.0
 11
356.88279772786711
 21
271.99999999999989
 31
0.0
  0
LINE
  5
F08
  8
0
 62
     0
 10
446.882797727867
 20
270.5
 30
0.0
 11
356.88279772786711
 21
270.5
 31
0.0
  0
LINE
  5
F09
  8
0
 62
     0
 10
446.882797727867
 20
268.99999999999989
 30
0.0
 11
356.88279772786711
 21
268.99999999999989
 31
0.0
  0
LINE
  5
F0A
  8
0
 62
     0
 10
446.882797727867
 20
267.49999999999989
 30
0.0
 11
356.88279772786711
 21
267.49999999999989
 31
0.0
  0
LINE
  5
F0B
  8
0
 62
     0
 10
446.882797727867
 20
266.0
 30
0.0
 11
356.88279772786711
 21
266.0
 31
0.0
  0
LINE
  5
F0C
  8
0
 62
     0
 10
446.882797727867
 20
264.5
 30
0.0
 11
356.88279772786711
 21
264.5
 31
0.0
  0
LINE
  5
F0D
  8
0
 62
     0
 10
446.882797727867
 20
262.99999999999989
 30
0.0
 11
356.88279772786711
 21
262.99999999999989
 31
0.0
  0
LINE
  5
F0E
  8
0
 62
     0
 10
446.882797727867
 20
261.49999999999989
 30
0.0
 11
356.88279772786711
 21
261.49999999999989
 31
0.0
  0
LINE
  5
F0F
  8
0
 62
     0
 10
446.882797727867
 20
260.0
 30
0.0
 11
356.88279772786711
 21
260.0
 31
0.0
  0
LINE
  5
F10
  8
0
 62
     0
 10
446.882797727867
 20
258.49999999999989
 30
0.0
 11
356.88279772786711
 21
258.49999999999989
 31
0.0
  0
LINE
  5
F11
  8
0
 62
     0
 10
446.882797727867
 20
256.99999999999989
 30
0.0
 11
356.88279772786711
 21
256.99999999999989
 31
0.0
  0
LINE
  5
F12
  8
0
 62
     0
 10
446.882797727867
 20
255.49999999999989
 30
0.0
 11
356.882797727867
 21
255.49999999999989
 31
0.0
  0
LINE
  5
F13
  8
0
 62
     0
 10
446.882797727867
 20
254.0
 30
0.0
 11
356.882797727867
 21
254.0
 31
0.0
  0
LINE
  5
F14
  8
0
 62
     0
 10
446.88279772786689
 20
252.49999999999989
 30
0.0
 11
356.882797727867
 21
252.49999999999989
 31
0.0
  0
LINE
  5
F15
  8
0
 62
     0
 10
446.88279772786689
 20
250.99999999999989
 30
0.0
 11
356.882797727867
 21
250.99999999999989
 31
0.0
  0
LINE
  5
F16
  8
0
 62
     0
 10
446.88279772786689
 20
249.5
 30
0.0
 11
356.882797727867
 21
249.5
 31
0.0
  0
LINE
  5
F17
  8
0
 62
     0
 10
446.88279772786689
 20
247.99999999999989
 30
0.0
 11
356.882797727867
 21
247.99999999999989
 31
0.0
  0
LINE
  5
F18
  8
0
 62
     0
 10
446.88279772786689
 20
246.49999999999989
 30
0.0
 11
356.882797727867
 21
246.49999999999989
 31
0.0
  0
LINE
  5
F19
  8
0
 62
     0
 10
446.88279772786689
 20
244.99999999999989
 30
0.0
 11
356.882797727867
 21
244.99999999999989
 31
0.0
  0
LINE
  5
F1A
  8
0
 62
     0
 10
446.88279772786689
 20
243.5
 30
0.0
 11
356.882797727867
 21
243.5
 31
0.0
  0
LINE
  5
F1B
  8
0
 62
     0
 10
446.88279772786689
 20
241.99999999999989
 30
0.0
 11
356.882797727867
 21
241.99999999999989
 31
0.0
  0
LINE
  5
F1C
  8
0
 62
     0
 10
446.88279772786689
 20
240.49999999999989
 30
0.0
 11
356.882797727867
 21
240.49999999999989
 31
0.0
  0
ENDBLK
  5
F1E
  8
0
  0
ENDSEC
  0
SECTION
  2
ENTITIES
  0
LINE
  5
484
  8
0
 10
448.5677981474891
 20
136.62500450375629
 30
0.0
 11
448.62889147786649
 21
136.62500450375629
 31
0.0
  0
LINE
  5
485
  8
0
 10
448.62889147786649
 20
153.12500450375629
 30
0.0
 11
448.5677981474891
 21
153.12500450375629
 31
0.0
  0
LINE
  5
486
  8
0
 10
448.62889147786632
 20
144.8750045037562
 30
0.0
 11
448.62889147786632
 21
142.90065027338389
 31
0.0
  0
LINE
  5
487
  8
0
 10
448.62889147786632
 20
142.90064676057531
 30
0.0
 11
448.62889147786632
 21
141.0410391582474
 31
0.0
  0
LINE
  5
488
  8
0
 10
448.62889147786632
 20
141.04103833439521
 30
0.0
 11
448.62889147786632
 21
138.08538761013361
 31
0.0
  0
LINE
  5
489
  8
0
 10
448.62889147786632
 20
138.08538448282039
 30
0.0
 11
448.62889147786632
 21
136.68515629244729
 31
0.0
  0
LINE
  5
48C
  8
0
 10
448.62889147786632
 20
153.0648527150652
 30
0.0
 11
448.62889147786632
 21
151.66462452469511
 31
0.0
  0
LINE
  5
48D
  8
0
 10
448.62889147786632
 20
151.66462139737891
 30
0.0
 11
448.62889147786632
 21
148.70897067311731
 31
0.0
  0
LINE
  5
48E
  8
0
 10
448.62889147786632
 20
148.7089698492683
 30
0.0
 11
448.62889147786632
 21
146.84936224694019
 31
0.0
  0
LINE
  5
48F
  8
0
 10
448.62889147786632
 20
146.8493587341286
 30
0.0
 11
448.62889147786632
 21
144.8750045037562
 31
0.0
  0
LINE
  5
490
  8
0
 10
448.50779772786609
 20
135.875004503757
 30
0.0
 11
448.56779772786729
 21
135.875004503757
 31
0.0
  0
LINE
  5
491
  8
0
 10
448.56779772786729
 20
153.875004503757
 30
0.0
 11
448.50779772786609
 21
153.875004503757
 31
0.0
  0
LINE
  5
492
  8
0
 10
448.56779772786621
 20
144.87500450375691
 30
0.0
 11
448.56779772786621
 21
142.87231609815009
 31
0.0
  0
LINE
  5
493
  8
0
 10
448.56779772786621
 20
142.87231116022591
 30
0.0
 11
448.56779772786621
 21
140.97005147261689
 31
0.0
  0
LINE
  5
494
  8
0
 10
448.56779772786621
 20
140.97005085169889
 30
0.0
 11
448.56779772786621
 21
136.7662846926352
 31
0.0
  0
LINE
  5
495
  8
0
 10
448.56779772786621
 20
136.76628090699981
 30
0.0
 11
448.56779772786621
 21
136.10065329412049
 31
0.0
  0
LINE
  5
496
  8
0
 10
448.56779772786621
 20
136.10064207676081
 30
0.0
 11
448.56779772786621
 21
135.87500450375691
 31
0.0
  0
LINE
  5
497
  8
0
 10
448.56779772786621
 20
153.87500450375691
 30
0.0
 11
448.56779772786621
 21
153.6493669307564
 31
0.0
  0
LINE
  5
498
  8
0
 10
448.56779772786621
 20
153.64935571339331
 30
0.0
 11
448.56779772786621
 21
152.98372810051569
 31
0.0
  0
LINE
  5
499
  8
0
 10
448.56779772786621
 20
152.98372431487871
 30
0.0
 11
448.56779772786621
 21
148.77995815581491
 31
0.0
  0
LINE
  5
49A
  8
0
 10
448.56779772786621
 20
148.7799575348985
 30
0.0
 11
448.56779772786621
 21
146.8776978472892
 31
0.0
  0
LINE
  5
49B
  8
0
 10
448.56779772786621
 20
146.87769290936379
 30
0.0
 11
448.56779772786621
 21
144.87500450375691
 31
0.0
  0
LINE
  5
49C
  8
0
 10
355.13670397786791
 20
136.62500450375671
 30
0.0
 11
355.1977963545815
 21
136.62500450375671
 31
0.0
  0
LINE
  5
49D
  8
0
 10
355.1977963545815
 20
153.125004503757
 30
0.0
 11
355.13670397786791
 21
153.125004503757
 31
0.0
  0
LINE
  5
49F
  8
0
 10
355.136703977867
 20
136.6851562924478
 30
0.0
 11
355.136703977867
 21
138.08538448282039
 31
0.0
  0
LINE
  5
4A0
  8
0
 10
355.136703977867
 20
138.08538761013409
 30
0.0
 11
355.136703977867
 21
141.04103833439561
 31
0.0
  0
LINE
  5
4A1
  8
0
 10
355.136703977867
 20
141.0410391582474
 30
0.0
 11
355.136703977867
 21
142.90064676057531
 31
0.0
  0
LINE
  5
4A2
  8
0
 10
355.136703977867
 20
142.90065027338429
 30
0.0
 11
355.136703977867
 21
144.8750045037566
 31
0.0
  0
LINE
  5
4A3
  8
0
 10
355.136703977867
 20
144.8750045037568
 30
0.0
 11
355.136703977867
 21
146.84935873412911
 31
0.0
  0
LINE
  5
4A4
  8
0
 10
355.136703977867
 20
146.84936224693979
 30
0.0
 11
355.136703977867
 21
148.70896984926799
 31
0.0
  0
LINE
  5
4A5
  8
0
 10
355.136703977867
 20
148.70897067311779
 30
0.0
 11
355.136703977867
 21
151.66462139737939
 31
0.0
  0
LINE
  5
4A6
  8
0
 10
355.136703977867
 20
151.66462452469511
 30
0.0
 11
355.136703977867
 21
153.06485271506571
 31
0.0
  0
LINE
  5
4A8
  8
0
 10
355.19779772786842
 20
135.8750045037574
 30
0.0
 11
355.257797727867
 21
135.8750045037574
 31
0.0
  0
LINE
  5
4A9
  8
0
 10
355.257797727867
 20
153.87500450375771
 30
0.0
 11
355.19779772786842
 21
153.87500450375771
 31
0.0
  0
LINE
  5
4AA
  8
0
 10
355.197797727867
 20
135.8750045037574
 30
0.0
 11
355.197797727867
 21
136.10064207675961
 31
0.0
  0
LINE
  5
4AB
  8
0
 10
355.197797727867
 20
136.100653294121
 30
0.0
 11
355.197797727867
 21
136.7662809069997
 31
0.0
  0
LINE
  5
4AC
  8
0
 10
355.197797727867
 20
136.76628469263559
 30
0.0
 11
355.197797727867
 21
140.97005085169931
 31
0.0
  0
LINE
  5
4AD
  8
0
 10
355.197797727867
 20
140.97005147261689
 30
0.0
 11
355.197797727867
 21
142.87231116022591
 31
0.0
  0
LINE
  5
4AE
  8
0
 10
355.197797727867
 20
142.87231609815049
 30
0.0
 11
355.197797727867
 21
144.87500450375731
 31
0.0
  0
LINE
  5
4AF
  8
0
 10
355.197797727867
 20
144.8750045037574
 30
0.0
 11
355.197797727867
 21
146.8776929093643
 31
0.0
  0
LINE
  5
4B0
  8
0
 10
355.197797727867
 20
146.87769784728931
 30
0.0
 11
355.197797727867
 21
148.77995753489819
 31
0.0
  0
LINE
  5
4B1
  8
0
 10
355.197797727867
 20
148.77995815581551
 30
0.0
 11
355.197797727867
 21
152.9837243148792
 31
0.0
  0
LINE
  5
4B2
  8
0
 10
355.197797727867
 20
152.98372810051569
 30
0.0
 11
355.197797727867
 21
153.64935571339379
 31
0.0
  0
LINE
  5
4B3
  8
0
 10
355.197797727867
 20
153.64936693075609
 30
0.0
 11
355.197797727867
 21
153.8750045037574
 31
0.0
  0
LINE
  5
4B4
  8
0
 10
355.25779772786689
 20
174.87500450375751
 30
0.0
 11
448.50779772786399
 21
174.87500450375751
 31
0.0
  0
LINE
  5
4B5
  8
0
 10
448.50779772786399
 20
80.750004503757779
 30
0.0
 11
355.25779772786689
 21
80.750004503757779
 31
0.0
  0
LINE
  5
4B6
  8
0
 10
355.25779772786689
 20
80.750004503757779
 30
0.0
 11
355.25779772786689
 21
174.87500450375751
 31
0.0
  0
LINE
  5
4B7
  8
0
 10
448.50779772786399
 20
80.750004503757779
 30
0.0
 11
448.50779772786399
 21
174.87500450375751
 31
0.0
  0
LINE
  5
4B8
  8
0
 10
355.257797727867
 20
80.750004503757751
 30
0.0
 11
449.63279772786677
 21
80.750004503757751
 31
0.0
  0
LINE
  5
4B9
  8
0
 10
449.63279772786677
 20
0.0000045037577365
 30
0.0
 11
355.257797727867
 21
0.0000045037577365
 31
0.0
  0
LINE
  5
4BA
  8
0
 10
355.257797727867
 20
80.750004503757751
 30
0.0
 11
355.257797727867
 21
0.0000045037577365
 31
0.0
  0
LINE
  5
4BB
  8
0
 10
449.63279772786677
 20
0.0000045037577365
 30
0.0
 11
449.63279772786677
 21
80.750004503757751
 31
0.0
  0
LINE
  5
4BC
  8
0
 10
355.00779772786518
 20
5.6250045037577348
 30
0.0
 11
355.257797727867
 21
5.6250045037577348
 31
0.0
  0
LINE
  5
4BD
  8
0
 10
355.257797727867
 20
7.6250045037576211
 30
0.0
 11
355.00779772786518
 21
7.6250045037576211
 31
0.0
  0
LINE
  5
4BE
  8
0
 10
355.00779772786592
 20
6.6250045037577614
 30
0.0
 11
355.00779772786592
 21
6.883823548860283
 31
0.0
  0
LINE
  5
4BF
  8
0
 10
355.00779772786592
 20
6.8838238598010228
 30
0.0
 11
355.00779772786592
 21
7.3321111142962136
 31
0.0
  0
LINE
  5
4C0
  8
0
 10
355.00779772786592
 20
7.3321112849443111
 30
0.0
 11
355.00779772786592
 21
7.4910299075422024
 31
0.0
  0
LINE
  5
4C1
  8
0
 10
355.00779772786592
 20
7.4910302776756881
 30
0.0
 11
355.00779772786592
 21
7.5909303300468327
 31
0.0
  0
LINE
  5
4C2
  8
0
 10
355.00779772786592
 20
7.5909310142285076
 30
0.0
 11
355.00779772786592
 21
7.6250045037577658
 31
0.0
  0
LINE
  5
4C3
  8
0
 10
355.00779772786592
 20
5.6250045037577658
 30
0.0
 11
355.00779772786592
 21
5.6590784673940187
 31
0.0
  0
LINE
  5
4C4
  8
0
 10
355.00779772786592
 20
5.6590786774686981
 30
0.0
 11
355.00779772786592
 21
5.7589790422400906
 31
0.0
  0
LINE
  5
4C5
  8
0
 10
355.00779772786592
 20
5.7589790999733257
 30
0.0
 11
355.00779772786592
 21
5.9178977225712179
 31
0.0
  0
LINE
  5
4C6
  8
0
 10
355.00779772786592
 20
5.917897786665125
 30
0.0
 11
355.00779772786592
 21
6.3661853976966594
 31
0.0
  0
LINE
  5
4C7
  8
0
 10
355.00779772786592
 20
6.3661854586552407
 30
0.0
 11
355.00779772786592
 21
6.6250042625935928
 31
0.0
  0
LINE
  5
4C8
  8
0
 10
448.75779772786802
 20
171.12500450375799
 30
0.0
 11
448.50779772786882
 21
171.12500450375799
 31
0.0
  0
LINE
  5
4C9
  8
0
 10
448.50779772786882
 20
163.12500450375811
 30
0.0
 11
448.75779772786802
 21
163.12500450375811
 31
0.0
  0
LINE
  5
4CA
  8
0
 10
448.75779772786711
 20
171.12500450375799
 30
0.0
 11
448.75779772786711
 21
170.98870780891431
 31
0.0
  0
LINE
  5
4CB
  8
0
 10
448.75779772786711
 20
170.98870615499609
 30
0.0
 11
448.75779772786711
 21
170.5891061188957
 31
0.0
  0
LINE
  5
4CC
  8
0
 10
448.75779772786711
 20
170.5891015508646
 30
0.0
 11
448.75779772786711
 21
169.95343162850421
 31
0.0
  0
LINE
  5
4CD
  8
0
 10
448.75779772786711
 20
169.95342753618459
 30
0.0
 11
448.75779772786711
 21
169.12500450375799
 31
0.0
  0
LINE
  5
4CE
  8
0
 10
448.75779772786711
 20
169.1250009177069
 30
0.0
 11
448.75779772786711
 21
168.1602806841681
 31
0.0
  0
LINE
  5
4CF
  8
0
 10
448.75779772786711
 20
168.1602753206661
 30
0.0
 11
448.75779772786711
 21
167.12500836238181
 31
0.0
  0
LINE
  5
4D0
  8
0
 10
448.75779772786711
 20
167.12500450375799
 30
0.0
 11
448.75779772786711
 21
166.08972995970379
 31
0.0
  0
LINE
  5
4D1
  8
0
 10
448.75779772786711
 20
166.08972832334791
 30
0.0
 11
448.75779772786711
 21
164.2965780616027
 31
0.0
  0
LINE
  5
4D2
  8
0
 10
448.75779772786711
 20
164.29657737901181
 30
0.0
 11
448.75779772786711
 21
163.6609043145144
 31
0.0
  0
LINE
  5
4D3
  8
0
 10
448.75779772786711
 20
163.6609028886202
 30
0.0
 11
448.75779772786711
 21
163.2613011986017
 31
0.0
  0
LINE
  5
4D4
  8
0
 10
448.75779772786711
 20
163.2612984618726
 30
0.0
 11
448.75779772786711
 21
163.12500450375799
 31
0.0
  0
ARC
  5
4D5
  8
0
 10
392.88279772786609
 20
50.000004503758127
 30
0.0
 40
1.0000000000000031
 50
359.99999999999841
 51
179.9999999999992
  0
ARC
  5
4D6
  8
0
 10
392.88279772786609
 20
50.000004503758127
 30
0.0
 40
0.9999999999999927
 50
180.00000000000119
 51
359.9999999999992
  0
ARC
  5
4D7
  8
0
 10
360.00779772786609
 20
33.500004503758127
 30
0.0
 40
1.5
 50
0.0
 51
179.9999999999994
  0
ARC
  5
4D8
  8
0
 10
360.00779772786609
 20
33.500004503758127
 30
0.0
 40
1.5000000000000031
 50
180.00000000000011
 51
359.9999999999996
  0
ARC
  5
4D9
  8
0
 10
364.00779772786632
 20
11.00000450375815
 30
0.0
 40
5.0000000000000213
 50
359.9999999999992
 51
179.99999999999949
  0
ARC
  5
4DA
  8
0
 10
364.00779772786632
 20
11.00000450375815
 30
0.0
 40
4.999999999999992
 50
180.0000000000004
 51
359.9999999999996
  0
CIRCLE
  5
4DB
  8
0
 10
372.00779772786632
 20
50.125004503757737
 30
0.0
 40
11.187499999999989
  0
LINE
  5
4DC
  8
0
 10
667.22175504682548
 20
80.750004503757751
 30
0.0
 11
806.97175504682536
 21
80.750004503757751
 31
0.0
  0
LINE
  5
4DD
  8
0
 10
806.97175504682536
 20
0.0000045037577365
 30
0.0
 11
667.22175504682548
 21
0.0000045037577365
 31
0.0
  0
LINE
  5
4DE
  8
0
 10
667.22175504682548
 20
0.0000045037577365
 30
0.0
 11
667.22175504682548
 21
80.750004503757751
 31
0.0
  0
LINE
  5
4DF
  8
0
 10
668.84675504682525
 20
4.0000045037566121
 30
0.0
 11
668.84675504682457
 21
79.12500450375714
 31
0.0
  0
LINE
  5
4E0
  8
0
 10
668.84675504682457
 20
79.12500450375714
 30
0.0
 11
805.34675504682446
 21
79.125004503758561
 31
0.0
  0
LINE
  5
4E1
  8
0
 10
805.34675504682446
 20
79.125004503758561
 30
0.0
 11
805.34675504682514
 21
4.000004503758019
 31
0.0
  0
LINE
  5
4E2
  8
0
 10
805.34675504682514
 20
4.0000045037580083
 30
0.0
 11
668.84675504682525
 21
4.0000045037566032
 31
0.0
  0
LINE
  5
4E3
  8
0
 10
806.97175504682536
 20
0.0000045037577365
 30
0.0
 11
806.97175504682536
 21
80.750004503757751
 31
0.0
  0
ARC
  5
4E4
  8
0
 10
596.34675504682355
 20
144.8750045037562
 30
0.0
 40
8.2500000000000018
 50
179.99999999999969
 51
359.99999999999881
  0
ARC
  5
4E5
  8
0
 10
596.34675504682355
 20
144.8750045037562
 30
0.0
 40
8.2500000000000089
 50
359.9999999999996
 51
179.9999999999998
  0
ARC
  5
4E6
  8
0
 10
596.34675504682355
 20
144.8750045037562
 30
0.0
 40
7.6874999999999654
 50
0.000000000000951
 51
180.0000000000002
  0
ARC
  5
4E7
  8
0
 10
596.34675504682355
 20
144.8750045037562
 30
0.0
 40
7.687499999999992
 50
180.00000000000011
 51
0.0000000000000509
  0
LINE
  5
4E8
  8
0
 10
601.4692558208111
 20
142.43314865495881
 30
0.0
 11
601.27431534462085
 21
141.98423992480011
 31
0.0
  0
LINE
  5
4E9
  8
0
 10
601.27431534462085
 20
141.98423992480011
 30
0.0
 11
600.82342248747796
 21
141.82699786130809
 31
0.0
  0
LINE
  5
4EA
  8
0
 10
600.82342248747796
 20
141.82699786130809
 30
0.0
 11
600.49889371763675
 21
141.8912339724192
 31
0.0
  0
LINE
  5
4EB
  8
0
 10
600.49889371763675
 20
141.8912339724192
 30
0.0
 11
600.26340264620796
 21
142.08394230575249
 31
0.0
  0
LINE
  5
4EC
  8
0
 10
600.26340264620796
 20
142.08394230575249
 30
0.0
 11
600.07243042398591
 21
142.84187881368899
 31
0.0
  0
LINE
  5
4ED
  8
0
 10
600.07243042398591
 20
142.84187881368899
 30
0.0
 11
600.25645820176373
 21
143.60576770257791
 31
0.0
  0
LINE
  5
4EE
  8
0
 10
600.25645820176373
 20
143.60576770257791
 30
0.0
 11
600.48624490811278
 21
143.79549984543499
 31
0.0
  0
LINE
  5
4EF
  8
0
 10
600.48624490811278
 20
143.79549984543499
 30
0.0
 11
600.80754947160494
 21
143.85874389305411
 31
0.0
  0
LINE
  5
4F0
  8
0
 10
600.80754947160494
 20
143.85874389305411
 30
0.0
 11
601.27580343985892
 21
143.71539071845089
 31
0.0
  0
LINE
  5
4F1
  8
0
 10
601.27580343985892
 20
143.71539071845089
 30
0.0
 11
601.4692558208111
 21
143.2902915121017
 31
0.0
  0
LINE
  5
4F2
  8
0
 10
601.4692558208111
 20
143.2902915121017
 30
0.0
 11
602.61211296366844
 21
143.2902915121017
 31
0.0
  0
LINE
  5
4F3
  8
0
 10
602.61211296366844
 20
143.2902915121017
 30
0.0
 11
602.45189470970013
 21
143.93798496448269
 31
0.0
  0
LINE
  5
4F4
  8
0
 10
602.45189470970013
 20
143.93798496448269
 30
0.0
 11
602.08433518589072
 21
144.41677960733981
 31
0.0
  0
LINE
  5
4F5
  8
0
 10
602.08433518589072
 20
144.41677960733981
 30
0.0
 11
601.52530740811289
 21
144.71253853591131
 31
0.0
  0
LINE
  5
4F6
  8
0
 10
601.52530740811289
 20
144.71253853591131
 30
0.0
 11
600.79068439223977
 21
144.81112484543499
 31
0.0
  0
LINE
  5
4F7
  8
0
 10
600.79068439223977
 20
144.81112484543499
 30
0.0
 11
599.99269332081133
 21
144.67918040099059
 31
0.0
  0
LINE
  5
4F8
  8
0
 10
599.99269332081133
 20
144.67918040099059
 30
0.0
 11
599.38245026525567
 21
144.2833470676573
 31
0.0
  0
LINE
  5
4F9
  8
0
 10
599.38245026525567
 20
144.2833470676573
 30
0.0
 11
598.99517347954145
 21
143.6593391311493
 31
0.0
  0
LINE
  5
4FA
  8
0
 10
598.99517347954145
 20
143.6593391311493
 30
0.0
 11
598.86608121763675
 21
142.8428708771811
 31
0.0
  0
LINE
  5
4FB
  8
0
 10
598.86608121763675
 20
142.8428708771811
 30
0.0
 11
598.99579351922387
 21
142.0245425041652
 31
0.0
  0
LINE
  5
4FC
  8
0
 10
598.99579351922387
 20
142.0245425041652
 30
0.0
 11
599.38493042398591
 21
141.40090659146679
 31
0.0
  0
LINE
  5
4FD
  8
0
 10
599.38493042398591
 20
141.40090659146679
 30
0.0
 11
600.00025780493809
 21
141.00618932956201
 31
0.0
  0
LINE
  5
4FE
  8
0
 10
600.00025780493809
 20
141.00618932956201
 30
0.0
 11
600.80854153509688
 21
140.87461690892709
 31
0.0
  0
LINE
  5
4FF
  8
0
 10
600.80854153509688
 20
140.87461690892709
 30
0.0
 11
601.53163181287482
 21
140.9767994486096
 31
0.0
  0
LINE
  5
500
  8
0
 10
601.53163181287482
 20
140.9767994486096
 30
0.0
 11
602.08780740811289
 21
141.2833470676573
 31
0.0
  0
LINE
  5
501
  8
0
 10
602.08780740811289
 20
141.2833470676573
 30
0.0
 11
602.45524292398591
 21
141.7751625438477
 31
0.0
  0
LINE
  5
502
  8
0
 10
602.45524292398591
 20
141.7751625438477
 30
0.0
 11
602.61211296366844
 21
142.43314865495881
 31
0.0
  0
LINE
  5
503
  8
0
 10
602.61211296366844
 20
142.43314865495881
 30
0.0
 11
601.4692558208111
 21
142.43314865495881
 31
0.0
  0
LINE
  5
504
  8
0
 10
594.24752844304362
 20
143.20722284388211
 30
0.0
 11
595.42510780812302
 21
143.20722284388211
 31
0.0
  0
LINE
  5
505
  8
0
 10
595.42510780812302
 20
143.20722284388211
 30
0.0
 11
595.57193320494844
 21
143.71515935181861
 31
0.0
  0
LINE
  5
506
  8
0
 10
595.57193320494844
 20
143.71515935181861
 30
0.0
 11
596.77530622082145
 21
143.71515935181861
 31
0.0
  0
LINE
  5
507
  8
0
 10
596.77530622082145
 20
143.71515935181861
 30
0.0
 11
596.9171713001864
 21
143.20722284388211
 31
0.0
  0
LINE
  5
508
  8
0
 10
596.9171713001864
 20
143.20722284388211
 30
0.0
 11
598.12054431605952
 21
143.20722284388211
 31
0.0
  0
LINE
  5
509
  8
0
 10
598.12054431605952
 20
143.20722284388211
 30
0.0
 11
596.79117923669435
 21
147.0167466534059
 31
0.0
  0
LINE
  5
50A
  8
0
 10
596.79117923669435
 20
147.0167466534059
 30
0.0
 11
595.56201257002772
 21
147.0167466534059
 31
0.0
  0
LINE
  5
50B
  8
0
 10
595.56201257002772
 20
147.0167466534059
 30
0.0
 11
594.24752844304362
 21
143.20722284388211
 31
0.0
  0
LINE
  5
50C
  8
0
 10
595.79217130018651
 20
144.54055617721539
 30
0.0
 11
596.17808399859905
 21
145.84412760578681
 31
0.0
  0
LINE
  5
50D
  8
0
 10
596.17808399859905
 20
145.84412760578681
 30
0.0
 11
596.55506812558315
 21
144.54055617721539
 31
0.0
  0
LINE
  5
50E
  8
0
 10
596.55506812558315
 20
144.54055617721539
 30
0.0
 11
595.79217130018651
 21
144.54055617721539
 31
0.0
  0
LINE
  5
50F
  8
0
 10
590.48679725278225
 20
144.9476111530623
 30
0.0
 11
592.18620201468696
 21
144.9476111530623
 31
0.0
  0
LINE
  5
510
  8
0
 10
592.18620201468696
 20
144.9476111530623
 30
0.0
 11
592.95405915754395
 21
144.98630162925281
 31
0.0
  0
LINE
  5
511
  8
0
 10
592.95405915754395
 20
144.98630162925281
 30
0.0
 11
593.3667575702425
 21
145.11824607369721
 31
0.0
  0
LINE
  5
512
  8
0
 10
593.3667575702425
 20
145.11824607369721
 30
0.0
 11
593.7749916972266
 21
145.5011825816338
 31
0.0
  0
LINE
  5
513
  8
0
 10
593.7749916972266
 20
145.5011825816338
 30
0.0
 11
593.91536868135347
 21
146.08848416893531
 31
0.0
  0
LINE
  5
514
  8
0
 10
593.91536868135347
 20
146.08848416893531
 30
0.0
 11
593.77151947500442
 21
146.65148020068139
 31
0.0
  0
LINE
  5
515
  8
0
 10
593.77151947500442
 20
146.65148020068139
 30
0.0
 11
593.3280670940519
 21
146.9763809943322
 31
0.0
  0
LINE
  5
516
  8
0
 10
593.3280670940519
 20
146.9763809943322
 30
0.0
 11
593.67330518928998
 21
147.29384131179251
 31
0.0
  0
LINE
  5
517
  8
0
 10
593.67330518928998
 20
147.29384131179251
 30
0.0
 11
593.78838455436937
 21
147.74622226417341
 31
0.0
  0
LINE
  5
518
  8
0
 10
593.78838455436937
 20
147.74622226417341
 30
0.0
 11
593.63461471309961
 21
148.30624210544329
 31
0.0
  0
LINE
  5
519
  8
0
 10
593.63461471309961
 20
148.30624210544329
 30
0.0
 11
593.19215439563925
 21
148.64602385147501
 31
0.0
  0
LINE
  5
51A
  8
0
 10
593.19215439563925
 20
148.64602385147501
 30
0.0
 11
592.79681709405202
 21
148.73134131179251
 31
0.0
  0
LINE
  5
51B
  8
0
 10
592.79681709405202
 20
148.73134131179251
 30
0.0
 11
592.06318614167105
 21
148.75713496258609
 31
0.0
  0
LINE
  5
51C
  8
0
 10
592.06318614167105
 20
148.75713496258609
 30
0.0
 11
590.48679725278225
 21
148.75713496258609
 31
0.0
  0
LINE
  5
51D
  8
0
 10
590.48679725278225
 20
148.75713496258609
 30
0.0
 11
590.48679725278225
 21
144.9476111530623
 31
0.0
  0
LINE
  5
51E
  8
0
 10
591.6931464591313
 20
145.83650004195121
 30
0.0
 11
591.6931464591313
 21
146.53491274036389
 31
0.0
  0
LINE
  5
51F
  8
0
 10
591.6931464591313
 20
146.53491274036389
 30
0.0
 11
592.24175757024238
 21
146.53491274036389
 31
0.0
  0
LINE
  5
520
  8
0
 10
592.24175757024238
 20
146.53491274036389
 30
0.0
 11
592.65098376071865
 21
146.4555476609988
 31
0.0
  0
LINE
  5
521
  8
0
 10
592.65098376071865
 20
146.4555476609988
 30
0.0
 11
592.77251153849647
 21
146.18868258163371
 31
0.0
  0
LINE
  5
522
  8
0
 10
592.77251153849647
 20
146.18868258163371
 30
0.0
 11
592.65346391944877
 21
145.91884131179251
 31
0.0
  0
LINE
  5
523
  8
0
 10
592.65346391944877
 20
145.91884131179251
 30
0.0
 11
592.25267026865515
 21
145.83650004195121
 31
0.0
  0
LINE
  5
524
  8
0
 10
592.25267026865515
 20
145.83650004195121
 30
0.0
 11
591.6931464591313
 21
145.83650004195121
 31
0.0
  0
LINE
  5
525
  8
0
 10
591.6931464591313
 20
147.2333254387766
 30
0.0
 11
591.6931464591313
 21
147.86824607369729
 31
0.0
  0
LINE
  5
526
  8
0
 10
591.6931464591313
 20
147.86824607369729
 30
0.0
 11
592.02747185595683
 21
147.86824607369729
 31
0.0
  0
LINE
  5
527
  8
0
 10
592.02747185595683
 20
147.86824607369729
 30
0.0
 11
592.53590439563925
 21
147.80078575623691
 31
0.0
  0
LINE
  5
528
  8
0
 10
592.53590439563925
 20
147.80078575623691
 30
0.0
 11
592.64552741151238
 21
147.55078575623691
 31
0.0
  0
LINE
  5
529
  8
0
 10
592.64552741151238
 20
147.55078575623691
 30
0.0
 11
592.54334487182985
 21
147.30574607369729
 31
0.0
  0
LINE
  5
52A
  8
0
 10
592.54334487182985
 20
147.30574607369729
 30
0.0
 11
592.19116233214731
 21
147.2333254387766
 31
0.0
  0
LINE
  5
52B
  8
0
 10
592.19116233214731
 20
147.2333254387766
 30
0.0
 11
591.6931464591313
 21
147.2333254387766
 31
0.0
  0
ARC
  5
52C
  8
0
 10
596.34675504682286
 20
144.87500450375691
 30
0.0
 40
9.0000000000000089
 50
179.9999999999998
 51
359.99999999999881
  0
ARC
  5
52D
  8
0
 10
596.34675504682286
 20
144.87500450375691
 30
0.0
 40
9.0000000000000124
 50
359.9999999999996
 51
179.9999999999998
  0
LINE
  5
52E
  8
0
 10
749.09675504682275
 20
6.0000045037577348
 30
0.0
 11
779.09675504682275
 21
6.0000045037577348
 31
0.0
  0
LINE
  5
52F
  8
0
 10
749.09675504682525
 20
68.406158526918745
 30
0.0
 11
779.09675504682525
 21
68.406158526918702
 31
0.0
  0
LINE
  5
530
  8
0
 10
748.10575470149661
 20
4.0000045037577836
 30
0.0
 11
748.10575470149672
 21
79.125004503758333
 31
0.0
  0
LINE
  5
531
  8
0
 10
749.09675504682525
 20
79.125004503758333
 30
0.0
 11
749.09675504682525
 21
4.0000045037577836
 31
0.0
  0
LINE
  5
532
  8
0
 10
748.10575470149661
 20
4.0000045037577836
 30
0.0
 11
749.09675504682525
 21
4.0000045037577836
 31
0.0
  0
LINE
  5
533
  8
0
 10
749.09675504682525
 20
79.125004503758333
 30
0.0
 11
748.10575470149672
 21
79.125004503758333
 31
0.0
  0
LINE
  5
534
  8
0
 10
779.09675504682525
 20
4.0000045037577321
 30
0.0
 11
779.09675504682525
 21
79.125004503758305
 31
0.0
  0
LINE
  5
535
  8
0
 10
780.08877036359445
 20
79.125004503758305
 30
0.0
 11
780.08877036359434
 21
4.0000045037577321
 31
0.0
  0
LINE
  5
536
  8
0
 10
780.08877036359434
 20
4.0000045037577321
 30
0.0
 11
779.09675504682525
 21
4.0000045037577321
 31
0.0
  0
LINE
  5
537
  8
0
 10
780.08877036359445
 20
79.125004503758305
 30
0.0
 11
779.09675504682525
 21
79.125004503758305
 31
0.0
  0
LINE
  5
538
  8
0
 10
695.09675504682275
 20
6.0000045037577348
 30
0.0
 11
725.096755046824
 21
6.0000045037577348
 31
0.0
  0
LINE
  5
539
  8
0
 10
695.09675504682446
 20
68.406158526918418
 30
0.0
 11
725.09675504682457
 21
68.406158526918745
 31
0.0
  0
LINE
  5
53A
  8
0
 10
725.09675504682514
 20
4.000004503757828
 30
0.0
 11
725.09675504682525
 21
79.12500450375839
 31
0.0
  0
LINE
  5
53B
  8
0
 10
726.09675504682536
 20
79.12500450375839
 30
0.0
 11
726.09675504682514
 21
4.000004503757828
 31
0.0
  0
LINE
  5
53C
  8
0
 10
725.09675504682514
 20
4.000004503757828
 30
0.0
 11
726.09675504682514
 21
4.000004503757828
 31
0.0
  0
LINE
  5
53D
  8
0
 10
726.09675504682536
 20
79.12500450375839
 30
0.0
 11
725.09675504682525
 21
79.12500450375839
 31
0.0
  0
LINE
  5
53E
  8
0
 10
694.09675504682514
 20
4.0000045037578689
 30
0.0
 11
694.09675504682525
 21
79.125004503758419
 31
0.0
  0
LINE
  5
53F
  8
0
 10
695.09675504682525
 20
79.125004503758419
 30
0.0
 11
695.09675504682514
 21
4.0000045037578689
 31
0.0
  0
LINE
  5
540
  8
0
 10
694.09675504682514
 20
4.0000045037578689
 30
0.0
 11
695.09675504682514
 21
4.0000045037578689
 31
0.0
  0
LINE
  5
541
  8
0
 10
695.09675504682525
 20
79.125004503758419
 30
0.0
 11
694.09675504682525
 21
79.125004503758419
 31
0.0
  0
LINE
  5
542
  8
0
 10
668.8467550468248
 20
79.125004503760181
 30
0.0
 11
668.8467550468248
 21
4.0000045037577321
 31
0.0
1001
ACAD
1000
ASC_BOUNDS
1002
{
1070
    19
1005
74D
1002
}
  0
LINE
  5
543
  8
0
 10
668.8467550468248
 20
4.0000045037577321
 30
0.0
 11
694.09675504682434
 21
4.0000045037577321
 31
0.0
1001
ACAD
1000
ASC_BOUNDS
1002
{
1070
    19
1005
74D
1002
}
  0
LINE
  5
544
  8
0
 10
694.09675504682434
 20
4.0000045037577321
 30
0.0
 11
694.09675504682434
 21
79.125004503760181
 31
0.0
1001
ACAD
1000
ASC_BOUNDS
1002
{
1070
    19
1005
74D
1002
}
  0
LINE
  5
545
  8
0
 10
694.09675504682434
 20
79.125004503760181
 30
0.0
 11
668.8467550468248
 21
79.125004503760181
 31
0.0
1001
ACAD
1000
ASC_BOUNDS
1002
{
1070
    19
1005
74D
1002
}
  0
LINE
  5
546
  8
0
 10
748.10575470149638
 20
79.12500450375839
 30
0.0
 11
726.09675504682514
 21
79.12500450375839
 31
0.0
1001
ACAD
1000
ASC_BOUNDS
1002
{
1070
    19
1005
74D
1002
}
  0
LINE
  5
547
  8
0
 10
726.09675504682514
 20
79.12500450375839
 30
0.0
 11
726.09675504682514
 21
4.000004503757828
 31
0.0
1001
ACAD
1000
ASC_BOUNDS
1002
{
1070
    19
1005
74D
1002
}
  0
LINE
  5
548
  8
0
 10
726.09675504682514
 20
4.0000045037578156
 30
0.0
 11
748.10575470149638
 21
4.000004503757828
 31
0.0
1001
ACAD
1000
ASC_BOUNDS
1002
{
1070
    19
1005
74D
1002
}
  0
LINE
  5
549
  8
0
 10
748.10575470149638
 20
4.000004503757828
 30
0.0
 11
748.10575470149638
 21
79.12500450375839
 31
0.0
1001
ACAD
1000
ASC_BOUNDS
1002
{
1070
    19
1005
74D
1002
}
  0
LINE
  5
54A
  8
0
 10
805.34675504682502
 20
79.12500450375839
 30
0.0
 11
780.08877036359422
 21
79.12500450375839
 31
0.0
1001
ACAD
1000
ASC_BOUNDS
1002
{
1070
    19
1005
74D
1002
}
  0
LINE
  5
54B
  8
0
 10
780.08877036359422
 20
79.12500450375839
 30
0.0
 11
780.08877036359422
 21
4.000004503757828
 31
0.0
1001
ACAD
1000
ASC_BOUNDS
1002
{
1070
    19
1005
74D
1002
}
  0
LINE
  5
54C
  8
0
 10
780.08877036359422
 20
4.0000045037578156
 30
0.0
 11
805.34675504682502
 21
4.000004503757828
 31
0.0
1001
ACAD
1000
ASC_BOUNDS
1002
{
1070
    19
1005
74D
1002
}
  0
LINE
  5
54D
  8
0
 10
805.34675504682502
 20
4.000004503757828
 30
0.0
 11
805.34675504682502
 21
79.12500450375839
 31
0.0
1001
ACAD
1000
ASC_BOUNDS
1002
{
1070
    19
1005
74D
1002
}
  0
LINE
  5
54E
  8
0
 10
608.34675504682446
 20
6.0000045037577348
 30
0.0
 11
638.3467550468232
 21
6.0000045037577348
 31
0.0
  0
LINE
  5
54F
  8
0
 10
608.34675504682525
 20
68.406158526918745
 30
0.0
 11
638.34675504682525
 21
68.406158526918702
 31
0.0
  0
LINE
  5
550
  8
0
 10
607.35575470149649
 20
4.0000045037577836
 30
0.0
 11
607.35575470149672
 21
79.125004503758333
 31
0.0
  0
LINE
  5
551
  8
0
 10
608.34675504682525
 20
79.125004503758333
 30
0.0
 11
608.34675504682525
 21
4.0000045037577836
 31
0.0
  0
LINE
  5
552
  8
0
 10
607.35575470149649
 20
4.0000045037577836
 30
0.0
 11
608.34675504682525
 21
4.0000045037577836
 31
0.0
  0
LINE
  5
553
  8
0
 10
608.34675504682525
 20
79.125004503758333
 30
0.0
 11
607.35575470149672
 21
79.125004503758333
 31
0.0
  0
LINE
  5
554
  8
0
 10
638.34675504682525
 20
4.0000045037577321
 30
0.0
 11
638.34675504682525
 21
79.125004503758305
 31
0.0
  0
LINE
  5
555
  8
0
 10
639.33877036359445
 20
79.125004503758305
 30
0.0
 11
639.33877036359434
 21
4.0000045037577321
 31
0.0
  0
LINE
  5
556
  8
0
 10
639.33877036359434
 20
4.0000045037577321
 30
0.0
 11
638.34675504682525
 21
4.0000045037577321
 31
0.0
  0
LINE
  5
557
  8
0
 10
639.33877036359445
 20
79.125004503758305
 30
0.0
 11
638.34675504682525
 21
79.125004503758305
 31
0.0
  0
LINE
  5
558
  8
0
 10
554.34675504682446
 20
6.0000045037577348
 30
0.0
 11
584.34675504682332
 21
6.0000045037577348
 31
0.0
  0
LINE
  5
559
  8
0
 10
554.34675504682446
 20
68.406158526918418
 30
0.0
 11
584.34675504682446
 21
68.406158526918745
 31
0.0
  0
LINE
  5
55A
  8
0
 10
584.34675504682525
 20
4.000004503757828
 30
0.0
 11
584.34675504682525
 21
79.12500450375839
 31
0.0
  0
LINE
  5
55B
  8
0
 10
585.34675504682525
 20
79.12500450375839
 30
0.0
 11
585.34675504682525
 21
4.000004503757828
 31
0.0
  0
LINE
  5
55C
  8
0
 10
584.34675504682525
 20
4.000004503757828
 30
0.0
 11
585.34675504682525
 21
4.000004503757828
 31
0.0
  0
LINE
  5
55D
  8
0
 10
585.34675504682525
 20
79.12500450375839
 30
0.0
 11
584.34675504682525
 21
79.12500450375839
 31
0.0
  0
LINE
  5
55E
  8
0
 10
553.34675504682525
 20
4.0000045037578689
 30
0.0
 11
553.34675504682536
 21
79.125004503758419
 31
0.0
  0
LINE
  5
55F
  8
0
 10
554.34675504682525
 20
79.125004503758419
 30
0.0
 11
554.34675504682525
 21
4.0000045037578689
 31
0.0
  0
LINE
  5
560
  8
0
 10
553.34675504682525
 20
4.0000045037578689
 30
0.0
 11
554.34675504682525
 21
4.0000045037578689
 31
0.0
  0
LINE
  5
561
  8
0
 10
554.34675504682525
 20
79.125004503758419
 30
0.0
 11
553.34675504682536
 21
79.125004503758419
 31
0.0
  0
LINE
  5
562
  8
0
 10
528.09675504682491
 20
79.125004503760181
 30
0.0
 11
528.09675504682491
 21
4.0000045037577321
 31
0.0
  0
LINE
  5
563
  8
0
 10
528.09675504682491
 20
4.0000045037577321
 30
0.0
 11
553.34675504682434
 21
4.0000045037577321
 31
0.0
  0
LINE
  5
564
  8
0
 10
553.34675504682434
 20
4.0000045037577321
 30
0.0
 11
553.34675504682434
 21
79.125004503760181
 31
0.0
1001
ACAD
1000
ASC_BOUNDS
1002
{
1070
    19
1005
74D
1002
}
  0
LINE
  5
565
  8
0
 10
553.34675504682434
 20
79.125004503760181
 30
0.0
 11
528.09675504682491
 21
79.125004503760181
 31
0.0
  0
LINE
  5
566
  8
0
 10
607.35575470149638
 20
79.12500450375839
 30
0.0
 11
585.34675504682514
 21
79.12500450375839
 31
0.0
  0
LINE
  5
567
  8
0
 10
585.34675504682514
 20
79.12500450375839
 30
0.0
 11
585.34675504682514
 21
4.000004503757828
 31
0.0
1001
ACAD
1000
ASC_BOUNDS
1002
{
1070
    19
1005
74D
1002
}
  0
LINE
  5
568
  8
0
 10
585.34675504682514
 20
4.0000045037578156
 30
0.0
 11
607.35575470149638
 21
4.000004503757828
 31
0.0
  0
LINE
  5
569
  8
0
 10
607.35575470149638
 20
4.000004503757828
 30
0.0
 11
607.35575470149638
 21
79.12500450375839
 31
0.0
1001
ACAD
1000
ASC_BOUNDS
1002
{
1070
    19
1005
74D
1002
}
  0
LINE
  5
56A
  8
0
 10
664.59675504682514
 20
79.12500450375839
 30
0.0
 11
639.33877036359422
 21
79.12500450375839
 31
0.0
  0
LINE
  5
56B
  8
0
 10
639.33877036359422
 20
79.12500450375839
 30
0.0
 11
639.33877036359422
 21
4.000004503757828
 31
0.0
1001
ACAD
1000
ASC_BOUNDS
1002
{
1070
    19
1005
74D
1002
}
  0
LINE
  5
56C
  8
0
 10
639.33877036359422
 20
4.0000045037578156
 30
0.0
 11
664.59675504682514
 21
4.000004503757828
 31
0.0
  0
LINE
  5
56D
  8
0
 10
664.59675504682514
 20
4.000004503757828
 30
0.0
 11
664.59675504682514
 21
79.12500450375839
 31
0.0
  0
LINE
  5
56E
  8
0
 10
526.47175504683094
 20
174.87500450375751
 30
0.0
 11
666.22175504682536
 21
174.87500450375751
 31
0.0
  0
LINE
  5
56F
  8
0
 10
526.47175504683094
 20
80.750004503757779
 30
0.0
 11
526.47175504683094
 21
174.87500450375751
 31
0.0
  0
LINE
  5
570
  8
0
 10
666.22175504682536
 20
80.750004503757779
 30
0.0
 11
666.22175504682536
 21
174.87500450375751
 31
0.0
  0
LINE
  5
571
  8
0
 10
526.47175504682559
 20
80.750004503757751
 30
0.0
 11
666.22175504682548
 21
80.750004503757751
 31
0.0
  0
LINE
  5
572
  8
0
 10
666.22175504682548
 20
0.0000045037577365
 30
0.0
 11
526.47175504682559
 21
0.0000045037577365
 31
0.0
  0
LINE
  5
573
  8
0
 10
526.47175504682559
 20
0.0000045037577365
 30
0.0
 11
526.47175504682559
 21
80.750004503757751
 31
0.0
  0
LINE
  5
574
  8
0
 10
528.09675504682525
 20
4.0000045037566121
 30
0.0
 11
528.09675504682446
 21
79.12500450375714
 31
0.0
1001
ACAD
1000
ASC_BOUNDS
1002
{
1070
    19
1005
74D
1002
}
  0
LINE
  5
575
  8
0
 10
528.09675504682446
 20
79.12500450375714
 30
0.0
 11
664.59675504682446
 21
79.125004503758561
 31
0.0
1001
ACAD
1000
ASC_BOUNDS
1002
{
1070
    19
1005
74D
1005
74D
1005
74D
1002
}
  0
LINE
  5
576
  8
0
 10
664.59675504682446
 20
79.125004503758561
 30
0.0
 11
664.59675504682525
 21
4.000004503758019
 31
0.0
1001
ACAD
1000
ASC_BOUNDS
1002
{
1070
    19
1005
74D
1002
}
  0
LINE
  5
577
  8
0
 10
664.59675504682525
 20
4.0000045037580083
 30
0.0
 11
528.09675504682525
 21
4.0000045037566032
 31
0.0
1001
ACAD
1000
ASC_BOUNDS
1002
{
1070
    19
1005
74D
1005
74D
1005
74D
1002
}
  0
LINE
  5
578
  8
0
 10
666.22175504682548
 20
0.0000045037577365
 30
0.0
 11
666.22175504682548
 21
80.750004503757751
 31
0.0
  0
LINE
  5
579
  8
0
 10
667.22175504683094
 20
174.87500450375751
 30
0.0
 11
806.97175504682525
 21
174.87500450375751
 31
0.0
  0
LINE
  5
57A
  8
0
 10
667.22175504683094
 20
80.750004503757779
 30
0.0
 11
667.22175504683094
 21
174.87500450375751
 31
0.0
  0
LINE
  5
57B
  8
0
 10
806.97175504682525
 20
80.750004503757779
 30
0.0
 11
806.97175504682525
 21
174.87500450375751
 31
0.0
  0
ARC
  5
57C
  8
0
 10
737.09675504682639
 20
144.875004503756
 30
0.0
 40
8.2500000000000018
 50
179.99999999999969
 51
359.99999999999881
  0
ARC
  5
57D
  8
0
 10
737.09675504682639
 20
144.875004503756
 30
0.0
 40
8.2499999999999964
 50
359.99999999999949
 51
179.99999999999969
  0
ARC
  5
57E
  8
0
 10
737.09675504682639
 20
144.875004503756
 30
0.0
 40
7.6875
 50
0.0000000000006107
 51
180.0000000000002
  0
ARC
  5
57F
  8
0
 10
737.09675504682639
 20
144.875004503756
 30
0.0
 40
7.6874999999999831
 50
180.00000000000031
 51
359.9999999999996
  0
LINE
  5
580
  8
0
 10
742.21925582081406
 20
142.43314865495859
 30
0.0
 11
742.0243153446238
 21
141.98423992479979
 31
0.0
  0
LINE
  5
581
  8
0
 10
742.0243153446238
 20
141.98423992479979
 30
0.0
 11
741.57342248748091
 21
141.8269978613078
 31
0.0
  0
LINE
  5
582
  8
0
 10
741.57342248748091
 20
141.8269978613078
 30
0.0
 11
741.24889371763948
 21
141.89123397241889
 31
0.0
  0
LINE
  5
583
  8
0
 10
741.24889371763948
 20
141.89123397241889
 30
0.0
 11
741.01340264621103
 21
142.0839423057522
 31
0.0
  0
LINE
  5
584
  8
0
 10
741.01340264621103
 20
142.0839423057522
 30
0.0
 11
740.82243042398875
 21
142.84187881368871
 31
0.0
  0
LINE
  5
585
  8
0
 10
740.82243042398875
 20
142.84187881368871
 30
0.0
 11
741.00645820176658
 21
143.60576770257759
 31
0.0
  0
LINE
  5
586
  8
0
 10
741.00645820176658
 20
143.60576770257759
 30
0.0
 11
741.23624490811585
 21
143.79549984543479
 31
0.0
  0
LINE
  5
587
  8
0
 10
741.23624490811585
 20
143.79549984543479
 30
0.0
 11
741.5575494716079
 21
143.8587438930538
 31
0.0
  0
LINE
  5
588
  8
0
 10
741.5575494716079
 20
143.8587438930538
 30
0.0
 11
742.02580343986176
 21
143.71539071845061
 31
0.0
  0
LINE
  5
589
  8
0
 10
742.02580343986176
 20
143.71539071845061
 30
0.0
 11
742.21925582081406
 21
143.29029151210139
 31
0.0
  0
LINE
  5
58A
  8
0
 10
742.21925582081406
 20
143.29029151210139
 30
0.0
 11
743.36211296367139
 21
143.29029151210139
 31
0.0
  0
LINE
  5
58B
  8
0
 10
743.36211296367139
 20
143.29029151210139
 30
0.0
 11
743.20189470970308
 21
143.93798496448241
 31
0.0
  0
LINE
  5
58C
  8
0
 10
743.20189470970308
 20
143.93798496448241
 30
0.0
 11
742.83433518589345
 21
144.41677960733949
 31
0.0
  0
LINE
  5
58D
  8
0
 10
742.83433518589345
 20
144.41677960733949
 30
0.0
 11
742.27530740811585
 21
144.71253853591099
 31
0.0
  0
LINE
  5
58E
  8
0
 10
742.27530740811585
 20
144.71253853591099
 30
0.0
 11
741.54068439224284
 21
144.81112484543479
 31
0.0
  0
LINE
  5
58F
  8
0
 10
741.54068439224284
 20
144.81112484543479
 30
0.0
 11
740.74269332081406
 21
144.6791804009903
 31
0.0
  0
LINE
  5
590
  8
0
 10
740.74269332081406
 20
144.6791804009903
 30
0.0
 11
740.13245026525874
 21
144.28334706765699
 31
0.0
  0
LINE
  5
591
  8
0
 10
740.13245026525874
 20
144.28334706765699
 30
0.0
 11
739.74517347954429
 21
143.6593391311491
 31
0.0
  0
LINE
  5
592
  8
0
 10
739.74517347954429
 20
143.6593391311491
 30
0.0
 11
739.61608121763959
 21
142.84287087718079
 31
0.0
  0
LINE
  5
593
  8
0
 10
739.61608121763959
 20
142.84287087718079
 30
0.0
 11
739.74579351922694
 21
142.02454250416491
 31
0.0
  0
LINE
  5
594
  8
0
 10
739.74579351922694
 20
142.02454250416491
 30
0.0
 11
740.13493042398886
 21
141.40090659146651
 31
0.0
  0
LINE
  5
595
  8
0
 10
740.13493042398886
 20
141.40090659146651
 30
0.0
 11
740.75025780494116
 21
141.00618932956169
 31
0.0
  0
LINE
  5
596
  8
0
 10
740.75025780494116
 20
141.00618932956169
 30
0.0
 11
741.55854153509995
 21
140.87461690892681
 31
0.0
  0
LINE
  5
597
  8
0
 10
741.55854153509995
 20
140.87461690892681
 30
0.0
 11
742.28163181287766
 21
140.9767994486094
 31
0.0
  0
LINE
  5
598
  8
0
 10
742.28163181287766
 20
140.9767994486094
 30
0.0
 11
742.83780740811585
 21
141.28334706765699
 31
0.0
  0
LINE
  5
599
  8
0
 10
742.83780740811585
 20
141.28334706765699
 30
0.0
 11
743.20524292398875
 21
141.77516254384739
 31
0.0
  0
LINE
  5
59A
  8
0
 10
743.20524292398875
 20
141.77516254384739
 30
0.0
 11
743.36211296367117
 21
142.43314865495859
 31
0.0
  0
LINE
  5
59B
  8
0
 10
743.36211296367117
 20
142.43314865495859
 30
0.0
 11
742.21925582081406
 21
142.43314865495859
 31
0.0
  0
LINE
  5
59C
  8
0
 10
734.99752844304646
 20
143.20722284388179
 30
0.0
 11
736.17510780812574
 21
143.20722284388179
 31
0.0
  0
LINE
  5
59D
  8
0
 10
736.17510780812574
 20
143.20722284388179
 30
0.0
 11
736.32193320495128
 21
143.7151593518183
 31
0.0
  0
LINE
  5
59E
  8
0
 10
736.32193320495128
 20
143.7151593518183
 30
0.0
 11
737.5253062208244
 21
143.7151593518183
 31
0.0
  0
LINE
  5
59F
  8
0
 10
737.5253062208244
 20
143.7151593518183
 30
0.0
 11
737.66717130018935
 21
143.20722284388179
 31
0.0
  0
LINE
  5
5A0
  8
0
 10
737.66717130018935
 20
143.20722284388179
 30
0.0
 11
738.87054431606236
 21
143.20722284388179
 31
0.0
  0
LINE
  5
5A1
  8
0
 10
738.87054431606236
 20
143.20722284388179
 30
0.0
 11
737.54117923669742
 21
147.01674665340559
 31
0.0
  0
LINE
  5
5A2
  8
0
 10
737.54117923669742
 20
147.01674665340559
 30
0.0
 11
736.31201257003056
 21
147.01674665340559
 31
0.0
  0
LINE
  5
5A3
  8
0
 10
736.31201257003056
 20
147.01674665340559
 30
0.0
 11
734.99752844304646
 21
143.20722284388179
 31
0.0
  0
LINE
  5
5A4
  8
0
 10
736.54217130018935
 20
144.54055617721511
 30
0.0
 11
736.92808399860212
 21
145.8441276057865
 31
0.0
  0
LINE
  5
5A5
  8
0
 10
736.92808399860212
 20
145.8441276057865
 30
0.0
 11
737.30506812558622
 21
144.54055617721511
 31
0.0
  0
LINE
  5
5A6
  8
0
 10
737.30506812558622
 20
144.54055617721511
 30
0.0
 11
736.54217130018935
 21
144.54055617721511
 31
0.0
  0
LINE
  5
5A7
  8
0
 10
731.23679725278521
 20
144.94761115306201
 30
0.0
 11
732.9362020146898
 21
144.94761115306201
 31
0.0
  0
LINE
  5
5A8
  8
0
 10
732.9362020146898
 20
144.94761115306201
 30
0.0
 11
733.70405915754702
 21
144.98630162925249
 31
0.0
  0
LINE
  5
5A9
  8
0
 10
733.70405915754702
 20
144.98630162925249
 30
0.0
 11
734.11675757024545
 21
145.11824607369689
 31
0.0
  0
LINE
  5
5AA
  8
0
 10
734.11675757024545
 20
145.11824607369689
 30
0.0
 11
734.52499169722955
 21
145.50118258163349
 31
0.0
  0
LINE
  5
5AB
  8
0
 10
734.52499169722955
 20
145.50118258163349
 30
0.0
 11
734.66536868135654
 21
146.08848416893511
 31
0.0
  0
LINE
  5
5AC
  8
0
 10
734.66536868135654
 20
146.08848416893511
 30
0.0
 11
734.52151947500738
 21
146.65148020068111
 31
0.0
  0
LINE
  5
5AD
  8
0
 10
734.52151947500738
 20
146.65148020068111
 30
0.0
 11
734.07806709405486
 21
146.97638099433189
 31
0.0
  0
LINE
  5
5AE
  8
0
 10
734.07806709405486
 20
146.97638099433189
 30
0.0
 11
734.42330518929305
 21
147.29384131179219
 31
0.0
  0
LINE
  5
5AF
  8
0
 10
734.42330518929305
 20
147.29384131179219
 30
0.0
 11
734.53838455437244
 21
147.7462222641731
 31
0.0
  0
LINE
  5
5B0
  8
0
 10
734.53838455437244
 20
147.7462222641731
 30
0.0
 11
734.38461471310245
 21
148.306242105443
 31
0.0
  0
LINE
  5
5B1
  8
0
 10
734.38461471310245
 20
148.306242105443
 30
0.0
 11
733.94215439564232
 21
148.64602385147481
 31
0.0
  0
LINE
  5
5B2
  8
0
 10
733.94215439564232
 20
148.64602385147481
 30
0.0
 11
733.54681709405497
 21
148.73134131179219
 31
0.0
  0
LINE
  5
5B3
  8
0
 10
733.54681709405497
 20
148.73134131179219
 30
0.0
 11
732.81318614167401
 21
148.75713496258589
 31
0.0
  0
LINE
  5
5B4
  8
0
 10
732.81318614167401
 20
148.75713496258589
 30
0.0
 11
731.23679725278521
 21
148.75713496258589
 31
0.0
  0
LINE
  5
5B5
  8
0
 10
731.23679725278521
 20
148.75713496258589
 30
0.0
 11
731.23679725278521
 21
144.94761115306201
 31
0.0
  0
LINE
  5
5B6
  8
0
 10
732.44314645913425
 20
145.8365000419509
 30
0.0
 11
732.44314645913425
 21
146.53491274036361
 31
0.0
  0
LINE
  5
5B7
  8
0
 10
732.44314645913425
 20
146.53491274036361
 30
0.0
 11
732.99175757024545
 21
146.53491274036361
 31
0.0
  0
LINE
  5
5B8
  8
0
 10
732.99175757024545
 20
146.53491274036361
 30
0.0
 11
733.4009837607216
 21
146.45554766099849
 31
0.0
  0
LINE
  5
5B9
  8
0
 10
733.4009837607216
 20
146.45554766099849
 30
0.0
 11
733.52251153849943
 21
146.18868258163349
 31
0.0
  0
LINE
  5
5BA
  8
0
 10
733.52251153849943
 20
146.18868258163349
 30
0.0
 11
733.40346391945184
 21
145.91884131179219
 31
0.0
  0
LINE
  5
5BB
  8
0
 10
733.40346391945184
 20
145.91884131179219
 30
0.0
 11
733.00267026865811
 21
145.8365000419509
 31
0.0
  0
LINE
  5
5BC
  8
0
 10
733.00267026865811
 20
145.8365000419509
 30
0.0
 11
732.44314645913425
 21
145.8365000419509
 31
0.0
  0
LINE
  5
5BD
  8
0
 10
732.44314645913425
 20
147.23332543877629
 30
0.0
 11
732.44314645913425
 21
147.86824607369701
 31
0.0
  0
LINE
  5
5BE
  8
0
 10
732.44314645913425
 20
147.86824607369701
 30
0.0
 11
732.77747185595956
 21
147.86824607369701
 31
0.0
  0
LINE
  5
5BF
  8
0
 10
732.77747185595956
 20
147.86824607369701
 30
0.0
 11
733.28590439564232
 21
147.80078575623659
 31
0.0
  0
LINE
  5
5C0
  8
0
 10
733.28590439564232
 20
147.80078575623659
 30
0.0
 11
733.39552741151533
 21
147.55078575623671
 31
0.0
  0
LINE
  5
5C1
  8
0
 10
733.39552741151533
 20
147.55078575623671
 30
0.0
 11
733.29334487183269
 21
147.30574607369701
 31
0.0
  0
LINE
  5
5C2
  8
0
 10
733.29334487183269
 20
147.30574607369701
 30
0.0
 11
732.94116233215027
 21
147.23332543877629
 31
0.0
  0
LINE
  5
5C3
  8
0
 10
732.94116233215027
 20
147.23332543877629
 30
0.0
 11
732.44314645913425
 21
147.23332543877629
 31
0.0
  0
ARC
  5
5C4
  8
0
 10
737.09675504682593
 20
144.8750045037566
 30
0.0
 40
9.0000000000000124
 50
179.9999999999996
 51
359.99999999999881
  0
ARC
  5
5C5
  8
0
 10
737.09675504682593
 20
144.8750045037566
 30
0.0
 40
9.0000000000000195
 50
359.99999999999949
 51
179.9999999999996
  0
ARC
  5
5C6
  8
0
 10
737.09675504682264
 20
167.12500450375771
 30
0.0
 40
4.0
 50
90.0
 51
270.0
  0
ARC
  5
5C7
  8
0
 10
737.09675504682264
 20
167.12500450375771
 30
0.0
 40
4.0000000000000044
 50
270.0
 51
90.0
  0
ARC
  5
5C8
  8
0
 10
596.34675504682264
 20
167.12500450375799
 30
0.0
 40
3.999999999999996
 50
90.0
 51
270.0
  0
ARC
  5
5C9
  8
0
 10
596.34675504682264
 20
167.12500450375799
 30
0.0
 40
4.0000000000000062
 50
270.0
 51
90.0
  0
LINE
  5
5CA
  8
0
 10
526.22175504682332
 20
49.00000450375817
 30
0.0
 11
526.47175504682377
 21
49.00000450375817
 31
0.0
  0
LINE
  5
5CB
  8
0
 10
526.47175504682377
 20
51.000004503758063
 30
0.0
 11
526.22175504682332
 21
51.000004503758063
 31
0.0
  0
LINE
  5
5CC
  8
0
 10
526.22175504682355
 20
32.000004503757957
 30
0.0
 11
526.47175504682389
 21
32.000004503757957
 31
0.0
  0
LINE
  5
5CD
  8
0
 10
526.47175504682389
 20
35.000004503757957
 30
0.0
 11
526.22175504682355
 21
35.000004503757957
 31
0.0
  0
LINE
  5
5CE
  8
0
 10
526.22175504682536
 20
50.00000450375812
 30
0.0
 11
526.22175504682536
 21
50.50000450375812
 31
0.0
  0
LINE
  5
5CF
  8
0
 10
526.22175504682536
 20
50.500006591778032
 30
0.0
 11
526.22175504682559
 21
51.00000450375812
 31
0.0
  0
LINE
  5
5D0
  8
0
 10
526.22175504682559
 20
49.000004503758127
 30
0.0
 11
526.22175504682559
 21
49.13397591825477
 31
0.0
  0
LINE
  5
5D1
  8
0
 10
526.22175504682559
 20
49.133979099973693
 30
0.0
 11
526.22175504682536
 21
49.292894612240133
 31
0.0
  0
LINE
  5
5D2
  8
0
 10
526.22175504682536
 20
49.292897722571588
 30
0.0
 11
526.22175504682536
 21
49.741182897873202
 31
0.0
  0
LINE
  5
5D3
  8
0
 10
526.22175504682536
 20
49.741185458655607
 30
0.0
 11
526.22175504682536
 21
50.000002574445581
 31
0.0
  0
LINE
  5
5D4
  8
0
 10
526.22175504682582
 20
33.500005468413562
 30
0.0
 11
526.22175504682582
 21
34.250004503758127
 31
0.0
  0
LINE
  5
5D5
  8
0
 10
526.22175504682582
 20
34.250005547768133
 30
0.0
 11
526.22175504682582
 21
34.799041681957313
 31
0.0
  0
LINE
  5
5D6
  8
0
 10
526.22175504682582
 20
34.799042609434792
 30
0.0
 11
526.22175504682582
 21
34.948893243191733
 31
0.0
  0
LINE
  5
5D7
  8
0
 10
526.22175504682582
 20
34.948893321248349
 30
0.0
 11
526.22175504682582
 21
35.000004503758127
 31
0.0
  0
LINE
  5
5D8
  8
0
 10
526.22175504682582
 20
32.000004503758127
 30
0.0
 11
526.22175504682582
 21
32.051113789843129
 31
0.0
  0
LINE
  5
5D9
  8
0
 10
526.22175504682582
 20
32.051115764324521
 30
0.0
 11
526.22175504682582
 21
32.200966398081484
 31
0.0
  0
LINE
  5
5DA
  8
0
 10
526.22175504682582
 20
32.200966540025362
 30
0.0
 11
526.22175504682582
 21
32.439344110111527
 31
0.0
  0
LINE
  5
5DB
  8
0
 10
526.22175504682582
 20
32.439344331978312
 30
0.0
 11
526.22175504682571
 21
33.500004503758127
 31
0.0
  0
LINE
  5
5DC
  8
0
 10
526.22175504682343
 20
6.0000045037584178
 30
0.0
 11
526.47175504682389
 21
6.0000045037584178
 31
0.0
  0
LINE
  5
5DD
  8
0
 10
526.47175504682389
 20
16.000004503758181
 30
0.0
 11
526.22175504682343
 21
16.000004503758181
 31
0.0
  0
LINE
  5
5DE
  8
0
 10
526.22175504682582
 20
11.000004744921471
 30
0.0
 11
526.22175504682571
 21
14.53553840969089
 31
0.0
  0
LINE
  5
5DF
  8
0
 10
526.22175504682571
 20
14.53553896409311
 30
0.0
 11
526.22175504682571
 21
15.33013152268035
 31
0.0
  0
LINE
  5
5E0
  8
0
 10
526.22175504682571
 20
15.330132436146149
 30
0.0
 11
526.22175504682582
 21
15.8296336352035
 31
0.0
  0
LINE
  5
5E1
  8
0
 10
526.22175504682582
 20
15.829634211465491
 30
0.0
 11
526.22175504682582
 21
16.000004503758149
 31
0.0
  0
LINE
  5
5E2
  8
0
 10
526.22175504682571
 20
6.0000045037581611
 30
0.0
 11
526.22175504682571
 21
6.1703753723128223
 31
0.0
  0
LINE
  5
5E3
  8
0
 10
526.22175504682571
 20
6.1703754991803841
 30
0.0
 11
526.22175504682571
 21
6.6698771961692476
 31
0.0
  0
LINE
  5
5E4
  8
0
 10
526.22175504682571
 20
6.6698774848359692
 30
0.0
 11
526.22175504682571
 21
8.5000042427548141
 31
0.0
  0
LINE
  5
5E5
  8
0
 10
526.22175504682571
 20
8.5000045037581557
 30
0.0
 11
526.22175504682571
 21
9.7059089734539228
 31
0.0
  0
LINE
  5
5E6
  8
0
 10
526.22175504682571
 20
9.7059092782455494
 30
0.0
 11
526.22175504682571
 21
11.00000450375814
 31
0.0
  0
LINE
  5
5E7
  8
0
 10
-0.0000050391261084
 20
80.750004503757751
 30
0.0
 11
139.74999496087381
 21
80.750004503757751
 31
0.0
  0
LINE
  5
5E8
  8
0
 10
139.74999496087381
 20
0.0000045037577365
 30
0.0
 11
-0.0000050391261084
 21
0.0000045037577365
 31
0.0
  0
LINE
  5
5E9
  8
0
 10
139.74999496087381
 20
80.750004503757751
 30
0.0
 11
139.74999496087381
 21
0.0000045037577365
 31
0.0
  0
LINE
  5
5EA
  8
0
 10
-0.0000050391261084
 20
0.0000045037577365
 30
0.0
 11
-0.0000050391261084
 21
80.750004503757751
 31
0.0
  0
ARC
  5
5EB
  8
0
 10
210.62499496087489
 20
144.8750045037568
 30
0.0
 40
8.2500000000000124
 50
179.9999999999998
 51
359.99999999999881
  0
ARC
  5
5EC
  8
0
 10
210.62499496087489
 20
144.8750045037568
 30
0.0
 40
8.2500000000000231
 50
359.9999999999996
 51
179.9999999999998
  0
ARC
  5
5ED
  8
0
 10
210.62499496087489
 20
144.8750045037568
 30
0.0
 40
7.687499999999992
 50
0.0000000000007951
 51
180.00000000000031
  0
ARC
  5
5EE
  8
0
 10
210.62499496087489
 20
144.8750045037568
 30
0.0
 40
7.687499999999992
 50
180.00000000000031
 51
0.0000000000001018
  0
LINE
  5
5EF
  8
0
 10
215.74749573486281
 20
142.43314865495941
 30
0.0
 11
215.5525552586723
 21
141.9842399248007
 31
0.0
  0
LINE
  5
5F0
  8
0
 10
215.5525552586723
 20
141.9842399248007
 30
0.0
 11
215.10166240152941
 21
141.8269978613086
 31
0.0
  0
LINE
  5
5F1
  8
0
 10
215.10166240152941
 20
141.8269978613086
 30
0.0
 11
214.7771336316882
 21
141.89123397241971
 31
0.0
  0
LINE
  5
5F2
  8
0
 10
214.7771336316882
 20
141.89123397241971
 30
0.0
 11
214.54164256025959
 21
142.083942305753
 31
0.0
  0
LINE
  5
5F3
  8
0
 10
214.54164256025959
 20
142.083942305753
 30
0.0
 11
214.3506703380373
 21
142.8418788136895
 31
0.0
  0
LINE
  5
5F4
  8
0
 10
214.3506703380373
 20
142.8418788136895
 30
0.0
 11
214.5346981158151
 21
143.60576770257839
 31
0.0
  0
LINE
  5
5F5
  8
0
 10
214.5346981158151
 20
143.60576770257839
 30
0.0
 11
214.76448482216441
 21
143.79549984543559
 31
0.0
  0
LINE
  5
5F6
  8
0
 10
214.76448482216441
 20
143.79549984543559
 30
0.0
 11
215.0857893856564
 21
143.85874389305459
 31
0.0
  0
LINE
  5
5F7
  8
0
 10
215.0857893856564
 20
143.85874389305459
 30
0.0
 11
215.5540433539104
 21
143.7153907184514
 31
0.0
  0
LINE
  5
5F8
  8
0
 10
215.5540433539104
 20
143.7153907184514
 30
0.0
 11
215.74749573486281
 21
143.2902915121023
 31
0.0
  0
LINE
  5
5F9
  8
0
 10
215.74749573486281
 20
143.2902915121023
 30
0.0
 11
216.89035287771989
 21
143.2902915121023
 31
0.0
  0
LINE
  5
5FA
  8
0
 10
216.89035287771989
 20
143.2902915121023
 30
0.0
 11
216.7301346237517
 21
143.93798496448321
 31
0.0
  0
LINE
  5
5FB
  8
0
 10
216.7301346237517
 20
143.93798496448321
 30
0.0
 11
216.36257509994209
 21
144.41677960734029
 31
0.0
  0
LINE
  5
5FC
  8
0
 10
216.36257509994209
 20
144.41677960734029
 30
0.0
 11
215.80354732216429
 21
144.71253853591179
 31
0.0
  0
LINE
  5
5FD
  8
0
 10
215.80354732216429
 20
144.71253853591179
 30
0.0
 11
215.06892430629139
 21
144.81112484543559
 31
0.0
  0
LINE
  5
5FE
  8
0
 10
215.06892430629139
 20
144.81112484543559
 30
0.0
 11
214.27093323486281
 21
144.6791804009911
 31
0.0
  0
LINE
  5
5FF
  8
0
 10
214.27093323486281
 20
144.6791804009911
 30
0.0
 11
213.66069017930721
 21
144.28334706765779
 31
0.0
  0
LINE
  5
600
  8
0
 10
213.66069017930721
 20
144.28334706765779
 30
0.0
 11
213.2734133935929
 21
143.65933913114989
 31
0.0
  0
LINE
  5
601
  8
0
 10
213.2734133935929
 20
143.65933913114989
 30
0.0
 11
213.14432113168809
 21
142.84287087718161
 31
0.0
  0
LINE
  5
602
  8
0
 10
213.14432113168809
 20
142.84287087718161
 30
0.0
 11
213.27403343327541
 21
142.02454250416579
 31
0.0
  0
LINE
  5
603
  8
0
 10
213.27403343327541
 20
142.02454250416579
 30
0.0
 11
213.6631703380373
 21
141.4009065914673
 31
0.0
  0
LINE
  5
604
  8
0
 10
213.6631703380373
 20
141.4009065914673
 30
0.0
 11
214.27849771898971
 21
141.0061893295626
 31
0.0
  0
LINE
  5
605
  8
0
 10
214.27849771898971
 20
141.0061893295626
 30
0.0
 11
215.0867814491485
 21
140.87461690892761
 31
0.0
  0
LINE
  5
606
  8
0
 10
215.0867814491485
 20
140.87461690892761
 30
0.0
 11
215.80987172692619
 21
140.97679944861019
 31
0.0
  0
LINE
  5
607
  8
0
 10
215.80987172692619
 20
140.97679944861019
 30
0.0
 11
216.36604732216429
 21
141.28334706765779
 31
0.0
  0
LINE
  5
608
  8
0
 10
216.36604732216429
 20
141.28334706765779
 30
0.0
 11
216.7334828380373
 21
141.7751625438483
 31
0.0
  0
LINE
  5
609
  8
0
 10
216.7334828380373
 20
141.7751625438483
 30
0.0
 11
216.89035287771989
 21
142.43314865495941
 31
0.0
  0
LINE
  5
60A
  8
0
 10
216.89035287771989
 20
142.43314865495941
 30
0.0
 11
215.74749573486281
 21
142.43314865495941
 31
0.0
  0
LINE
  5
60B
  8
0
 10
208.5257683570951
 20
143.20722284388259
 30
0.0
 11
209.70334772217441
 21
143.20722284388259
 31
0.0
  0
LINE
  5
60C
  8
0
 10
209.70334772217441
 20
143.20722284388259
 30
0.0
 11
209.85017311899981
 21
143.7151593518191
 31
0.0
  0
LINE
  5
60D
  8
0
 10
209.85017311899981
 20
143.7151593518191
 30
0.0
 11
211.0535461348729
 21
143.7151593518191
 31
0.0
  0
LINE
  5
60E
  8
0
 10
211.0535461348729
 20
143.7151593518191
 30
0.0
 11
211.19541121423791
 21
143.20722284388259
 31
0.0
  0
LINE
  5
60F
  8
0
 10
211.19541121423791
 20
143.20722284388259
 30
0.0
 11
212.39878423011089
 21
143.20722284388259
 31
0.0
  0
LINE
  5
610
  8
0
 10
212.39878423011089
 20
143.20722284388259
 30
0.0
 11
211.06941915074589
 21
147.01674665340639
 31
0.0
  0
LINE
  5
611
  8
0
 10
211.06941915074589
 20
147.01674665340639
 30
0.0
 11
209.8402524840792
 21
147.01674665340639
 31
0.0
  0
LINE
  5
612
  8
0
 10
209.8402524840792
 20
147.01674665340639
 30
0.0
 11
208.5257683570951
 21
143.20722284388259
 31
0.0
  0
LINE
  5
613
  8
0
 10
210.07041121423791
 20
144.5405561772159
 30
0.0
 11
210.45632391265059
 21
145.84412760578729
 31
0.0
  0
LINE
  5
614
  8
0
 10
210.45632391265059
 20
145.84412760578729
 30
0.0
 11
210.83330803963469
 21
144.5405561772159
 31
0.0
  0
LINE
  5
615
  8
0
 10
210.83330803963469
 20
144.5405561772159
 30
0.0
 11
210.07041121423791
 21
144.5405561772159
 31
0.0
  0
LINE
  5
616
  8
0
 10
204.76503716683371
 20
144.94761115306281
 30
0.0
 11
206.46444192873841
 21
144.94761115306281
 31
0.0
  0
LINE
  5
617
  8
0
 10
206.46444192873841
 20
144.94761115306281
 30
0.0
 11
207.23229907159561
 21
144.98630162925329
 31
0.0
  0
LINE
  5
618
  8
0
 10
207.23229907159561
 20
144.98630162925329
 30
0.0
 11
207.64499748429401
 21
145.1182460736978
 31
0.0
  0
LINE
  5
619
  8
0
 10
207.64499748429401
 20
145.1182460736978
 30
0.0
 11
208.05323161127811
 21
145.50118258163431
 31
0.0
  0
LINE
  5
61A
  8
0
 10
208.05323161127811
 20
145.50118258163431
 30
0.0
 11
208.1936085954051
 21
146.08848416893591
 31
0.0
  0
LINE
  5
61B
  8
0
 10
208.1936085954051
 20
146.08848416893591
 30
0.0
 11
208.04975938905591
 21
146.6514802006819
 31
0.0
  0
LINE
  5
61C
  8
0
 10
208.04975938905591
 20
146.6514802006819
 30
0.0
 11
207.6063070081035
 21
146.97638099433269
 31
0.0
  0
LINE
  5
61D
  8
0
 10
207.6063070081035
 20
146.97638099433269
 30
0.0
 11
207.9515451033416
 21
147.29384131179299
 31
0.0
  0
LINE
  5
61E
  8
0
 10
207.9515451033416
 20
147.29384131179299
 30
0.0
 11
208.066624468421
 21
147.74622226417401
 31
0.0
  0
LINE
  5
61F
  8
0
 10
208.066624468421
 20
147.74622226417401
 30
0.0
 11
207.91285462715109
 21
148.3062421054438
 31
0.0
  0
LINE
  5
620
  8
0
 10
207.91285462715109
 20
148.3062421054438
 30
0.0
 11
207.47039430969079
 21
148.6460238514756
 31
0.0
  0
LINE
  5
621
  8
0
 10
207.47039430969079
 20
148.6460238514756
 30
0.0
 11
207.0750570081035
 21
148.73134131179299
 31
0.0
  0
LINE
  5
622
  8
0
 10
207.0750570081035
 20
148.73134131179299
 30
0.0
 11
206.34142605572259
 21
148.75713496258669
 31
0.0
  0
LINE
  5
623
  8
0
 10
206.34142605572259
 20
148.75713496258669
 30
0.0
 11
204.76503716683371
 21
148.75713496258669
 31
0.0
  0
LINE
  5
624
  8
0
 10
204.76503716683371
 20
148.75713496258669
 30
0.0
 11
204.76503716683371
 21
144.94761115306281
 31
0.0
  0
LINE
  5
625
  8
0
 10
205.9713863731829
 20
145.83650004195169
 30
0.0
 11
205.9713863731829
 21
146.5349127403644
 31
0.0
  0
LINE
  5
626
  8
0
 10
205.9713863731829
 20
146.5349127403644
 30
0.0
 11
206.51999748429401
 21
146.5349127403644
 31
0.0
  0
LINE
  5
627
  8
0
 10
206.51999748429401
 20
146.5349127403644
 30
0.0
 11
206.92922367477021
 21
146.45554766099929
 31
0.0
  0
LINE
  5
628
  8
0
 10
206.92922367477021
 20
146.45554766099929
 30
0.0
 11
207.05075145254801
 21
146.18868258163431
 31
0.0
  0
LINE
  5
629
  8
0
 10
207.05075145254801
 20
146.18868258163431
 30
0.0
 11
206.93170383350031
 21
145.91884131179299
 31
0.0
  0
LINE
  5
62A
  8
0
 10
206.93170383350031
 20
145.91884131179299
 30
0.0
 11
206.53091018270669
 21
145.83650004195169
 31
0.0
  0
LINE
  5
62B
  8
0
 10
206.53091018270669
 20
145.83650004195169
 30
0.0
 11
205.9713863731829
 21
145.83650004195169
 31
0.0
  0
LINE
  5
62C
  8
0
 10
205.9713863731829
 20
147.23332543877709
 30
0.0
 11
205.9713863731829
 21
147.8682460736978
 31
0.0
  0
LINE
  5
62D
  8
0
 10
205.9713863731829
 20
147.8682460736978
 30
0.0
 11
206.30571177000829
 21
147.8682460736978
 31
0.0
  0
LINE
  5
62E
  8
0
 10
206.30571177000829
 20
147.8682460736978
 30
0.0
 11
206.81414430969079
 21
147.80078575623739
 31
0.0
  0
LINE
  5
62F
  8
0
 10
206.81414430969079
 20
147.80078575623739
 30
0.0
 11
206.92376732556389
 21
147.55078575623739
 31
0.0
  0
LINE
  5
630
  8
0
 10
206.92376732556389
 20
147.55078575623739
 30
0.0
 11
206.8215847858813
 21
147.3057460736978
 31
0.0
  0
LINE
  5
631
  8
0
 10
206.8215847858813
 20
147.3057460736978
 30
0.0
 11
206.4694022461988
 21
147.23332543877709
 31
0.0
  0
LINE
  5
632
  8
0
 10
206.4694022461988
 20
147.23332543877709
 30
0.0
 11
205.9713863731829
 21
147.23332543877709
 31
0.0
  0
ARC
  5
633
  8
0
 10
210.62499496087449
 20
144.8750045037574
 30
0.0
 40
9.0000000000000089
 50
179.9999999999998
 51
359.99999999999898
  0
ARC
  5
634
  8
0
 10
210.62499496087449
 20
144.8750045037574
 30
0.0
 40
9.0000000000000018
 50
359.9999999999996
 51
179.9999999999998
  0
LINE
  5
635
  8
0
 10
140.74999496087389
 20
174.87500450375751
 30
0.0
 11
280.49999496086821
 21
174.87500450375751
 31
0.0
  0
LINE
  5
636
  8
0
 10
280.49999496086821
 20
80.750004503757779
 30
0.0
 11
140.74999496087389
 21
80.750004503757779
 31
0.0
  0
LINE
  5
637
  8
0
 10
140.74999496087389
 20
174.87500450375751
 30
0.0
 11
140.74999496087389
 21
80.750004503757779
 31
0.0
  0
LINE
  5
638
  8
0
 10
280.49999496086821
 20
80.750004503757779
 30
0.0
 11
280.49999496086821
 21
174.87500450375751
 31
0.0
  0
LINE
  5
639
  8
0
 10
140.74999496087389
 20
80.750004503757751
 30
0.0
 11
280.49999496087378
 21
80.750004503757751
 31
0.0
  0
LINE
  5
63A
  8
0
 10
280.49999496087378
 20
0.0000045037577365
 30
0.0
 11
140.74999496087389
 21
0.0000045037577365
 31
0.0
  0
LINE
  5
63B
  8
0
 10
280.49999496087378
 20
80.750004503757751
 30
0.0
 11
280.49999496087378
 21
0.0000045037577365
 31
0.0
  0
LINE
  5
63C
  8
0
 10
140.74999496087389
 20
0.0000045037577365
 30
0.0
 11
140.74999496087389
 21
80.750004503757751
 31
0.0
  0
LINE
  5
63D
  8
0
 10
-0.0000050391261084
 20
174.87500450375751
 30
0.0
 11
139.74999496086829
 21
174.87500450375751
 31
0.0
  0
LINE
  5
63E
  8
0
 10
139.74999496086829
 20
80.750004503757779
 30
0.0
 11
-0.0000050391261084
 21
80.750004503757779
 31
0.0
  0
LINE
  5
63F
  8
0
 10
-0.0000050391261084
 20
174.87500450375751
 30
0.0
 11
-0.0000050391261084
 21
80.750004503757779
 31
0.0
  0
LINE
  5
640
  8
0
 10
139.74999496086829
 20
80.750004503757779
 30
0.0
 11
139.74999496086829
 21
174.87500450375751
 31
0.0
  0
ARC
  5
641
  8
0
 10
69.874994960874687
 20
144.87500450375671
 30
0.0
 40
8.2500000000000018
 50
179.99999999999969
 51
359.99999999999881
  0
ARC
  5
642
  8
0
 10
69.874994960874687
 20
144.87500450375671
 30
0.0
 40
8.2500000000000018
 50
359.9999999999996
 51
179.99999999999969
  0
ARC
  5
643
  8
0
 10
69.874994960874687
 20
144.87500450375671
 30
0.0
 40
7.6874999999999956
 50
0.0000000000006679
 51
180.00000000000011
  0
ARC
  5
644
  8
0
 10
69.874994960874687
 20
144.87500450375671
 30
0.0
 40
7.687499999999992
 50
180.00000000000011
 51
359.9999999999996
  0
LINE
  5
645
  8
0
 10
74.997495734862468
 20
142.4331486549593
 30
0.0
 11
74.802555258672015
 21
141.98423992480059
 31
0.0
  0
LINE
  5
646
  8
0
 10
74.802555258672015
 20
141.98423992480059
 30
0.0
 11
74.351662401529154
 21
141.8269978613086
 31
0.0
  0
LINE
  5
647
  8
0
 10
74.351662401529154
 20
141.8269978613086
 30
0.0
 11
74.027133631687889
 21
141.89123397241971
 31
0.0
  0
LINE
  5
648
  8
0
 10
74.027133631687889
 20
141.89123397241971
 30
0.0
 11
73.791642560259334
 21
142.083942305753
 31
0.0
  0
LINE
  5
649
  8
0
 10
73.791642560259334
 20
142.083942305753
 30
0.0
 11
73.600670338037077
 21
142.8418788136895
 31
0.0
  0
LINE
  5
64A
  8
0
 10
73.600670338037077
 20
142.8418788136895
 30
0.0
 11
73.784698115814876
 21
143.60576770257839
 31
0.0
  0
LINE
  5
64B
  8
0
 10
73.784698115814876
 20
143.60576770257839
 30
0.0
 11
74.014484822164093
 21
143.79549984543559
 31
0.0
  0
LINE
  5
64C
  8
0
 10
74.014484822164093
 20
143.79549984543559
 30
0.0
 11
74.335789385656142
 21
143.85874389305459
 31
0.0
  0
LINE
  5
64D
  8
0
 10
74.335789385656142
 20
143.85874389305459
 30
0.0
 11
74.804043353910103
 21
143.7153907184514
 31
0.0
  0
LINE
  5
64E
  8
0
 10
74.804043353910103
 20
143.7153907184514
 30
0.0
 11
74.997495734862497
 21
143.29029151210219
 31
0.0
  0
LINE
  5
64F
  8
0
 10
74.997495734862497
 20
143.29029151210219
 30
0.0
 11
76.140352877719636
 21
143.29029151210219
 31
0.0
  0
LINE
  5
650
  8
0
 10
76.140352877719636
 20
143.29029151210219
 30
0.0
 11
75.980134623751383
 21
143.93798496448321
 31
0.0
  0
LINE
  5
651
  8
0
 10
75.980134623751383
 20
143.93798496448321
 30
0.0
 11
75.612575099941864
 21
144.41677960734029
 31
0.0
  0
LINE
  5
652
  8
0
 10
75.612575099941864
 20
144.41677960734029
 30
0.0
 11
75.053547322164093
 21
144.71253853591179
 31
0.0
  0
LINE
  5
653
  8
0
 10
75.053547322164093
 20
144.71253853591179
 30
0.0
 11
74.31892430629108
 21
144.81112484543559
 31
0.0
  0
LINE
  5
654
  8
0
 10
74.31892430629108
 20
144.81112484543559
 30
0.0
 11
73.520933234862497
 21
144.6791804009911
 31
0.0
  0
LINE
  5
655
  8
0
 10
73.520933234862497
 20
144.6791804009911
 30
0.0
 11
72.910690179306954
 21
144.28334706765779
 31
0.0
  0
LINE
  5
656
  8
0
 10
72.910690179306954
 20
144.28334706765779
 30
0.0
 11
72.523413393592648
 21
143.65933913114981
 31
0.0
  0
LINE
  5
657
  8
0
 10
72.523413393592648
 20
143.65933913114981
 30
0.0
 11
72.394321131687875
 21
142.84287087718161
 31
0.0
  0
LINE
  5
658
  8
0
 10
72.394321131687875
 20
142.84287087718161
 30
0.0
 11
72.524033433275179
 21
142.02454250416571
 31
0.0
  0
LINE
  5
659
  8
0
 10
72.524033433275179
 20
142.02454250416571
 30
0.0
 11
72.913170338037105
 21
141.4009065914673
 31
0.0
  0
LINE
  5
65A
  8
0
 10
72.913170338037105
 20
141.4009065914673
 30
0.0
 11
73.528497718989456
 21
141.00618932956249
 31
0.0
  0
LINE
  5
65B
  8
0
 10
73.528497718989456
 20
141.00618932956249
 30
0.0
 11
74.336781449148191
 21
140.87461690892761
 31
0.0
  0
LINE
  5
65C
  8
0
 10
74.336781449148191
 20
140.87461690892761
 30
0.0
 11
75.059871726925962
 21
140.97679944861011
 31
0.0
  0
LINE
  5
65D
  8
0
 10
75.059871726925962
 20
140.97679944861011
 30
0.0
 11
75.616047322164093
 21
141.28334706765779
 31
0.0
  0
LINE
  5
65E
  8
0
 10
75.616047322164093
 20
141.28334706765779
 30
0.0
 11
75.983482838037105
 21
141.77516254384821
 31
0.0
  0
LINE
  5
65F
  8
0
 10
75.983482838037105
 20
141.77516254384821
 30
0.0
 11
76.140352877719636
 21
142.4331486549593
 31
0.0
  0
LINE
  5
660
  8
0
 10
76.140352877719636
 20
142.4331486549593
 30
0.0
 11
74.997495734862468
 21
142.4331486549593
 31
0.0
  0
LINE
  5
661
  8
0
 10
67.775768357094805
 20
143.20722284388259
 30
0.0
 11
68.953347722174186
 21
143.20722284388259
 31
0.0
  0
LINE
  5
662
  8
0
 10
68.953347722174186
 20
143.20722284388259
 30
0.0
 11
69.100173118999578
 21
143.7151593518191
 31
0.0
  0
LINE
  5
663
  8
0
 10
69.100173118999578
 20
143.7151593518191
 30
0.0
 11
70.30354613487259
 21
143.7151593518191
 31
0.0
  0
LINE
  5
664
  8
0
 10
70.30354613487259
 20
143.7151593518191
 30
0.0
 11
70.445411214237708
 21
143.20722284388259
 31
0.0
  0
LINE
  5
665
  8
0
 10
70.445411214237708
 20
143.20722284388259
 30
0.0
 11
71.648784230110721
 21
143.20722284388259
 31
0.0
  0
LINE
  5
666
  8
0
 10
71.648784230110721
 20
143.20722284388259
 30
0.0
 11
70.319419150745631
 21
147.01674665340639
 31
0.0
  0
LINE
  5
667
  8
0
 10
70.319419150745631
 20
147.01674665340639
 30
0.0
 11
69.090252484078974
 21
147.01674665340639
 31
0.0
  0
LINE
  5
668
  8
0
 10
69.090252484078974
 20
147.01674665340639
 30
0.0
 11
67.775768357094805
 21
143.20722284388259
 31
0.0
  0
LINE
  5
669
  8
0
 10
69.320411214237708
 20
144.5405561772159
 30
0.0
 11
69.70632391265039
 21
145.84412760578729
 31
0.0
  0
LINE
  5
66A
  8
0
 10
69.70632391265039
 20
145.84412760578729
 30
0.0
 11
70.083308039634517
 21
144.5405561772159
 31
0.0
  0
LINE
  5
66B
  8
0
 10
70.083308039634517
 20
144.5405561772159
 30
0.0
 11
69.320411214237708
 21
144.5405561772159
 31
0.0
  0
LINE
  5
66C
  8
0
 10
64.015037166833423
 20
144.94761115306281
 30
0.0
 11
65.714441928738182
 21
144.94761115306281
 31
0.0
  0
LINE
  5
66D
  8
0
 10
65.714441928738182
 20
144.94761115306281
 30
0.0
 11
66.482299071595321
 21
144.98630162925329
 31
0.0
  0
LINE
  5
66E
  8
0
 10
66.482299071595321
 20
144.98630162925329
 30
0.0
 11
66.894997484293725
 21
145.11824607369769
 31
0.0
  0
LINE
  5
66F
  8
0
 10
66.894997484293725
 20
145.11824607369769
 30
0.0
 11
67.30323161127788
 21
145.50118258163431
 31
0.0
  0
LINE
  5
670
  8
0
 10
67.30323161127788
 20
145.50118258163431
 30
0.0
 11
67.443608595404839
 21
146.08848416893579
 31
0.0
  0
LINE
  5
671
  8
0
 10
67.443608595404839
 20
146.08848416893579
 30
0.0
 11
67.299759389055652
 21
146.6514802006819
 31
0.0
  0
LINE
  5
672
  8
0
 10
67.299759389055652
 20
146.6514802006819
 30
0.0
 11
66.856307008103272
 21
146.97638099433269
 31
0.0
  0
LINE
  5
673
  8
0
 10
66.856307008103272
 20
146.97638099433269
 30
0.0
 11
67.201545103341374
 21
147.29384131179299
 31
0.0
  0
LINE
  5
674
  8
0
 10
67.201545103341374
 20
147.29384131179299
 30
0.0
 11
67.316624468420741
 21
147.74622226417389
 31
0.0
  0
LINE
  5
675
  8
0
 10
67.316624468420741
 20
147.74622226417389
 30
0.0
 11
67.162854627150892
 21
148.3062421054438
 31
0.0
  0
LINE
  5
676
  8
0
 10
67.162854627150892
 20
148.3062421054438
 30
0.0
 11
66.720394309690562
 21
148.64602385147549
 31
0.0
  0
LINE
  5
677
  8
0
 10
66.720394309690562
 20
148.64602385147549
 30
0.0
 11
66.325057008103272
 21
148.73134131179299
 31
0.0
  0
LINE
  5
678
  8
0
 10
66.325057008103272
 20
148.73134131179299
 30
0.0
 11
65.591426055722309
 21
148.7571349625866
 31
0.0
  0
LINE
  5
679
  8
0
 10
65.591426055722309
 20
148.7571349625866
 30
0.0
 11
64.015037166833423
 21
148.7571349625866
 31
0.0
  0
LINE
  5
67A
  8
0
 10
64.015037166833423
 20
148.7571349625866
 30
0.0
 11
64.015037166833423
 21
144.94761115306281
 31
0.0
  0
LINE
  5
67B
  8
0
 10
65.221386373182611
 20
145.83650004195169
 30
0.0
 11
65.221386373182611
 21
146.5349127403644
 31
0.0
  0
LINE
  5
67C
  8
0
 10
65.221386373182611
 20
146.5349127403644
 30
0.0
 11
65.769997484293725
 21
146.5349127403644
 31
0.0
  0
LINE
  5
67D
  8
0
 10
65.769997484293725
 20
146.5349127403644
 30
0.0
 11
66.179223674769958
 21
146.45554766099929
 31
0.0
  0
LINE
  5
67E
  8
0
 10
66.179223674769958
 20
146.45554766099929
 30
0.0
 11
66.300751452547701
 21
146.18868258163431
 31
0.0
  0
LINE
  5
67F
  8
0
 10
66.300751452547701
 20
146.18868258163431
 30
0.0
 11
66.18170383350008
 21
145.91884131179299
 31
0.0
  0
LINE
  5
680
  8
0
 10
66.18170383350008
 20
145.91884131179299
 30
0.0
 11
65.780910182706435
 21
145.83650004195169
 31
0.0
  0
LINE
  5
681
  8
0
 10
65.780910182706435
 20
145.83650004195169
 30
0.0
 11
65.221386373182611
 21
145.83650004195169
 31
0.0
  0
LINE
  5
682
  8
0
 10
65.221386373182611
 20
147.23332543877709
 30
0.0
 11
65.221386373182625
 21
147.8682460736978
 31
0.0
  0
LINE
  5
683
  8
0
 10
65.221386373182625
 20
147.8682460736978
 30
0.0
 11
65.555711770008031
 21
147.8682460736978
 31
0.0
  0
LINE
  5
684
  8
0
 10
65.555711770008031
 20
147.8682460736978
 30
0.0
 11
66.064144309690562
 21
147.80078575623739
 31
0.0
  0
LINE
  5
685
  8
0
 10
66.064144309690562
 20
147.80078575623739
 30
0.0
 11
66.173767325563574
 21
147.55078575623739
 31
0.0
  0
LINE
  5
686
  8
0
 10
66.173767325563574
 20
147.55078575623739
 30
0.0
 11
66.071584785881043
 21
147.3057460736978
 31
0.0
  0
LINE
  5
687
  8
0
 10
66.071584785881043
 20
147.3057460736978
 30
0.0
 11
65.719402246198513
 21
147.23332543877709
 31
0.0
  0
LINE
  5
688
  8
0
 10
65.719402246198513
 20
147.23332543877709
 30
0.0
 11
65.221386373182611
 21
147.23332543877709
 31
0.0
  0
ARC
  5
689
  8
0
 10
69.874994960874176
 20
144.8750045037574
 30
0.0
 40
9.0000000000000124
 50
179.9999999999996
 51
359.99999999999881
  0
ARC
  5
68A
  8
0
 10
69.874994960874176
 20
144.8750045037574
 30
0.0
 40
9.0000000000000089
 50
359.99999999999937
 51
179.99999999999969
  0
ARC
  5
68B
  8
0
 10
276.37499496087662
 20
6.6250045037577658
 30
0.0
 40
0.9999999999999998
 50
359.99999999999949
 51
179.9999999999998
  0
ARC
  5
68C
  8
0
 10
276.37499496087662
 20
6.6250045037577658
 30
0.0
 40
1.0
 50
180.00000000000011
 51
359.9999999999992
  0
LINE
  5
68D
  8
0
 10
280.4999949608744
 20
49.00000450375817
 30
0.0
 11
280.74999496087361
 21
49.00000450375817
 31
0.0
  0
LINE
  5
68E
  8
0
 10
280.74999496087361
 20
51.000004503758063
 30
0.0
 11
280.4999949608744
 21
51.000004503758063
 31
0.0
  0
LINE
  5
68F
  8
0
 10
280.4999949608744
 20
32.000004503757957
 30
0.0
 11
280.74999496087361
 21
32.000004503757957
 31
0.0
  0
LINE
  5
690
  8
0
 10
280.74999496087361
 20
35.000004503757957
 30
0.0
 11
280.4999949608744
 21
35.000004503757957
 31
0.0
  0
LINE
  5
691
  8
0
 10
280.74999496087418
 20
51.00000450375812
 30
0.0
 11
280.74999496087418
 21
50.50000659177806
 31
0.0
  0
LINE
  5
692
  8
0
 10
280.74999496087418
 20
50.50000450375812
 30
0.0
 11
280.74999496087418
 21
50.258823548860647
 31
0.0
  0
LINE
  5
693
  8
0
 10
280.74999496087418
 20
50.258822207984963
 30
0.0
 11
280.74999496087418
 21
50.000004503758127
 31
0.0
  0
LINE
  5
694
  8
0
 10
280.74999496087418
 20
50.000002574445581
 30
0.0
 11
280.74999496087418
 21
49.741185458655579
 31
0.0
  0
LINE
  5
695
  8
0
 10
280.74999496087418
 20
49.741182897873202
 30
0.0
 11
280.74999496087418
 21
49.292897722571588
 31
0.0
  0
LINE
  5
696
  8
0
 10
280.74999496087418
 20
49.292894612240133
 30
0.0
 11
280.74999496087418
 21
49.133979099973672
 31
0.0
  0
LINE
  5
697
  8
0
 10
280.74999496087418
 20
49.13397591825477
 30
0.0
 11
280.74999496087418
 21
49.000004503758127
 31
0.0
  0
LINE
  5
698
  8
0
 10
280.74999496087412
 20
35.000004503758127
 30
0.0
 11
280.74999496087412
 21
34.948893321248363
 31
0.0
  0
LINE
  5
699
  8
0
 10
280.74999496087412
 20
34.948893243191733
 30
0.0
 11
280.74999496087412
 21
34.25000554776814
 31
0.0
  0
LINE
  5
69A
  8
0
 10
280.74999496087412
 20
34.250004503758142
 30
0.0
 11
280.74999496087412
 21
33.888233071411918
 31
0.0
  0
LINE
  5
69B
  8
0
 10
280.74999496087412
 20
33.888231991884851
 30
0.0
 11
280.74999496087412
 21
33.500005468413583
 31
0.0
  0
LINE
  5
69C
  8
0
 10
280.74999496087412
 20
33.500004503758127
 30
0.0
 11
280.74999496087412
 21
33.111776083844511
 31
0.0
  0
LINE
  5
69D
  8
0
 10
280.74999496087412
 20
33.111775936104337
 30
0.0
 11
280.74999496087412
 21
32.750005400270233
 31
0.0
  0
LINE
  5
69E
  8
0
 10
280.74999496087412
 20
32.750004503758127
 30
0.0
 11
280.74999496087412
 21
32.439344331978312
 31
0.0
  0
LINE
  5
69F
  8
0
 10
280.74999496087412
 20
32.439344110111527
 30
0.0
 11
280.74999496087412
 21
32.051115764324521
 31
0.0
  0
LINE
  5
6A0
  8
0
 10
280.74999496087412
 20
32.051113789843129
 30
0.0
 11
280.74999496087412
 21
32.000004503758127
 31
0.0
  0
LINE
  5
6A1
  8
0
 10
280.4999949608744
 20
6.0000045037584178
 30
0.0
 11
280.74999496087361
 21
6.0000045037584178
 31
0.0
  0
LINE
  5
6A2
  8
0
 10
280.74999496087361
 20
16.000004503758181
 30
0.0
 11
280.4999949608744
 21
16.000004503758181
 31
0.0
  0
LINE
  5
6A3
  8
0
 10
280.74999496087412
 20
16.000004503758149
 30
0.0
 11
280.74999496087412
 21
15.82963421146551
 31
0.0
  0
LINE
  5
6A4
  8
0
 10
280.74999496087412
 20
15.829633635203511
 30
0.0
 11
280.74999496087412
 21
15.330132436146719
 31
0.0
  0
LINE
  5
6A5
  8
0
 10
280.74999496087412
 20
15.330131522680359
 30
0.0
 11
280.74999496087412
 21
14.535538964093149
 31
0.0
  0
LINE
  5
6A6
  8
0
 10
280.74999496087412
 20
14.53553840969092
 30
0.0
 11
280.74999496087412
 21
12.294099729270791
 31
0.0
  0
LINE
  5
6A7
  8
0
 10
280.74999496087412
 20
12.29409908150495
 30
0.0
 11
280.74999496087412
 21
11.000004744921529
 31
0.0
  0
LINE
  5
6A8
  8
0
 10
280.74999496087412
 20
11.000004503758131
 30
0.0
 11
280.74999496087412
 21
9.7059092782455352
 31
0.0
  0
LINE
  5
6A9
  8
0
 10
280.74999496087412
 20
9.7059089734539086
 30
0.0
 11
280.74999496087412
 21
8.5000045037581469
 31
0.0
  0
LINE
  5
6AA
  8
0
 10
280.74999496087412
 20
8.5000042427548017
 30
0.0
 11
280.74999496087412
 21
6.669877484835963
 31
0.0
  0
LINE
  5
6AB
  8
0
 10
280.74999496087412
 20
6.669877196169244
 30
0.0
 11
280.74999496087412
 21
6.0000045037581611
 31
0.0
  0
LINE
  5
6AC
  8
0
 10
448.5077977278637
 20
378.6248484116511
 30
0.0
 11
449.63279772786728
 21
378.6248484116511
 31
0.0
  0
LINE
  5
6AD
  8
0
 10
449.63279772786728
 20
378.6248484116511
 30
0.0
 11
449.63279772786728
 21
518.37484841165099
 31
0.0
  0
LINE
  5
6AE
  8
0
 10
449.63279772786728
 20
518.37484841165099
 30
0.0
 11
448.5077977278637
 21
518.37484841165099
 31
0.0
  0
LINE
  5
6AF
  8
0
 10
448.56779814748779
 20
299.4998484116486
 30
0.0
 11
448.62889147786649
 21
299.4998484116486
 31
0.0
  0
LINE
  5
6B0
  8
0
 10
448.62889147786649
 20
315.99984841165002
 30
0.0
 11
448.56779814748779
 21
315.99984841165002
 31
0.0
  0
LINE
  5
6B1
  8
0
 10
448.62889147786632
 20
315.999848411649
 30
0.0
 11
448.62889147786632
 21
315.76011840541389
 31
0.0
  0
LINE
  5
6B2
  8
0
 10
448.62889147786632
 20
315.76011772165509
 30
0.0
 11
448.62889147786632
 21
315.05486478828868
 31
0.0
  0
LINE
  5
6B3
  8
0
 10
448.62889147786632
 20
315.05486062328799
 30
0.0
 11
448.62889147786632
 21
312.43638737081932
 31
0.0
  0
LINE
  5
6B4
  8
0
 10
448.62889147786632
 20
312.43638257218112
 30
0.0
 11
448.62889147786632
 21
311.77688991176632
 31
0.0
  0
LINE
  5
6B5
  8
0
 10
448.62889147786632
 20
303.72280655193902
 30
0.0
 11
448.62889147786632
 21
303.06331425111699
 31
0.0
  0
LINE
  5
6B6
  8
0
 10
448.62889147786632
 20
303.06330905136048
 30
0.0
 11
448.62889147786632
 21
300.44483620001
 31
0.0
  0
LINE
  5
6B7
  8
0
 10
448.62889147786632
 20
300.44483155690131
 30
0.0
 11
448.62889147786632
 21
299.73957885543371
 31
0.0
  0
LINE
  5
6B8
  8
0
 10
448.62889147786632
 20
299.7395784178841
 30
0.0
 11
448.62889147786632
 21
299.499848411649
 31
0.0
  0
LINE
  5
6B9
  8
0
 10
448.50779772786638
 20
298.74984841164718
 30
0.0
 11
448.56779772786638
 21
298.74984841164718
 31
0.0
  0
LINE
  5
6BA
  8
0
 10
448.56779772786638
 20
316.74984841164718
 30
0.0
 11
448.50779772786638
 21
316.74984841164718
 31
0.0
  0
LINE
  5
6BB
  8
0
 10
448.56779772786632
 20
316.74984841164849
 30
0.0
 11
448.56779772786632
 21
316.5242104762533
 31
0.0
  0
LINE
  5
6BC
  8
0
 10
448.56779772786632
 20
316.52419962128488
 30
0.0
 11
448.56779772786632
 21
315.8585717688585
 31
0.0
  0
LINE
  5
6BD
  8
0
 10
448.56779772786632
 20
315.85856822277032
 30
0.0
 11
448.56779772786632
 21
311.75583810457539
 31
0.0
  0
LINE
  5
6BE
  8
0
 10
448.56779772786632
 20
303.74385833302881
 30
0.0
 11
448.56779772786632
 21
299.64112860052671
 31
0.0
  0
LINE
  5
6BF
  8
0
 10
448.56779772786632
 20
299.64112457534202
 30
0.0
 11
448.56779772786632
 21
298.97550100294461
 31
0.0
  0
LINE
  5
6C0
  8
0
 10
448.56779772786632
 20
298.97549720201209
 30
0.0
 11
448.56779772786632
 21
298.74984841164849
 31
0.0
  0
LINE
  5
6C1
  8
0
 10
355.19779635458008
 20
315.99984841165002
 30
0.0
 11
355.136703977867
 21
315.99984841165002
 31
0.0
  0
LINE
  5
6C2
  8
0
 10
355.136703977867
 20
299.49984841165133
 30
0.0
 11
355.19779635458008
 21
299.49984841165133
 31
0.0
  0
LINE
  5
6C3
  8
0
 10
355.136703977867
 20
299.49984841165002
 30
0.0
 11
355.136703977867
 21
299.73957841788513
 31
0.0
  0
LINE
  5
6C4
  8
0
 10
355.136703977867
 20
299.73957885543348
 30
0.0
 11
355.136703977867
 21
300.44483155690227
 31
0.0
  0
LINE
  5
6C5
  8
0
 10
355.136703977867
 20
300.44483620001103
 30
0.0
 11
355.136703977867
 21
303.0633090513615
 31
0.0
  0
LINE
  5
6C6
  8
0
 10
355.136703977867
 20
303.06331425111802
 30
0.0
 11
355.136703977867
 21
306.75542079954357
 31
0.0
  0
LINE
  5
6C7
  8
0
 10
355.136703977867
 20
306.75542529507902
 30
0.0
 11
355.136703977867
 21
308.7442711660604
 31
0.0
  0
LINE
  5
6C8
  8
0
 10
355.136703977867
 20
308.74427602375641
 30
0.0
 11
355.136703977867
 21
312.43638257218203
 31
0.0
  0
LINE
  5
6C9
  8
0
 10
355.136703977867
 20
312.43638737082028
 30
0.0
 11
355.136703977867
 21
315.05486062328902
 31
0.0
  0
LINE
  5
6CA
  8
0
 10
355.136703977867
 20
315.05486478828971
 30
0.0
 11
355.136703977867
 21
315.76011772165498
 31
0.0
  0
LINE
  5
6CB
  8
0
 10
355.136703977867
 20
315.76011840541491
 30
0.0
 11
355.136703977867
 21
315.99984841165002
 31
0.0
  0
LINE
  5
6CC
  8
0
 10
355.25779772786711
 20
316.74984841165133
 30
0.0
 11
355.19779772786711
 21
316.74984841165133
 31
0.0
  0
LINE
  5
6CD
  8
0
 10
355.19779772786711
 20
298.74984841165139
 30
0.0
 11
355.25779772786711
 21
298.74984841165139
 31
0.0
  0
LINE
  5
6CE
  8
0
 10
355.197797727867
 20
298.74984841165048
 30
0.0
 11
355.197797727867
 21
298.97549720201408
 31
0.0
  0
LINE
  5
6CF
  8
0
 10
355.197797727867
 20
298.97550100294552
 30
0.0
 11
355.197797727867
 21
299.64112457534168
 31
0.0
  0
LINE
  5
6D0
  8
0
 10
355.197797727867
 20
299.6411286005287
 30
0.0
 11
355.19779772786711
 21
303.84489475959248
 31
0.0
  0
LINE
  5
6D1
  8
0
 10
355.19779772786711
 20
303.84489520644962
 30
0.0
 11
355.19779772786711
 21
305.74715487977119
 31
0.0
  0
LINE
  5
6D2
  8
0
 10
355.19779772786711
 20
305.74716000604371
 30
0.0
 11
355.19779772786711
 21
307.74984822814753
 31
0.0
  0
LINE
  5
6D3
  8
0
 10
355.19779772786711
 20
307.74984841165048
 30
0.0
 11
355.19779772786711
 21
309.75253681725729
 31
0.0
  0
LINE
  5
6D4
  8
0
 10
355.19779772786711
 20
309.75254156683491
 30
0.0
 11
355.19779772786711
 21
311.65480126873121
 31
0.0
  0
LINE
  5
6D5
  8
0
 10
355.19779772786711
 20
311.65480206370847
 30
0.0
 11
355.19779772786711
 21
315.85856822277231
 31
0.0
  0
LINE
  5
6D6
  8
0
 10
355.19779772786711
 20
315.85857176885833
 30
0.0
 11
355.19779772786711
 21
316.52419962128693
 31
0.0
  0
LINE
  5
6D7
  8
0
 10
355.19779772786711
 20
316.52421047625199
 30
0.0
 11
355.19779772786711
 21
316.74984841165048
 31
0.0
  0
LINE
  5
6D8
  8
0
 10
355.25779772786689
 20
377.62484841165099
 30
0.0
 11
355.25779772786689
 21
237.87484841165659
 31
0.0
  0
LINE
  5
6D9
  8
0
 10
355.25779772786689
 20
237.87484841165659
 30
0.0
 11
448.50779772786399
 21
237.8748484116565
 31
0.0
  0
LINE
  5
6DA
  8
0
 10
448.50779772786399
 20
237.8748484116565
 30
0.0
 11
448.50779772786439
 21
377.62484841165082
 31
0.0
  0
LINE
  5
6DB
  8
0
 10
448.50779772786439
 20
377.62484841165082
 30
0.0
 11
355.25779772786689
 21
377.62484841165099
 31
0.0
  0
LINE
  5
6DC
  8
0
 10
446.88279772786723
 20
375.9998484116511
 30
0.0
 11
446.88279772786689
 21
239.49984841165119
 31
0.0
1001
ACAD
1000
ASC_BOUNDS
1002
{
1070
    19
1005
75B
1002
}
  0
LINE
  5
6DD
  8
0
 10
446.88279772786689
 20
239.49984841165119
 30
0.0
 11
356.882797727867
 21
239.4998484116513
 31
0.0
1001
ACAD
1000
ASC_BOUNDS
1002
{
1070
    19
1005
75B
1002
}
  0
LINE
  5
6DE
  8
0
 10
356.882797727867
 20
239.4998484116513
 30
0.0
 11
356.88279772786723
 21
375.99984841165133
 31
0.0
1001
ACAD
1000
ASC_BOUNDS
1002
{
1070
    19
1005
75B
1002
}
  0
LINE
  5
6DF
  8
0
 10
356.88279772786723
 20
375.99984841165133
 30
0.0
 11
446.88279772786723
 21
375.9998484116511
 31
0.0
1001
ACAD
1000
ASC_BOUNDS
1002
{
1070
    19
1005
75B
1002
}
  0
LINE
  5
6E0
  8
0
 10
448.5077977278641
 20
237.8748484116511
 30
0.0
 11
449.632797727867
 21
237.8748484116511
 31
0.0
  0
LINE
  5
6E1
  8
0
 10
449.632797727867
 20
237.8748484116511
 30
0.0
 11
449.632797727867
 21
377.62484841165099
 31
0.0
  0
LINE
  5
6E2
  8
0
 10
449.632797727867
 20
377.62484841165099
 30
0.0
 11
448.50779772786422
 21
377.62484841165099
 31
0.0
  0
LINE
  5
6E3
  8
0
 10
355.2577977278666
 20
518.37484841165099
 30
0.0
 11
355.25779772786649
 21
378.62484841165661
 31
0.0
  0
LINE
  5
6E4
  8
0
 10
355.25779772786649
 20
378.62484841165661
 30
0.0
 11
448.5077977278637
 21
378.62484841165639
 31
0.0
  0
LINE
  5
6E5
  8
0
 10
448.5077977278637
 20
378.62484841165639
 30
0.0
 11
448.50779772786387
 21
518.37484841165087
 31
0.0
  0
LINE
  5
6E6
  8
0
 10
448.50779772786387
 20
518.37484841165087
 30
0.0
 11
355.2577977278666
 21
518.37484841165099
 31
0.0
  0
LINE
  5
6E7
  8
0
 10
446.88279772786677
 20
516.7498484116511
 30
0.0
 11
446.8827977278666
 21
380.2498484116511
 31
0.0
1001
ACAD
1000
ASC_BOUNDS
1002
{
1070
    19
1005
75B
1002
}
  0
LINE
  5
6E8
  8
0
 10
446.8827977278666
 20
380.2498484116511
 30
0.0
 11
356.8827977278666
 21
380.24984841165133
 31
0.0
1001
ACAD
1000
ASC_BOUNDS
1002
{
1070
    19
1005
75B
1002
}
  0
LINE
  5
6E9
  8
0
 10
356.8827977278666
 20
380.24984841165133
 30
0.0
 11
356.88279772786689
 21
516.74984841165133
 31
0.0
1001
ACAD
1000
ASC_BOUNDS
1002
{
1070
    19
1005
75B
1002
}
  0
LINE
  5
6EA
  8
0
 10
356.88279772786689
 20
516.74984841165133
 30
0.0
 11
446.88279772786677
 21
516.7498484116511
 31
0.0
1001
ACAD
1000
ASC_BOUNDS
1002
{
1070
    19
1005
75B
1002
}
  0
LINE
  5
6EB
  8
0
 10
355.00779772786592
 20
240.99984841164721
 30
0.0
 11
355.25779772786598
 21
240.99984841164721
 31
0.0
  0
LINE
  5
6EC
  8
0
 10
355.25779772786598
 20
242.99984841164951
 30
0.0
 11
355.00779772786592
 21
242.99984841164951
 31
0.0
  0
LINE
  5
6ED
  8
0
 10
355.00779772786592
 20
240.99984841164829
 30
0.0
 11
355.00779772786592
 21
241.0339120579132
 31
0.0
  0
LINE
  5
6EE
  8
0
 10
355.00779772786592
 20
241.03392258535919
 30
0.0
 11
355.00779772786592
 21
241.13382300786381
 31
0.0
  0
LINE
  5
6EF
  8
0
 10
355.00779772786592
 20
241.13382399998761
 30
0.0
 11
355.00779772786592
 21
241.29273608635901
 31
0.0
  0
LINE
  5
6F0
  8
0
 10
355.00779772786592
 20
241.29274163046171
 30
0.0
 11
355.00779772786592
 21
241.49984841164829
 31
0.0
  0
LINE
  5
6F1
  8
0
 10
355.00779772786592
 20
241.49985182664449
 30
0.0
 11
355.00779772786592
 21
241.74102461511691
 31
0.0
  0
LINE
  5
6F2
  8
0
 10
355.00779772786592
 20
241.7410293665458
 30
0.0
 11
355.00779772786592
 21
241.9998443689644
 31
0.0
  0
LINE
  5
6F3
  8
0
 10
355.00779772786592
 20
241.99984841164829
 30
0.0
 11
355.00779772786592
 21
242.2586640745134
 31
0.0
  0
LINE
  5
6F4
  8
0
 10
355.00779772786592
 20
242.2586674567508
 30
0.0
 11
355.00779772786592
 21
242.4998482405899
 31
0.0
  0
LINE
  5
6F5
  8
0
 10
355.00779772786592
 20
242.49984841164829
 30
0.0
 11
355.00779772786592
 21
242.86587381543271
 31
0.0
  0
LINE
  5
6F6
  8
0
 10
355.00779772786592
 20
242.8658767587244
 30
0.0
 11
355.00779772786592
 21
242.96577240733239
 31
0.0
  0
LINE
  5
6F7
  8
0
 10
355.00779772786592
 20
242.9657742379373
 30
0.0
 11
355.00779772786592
 21
242.99984841164829
 31
0.0
  0
LINE
  5
6F8
  8
0
 10
448.75779772786728
 20
452.49984841164849
 30
0.0
 11
448.50779772786711
 21
452.49984841164849
 31
0.0
  0
LINE
  5
6F9
  8
0
 10
448.50779772786711
 20
444.499848411649
 30
0.0
 11
448.75779772786728
 21
444.499848411649
 31
0.0
  0
LINE
  5
6FA
  8
0
 10
448.75779772786723
 20
311.74984841164769
 30
0.0
 11
448.507797727867
 21
311.74984841164769
 31
0.0
  0
LINE
  5
6FB
  8
0
 10
448.507797727867
 20
303.74984841164809
 30
0.0
 11
448.75779772786723
 21
303.74984841164809
 31
0.0
  0
LINE
  5
6FC
  8
0
 10
448.75779772786723
 20
448.49984841164809
 30
0.0
 11
448.75779772786723
 21
447.46457223123798
 31
0.0
  0
LINE
  5
6FD
  8
0
 10
448.75779772786723
 20
447.46457079668511
 30
0.0
 11
448.75779772786723
 21
446.49984841164809
 31
0.0
  0
LINE
  5
6FE
  8
0
 10
448.75779772786723
 20
446.49984821244732
 30
0.0
 11
448.75779772786723
 21
445.0357467965103
 31
0.0
  0
LINE
  5
6FF
  8
0
 10
448.75779772786723
 20
445.0357450775486
 30
0.0
 11
448.75779772786723
 21
444.49984841164809
 31
0.0
  0
LINE
  5
700
  8
0
 10
448.75779772786723
 20
452.49984841164809
 30
0.0
 11
448.75779772786723
 21
452.36355219525302
 31
0.0
  0
LINE
  5
701
  8
0
 10
448.75779772786723
 20
452.36355171680441
 30
0.0
 11
448.75779772786723
 21
451.32827665667878
 31
0.0
  0
LINE
  5
702
  8
0
 10
448.75779772786723
 20
451.3282755363943
 30
0.0
 11
448.75779772786723
 21
449.53512464510078
 31
0.0
  0
LINE
  5
703
  8
0
 10
448.75779772786723
 20
449.53512459205808
 30
0.0
 11
448.75779772786723
 21
448.49984919224352
 31
0.0
  0
LINE
  5
704
  8
0
 10
448.75779772786723
 20
307.74984822758768
 30
0.0
 11
448.75779772786723
 21
306.71457223123809
 31
0.0
  0
LINE
  5
705
  8
0
 10
448.75779772786723
 20
306.71456979675412
 30
0.0
 11
448.75779772786723
 21
305.74984841164809
 31
0.0
  0
LINE
  5
706
  8
0
 10
448.75779772786723
 20
305.74984403640349
 30
0.0
 11
448.75779772786723
 21
304.92142128690199
 31
0.0
  0
LINE
  5
707
  8
0
 10
448.75779772786723
 20
304.9214175208682
 30
0.0
 11
448.75779772786723
 21
304.28574679651052
 31
0.0
  0
LINE
  5
708
  8
0
 10
448.75779772786723
 20
304.2857438279504
 30
0.0
 11
448.75779772786723
 21
303.88614510649188
 31
0.0
  0
LINE
  5
709
  8
0
 10
448.75779772786723
 20
303.88613442233759
 30
0.0
 11
448.75779772786723
 21
303.74984841164809
 31
0.0
  0
LINE
  5
70A
  8
0
 10
448.75779772786723
 20
311.74984841164809
 30
0.0
 11
448.75779772786723
 21
311.61356167728729
 31
0.0
  0
LINE
  5
70B
  8
0
 10
448.75779772786723
 20
311.61355171680452
 30
0.0
 11
448.75779772786723
 21
311.21395251848878
 31
0.0
  0
LINE
  5
70C
  8
0
 10
448.75779772786723
 20
311.21395002678599
 30
0.0
 11
448.75779772786723
 21
310.57827887849601
 31
0.0
  0
LINE
  5
70D
  8
0
 10
448.75779772786723
 20
310.5782755363943
 30
0.0
 11
448.75779772786723
 21
309.74985238848973
 31
0.0
  0
LINE
  5
70E
  8
0
 10
448.75779772786723
 20
309.74984841164809
 30
0.0
 11
448.75779772786723
 21
308.7851266449606
 31
0.0
  0
LINE
  5
70F
  8
0
 10
448.75779772786723
 20
308.78512459205831
 30
0.0
 11
448.75779772786723
 21
307.74984841164809
 31
0.0
  0
LINE
  5
710
  8
0
 10
393.88279772786632
 20
237.6248484116513
 30
0.0
 11
393.88279772786632
 21
237.87484841165039
 31
0.0
  0
LINE
  5
711
  8
0
 10
391.88279772786609
 20
237.87484841165039
 30
0.0
 11
391.88279772786609
 21
237.6248484116513
 31
0.0
  0
LINE
  5
712
  8
0
 10
361.50779772786638
 20
237.6248484116513
 30
0.0
 11
361.50779772786638
 21
237.87484841165039
 31
0.0
  0
LINE
  5
713
  8
0
 10
358.50779772786609
 20
237.87484841165039
 30
0.0
 11
358.50779772786609
 21
237.6248484116513
 31
0.0
  0
LINE
  5
714
  8
0
 10
393.8827977278662
 20
237.62484841165079
 30
0.0
 11
393.74882313165068
 21
237.62484841165079
 31
0.0
  0
LINE
  5
715
  8
0
 10
393.74882198964718
 20
237.62484841165079
 30
0.0
 11
392.88279869252699
 21
237.62484841165079
 31
0.0
  0
LINE
  5
716
  8
0
 10
392.8827977278662
 20
237.62484841165079
 30
0.0
 11
392.01677268055943
 21
237.62484841165079
 31
0.0
  0
LINE
  5
717
  8
0
 10
392.01677232408178
 20
237.62484841165079
 30
0.0
 11
391.91687190157711
 21
237.62484841165079
 31
0.0
  0
LINE
  5
718
  8
0
 10
391.91687121740449
 20
237.62484841165079
 30
0.0
 11
391.8827977278662
 21
237.62484841165079
 31
0.0
  0
LINE
  5
719
  8
0
 10
361.5077977278662
 20
237.6248484116509
 30
0.0
 11
361.30683583354289
 21
237.6248484116509
 31
0.0
  0
LINE
  5
71A
  8
0
 10
361.30683569160271
 20
237.6248484116509
 30
0.0
 11
360.75779981589238
 21
237.6248484116509
 31
0.0
  0
LINE
  5
71B
  8
0
 10
360.7577977278662
 20
237.6248484116509
 30
0.0
 11
360.39602913676879
 21
237.6248484116509
 31
0.0
  0
LINE
  5
71C
  8
0
 10
360.39602629552002
 20
237.6248484116509
 30
0.0
 11
360.0077996571834
 21
237.6248484116509
 31
0.0
  0
LINE
  5
71D
  8
0
 10
360.0077977278662
 20
237.6248484116509
 30
0.0
 11
359.61957023974389
 21
237.6248484116509
 31
0.0
  0
LINE
  5
71E
  8
0
 10
359.61956916021251
 20
237.6248484116509
 30
0.0
 11
358.70875962218952
 21
237.6248484116509
 31
0.0
  0
LINE
  5
71F
  8
0
 10
358.70875734880042
 20
237.6248484116509
 30
0.0
 11
358.55890898843262
 21
237.6248484116509
 31
0.0
  0
LINE
  5
720
  8
0
 10
358.55890891038501
 20
237.6248484116509
 30
0.0
 11
358.5077977278662
 21
237.6248484116509
 31
0.0
  0
LINE
  5
721
  8
0
 10
369.00779772786609
 20
237.6248484116513
 30
0.0
 11
369.00779772786609
 21
237.87484841165039
 31
0.0
  0
LINE
  5
722
  8
0
 10
369.00779772786632
 20
237.6248484116509
 30
0.0
 11
368.33792566026079
 21
237.6248484116509
 31
0.0
  0
LINE
  5
723
  8
0
 10
368.33792474678847
 20
237.6248484116509
 30
0.0
 11
367.54333385457181
 21
237.6248484116509
 31
0.0
  0
LINE
  5
724
  8
0
 10
367.54333163379908
 20
237.6248484116509
 30
0.0
 11
365.30189375814012
 21
237.6248484116509
 31
0.0
  0
LINE
  5
725
  8
0
 10
365.30189295337902
 20
237.6248484116509
 30
0.0
 11
364.00779772786638
 21
237.6248484116509
 31
0.0
  0
LINE
  5
726
  8
0
 10
364.0077957985593
 20
237.6248484116509
 30
0.0
 11
362.71370361601703
 21
237.6248484116509
 31
0.0
  0
LINE
  5
727
  8
0
 10
362.71370250235378
 20
237.6248484116509
 30
0.0
 11
361.5077995208959
 21
237.6248484116509
 31
0.0
  0
INSERT
  5
74D
  8
0
  6
CONTINUOUS
  2
*X4
 10
0.0
 20
0.0
 30
0.0
1001
GRADIENTCOLOR1ACI
1070
     5
1001
GRADIENTCOLOR2ACI
1070
     2
1001
ACAD
1000
HATCH
1002
{
1070
    19
1000
NET
1040
12.0
1040
0.0
1000
ASC_BOUNDS
1070
     6
1070
     1
1070
     4
1005
54D
1005
54C
1005
54B
1005
54A
1070
     1
1070
     4
1005
549
1005
548
1005
547
1005
546
1070
     1
1070
     4
1005
544
1005
543
1005
542
1005
545
1070
     1
1070
     4
1005
576
1005
577
1005
56B
1005
575
1070
     1
1070
     4
1005
569
1005
577
1005
567
1005
575
1070
     1
1070
     4
1005
564
1005
577
1005
574
1005
575
1000
ASC_SEEDPOINT
1011
542.80812382680892
1021
0.0
1031
0.0
1021
53.863623192371499
1031
0.0
1000
R14_HATCH_DATA
1000
74D
1011
1.0
1021
0.0
1031
0.0
1021
0.0
1031
0.0
1011
0.0
1021
0.0
1031
0.0
1021
1.0
1031
0.0
1011
0.0
1021
0.0
1031
0.0
1021
0.0
1031
1.0
1040
0.0
1010
0.0
1020
0.0
1030
1.0
1000
NET
1070
     0
1070
     1
1071
        6
1071
        7
1070
     0
1070
     1
1071
        4
1040
553.34675504682434
1040
79.125004503757395
1040
528.09675504682446
1040
79.12500450375714
1040
528.09675504682525
1040
4.0000045037565988
1040
553.34675504682434
1040
4.0000045037568546
1071
        4
1005
575
1005
574
1005
577
1005
564
1071
        7
1070
     0
1070
     1
1071
        4
1040
607.35575470149638
1040
79.125004503757964
1040
585.34675504682514
1040
79.125004503757722
1040
585.34675504682514
1040
4.0000045037571956
1040
607.35575470149638
1040
4.0000045037574159
1071
        4
1005
575
1005
567
1005
577
1005
569
1071
        7
1070
     0
1070
     1
1071
        4
1040
664.59675504682446
1040
79.125004503758561
1040
639.33877036359422
1040
79.125004503758291
1040
639.33877036359422
1040
4.0000045037577427
1040
664.59675504682525
1040
4.0000045037579994
1071
        4
1005
575
1005
56B
1005
577
1005
576
1071
        7
1070
     0
1070
     1
1071
        4
1040
694.09675504682434
1040
79.125004503760181
1040
668.8467550468248
1040
79.125004503760181
1040
668.8467550468248
1040
4.0000045037577356
1040
694.09675504682434
1040
4.0000045037577356
1071
        4
1005
545
1005
542
1005
543
1005
544
1071
        7
1070
     0
1070
     1
1071
        4
1040
748.10575470149638
1040
79.12500450375839
1040
726.09675504682514
1040
79.12500450375839
1040
726.09675504682514
1040
4.0000045037578138
1040
748.10575470149638
1040
4.000004503757828
1071
        4
1005
546
1005
547
1005
548
1005
549
1071
        7
1070
     0
1070
     1
1071
        4
1040
805.34675504682502
1040
79.12500450375839
1040
780.08877036359422
1040
79.12500450375839
1040
780.08877036359422
1040
4.0000045037578138
1040
805.34675504682502
1040
4.000004503757828
1071
        4
1005
54A
1005
54B
1005
54C
1005
54D
1070
     1
1070
     1
1040
0.0
1040
12.0
1070
     0
1070
     2
1040
0.0
1040
0.0
1040
0.0
1040
0.0
1040
1.5
1070
     0
1040
1.5707963267948959
1040
0.0
1040
0.0
1040
-1.5
1040
0.0000000000000001
1070
     0
1040
0.2101561514076295
1071
        6
1040
542.80812382680892
1040
53.863623192371499
1040
0.0
1040
599.78792705966794
1040
58.276902245010199
1040
0.0
1040
653.61386635901295
1040
42.725346846730417
1040
0.0
1040
679.68580542772429
1040
39.152693016908977
1040
0.0
1040
740.02973098442703
1040
38.312067794091718
1040
0.0
1040
793.43515549001791
1040
35.369881758999213
1040
0.0
1002
}
  0
INSERT
  5
75B
  8
0
  6
CONTINUOUS
  2
*X5
 10
0.0
 20
0.0
 30
0.0
1001
GRADIENTCOLOR1ACI
1070
     5
1001
GRADIENTCOLOR2ACI
1070
     2
1001
ACAD
1000
HATCH
1002
{
1070
    19
1000
ANSI31
1040
12.0
1040
2.3561944901923439
1000
ASC_BOUNDS
1070
     2
1070
     1
1070
     4
1005
6E7
1005
6E8
1005
6E9
1005
6EA
1070
     1
1070
     4
1005
6DC
1005
6DD
1005
6DE
1005
6DF
1000
ASC_SEEDPOINT
1011
375.73555154318211
1021
0.0
1031
0.0
1021
281.0087451938366
1031
0.0
1000
R14_HATCH_DATA
1000
75B
1011
1.0
1021
0.0
1031
0.0
1021
0.0
1031
0.0
1011
0.0
1021
0.0
1031
0.0
1021
1.0
1031
0.0
1011
0.0
1021
0.0
1031
0.0
1021
0.0
1031
1.0
1040
0.0
1010
0.0
1020
0.0
1030
1.0
1000
ANSI31
1070
     0
1070
     1
1071
        2
1071
        7
1070
     0
1070
     1
1071
        4
1040
356.882797727867
1040
239.4998484116513
1040
446.88279772786689
1040
239.49984841165119
1040
446.88279772786723
1040
375.9998484116511
1040
356.88279772786723
1040
375.99984841165133
1071
        4
1005
6DF
1005
6DE
1005
6DD
1005
6DC
1071
        7
1070
     0
1070
     1
1071
        4
1040
356.8827977278666
1040
380.24984841165133
1040
446.8827977278666
1040
380.2498484116511
1040
446.88279772786677
1040
516.7498484116511
1040
356.88279772786689
1040
516.74984841165133
1071
        4
1005
6EA
1005
6E9
1005
6E8
1005
6E7
1070
     1
1070
     1
1040
2.3561944901923439
1040
12.0
1070
     0
1070
     1
1040
3.1415926535897931
1040
0.0
1040
39.5
1040
-0.0000000000000002
1040
-1.5
1070
     0
1040
0.5391567855628998
1071
        2
1040
375.73555154318211
1040
281.0087451938366
1040
0.0
1040
398.39106496863559
1040
433.59011573958242
1040
0.0
1002
}
  0
ENDSEC
  0
EOF
