  0
SECTION
  2
HEADER
  9
$ACADVER
  1
AC1009
  9
$INSBASE
 10
0.0
 20
0.0
 30
0.0
  9
$EXTMIN
 10
-0.0220541979554128
 20
-0.0132116216359464
 30
-0.0015258207003583
  9
$EXTMAX
 10
722.74915502913791
 20
449.71167059838871
 30
0.0000000349246037
  9
$LIMMIN
 10
0.0
 20
0.0
  9
$LIMMAX
 10
12.0
 20
9.0
  9
$ORTHOMODE
 70
     1
  9
$REGENMODE
 70
     1
  9
$FILLMODE
 70
     1
  9
$QTEXTMODE
 70
     0
  9
$MIRRTEXT
 70
     0
  9
$DRAGMODE
 70
     2
  9
$LTSCALE
 40
1.0
  9
$OSMODE
 70
    37
  9
$ATTMODE
 70
     1
  9
$TEXTSIZE
 40
0.2
  9
$TRACEWID
 40
0.05
  9
$TEXTSTYLE
  7
ROMANS
  9
$CLAYER
  8
0
  9
$CELTYPE
  6
BYLAYER
  9
$CECOLOR
 62
   256
  9
$DIMSCALE
 40
1.0
  9
$DIMASZ
 40
0.09375
  9
$DIMEXO
 40
0.0625
  9
$DIMDLI
 40
0.375
  9
$DIMRND
 40
0.0
  9
$DIMDLE
 40
0.0
  9
$DIMEXE
 40
0.03125
  9
$DIMTP
 40
0.0
  9
$DIMTM
 40
0.0
  9
$DIMTXT
 40
0.09375
  9
$DIMCEN
 40
0.09375
  9
$DIMTSZ
 40
0.0
  9
$DIMTOL
 70
     0
  9
$DIMLIM
 70
     0
  9
$DIMTIH
 70
     0
  9
$DIMTOH
 70
     0
  9
$DIMSE1
 70
     0
  9
$DIMSE2
 70
     0
  9
$DIMTAD
 70
     0
  9
$DIMZIN
 70
     0
  9
$DIMBLK
  1

  9
$DIMASO
 70
     1
  9
$DIMSHO
 70
     1
  9
$DIMPOST
  1

  9
$DIMAPOST
  1

  9
$DIMALT
 70
     0
  9
$DIMALTD
 70
     2
  9
$DIMALTF
 40
25.399999999999999
  9
$DIMLFAC
 40
1.0
  9
$DIMTOFL
 70
     0
  9
$DIMTVP
 40
0.0
  9
$DIMTIX
 70
     0
  9
$DIMSOXD
 70
     0
  9
$DIMSAH
 70
     0
  9
$DIMBLK1
  1

  9
$DIMBLK2
  1

  9
$DIMSTYLE
  2
BAC
  9
$DIMCLRD
 70
     0
  9
$DIMCLRE
 70
     6
  9
$DIMCLRT
 70
     0
  9
$DIMTFAC
 40
1.0
  9
$DIMGAP
 40
0.0625
  9
$LUNITS
 70
     5
  9
$LUPREC
 70
     6
  9
$SKETCHINC
 40
0.1
  9
$FILLETRAD
 40
0.5
  9
$AUNITS
 70
     0
  9
$AUPREC
 70
     0
  9
$MENU
  1
.
  9
$ELEVATION
 40
0.0
  9
$PELEVATION
 40
0.0
  9
$THICKNESS
 40
0.0
  9
$LIMCHECK
 70
     0
  9
$BLIPMODE
 70
     0
  9
$CHAMFERA
 40
0.5
  9
$CHAMFERB
 40
0.5
  9
$SKPOLY
 70
     0
  9
$TDCREATE
 40
2456828.7304835878
  9
$TDUPDATE
 40
2456828.7330831019
  9
$TDINDWG
 40
0.0026010532
  9
$TDUSRTIMER
 40
0.0026008218
  9
$USRTIMER
 70
     1
  9
$ANGBASE
 50
0.0
  9
$ANGDIR
 70
     0
  9
$PDMODE
 70
     0
  9
$PDSIZE
 40
0.0
  9
$PLINEWID
 40
0.0
  9
$COORDS
 70
     1
  9
$SPLFRAME
 70
     0
  9
$SPLINETYPE
 70
     6
  9
$SPLINESEGS
 70
     8
  9
$ATTDIA
 70
     0
  9
$ATTREQ
 70
     1
  9
$HANDLING
 70
     1
  9
$HANDSEED
  5
C68
  9
$SURFTAB1
 70
     6
  9
$SURFTAB2
 70
     6
  9
$SURFTYPE
 70
     6
  9
$SURFU
 70
     6
  9
$SURFV
 70
     6
  9
$UCSNAME
  2

  9
$UCSORG
 10
0.0
 20
0.0
 30
0.0
  9
$UCSXDIR
 10
1.0
 20
0.0
 30
0.0
  9
$UCSYDIR
 10
0.0
 20
1.0
 30
0.0
  9
$PUCSNAME
  2

  9
$PUCSORG
 10
0.0
 20
0.0
 30
0.0
  9
$PUCSXDIR
 10
1.0
 20
0.0
 30
0.0
  9
$PUCSYDIR
 10
0.0
 20
1.0
 30
0.0
  9
$USERI1
 70
     0
  9
$USERI2
 70
     0
  9
$USERI3
 70
     0
  9
$USERI4
 70
     0
  9
$USERI5
 70
     0
  9
$USERR1
 40
0.0
  9
$USERR2
 40
0.0
  9
$USERR3
 40
0.0
  9
$USERR4
 40
0.0
  9
$USERR5
 40
0.0
  9
$WORLDVIEW
 70
     1
  9
$SHADEDGE
 70
     3
  9
$SHADEDIF
 70
    70
  9
$TILEMODE
 70
     1
  9
$MAXACTVP
 70
    48
  9
$PLIMCHECK
 70
     0
  9
$PEXTMIN
 10
1.0000000000000000E+020
 20
1.0000000000000000E+020
 30
1.0000000000000000E+020
  9
$PEXTMAX
 10
-1.0000000000000000E+020
 20
-1.0000000000000000E+020
 30
-1.0000000000000000E+020
  9
$PLIMMIN
 10
0.0
 20
0.0
  9
$PLIMMAX
 10
12.0
 20
9.0
  9
$UNITMODE
 70
     0
  9
$VISRETAIN
 70
     1
  9
$PLINEGEN
 70
     0
  9
$PSLTSCALE
 70
     1
  0
ENDSEC
  0
SECTION
  2
TABLES
  0
TABLE
  2
VPORT
 70
     1
  0
VPORT
  2
*ACTIVE
 70
     0
 10
0.0
 20
0.0
 11
1.0
 21
1.0
 12
361.36355041559119
 22
224.84922948837641
 13
0.0
 23
0.0
 14
0.5
 24
0.5
 15
0.5
 25
0.5
 16
0.0
 26
0.0
 36
1.0
 17
0.0
 27
0.0
 37
0.0
 40
452.71640028357251
 41
1.7702552719200879
 42
50.0
 43
0.0
 44
0.0
 50
0.0
 51
0.0
 71
     0
 72
   100
 73
     1
 74
     1
 75
     0
 76
     0
 77
     0
 78
     0
  0
ENDTAB
  0
TABLE
  2
LTYPE
 70
    20
  0
LTYPE
  2
CONTINUOUS
 70
     0
  3
Solid line
 72
    65
 73
     0
 40
0.0
  0
LTYPE
  2
CENTER
 70
     0
  3
Center ____ _ ____ _ ____ _ ____ _ ____ _ ____
 72
    65
 73
     4
 40
2.0
 49
1.25
 49
-0.25
 49
0.25
 49
-0.25
  0
LTYPE
  2
CENTER2
 70
     0
  3
Center (.5x) ___ _ ___ _ ___ _ ___ _ ___ _ ___
 72
    65
 73
     4
 40
1.125
 49
0.75
 49
-0.125
 49
0.125
 49
-0.125
  0
LTYPE
  2
HIDDEN
 70
     0
  3
Hidden __ __ __ __ __ __ __ __ __ __ __ __ __ _
 72
    65
 73
     2
 40
0.375
 49
0.25
 49
-0.125
  0
LTYPE
  2
HIDDEN2
 70
     0
  3
Hidden (.5x) _ _ _ _ _ _ _ _ _ _ _ _ _ _ _ _ _
 72
    65
 73
     2
 40
0.1875
 49
0.125
 49
-0.0625
  0
LTYPE
  2
PHANTOM2
 70
     0
  3
Phantom (.5x) ___ _ _ ___ _ _ ___ _ _ ___ _ _
 72
    65
 73
     6
 40
1.25
 49
0.625
 49
-0.125
 49
0.125
 49
-0.125
 49
0.125
 49
-0.125
  0
LTYPE
  2
AMCONSTR
 70
     0
  3
_______________________
 72
    65
 73
     2
 40
9999.0
 49
9999.0
 49
0.0
  0
LTYPE
  2
AMZIGZAG2
 70
     0
  3
/\/-/\/-/\/-/\/-/\/-/\/
 72
    65
 73
     2
 40
0.4401
 49
0.0001
 49
-0.4400000000000001
  0
LTYPE
  2
ACANSTGB
 70
     0
  3
__ . . __ . .
 72
    65
 73
     6
 40
0.35433070866
 49
0.15748031496
 49
-0.03937007874
 49
0.03937007874
 49
-0.03937007874
 49
0.03937007874
 49
-0.03937007874
  0
LTYPE
  2
ACANSTGL
 70
     0
  3
_ _ _ _ _
 72
    65
 73
     2
 40
0.11811023622
 49
0.07874015748
 49
-0.03937007874
  0
ENDTAB
  0
TABLE
  2
LAYER
 70
     8
  0
LAYER
  2
0
 70
     0
 62
     7
  6
CONTINUOUS
  0
ENDTAB
  0
TABLE
  2
STYLE
 70
    11
  0
STYLE
  2
STANDARD
 70
     0
 40
0.0
 41
1.0
 50
0.0
 71
     0
 42
0.2
  3
txt
  4

  0
STYLE
  2
ROMANS
 70
     0
 40
0.0
 41
0.75
 50
0.0
 71
     0
 42
0.2
  3
romans.shx
  4

  0
STYLE
  2

 70
     1
 40
0.0
 41
1.0
 50
0.0
 71
     0
 42
0.2
  3
genltshp.shx
  4

  0
STYLE
  2
ACANSGDT
 70
     0
 40
0.0
 41
1.0
 50
0.0
 71
     0
 42
0.2
  3
amgdt.shx
  4

  0
ENDTAB
  0
TABLE
  2
VIEW
 70
     0
  0
ENDTAB
  0
TABLE
  2
UCS
 70
     0
  0
ENDTAB
  0
TABLE
  2
APPID
 70
    15
  0
APPID
  2
ACAD
 70
     0
  0
APPID
  2
ACAD_MLEADERVER
 70
     0
  0
APPID
  2
ACAD_DSTYLE_DIMJAG
 70
     0
  0
APPID
  2
ACAD_DSTYLE_DIMTALN
 70
     0
  0
APPID
  2
ACAD_PSEXT
 70
     0
  0
APPID
  2
ACADANNOPO
 70
     0
  0
APPID
  2
MCAD_NO_VIS
 70
     0
  0
APPID
  2
ACAD_TEMP_GRAPHIC
 70
     0
  0
APPID
  2
ACATTRIBSERVICES
 70
     0
  0
APPID
  2
DESIGNERASSEMBLIES
 70
     0
  0
APPID
  2
ACAD_DSTYLE_DIMBREAK
 70
     0
  0
APPID
  2
ACAD_NAV_VCDISPLAY
 70
     0
  0
APPID
  2
GRADIENTCOLOR1ACI
 70
     0
  0
APPID
  2
GRADIENTCOLOR2ACI
 70
     0
  0
APPID
  2
ACAD_EXEMPT_FROM_CAD_STANDARDS
 70
     0
  0
ENDTAB
  0
TABLE
  2
DIMSTYLE
 70
    14
  0
DIMSTYLE
  2
BAC
 70
     0
  3

  4

  5

  6

  7

 40
1.0
 41
0.09375
 42
0.0625
 43
0.375
 44
0.03125
 45
0.0
 46
0.0
 47
0.0
 48
0.0
140
0.09375
141
0.09375
142
0.0
143
25.399999999999999
144
1.0
145
0.0
146
1.0
147
0.0625
 71
     0
 72
     0
 73
     0
 74
     0
 75
     0
 76
     0
 77
     0
 78
     0
170
     0
171
     2
172
     0
173
     0
174
     0
175
     0
176
     0
177
     6
178
     0
  0
DIMSTYLE
  2
AM_ANSI
 70
     0
  3

  4
mm
  5

  6

  7

 40
1.0
 41
0.12
 42
0.05
 43
0.5
 44
0.1
 45
0.0
 46
0.0
 47
0.1
 48
0.1
140
0.12
141
0.0
142
0.0
143
25.399999999999999
144
1.0
145
0.0
146
0.71
147
0.06
 71
     0
 72
     0
 73
     1
 74
     1
 75
     0
 76
     0
 77
     0
 78
     7
170
     0
171
     2
172
     0
173
     0
174
     0
175
     0
176
   256
177
   256
178
     2
  0
DIMSTYLE
  2
AM_ANSI$3
 70
     0
  3

  4
mm
  5

  6

  7

 40
1.0
 41
0.12
 42
0.05
 43
0.5
 44
0.1
 45
0.0
 46
0.0
 47
0.1
 48
0.1
140
0.12
141
0.0
142
0.0
143
25.399999999999999
144
1.0
145
0.0
146
0.71
147
0.06
 71
     0
 72
     0
 73
     1
 74
     1
 75
     0
 76
     0
 77
     0
 78
     7
170
     0
171
     2
172
     0
173
     0
174
     0
175
     0
176
   256
177
   256
178
     2
  0
DIMSTYLE
  2
AM_ANSI$4
 70
     0
  3

  4
mm
  5

  6

  7

 40
1.0
 41
0.12
 42
0.05
 43
0.5
 44
0.1
 45
0.0
 46
0.0
 47
0.1
 48
0.1
140
0.12
141
0.0
142
0.0
143
25.399999999999999
144
1.0
145
0.0
146
0.71
147
0.06
 71
     0
 72
     0
 73
     1
 74
     1
 75
     0
 76
     0
 77
     0
 78
     7
170
     0
171
     2
172
     0
173
     0
174
     0
175
     0
176
   256
177
   256
178
     2
  0
DIMSTYLE
  2
AM_ANSI$7
 70
     0
  3

  4
mm
  5

  6

  7

 40
1.0
 41
0.12
 42
0.05
 43
0.5
 44
0.1
 45
0.0
 46
0.0
 47
0.1
 48
0.1
140
0.12
141
0.0
142
0.0
143
25.399999999999999
144
1.0
145
0.0
146
0.71
147
0.06
 71
     0
 72
     0
 73
     1
 74
     1
 75
     0
 76
     0
 77
     0
 78
     7
170
     0
171
     2
172
     0
173
     0
174
     0
175
     0
176
   256
177
   256
178
     2
  0
DIMSTYLE
  2
AM_ANSI$SF
 70
     0
  3

  4
mm
  5

  6

  7

 40
1.0
 41
0.12
 42
0.05
 43
0.5
 44
0.1
 45
0.0
 46
0.0
 47
0.1
 48
0.1
140
0.12
141
0.0
142
0.0
143
25.399999999999999
144
1.0
145
0.0
146
0.71
147
0.06
 71
     0
 72
     0
 73
     1
 74
     1
 75
     1
 76
     1
 77
     0
 78
     7
170
     0
171
     2
172
     0
173
     0
174
     0
175
     0
176
   256
177
   256
178
     2
  0
DIMSTYLE
  2
AM_ANSI$SH
 70
     0
  3

  4
mm
  5

  6
GENAXEH
  7

 40
1.0
 41
0.12
 42
0.05
 43
0.5
 44
0.1
 45
0.0
 46
0.0
 47
0.1
 48
0.1
140
0.12
141
0.0
142
0.0
143
25.399999999999999
144
1.0
145
0.0
146
0.71
147
0.06
 71
     0
 72
     0
 73
     1
 74
     1
 75
     1
 76
     1
 77
     0
 78
     7
170
     0
171
     2
172
     0
173
     1
174
     0
175
     0
176
   256
177
   256
178
     2
  0
DIMSTYLE
  2
STANDARD
 70
     0
  3

  4

  5

  6

  7

 40
1.0
 41
0.18
 42
0.0625
 43
0.38
 44
0.18
 45
0.0
 46
0.0
 47
0.0
 48
0.0
140
0.18
141
0.09
142
0.0
143
25.399999999999999
144
1.0
145
0.0
146
1.0
147
0.09
 71
     0
 72
     0
 73
     1
 74
     1
 75
     0
 76
     0
 77
     0
 78
     0
170
     0
171
     2
172
     0
173
     0
174
     0
175
     0
176
     0
177
     0
178
     0
  0
ENDTAB
  0
ENDSEC
  0
SECTION
  2
BLOCKS
  0
BLOCK
  8
0
  2
$MODEL_SPACE
 70
     0
 10
0.0
 20
0.0
 30
0.0
  3
$MODEL_SPACE
  1

  0
ENDBLK
  5
1A
  8
0
  0
BLOCK
 67
     1
  8
0
  2
$PAPER_SPACE
 70
     0
 10
0.0
 20
0.0
 30
0.0
  3
$PAPER_SPACE
  1

  0
ENDBLK
  5
17
 67
     1
  8
0
  0
BLOCK
  8
0
  2
*U0
 70
     1
 10
0.0
 20
0.0
 30
0.0
  3
*U0
  1

  0
ENDBLK
  5
17A
  8
0
  0
BLOCK
  8
0
  2
GENAXEH
 70
     0
 10
0.0
 20
0.0
 30
0.0
  3
GENAXEH
  1

  0
LINE
  5
1AD
  8
0
 10
-1.0
 20
0.0
 30
0.0
 11
1.0
 21
0.0
 31
0.0
  0
ENDBLK
  5
1AF
  8
0
  0
BLOCK
  8
0
  2
*X4
 70
     1
 10
0.0
 20
0.0
 30
0.0
  3
*X4
  1

  0
LINE
  5
A53
  8
0
 62
     0
 10
720.0
 20
4.000004503758384
 30
0.0
 11
720.0
 21
98.37500450375893
 31
0.0
  0
LINE
  5
A54
  8
0
 62
     0
 10
718.5
 20
4.0000045037583671
 30
0.0
 11
718.5
 21
98.375004503758916
 31
0.0
  0
LINE
  5
A55
  8
0
 62
     0
 10
717.0
 20
4.0000045037583503
 30
0.0
 11
717.0
 21
98.375004503758916
 31
0.0
  0
LINE
  5
A56
  8
0
 62
     0
 10
715.5
 20
4.0000045037583316
 30
0.0
 11
715.5
 21
98.375004503758888
 31
0.0
  0
LINE
  5
A57
  8
0
 62
     0
 10
714.0
 20
4.0000045037583147
 30
0.0
 11
714.0
 21
98.375004503758873
 31
0.0
  0
LINE
  5
A58
  8
0
 62
     0
 10
712.5
 20
4.000004503758297
 30
0.0
 11
712.5
 21
98.375004503758859
 31
0.0
  0
LINE
  5
A59
  8
0
 62
     0
 10
711.0
 20
4.0000045037582801
 30
0.0
 11
711.0
 21
98.375004503758845
 31
0.0
  0
LINE
  5
A5A
  8
0
 62
     0
 10
684.0
 20
4.0000045037579994
 30
0.0
 11
684.0
 21
98.375004503758575
 31
0.0
  0
LINE
  5
A5B
  8
0
 62
     0
 10
682.5
 20
4.0000045037579843
 30
0.0
 11
682.5
 21
98.375004503758561
 31
0.0
  0
LINE
  5
A5C
  8
0
 62
     0
 10
681.0
 20
4.0000045037579692
 30
0.0
 11
681.0
 21
98.375004503758547
 31
0.0
  0
LINE
  5
A5D
  8
0
 62
     0
 10
679.49999999999989
 20
4.0000045037579541
 30
0.0
 11
679.49999999999989
 21
98.375004503758518
 31
0.0
  0
LINE
  5
A5E
  8
0
 62
     0
 10
678.0
 20
4.000004503757939
 30
0.0
 11
678.0
 21
98.375004503758504
 31
0.0
  0
LINE
  5
A5F
  8
0
 62
     0
 10
676.5
 20
4.000004503757923
 30
0.0
 11
676.5
 21
98.375004503758475
 31
0.0
  0
LINE
  5
A60
  8
0
 62
     0
 10
675.0
 20
4.0000045037579079
 30
0.0
 11
675.0
 21
98.375004503758475
 31
0.0
  0
LINE
  5
A61
  8
0
 62
     0
 10
673.5
 20
4.000004503757892
 30
0.0
 11
673.5
 21
98.375004503758475
 31
0.0
  0
LINE
  5
A62
  8
0
 62
     0
 10
672.0
 20
4.0000045037578769
 30
0.0
 11
672.0
 21
98.375004503758447
 31
0.0
  0
LINE
  5
A63
  8
0
 62
     0
 10
670.5
 20
4.0000045037578618
 30
0.0
 11
670.5
 21
98.375004503758404
 31
0.0
  0
LINE
  5
A64
  8
0
 62
     0
 10
669.0
 20
4.0000045037578467
 30
0.0
 11
669.0
 21
98.375004503758404
 31
0.0
  0
LINE
  5
A65
  8
0
 62
     0
 10
667.49999999999989
 20
4.0000045037578316
 30
0.0
 11
667.49999999999989
 21
98.375004503758404
 31
0.0
  0
LINE
  5
A66
  8
0
 62
     0
 10
666.0
 20
4.0000045037578174
 30
0.0
 11
666.0
 21
98.375004503758376
 31
0.0
  0
LINE
  5
A67
  8
0
 62
     0
 10
664.5
 20
4.0000045037578023
 30
0.0
 11
664.5
 21
98.375004503758362
 31
0.0
  0
LINE
  5
A68
  8
0
 62
     0
 10
663.0
 20
4.0000045037577863
 30
0.0
 11
663.0
 21
98.375004503758333
 31
0.0
  0
LINE
  5
A69
  8
0
 62
     0
 10
661.5
 20
4.0000045037577712
 30
0.0
 11
661.5
 21
98.375004503758333
 31
0.0
  0
LINE
  5
A6A
  8
0
 62
     0
 10
660.0
 20
4.0000045037577561
 30
0.0
 11
660.0
 21
98.375004503758319
 31
0.0
  0
LINE
  5
A6B
  8
0
 62
     0
 10
658.49999999999989
 20
4.0000045037577401
 30
0.0
 11
658.49999999999989
 21
98.375004503758291
 31
0.0
  0
LINE
  5
A6C
  8
0
 62
     0
 10
657.0
 20
4.000004503757725
 30
0.0
 11
657.0
 21
98.375004503758277
 31
0.0
  0
LINE
  5
A6D
  8
0
 62
     0
 10
630.0
 20
4.0000045037574594
 30
0.0
 11
630.0
 21
98.375004503758007
 31
0.0
  0
LINE
  5
A6E
  8
0
 62
     0
 10
628.5
 20
4.0000045037574434
 30
0.0
 11
628.5
 21
98.375004503757992
 31
0.0
  0
LINE
  5
A6F
  8
0
 62
     0
 10
627.0
 20
4.0000045037574274
 30
0.0
 11
627.0
 21
98.375004503757992
 31
0.0
  0
LINE
  5
A70
  8
0
 62
     0
 10
625.49999999999989
 20
4.0000045037574106
 30
0.0
 11
625.49999999999989
 21
98.375004503757964
 31
0.0
  0
LINE
  5
A71
  8
0
 62
     0
 10
624.0
 20
4.0000045037573946
 30
0.0
 11
624.0
 21
98.37500450375795
 31
0.0
  0
LINE
  5
A72
  8
0
 62
     0
 10
622.5
 20
4.0000045037573786
 30
0.0
 11
622.5
 21
98.375004503757935
 31
0.0
  0
LINE
  5
A73
  8
0
 62
     0
 10
621.0
 20
4.0000045037573626
 30
0.0
 11
621.0
 21
98.375004503757921
 31
0.0
  0
LINE
  5
A74
  8
0
 62
     0
 10
619.5
 20
4.0000045037573466
 30
0.0
 11
619.5
 21
98.375004503757921
 31
0.0
  0
LINE
  5
A75
  8
0
 62
     0
 10
618.0
 20
4.0000045037573306
 30
0.0
 11
618.0
 21
98.375004503757879
 31
0.0
  0
LINE
  5
A76
  8
0
 62
     0
 10
616.5
 20
4.0000045037573146
 30
0.0
 11
616.5
 21
98.375004503757864
 31
0.0
  0
LINE
  5
A77
  8
0
 62
     0
 10
615.0
 20
4.0000045037572987
 30
0.0
 11
615.0
 21
98.37500450375785
 31
0.0
  0
LINE
  5
A78
  8
0
 62
     0
 10
613.49999999999989
 20
4.0000045037572827
 30
0.0
 11
613.49999999999989
 21
98.37500450375785
 31
0.0
  0
LINE
  5
A79
  8
0
 62
     0
 10
612.0
 20
4.0000045037572667
 30
0.0
 11
612.0
 21
98.375004503757836
 31
0.0
  0
LINE
  5
A7A
  8
0
 62
     0
 10
610.5
 20
4.0000045037572507
 30
0.0
 11
610.5
 21
98.375004503757808
 31
0.0
  0
LINE
  5
A7B
  8
0
 62
     0
 10
609.0
 20
4.0000045037572347
 30
0.0
 11
609.0
 21
98.375004503757793
 31
0.0
  0
LINE
  5
A7C
  8
0
 62
     0
 10
607.5
 20
4.0000045037572187
 30
0.0
 11
607.5
 21
98.375004503757765
 31
0.0
  0
LINE
  5
A7D
  8
0
 62
     0
 10
606.0
 20
4.0000045037572027
 30
0.0
 11
606.0
 21
98.375004503757765
 31
0.0
  0
LINE
  5
A7E
  8
0
 62
     0
 10
604.49999999999989
 20
4.0000045037571867
 30
0.0
 11
604.49999999999989
 21
98.375004503757737
 31
0.0
  0
LINE
  5
A7F
  8
0
 62
     0
 10
603.0
 20
4.0000045037571708
 30
0.0
 11
603.0
 21
98.375004503757722
 31
0.0
  0
LINE
  5
A80
  8
0
 62
     0
 10
576.0
 20
4.0000045037568768
 30
0.0
 11
576.0
 21
98.375004503757452
 31
0.0
  0
LINE
  5
A81
  8
0
 62
     0
 10
574.5
 20
4.0000045037568617
 30
0.0
 11
574.5
 21
98.375004503757424
 31
0.0
  0
LINE
  5
A82
  8
0
 62
     0
 10
573.0
 20
4.0000045037568466
 30
0.0
 11
573.0
 21
98.375004503757424
 31
0.0
  0
LINE
  5
A83
  8
0
 62
     0
 10
571.49999999999989
 20
4.0000045037568324
 30
0.0
 11
571.49999999999989
 21
98.375004503757395
 31
0.0
  0
LINE
  5
A84
  8
0
 62
     0
 10
570.0
 20
4.0000045037568182
 30
0.0
 11
570.0
 21
98.375004503757381
 31
0.0
  0
LINE
  5
A85
  8
0
 62
     0
 10
568.5
 20
4.0000045037568031
 30
0.0
 11
568.5
 21
98.375004503757367
 31
0.0
  0
LINE
  5
A86
  8
0
 62
     0
 10
567.0
 20
4.0000045037567871
 30
0.0
 11
567.0
 21
98.375004503757353
 31
0.0
  0
LINE
  5
A87
  8
0
 62
     0
 10
565.5
 20
4.0000045037567729
 30
0.0
 11
565.5
 21
98.375004503757353
 31
0.0
  0
LINE
  5
A88
  8
0
 62
     0
 10
564.0
 20
4.0000045037567578
 30
0.0
 11
564.0
 21
98.375004503757324
 31
0.0
  0
LINE
  5
A89
  8
0
 62
     0
 10
562.5
 20
4.0000045037567427
 30
0.0
 11
562.5
 21
98.37500450375731
 31
0.0
  0
LINE
  5
A8A
  8
0
 62
     0
 10
561.0
 20
4.0000045037567276
 30
0.0
 11
561.0
 21
98.375004503757296
 31
0.0
  0
LINE
  5
A8B
  8
0
 62
     0
 10
559.49999999999989
 20
4.0000045037567142
 30
0.0
 11
559.49999999999989
 21
98.375004503757282
 31
0.0
  0
LINE
  5
A8C
  8
0
 62
     0
 10
558.0
 20
4.0000045037566991
 30
0.0
 11
558.0
 21
98.375004503757282
 31
0.0
  0
LINE
  5
A8D
  8
0
 62
     0
 10
556.5
 20
4.000004503756684
 30
0.0
 11
556.5
 21
98.375004503757253
 31
0.0
  0
LINE
  5
A8E
  8
0
 62
     0
 10
555.0
 20
4.0000045037566689
 30
0.0
 11
555.0
 21
98.375004503757239
 31
0.0
  0
LINE
  5
A8F
  8
0
 62
     0
 10
553.5
 20
4.0000045037566538
 30
0.0
 11
553.5
 21
98.375004503757211
 31
0.0
  0
LINE
  5
A90
  8
0
 62
     0
 10
552.0
 20
4.0000045037566387
 30
0.0
 11
552.0
 21
98.375004503757211
 31
0.0
  0
LINE
  5
A91
  8
0
 62
     0
 10
550.49999999999989
 20
4.0000045037566236
 30
0.0
 11
550.49999999999989
 21
98.375004503757197
 31
0.0
  0
LINE
  5
A92
  8
0
 62
     0
 10
549.0
 20
4.0000045037566103
 30
0.0
 11
549.0
 21
98.375004503757168
 31
0.0
  0
LINE
  5
A93
  8
0
 62
     0
 10
522.0
 20
4.0000045037563501
 30
0.0
 11
522.0
 21
98.375004503756884
 31
0.0
  0
LINE
  5
A94
  8
0
 62
     0
 10
520.5
 20
4.0000045037563332
 30
0.0
 11
520.5
 21
98.37500450375687
 31
0.0
  0
LINE
  5
A95
  8
0
 62
     0
 10
519.0
 20
4.0000045037563154
 30
0.0
 11
519.0
 21
98.375004503756855
 31
0.0
  0
LINE
  5
A96
  8
0
 62
     0
 10
517.49999999999989
 20
4.0000045037562977
 30
0.0
 11
517.49999999999989
 21
98.375004503756855
 31
0.0
  0
LINE
  5
A97
  8
0
 62
     0
 10
516.0
 20
4.0000045037562799
 30
0.0
 11
516.0
 21
98.375004503756827
 31
0.0
  0
LINE
  5
A98
  8
0
 62
     0
 10
514.5
 20
4.000004503756263
 30
0.0
 11
514.5
 21
98.375004503756813
 31
0.0
  0
LINE
  5
A99
  8
0
 62
     0
 10
513.0
 20
4.0000045037562462
 30
0.0
 11
513.0
 21
98.375004503756799
 31
0.0
  0
LINE
  5
A9A
  8
0
 62
     0
 10
602.66459746572139
 20
4.5
 30
0.0
 11
630.67359712039286
 21
4.5
 31
0.0
  0
LINE
  5
A9B
  8
0
 62
     0
 10
656.65661278249058
 20
4.5
 30
0.0
 11
684.66527652298964
 21
4.5
 31
0.0
  0
LINE
  5
A9C
  8
0
 62
     0
 10
548.67218615683839
 20
4.5
 30
0.0
 11
576.66459746572139
 21
4.5
 31
0.0
  0
LINE
  5
A9D
  8
0
 62
     0
 10
710.6505829355699
 20
4.5
 30
0.0
 11
721.10209746572173
 21
4.5
 31
0.0
  0
LINE
  5
A9E
  8
0
 62
     0
 10
512.22709746572184
 20
4.5
 30
0.0
 11
522.66314662646982
 21
4.5
 31
0.0
  0
LINE
  5
A9F
  8
0
 62
     0
 10
602.66459746572139
 20
6.0
 30
0.0
 11
630.67359712039286
 21
6.0
 31
0.0
  0
LINE
  5
AA0
  8
0
 62
     0
 10
656.65661278249058
 20
6.0
 30
0.0
 11
684.66527652298964
 21
6.0
 31
0.0
  0
LINE
  5
AA1
  8
0
 62
     0
 10
548.67218615683839
 20
6.0
 30
0.0
 11
576.66459746572139
 21
6.0
 31
0.0
  0
LINE
  5
AA2
  8
0
 62
     0
 10
710.6505829355699
 20
6.0
 30
0.0
 11
721.10209746572173
 21
6.0
 31
0.0
  0
LINE
  5
AA3
  8
0
 62
     0
 10
512.22709746572184
 20
6.0
 30
0.0
 11
522.66314662646982
 21
6.0
 31
0.0
  0
LINE
  5
AA4
  8
0
 62
     0
 10
602.66459746572139
 20
7.5
 30
0.0
 11
630.67359712039286
 21
7.5
 31
0.0
  0
LINE
  5
AA5
  8
0
 62
     0
 10
656.65661278249058
 20
7.5
 30
0.0
 11
684.66527652298964
 21
7.5
 31
0.0
  0
LINE
  5
AA6
  8
0
 62
     0
 10
548.67218615683839
 20
7.5
 30
0.0
 11
576.66459746572139
 21
7.5
 31
0.0
  0
LINE
  5
AA7
  8
0
 62
     0
 10
710.6505829355699
 20
7.5
 30
0.0
 11
721.10209746572173
 21
7.5
 31
0.0
  0
LINE
  5
AA8
  8
0
 62
     0
 10
512.22709746572184
 20
7.5
 30
0.0
 11
522.66314662646982
 21
7.5
 31
0.0
  0
LINE
  5
AA9
  8
0
 62
     0
 10
602.66459746572139
 20
9.0
 30
0.0
 11
630.67359712039286
 21
9.0
 31
0.0
  0
LINE
  5
AAA
  8
0
 62
     0
 10
656.65661278249058
 20
9.0
 30
0.0
 11
684.66527652298964
 21
9.0
 31
0.0
  0
LINE
  5
AAB
  8
0
 62
     0
 10
548.67218615683839
 20
9.0
 30
0.0
 11
576.66459746572139
 21
9.0
 31
0.0
  0
LINE
  5
AAC
  8
0
 62
     0
 10
710.6505829355699
 20
9.0
 30
0.0
 11
721.10209746572173
 21
9.0
 31
0.0
  0
LINE
  5
AAD
  8
0
 62
     0
 10
512.22709746572184
 20
9.0
 30
0.0
 11
522.66314662646982
 21
9.0
 31
0.0
  0
LINE
  5
AAE
  8
0
 62
     0
 10
602.66459746572139
 20
10.5
 30
0.0
 11
630.67359712039286
 21
10.5
 31
0.0
  0
LINE
  5
AAF
  8
0
 62
     0
 10
656.65661278249058
 20
10.5
 30
0.0
 11
684.66527652298964
 21
10.5
 31
0.0
  0
LINE
  5
AB0
  8
0
 62
     0
 10
548.67218615683839
 20
10.5
 30
0.0
 11
576.66459746572139
 21
10.5
 31
0.0
  0
LINE
  5
AB1
  8
0
 62
     0
 10
710.6505829355699
 20
10.5
 30
0.0
 11
721.10209746572161
 21
10.5
 31
0.0
  0
LINE
  5
AB2
  8
0
 62
     0
 10
512.22709746572173
 20
10.5
 30
0.0
 11
522.66314662646982
 21
10.5
 31
0.0
  0
LINE
  5
AB3
  8
0
 62
     0
 10
602.66459746572139
 20
12.0
 30
0.0
 11
630.67359712039286
 21
12.0
 31
0.0
  0
LINE
  5
AB4
  8
0
 62
     0
 10
656.65661278249058
 20
12.0
 30
0.0
 11
684.66527652298964
 21
12.0
 31
0.0
  0
LINE
  5
AB5
  8
0
 62
     0
 10
548.67218615683839
 20
12.0
 30
0.0
 11
576.66459746572139
 21
12.0
 31
0.0
  0
LINE
  5
AB6
  8
0
 62
     0
 10
710.6505829355699
 20
12.0
 30
0.0
 11
721.10209746572161
 21
12.0
 31
0.0
  0
LINE
  5
AB7
  8
0
 62
     0
 10
512.22709746572173
 20
12.0
 30
0.0
 11
522.66314662646982
 21
12.0
 31
0.0
  0
LINE
  5
AB8
  8
0
 62
     0
 10
602.66459746572139
 20
13.5
 30
0.0
 11
630.67359712039286
 21
13.5
 31
0.0
  0
LINE
  5
AB9
  8
0
 62
     0
 10
656.65661278249058
 20
13.5
 30
0.0
 11
684.66527652298964
 21
13.5
 31
0.0
  0
LINE
  5
ABA
  8
0
 62
     0
 10
548.67218615683839
 20
13.5
 30
0.0
 11
576.66459746572139
 21
13.5
 31
0.0
  0
LINE
  5
ABB
  8
0
 62
     0
 10
710.6505829355699
 20
13.5
 30
0.0
 11
721.10209746572161
 21
13.5
 31
0.0
  0
LINE
  5
ABC
  8
0
 62
     0
 10
512.22709746572173
 20
13.5
 30
0.0
 11
522.66314662646982
 21
13.5
 31
0.0
  0
LINE
  5
ABD
  8
0
 62
     0
 10
602.66459746572139
 20
15.0
 30
0.0
 11
630.67359712039286
 21
15.0
 31
0.0
  0
LINE
  5
ABE
  8
0
 62
     0
 10
656.65661278249058
 20
15.0
 30
0.0
 11
684.66527652298964
 21
15.0
 31
0.0
  0
LINE
  5
ABF
  8
0
 62
     0
 10
548.67218615683839
 20
15.0
 30
0.0
 11
576.66459746572139
 21
15.0
 31
0.0
  0
LINE
  5
AC0
  8
0
 62
     0
 10
710.6505829355699
 20
15.0
 30
0.0
 11
721.10209746572161
 21
15.0
 31
0.0
  0
LINE
  5
AC1
  8
0
 62
     0
 10
512.22709746572173
 20
15.0
 30
0.0
 11
522.66314662646982
 21
15.0
 31
0.0
  0
LINE
  5
AC2
  8
0
 62
     0
 10
602.66459746572139
 20
16.5
 30
0.0
 11
630.67359712039286
 21
16.5
 31
0.0
  0
LINE
  5
AC3
  8
0
 62
     0
 10
656.65661278249058
 20
16.5
 30
0.0
 11
684.66527652298964
 21
16.5
 31
0.0
  0
LINE
  5
AC4
  8
0
 62
     0
 10
548.67218615683839
 20
16.5
 30
0.0
 11
576.66459746572139
 21
16.5
 31
0.0
  0
LINE
  5
AC5
  8
0
 62
     0
 10
710.6505829355699
 20
16.5
 30
0.0
 11
721.10209746572161
 21
16.5
 31
0.0
  0
LINE
  5
AC6
  8
0
 62
     0
 10
512.22709746572173
 20
16.5
 30
0.0
 11
522.66314662646982
 21
16.5
 31
0.0
  0
LINE
  5
AC7
  8
0
 62
     0
 10
602.66459746572139
 20
18.0
 30
0.0
 11
630.67359712039286
 21
18.0
 31
0.0
  0
LINE
  5
AC8
  8
0
 62
     0
 10
656.65661278249058
 20
18.0
 30
0.0
 11
684.66527652298964
 21
18.0
 31
0.0
  0
LINE
  5
AC9
  8
0
 62
     0
 10
548.67218615683839
 20
18.0
 30
0.0
 11
576.66459746572139
 21
18.0
 31
0.0
  0
LINE
  5
ACA
  8
0
 62
     0
 10
710.6505829355699
 20
18.0
 30
0.0
 11
721.10209746572161
 21
18.0
 31
0.0
  0
LINE
  5
ACB
  8
0
 62
     0
 10
512.22709746572173
 20
18.0
 30
0.0
 11
522.66314662646982
 21
18.0
 31
0.0
  0
LINE
  5
ACC
  8
0
 62
     0
 10
602.66459746572139
 20
19.5
 30
0.0
 11
630.67359712039286
 21
19.5
 31
0.0
  0
LINE
  5
ACD
  8
0
 62
     0
 10
656.65661278249058
 20
19.5
 30
0.0
 11
684.66527652298964
 21
19.5
 31
0.0
  0
LINE
  5
ACE
  8
0
 62
     0
 10
548.67218615683839
 20
19.5
 30
0.0
 11
576.66459746572139
 21
19.5
 31
0.0
  0
LINE
  5
ACF
  8
0
 62
     0
 10
710.6505829355699
 20
19.5
 30
0.0
 11
721.10209746572161
 21
19.5
 31
0.0
  0
LINE
  5
AD0
  8
0
 62
     0
 10
512.22709746572173
 20
19.5
 30
0.0
 11
522.66314662646982
 21
19.5
 31
0.0
  0
LINE
  5
AD1
  8
0
 62
     0
 10
602.66459746572139
 20
21.0
 30
0.0
 11
630.67359712039286
 21
21.0
 31
0.0
  0
LINE
  5
AD2
  8
0
 62
     0
 10
656.65661278249058
 20
21.0
 30
0.0
 11
684.66527652298964
 21
21.0
 31
0.0
  0
LINE
  5
AD3
  8
0
 62
     0
 10
548.67218615683839
 20
21.0
 30
0.0
 11
576.66459746572139
 21
21.0
 31
0.0
  0
LINE
  5
AD4
  8
0
 62
     0
 10
710.6505829355699
 20
21.0
 30
0.0
 11
721.10209746572161
 21
21.0
 31
0.0
  0
LINE
  5
AD5
  8
0
 62
     0
 10
512.22709746572161
 20
21.0
 30
0.0
 11
522.66314662646982
 21
21.0
 31
0.0
  0
LINE
  5
AD6
  8
0
 62
     0
 10
602.66459746572139
 20
22.5
 30
0.0
 11
630.67359712039286
 21
22.5
 31
0.0
  0
LINE
  5
AD7
  8
0
 62
     0
 10
656.65661278249058
 20
22.5
 30
0.0
 11
684.66527652298964
 21
22.5
 31
0.0
  0
LINE
  5
AD8
  8
0
 62
     0
 10
548.67218615683839
 20
22.5
 30
0.0
 11
576.66459746572139
 21
22.5
 31
0.0
  0
LINE
  5
AD9
  8
0
 62
     0
 10
710.6505829355699
 20
22.5
 30
0.0
 11
721.10209746572139
 21
22.5
 31
0.0
  0
LINE
  5
ADA
  8
0
 62
     0
 10
512.22709746572161
 20
22.5
 30
0.0
 11
522.66314662646982
 21
22.5
 31
0.0
  0
LINE
  5
ADB
  8
0
 62
     0
 10
602.66459746572139
 20
24.0
 30
0.0
 11
630.67359712039286
 21
24.0
 31
0.0
  0
LINE
  5
ADC
  8
0
 62
     0
 10
656.65661278249058
 20
24.0
 30
0.0
 11
684.66527652298964
 21
24.0
 31
0.0
  0
LINE
  5
ADD
  8
0
 62
     0
 10
548.67218615683839
 20
24.0
 30
0.0
 11
576.66459746572139
 21
24.0
 31
0.0
  0
LINE
  5
ADE
  8
0
 62
     0
 10
710.6505829355699
 20
24.0
 30
0.0
 11
721.10209746572139
 21
24.0
 31
0.0
  0
LINE
  5
ADF
  8
0
 62
     0
 10
512.22709746572161
 20
24.0
 30
0.0
 11
522.66314662646982
 21
24.0
 31
0.0
  0
LINE
  5
AE0
  8
0
 62
     0
 10
602.66459746572139
 20
25.5
 30
0.0
 11
630.67359712039286
 21
25.5
 31
0.0
  0
LINE
  5
AE1
  8
0
 62
     0
 10
656.65661278249058
 20
25.5
 30
0.0
 11
684.66527652298964
 21
25.5
 31
0.0
  0
LINE
  5
AE2
  8
0
 62
     0
 10
548.67218615683839
 20
25.5
 30
0.0
 11
576.66459746572139
 21
25.5
 31
0.0
  0
LINE
  5
AE3
  8
0
 62
     0
 10
710.6505829355699
 20
25.5
 30
0.0
 11
721.10209746572139
 21
25.5
 31
0.0
  0
LINE
  5
AE4
  8
0
 62
     0
 10
512.22709746572161
 20
25.5
 30
0.0
 11
522.66314662646982
 21
25.5
 31
0.0
  0
LINE
  5
AE5
  8
0
 62
     0
 10
602.66459746572139
 20
27.0
 30
0.0
 11
630.67359712039286
 21
27.0
 31
0.0
  0
LINE
  5
AE6
  8
0
 62
     0
 10
656.65661278249058
 20
27.0
 30
0.0
 11
684.66527652298964
 21
27.0
 31
0.0
  0
LINE
  5
AE7
  8
0
 62
     0
 10
548.67218615683839
 20
27.0
 30
0.0
 11
576.66459746572139
 21
27.0
 31
0.0
  0
LINE
  5
AE8
  8
0
 62
     0
 10
710.6505829355699
 20
27.0
 30
0.0
 11
721.10209746572139
 21
27.0
 31
0.0
  0
LINE
  5
AE9
  8
0
 62
     0
 10
512.22709746572161
 20
27.0
 30
0.0
 11
522.66314662646982
 21
27.0
 31
0.0
  0
LINE
  5
AEA
  8
0
 62
     0
 10
602.66459746572139
 20
28.5
 30
0.0
 11
630.67359712039286
 21
28.5
 31
0.0
  0
LINE
  5
AEB
  8
0
 62
     0
 10
656.65661278249058
 20
28.5
 30
0.0
 11
684.66527652298964
 21
28.5
 31
0.0
  0
LINE
  5
AEC
  8
0
 62
     0
 10
548.67218615683839
 20
28.5
 30
0.0
 11
576.66459746572139
 21
28.5
 31
0.0
  0
LINE
  5
AED
  8
0
 62
     0
 10
710.6505829355699
 20
28.5
 30
0.0
 11
721.10209746572139
 21
28.5
 31
0.0
  0
LINE
  5
AEE
  8
0
 62
     0
 10
512.22709746572161
 20
28.5
 30
0.0
 11
522.66314662646982
 21
28.5
 31
0.0
  0
LINE
  5
AEF
  8
0
 62
     0
 10
602.66459746572139
 20
30.0
 30
0.0
 11
630.67359712039286
 21
30.0
 31
0.0
  0
LINE
  5
AF0
  8
0
 62
     0
 10
656.65661278249058
 20
30.0
 30
0.0
 11
684.66527652298964
 21
30.0
 31
0.0
  0
LINE
  5
AF1
  8
0
 62
     0
 10
548.67218615683839
 20
30.0
 30
0.0
 11
576.66459746572139
 21
30.0
 31
0.0
  0
LINE
  5
AF2
  8
0
 62
     0
 10
710.6505829355699
 20
30.0
 30
0.0
 11
721.10209746572139
 21
30.0
 31
0.0
  0
LINE
  5
AF3
  8
0
 62
     0
 10
512.22709746572161
 20
30.0
 30
0.0
 11
522.66314662646982
 21
30.0
 31
0.0
  0
LINE
  5
AF4
  8
0
 62
     0
 10
602.66459746572139
 20
31.5
 30
0.0
 11
630.67359712039286
 21
31.5
 31
0.0
  0
LINE
  5
AF5
  8
0
 62
     0
 10
656.65661278249058
 20
31.5
 30
0.0
 11
684.66527652298964
 21
31.5
 31
0.0
  0
LINE
  5
AF6
  8
0
 62
     0
 10
548.67218615683839
 20
31.5
 30
0.0
 11
576.66459746572139
 21
31.5
 31
0.0
  0
LINE
  5
AF7
  8
0
 62
     0
 10
710.6505829355699
 20
31.5
 30
0.0
 11
721.10209746572139
 21
31.5
 31
0.0
  0
LINE
  5
AF8
  8
0
 62
     0
 10
512.22709746572139
 20
31.5
 30
0.0
 11
522.66314662646982
 21
31.5
 31
0.0
  0
LINE
  5
AF9
  8
0
 62
     0
 10
602.66459746572139
 20
33.0
 30
0.0
 11
630.67359712039286
 21
33.0
 31
0.0
  0
LINE
  5
AFA
  8
0
 62
     0
 10
656.65661278249058
 20
33.0
 30
0.0
 11
684.66527652298964
 21
33.0
 31
0.0
  0
LINE
  5
AFB
  8
0
 62
     0
 10
548.67218615683839
 20
33.0
 30
0.0
 11
576.66459746572139
 21
33.0
 31
0.0
  0
LINE
  5
AFC
  8
0
 62
     0
 10
710.6505829355699
 20
33.0
 30
0.0
 11
721.10209746572139
 21
33.0
 31
0.0
  0
LINE
  5
AFD
  8
0
 62
     0
 10
512.22709746572139
 20
33.0
 30
0.0
 11
522.66314662646982
 21
33.0
 31
0.0
  0
LINE
  5
AFE
  8
0
 62
     0
 10
602.66459746572139
 20
34.5
 30
0.0
 11
630.67359712039286
 21
34.5
 31
0.0
  0
LINE
  5
AFF
  8
0
 62
     0
 10
656.65661278249058
 20
34.5
 30
0.0
 11
684.66527652298964
 21
34.5
 31
0.0
  0
LINE
  5
B00
  8
0
 62
     0
 10
548.67218615683839
 20
34.5
 30
0.0
 11
576.66459746572139
 21
34.5
 31
0.0
  0
LINE
  5
B01
  8
0
 62
     0
 10
710.6505829355699
 20
34.5
 30
0.0
 11
721.10209746572139
 21
34.5
 31
0.0
  0
LINE
  5
B02
  8
0
 62
     0
 10
512.22709746572139
 20
34.5
 30
0.0
 11
522.66314662646982
 21
34.5
 31
0.0
  0
LINE
  5
B03
  8
0
 62
     0
 10
602.66459746572139
 20
36.0
 30
0.0
 11
630.67359712039286
 21
36.0
 31
0.0
  0
LINE
  5
B04
  8
0
 62
     0
 10
656.65661278249058
 20
36.0
 30
0.0
 11
684.66527652298964
 21
36.0
 31
0.0
  0
LINE
  5
B05
  8
0
 62
     0
 10
548.67218615683839
 20
36.0
 30
0.0
 11
576.66459746572139
 21
36.0
 31
0.0
  0
LINE
  5
B06
  8
0
 62
     0
 10
710.6505829355699
 20
36.0
 30
0.0
 11
721.10209746572139
 21
36.0
 31
0.0
  0
LINE
  5
B07
  8
0
 62
     0
 10
512.22709746572139
 20
36.0
 30
0.0
 11
522.66314662646982
 21
36.0
 31
0.0
  0
LINE
  5
B08
  8
0
 62
     0
 10
602.66459746572139
 20
37.5
 30
0.0
 11
630.67359712039286
 21
37.5
 31
0.0
  0
LINE
  5
B09
  8
0
 62
     0
 10
656.65661278249058
 20
37.5
 30
0.0
 11
684.66527652298964
 21
37.5
 31
0.0
  0
LINE
  5
B0A
  8
0
 62
     0
 10
548.67218615683839
 20
37.5
 30
0.0
 11
576.66459746572139
 21
37.5
 31
0.0
  0
LINE
  5
B0B
  8
0
 62
     0
 10
710.6505829355699
 20
37.5
 30
0.0
 11
721.10209746572139
 21
37.5
 31
0.0
  0
LINE
  5
B0C
  8
0
 62
     0
 10
512.22709746572139
 20
37.5
 30
0.0
 11
522.66314662646982
 21
37.5
 31
0.0
  0
LINE
  5
B0D
  8
0
 62
     0
 10
602.66459746572139
 20
39.0
 30
0.0
 11
630.67359712039286
 21
39.0
 31
0.0
  0
LINE
  5
B0E
  8
0
 62
     0
 10
656.65661278249058
 20
39.0
 30
0.0
 11
684.66527652298964
 21
39.0
 31
0.0
  0
LINE
  5
B0F
  8
0
 62
     0
 10
548.67218615683839
 20
39.0
 30
0.0
 11
576.66459746572139
 21
39.0
 31
0.0
  0
LINE
  5
B10
  8
0
 62
     0
 10
710.6505829355699
 20
39.0
 30
0.0
 11
721.10209746572139
 21
39.0
 31
0.0
  0
LINE
  5
B11
  8
0
 62
     0
 10
512.22709746572139
 20
39.0
 30
0.0
 11
522.66314662646982
 21
39.0
 31
0.0
  0
LINE
  5
B12
  8
0
 62
     0
 10
602.66459746572139
 20
40.499999999999993
 30
0.0
 11
630.67359712039286
 21
40.499999999999993
 31
0.0
  0
LINE
  5
B13
  8
0
 62
     0
 10
656.65661278249058
 20
40.499999999999993
 30
0.0
 11
684.66527652298964
 21
40.499999999999993
 31
0.0
  0
LINE
  5
B14
  8
0
 62
     0
 10
548.67218615683839
 20
40.499999999999993
 30
0.0
 11
576.66459746572139
 21
40.499999999999993
 31
0.0
  0
LINE
  5
B15
  8
0
 62
     0
 10
710.6505829355699
 20
40.499999999999993
 30
0.0
 11
721.10209746572139
 21
40.499999999999993
 31
0.0
  0
LINE
  5
B16
  8
0
 62
     0
 10
512.22709746572139
 20
40.499999999999993
 30
0.0
 11
522.66314662646982
 21
40.499999999999993
 31
0.0
  0
LINE
  5
B17
  8
0
 62
     0
 10
602.66459746572139
 20
42.0
 30
0.0
 11
630.67359712039286
 21
42.0
 31
0.0
  0
LINE
  5
B18
  8
0
 62
     0
 10
656.65661278249058
 20
42.0
 30
0.0
 11
684.66527652298964
 21
42.0
 31
0.0
  0
LINE
  5
B19
  8
0
 62
     0
 10
548.67218615683839
 20
42.0
 30
0.0
 11
576.66459746572139
 21
42.0
 31
0.0
  0
LINE
  5
B1A
  8
0
 62
     0
 10
710.6505829355699
 20
42.0
 30
0.0
 11
721.10209746572139
 21
42.0
 31
0.0
  0
LINE
  5
B1B
  8
0
 62
     0
 10
512.22709746572127
 20
42.0
 30
0.0
 11
522.66314662646982
 21
42.0
 31
0.0
  0
LINE
  5
B1C
  8
0
 62
     0
 10
602.66459746572139
 20
43.5
 30
0.0
 11
630.67359712039286
 21
43.5
 31
0.0
  0
LINE
  5
B1D
  8
0
 62
     0
 10
656.65661278249058
 20
43.5
 30
0.0
 11
684.66527652298964
 21
43.5
 31
0.0
  0
LINE
  5
B1E
  8
0
 62
     0
 10
548.67218615683839
 20
43.5
 30
0.0
 11
576.66459746572139
 21
43.5
 31
0.0
  0
LINE
  5
B1F
  8
0
 62
     0
 10
710.6505829355699
 20
43.5
 30
0.0
 11
721.10209746572139
 21
43.5
 31
0.0
  0
LINE
  5
B20
  8
0
 62
     0
 10
512.22709746572127
 20
43.5
 30
0.0
 11
522.66314662646982
 21
43.5
 31
0.0
  0
LINE
  5
B21
  8
0
 62
     0
 10
602.66459746572139
 20
45.0
 30
0.0
 11
630.67359712039286
 21
45.0
 31
0.0
  0
LINE
  5
B22
  8
0
 62
     0
 10
656.65661278249058
 20
45.0
 30
0.0
 11
684.66527652298964
 21
45.0
 31
0.0
  0
LINE
  5
B23
  8
0
 62
     0
 10
548.67218615683839
 20
45.0
 30
0.0
 11
576.66459746572139
 21
45.0
 31
0.0
  0
LINE
  5
B24
  8
0
 62
     0
 10
710.6505829355699
 20
45.0
 30
0.0
 11
721.10209746572139
 21
45.0
 31
0.0
  0
LINE
  5
B25
  8
0
 62
     0
 10
512.22709746572127
 20
45.0
 30
0.0
 11
522.66314662646982
 21
45.0
 31
0.0
  0
LINE
  5
B26
  8
0
 62
     0
 10
602.66459746572139
 20
46.5
 30
0.0
 11
630.67359712039286
 21
46.5
 31
0.0
  0
LINE
  5
B27
  8
0
 62
     0
 10
656.65661278249058
 20
46.5
 30
0.0
 11
684.66527652298964
 21
46.5
 31
0.0
  0
LINE
  5
B28
  8
0
 62
     0
 10
548.67218615683839
 20
46.5
 30
0.0
 11
576.66459746572139
 21
46.5
 31
0.0
  0
LINE
  5
B29
  8
0
 62
     0
 10
710.6505829355699
 20
46.5
 30
0.0
 11
721.10209746572127
 21
46.5
 31
0.0
  0
LINE
  5
B2A
  8
0
 62
     0
 10
512.22709746572127
 20
46.5
 30
0.0
 11
522.66314662646982
 21
46.5
 31
0.0
  0
LINE
  5
B2B
  8
0
 62
     0
 10
602.66459746572139
 20
48.0
 30
0.0
 11
630.67359712039286
 21
48.0
 31
0.0
  0
LINE
  5
B2C
  8
0
 62
     0
 10
656.65661278249058
 20
48.0
 30
0.0
 11
684.66527652298964
 21
48.0
 31
0.0
  0
LINE
  5
B2D
  8
0
 62
     0
 10
548.67218615683839
 20
48.0
 30
0.0
 11
576.66459746572139
 21
48.0
 31
0.0
  0
LINE
  5
B2E
  8
0
 62
     0
 10
710.6505829355699
 20
48.0
 30
0.0
 11
721.10209746572127
 21
48.0
 31
0.0
  0
LINE
  5
B2F
  8
0
 62
     0
 10
512.22709746572127
 20
48.0
 30
0.0
 11
522.66314662646982
 21
48.0
 31
0.0
  0
LINE
  5
B30
  8
0
 62
     0
 10
602.66459746572139
 20
49.5
 30
0.0
 11
630.67359712039286
 21
49.5
 31
0.0
  0
LINE
  5
B31
  8
0
 62
     0
 10
656.65661278249058
 20
49.5
 30
0.0
 11
684.66527652298964
 21
49.5
 31
0.0
  0
LINE
  5
B32
  8
0
 62
     0
 10
548.67218615683839
 20
49.5
 30
0.0
 11
576.66459746572139
 21
49.5
 31
0.0
  0
LINE
  5
B33
  8
0
 62
     0
 10
710.6505829355699
 20
49.5
 30
0.0
 11
721.10209746572127
 21
49.5
 31
0.0
  0
LINE
  5
B34
  8
0
 62
     0
 10
512.22709746572127
 20
49.5
 30
0.0
 11
522.66314662646982
 21
49.5
 31
0.0
  0
LINE
  5
B35
  8
0
 62
     0
 10
602.66459746572139
 20
51.0
 30
0.0
 11
630.67359712039286
 21
51.0
 31
0.0
  0
LINE
  5
B36
  8
0
 62
     0
 10
656.65661278249058
 20
51.0
 30
0.0
 11
684.66527652298964
 21
51.0
 31
0.0
  0
LINE
  5
B37
  8
0
 62
     0
 10
548.67218615683839
 20
51.0
 30
0.0
 11
576.66459746572139
 21
51.0
 31
0.0
  0
LINE
  5
B38
  8
0
 62
     0
 10
710.6505829355699
 20
51.0
 30
0.0
 11
721.10209746572127
 21
51.0
 31
0.0
  0
LINE
  5
B39
  8
0
 62
     0
 10
512.22709746572127
 20
51.0
 30
0.0
 11
522.66314662646982
 21
51.0
 31
0.0
  0
LINE
  5
B3A
  8
0
 62
     0
 10
602.66459746572139
 20
52.5
 30
0.0
 11
630.67359712039286
 21
52.5
 31
0.0
  0
LINE
  5
B3B
  8
0
 62
     0
 10
656.65661278249058
 20
52.5
 30
0.0
 11
684.66527652298964
 21
52.5
 31
0.0
  0
LINE
  5
B3C
  8
0
 62
     0
 10
548.67218615683839
 20
52.5
 30
0.0
 11
576.66459746572139
 21
52.5
 31
0.0
  0
LINE
  5
B3D
  8
0
 62
     0
 10
710.6505829355699
 20
52.5
 30
0.0
 11
721.10209746572127
 21
52.5
 31
0.0
  0
LINE
  5
B3E
  8
0
 62
     0
 10
512.22709746572127
 20
52.5
 30
0.0
 11
522.66314662646982
 21
52.5
 31
0.0
  0
LINE
  5
B3F
  8
0
 62
     0
 10
602.66459746572139
 20
54.0
 30
0.0
 11
630.67359712039286
 21
54.0
 31
0.0
  0
LINE
  5
B40
  8
0
 62
     0
 10
656.65661278249058
 20
54.0
 30
0.0
 11
684.66527652298964
 21
54.0
 31
0.0
  0
LINE
  5
B41
  8
0
 62
     0
 10
548.67218615683839
 20
54.0
 30
0.0
 11
576.66459746572139
 21
54.0
 31
0.0
  0
LINE
  5
B42
  8
0
 62
     0
 10
710.6505829355699
 20
54.0
 30
0.0
 11
721.10209746572127
 21
54.0
 31
0.0
  0
LINE
  5
B43
  8
0
 62
     0
 10
512.22709746572127
 20
54.0
 30
0.0
 11
522.66314662646982
 21
54.0
 31
0.0
  0
LINE
  5
B44
  8
0
 62
     0
 10
602.66459746572139
 20
55.5
 30
0.0
 11
630.67359712039286
 21
55.5
 31
0.0
  0
LINE
  5
B45
  8
0
 62
     0
 10
656.65661278249058
 20
55.5
 30
0.0
 11
684.66527652298964
 21
55.5
 31
0.0
  0
LINE
  5
B46
  8
0
 62
     0
 10
548.67218615683839
 20
55.5
 30
0.0
 11
576.66459746572139
 21
55.5
 31
0.0
  0
LINE
  5
B47
  8
0
 62
     0
 10
710.6505829355699
 20
55.5
 30
0.0
 11
721.10209746572127
 21
55.5
 31
0.0
  0
LINE
  5
B48
  8
0
 62
     0
 10
512.22709746572127
 20
55.5
 30
0.0
 11
522.66314662646982
 21
55.5
 31
0.0
  0
LINE
  5
B49
  8
0
 62
     0
 10
602.66459746572139
 20
57.0
 30
0.0
 11
630.67359712039286
 21
57.0
 31
0.0
  0
LINE
  5
B4A
  8
0
 62
     0
 10
656.65661278249058
 20
57.0
 30
0.0
 11
684.66527652298964
 21
57.0
 31
0.0
  0
LINE
  5
B4B
  8
0
 62
     0
 10
548.67218615683839
 20
57.0
 30
0.0
 11
576.66459746572139
 21
57.0
 31
0.0
  0
LINE
  5
B4C
  8
0
 62
     0
 10
710.6505829355699
 20
57.0
 30
0.0
 11
721.10209746572127
 21
57.0
 31
0.0
  0
LINE
  5
B4D
  8
0
 62
     0
 10
512.22709746572127
 20
57.0
 30
0.0
 11
522.66314662646982
 21
57.0
 31
0.0
  0
LINE
  5
B4E
  8
0
 62
     0
 10
602.66459746572139
 20
58.5
 30
0.0
 11
630.67359712039286
 21
58.5
 31
0.0
  0
LINE
  5
B4F
  8
0
 62
     0
 10
656.65661278249058
 20
58.5
 30
0.0
 11
684.66527652298964
 21
58.5
 31
0.0
  0
LINE
  5
B50
  8
0
 62
     0
 10
548.67218615683839
 20
58.5
 30
0.0
 11
576.66459746572139
 21
58.5
 31
0.0
  0
LINE
  5
B51
  8
0
 62
     0
 10
710.6505829355699
 20
58.5
 30
0.0
 11
721.10209746572104
 21
58.5
 31
0.0
  0
LINE
  5
B52
  8
0
 62
     0
 10
512.22709746572127
 20
58.5
 30
0.0
 11
522.66314662646982
 21
58.5
 31
0.0
  0
LINE
  5
B53
  8
0
 62
     0
 10
602.66459746572139
 20
60.0
 30
0.0
 11
630.67359712039286
 21
60.0
 31
0.0
  0
LINE
  5
B54
  8
0
 62
     0
 10
656.65661278249058
 20
60.0
 30
0.0
 11
684.66527652298964
 21
60.0
 31
0.0
  0
LINE
  5
B55
  8
0
 62
     0
 10
548.67218615683839
 20
60.0
 30
0.0
 11
576.66459746572139
 21
60.0
 31
0.0
  0
LINE
  5
B56
  8
0
 62
     0
 10
710.6505829355699
 20
60.0
 30
0.0
 11
721.10209746572104
 21
60.0
 31
0.0
  0
LINE
  5
B57
  8
0
 62
     0
 10
512.22709746572127
 20
60.0
 30
0.0
 11
522.66314662646982
 21
60.0
 31
0.0
  0
LINE
  5
B58
  8
0
 62
     0
 10
602.66459746572139
 20
61.5
 30
0.0
 11
630.67359712039286
 21
61.5
 31
0.0
  0
LINE
  5
B59
  8
0
 62
     0
 10
656.65661278249058
 20
61.5
 30
0.0
 11
684.66527652298964
 21
61.5
 31
0.0
  0
LINE
  5
B5A
  8
0
 62
     0
 10
548.67218615683839
 20
61.5
 30
0.0
 11
576.66459746572139
 21
61.5
 31
0.0
  0
LINE
  5
B5B
  8
0
 62
     0
 10
710.6505829355699
 20
61.5
 30
0.0
 11
721.10209746572104
 21
61.5
 31
0.0
  0
LINE
  5
B5C
  8
0
 62
     0
 10
512.22709746572127
 20
61.5
 30
0.0
 11
522.66314662646982
 21
61.5
 31
0.0
  0
LINE
  5
B5D
  8
0
 62
     0
 10
602.66459746572139
 20
63.0
 30
0.0
 11
630.67359712039286
 21
63.0
 31
0.0
  0
LINE
  5
B5E
  8
0
 62
     0
 10
656.65661278249058
 20
63.0
 30
0.0
 11
684.66527652298964
 21
63.0
 31
0.0
  0
LINE
  5
B5F
  8
0
 62
     0
 10
548.67218615683839
 20
63.0
 30
0.0
 11
576.66459746572139
 21
63.0
 31
0.0
  0
LINE
  5
B60
  8
0
 62
     0
 10
710.6505829355699
 20
63.0
 30
0.0
 11
721.10209746572104
 21
63.0
 31
0.0
  0
LINE
  5
B61
  8
0
 62
     0
 10
512.22709746572104
 20
63.0
 30
0.0
 11
522.66314662646982
 21
63.0
 31
0.0
  0
LINE
  5
B62
  8
0
 62
     0
 10
602.66459746572139
 20
64.5
 30
0.0
 11
630.67359712039286
 21
64.5
 31
0.0
  0
LINE
  5
B63
  8
0
 62
     0
 10
656.65661278249058
 20
64.5
 30
0.0
 11
684.66527652298964
 21
64.5
 31
0.0
  0
LINE
  5
B64
  8
0
 62
     0
 10
548.67218615683839
 20
64.5
 30
0.0
 11
576.66459746572139
 21
64.5
 31
0.0
  0
LINE
  5
B65
  8
0
 62
     0
 10
710.6505829355699
 20
64.5
 30
0.0
 11
721.10209746572104
 21
64.5
 31
0.0
  0
LINE
  5
B66
  8
0
 62
     0
 10
512.22709746572104
 20
64.5
 30
0.0
 11
522.66314662646982
 21
64.5
 31
0.0
  0
LINE
  5
B67
  8
0
 62
     0
 10
602.66459746572139
 20
66.0
 30
0.0
 11
630.67359712039286
 21
66.0
 31
0.0
  0
LINE
  5
B68
  8
0
 62
     0
 10
656.65661278249058
 20
66.0
 30
0.0
 11
684.66527652298964
 21
66.0
 31
0.0
  0
LINE
  5
B69
  8
0
 62
     0
 10
548.67218615683839
 20
66.0
 30
0.0
 11
576.66459746572139
 21
66.0
 31
0.0
  0
LINE
  5
B6A
  8
0
 62
     0
 10
710.6505829355699
 20
66.0
 30
0.0
 11
721.10209746572104
 21
66.0
 31
0.0
  0
LINE
  5
B6B
  8
0
 62
     0
 10
512.22709746572104
 20
66.0
 30
0.0
 11
522.66314662646982
 21
66.0
 31
0.0
  0
LINE
  5
B6C
  8
0
 62
     0
 10
602.66459746572139
 20
67.5
 30
0.0
 11
630.67359712039286
 21
67.5
 31
0.0
  0
LINE
  5
B6D
  8
0
 62
     0
 10
656.65661278249058
 20
67.5
 30
0.0
 11
684.66527652298964
 21
67.5
 31
0.0
  0
LINE
  5
B6E
  8
0
 62
     0
 10
548.67218615683839
 20
67.5
 30
0.0
 11
576.66459746572139
 21
67.5
 31
0.0
  0
LINE
  5
B6F
  8
0
 62
     0
 10
710.6505829355699
 20
67.5
 30
0.0
 11
721.10209746572104
 21
67.5
 31
0.0
  0
LINE
  5
B70
  8
0
 62
     0
 10
512.22709746572104
 20
67.5
 30
0.0
 11
522.66314662646982
 21
67.5
 31
0.0
  0
LINE
  5
B71
  8
0
 62
     0
 10
602.66459746572139
 20
69.0
 30
0.0
 11
630.67359712039286
 21
69.0
 31
0.0
  0
LINE
  5
B72
  8
0
 62
     0
 10
656.65661278249058
 20
69.0
 30
0.0
 11
684.66527652298964
 21
69.0
 31
0.0
  0
LINE
  5
B73
  8
0
 62
     0
 10
548.67218615683839
 20
69.0
 30
0.0
 11
576.66459746572139
 21
69.0
 31
0.0
  0
LINE
  5
B74
  8
0
 62
     0
 10
710.6505829355699
 20
69.0
 30
0.0
 11
721.10209746572104
 21
69.0
 31
0.0
  0
LINE
  5
B75
  8
0
 62
     0
 10
512.22709746572104
 20
69.0
 30
0.0
 11
522.66314662646982
 21
69.0
 31
0.0
  0
LINE
  5
B76
  8
0
 62
     0
 10
602.66459746572139
 20
70.5
 30
0.0
 11
630.67359712039286
 21
70.5
 31
0.0
  0
LINE
  5
B77
  8
0
 62
     0
 10
656.65661278249058
 20
70.5
 30
0.0
 11
684.66527652298964
 21
70.5
 31
0.0
  0
LINE
  5
B78
  8
0
 62
     0
 10
548.67218615683839
 20
70.5
 30
0.0
 11
576.66459746572139
 21
70.5
 31
0.0
  0
LINE
  5
B79
  8
0
 62
     0
 10
710.6505829355699
 20
70.5
 30
0.0
 11
721.10209746572104
 21
70.5
 31
0.0
  0
LINE
  5
B7A
  8
0
 62
     0
 10
512.22709746572104
 20
70.5
 30
0.0
 11
522.66314662646982
 21
70.5
 31
0.0
  0
LINE
  5
B7B
  8
0
 62
     0
 10
602.66459746572139
 20
72.0
 30
0.0
 11
630.67359712039286
 21
72.0
 31
0.0
  0
LINE
  5
B7C
  8
0
 62
     0
 10
656.65661278249058
 20
72.0
 30
0.0
 11
684.66527652298964
 21
72.0
 31
0.0
  0
LINE
  5
B7D
  8
0
 62
     0
 10
548.67218615683839
 20
72.0
 30
0.0
 11
576.66459746572139
 21
72.0
 31
0.0
  0
LINE
  5
B7E
  8
0
 62
     0
 10
710.6505829355699
 20
72.0
 30
0.0
 11
721.10209746572104
 21
72.0
 31
0.0
  0
LINE
  5
B7F
  8
0
 62
     0
 10
512.22709746572104
 20
72.0
 30
0.0
 11
522.66314662646982
 21
72.0
 31
0.0
  0
LINE
  5
B80
  8
0
 62
     0
 10
602.66459746572139
 20
73.5
 30
0.0
 11
630.67359712039286
 21
73.5
 31
0.0
  0
LINE
  5
B81
  8
0
 62
     0
 10
656.65661278249058
 20
73.5
 30
0.0
 11
684.66527652298964
 21
73.5
 31
0.0
  0
LINE
  5
B82
  8
0
 62
     0
 10
548.67218615683839
 20
73.5
 30
0.0
 11
576.66459746572139
 21
73.5
 31
0.0
  0
LINE
  5
B83
  8
0
 62
     0
 10
710.6505829355699
 20
73.5
 30
0.0
 11
721.10209746572104
 21
73.5
 31
0.0
  0
LINE
  5
B84
  8
0
 62
     0
 10
512.22709746572104
 20
73.5
 30
0.0
 11
522.66314662646982
 21
73.5
 31
0.0
  0
LINE
  5
B85
  8
0
 62
     0
 10
602.66459746572139
 20
75.0
 30
0.0
 11
630.67359712039286
 21
75.0
 31
0.0
  0
LINE
  5
B86
  8
0
 62
     0
 10
656.65661278249058
 20
75.0
 30
0.0
 11
684.66527652298964
 21
75.0
 31
0.0
  0
LINE
  5
B87
  8
0
 62
     0
 10
548.67218615683839
 20
75.0
 30
0.0
 11
576.66459746572139
 21
75.0
 31
0.0
  0
LINE
  5
B88
  8
0
 62
     0
 10
710.6505829355699
 20
75.0
 30
0.0
 11
721.10209746572104
 21
75.0
 31
0.0
  0
LINE
  5
B89
  8
0
 62
     0
 10
512.22709746572104
 20
75.0
 30
0.0
 11
522.66314662646982
 21
75.0
 31
0.0
  0
LINE
  5
B8A
  8
0
 62
     0
 10
602.66459746572139
 20
76.5
 30
0.0
 11
630.67359712039286
 21
76.5
 31
0.0
  0
LINE
  5
B8B
  8
0
 62
     0
 10
656.65661278249058
 20
76.5
 30
0.0
 11
684.66527652298964
 21
76.5
 31
0.0
  0
LINE
  5
B8C
  8
0
 62
     0
 10
548.67218615683839
 20
76.5
 30
0.0
 11
576.66459746572139
 21
76.5
 31
0.0
  0
LINE
  5
B8D
  8
0
 62
     0
 10
710.6505829355699
 20
76.5
 30
0.0
 11
721.10209746572104
 21
76.5
 31
0.0
  0
LINE
  5
B8E
  8
0
 62
     0
 10
512.22709746572104
 20
76.5
 30
0.0
 11
522.66314662646982
 21
76.5
 31
0.0
  0
LINE
  5
B8F
  8
0
 62
     0
 10
602.66459746572139
 20
78.0
 30
0.0
 11
630.67359712039286
 21
78.0
 31
0.0
  0
LINE
  5
B90
  8
0
 62
     0
 10
656.65661278249058
 20
78.0
 30
0.0
 11
684.66527652298964
 21
78.0
 31
0.0
  0
LINE
  5
B91
  8
0
 62
     0
 10
548.67218615683839
 20
78.0
 30
0.0
 11
576.66459746572139
 21
78.0
 31
0.0
  0
LINE
  5
B92
  8
0
 62
     0
 10
710.6505829355699
 20
78.0
 30
0.0
 11
721.10209746572104
 21
78.0
 31
0.0
  0
LINE
  5
B93
  8
0
 62
     0
 10
512.22709746572104
 20
78.0
 30
0.0
 11
522.66314662646982
 21
78.0
 31
0.0
  0
LINE
  5
B94
  8
0
 62
     0
 10
602.66459746572139
 20
79.5
 30
0.0
 11
630.67359712039286
 21
79.5
 31
0.0
  0
LINE
  5
B95
  8
0
 62
     0
 10
656.65661278249058
 20
79.5
 30
0.0
 11
684.66527652298964
 21
79.5
 31
0.0
  0
LINE
  5
B96
  8
0
 62
     0
 10
548.67218615683839
 20
79.5
 30
0.0
 11
576.66459746572139
 21
79.5
 31
0.0
  0
LINE
  5
B97
  8
0
 62
     0
 10
710.6505829355699
 20
79.5
 30
0.0
 11
721.10209746572104
 21
79.5
 31
0.0
  0
LINE
  5
B98
  8
0
 62
     0
 10
512.22709746572104
 20
79.5
 30
0.0
 11
522.66314662646982
 21
79.5
 31
0.0
  0
LINE
  5
B99
  8
0
 62
     0
 10
602.66459746572139
 20
81.0
 30
0.0
 11
630.67359712039286
 21
81.0
 31
0.0
  0
LINE
  5
B9A
  8
0
 62
     0
 10
656.65661278249058
 20
81.0
 30
0.0
 11
684.66527652298964
 21
81.0
 31
0.0
  0
LINE
  5
B9B
  8
0
 62
     0
 10
548.67218615683839
 20
81.0
 30
0.0
 11
576.66459746572139
 21
81.0
 31
0.0
  0
LINE
  5
B9C
  8
0
 62
     0
 10
710.6505829355699
 20
81.0
 30
0.0
 11
721.10209746572093
 21
81.0
 31
0.0
  0
LINE
  5
B9D
  8
0
 62
     0
 10
512.22709746572104
 20
81.0
 30
0.0
 11
522.66314662646982
 21
81.0
 31
0.0
  0
LINE
  5
B9E
  8
0
 62
     0
 10
602.66459746572139
 20
82.5
 30
0.0
 11
630.67359712039286
 21
82.5
 31
0.0
  0
LINE
  5
B9F
  8
0
 62
     0
 10
656.65661278249058
 20
82.5
 30
0.0
 11
684.66527652298964
 21
82.5
 31
0.0
  0
LINE
  5
BA0
  8
0
 62
     0
 10
548.67218615683839
 20
82.5
 30
0.0
 11
576.66459746572139
 21
82.5
 31
0.0
  0
LINE
  5
BA1
  8
0
 62
     0
 10
710.6505829355699
 20
82.5
 30
0.0
 11
721.10209746572093
 21
82.5
 31
0.0
  0
LINE
  5
BA2
  8
0
 62
     0
 10
512.22709746572104
 20
82.5
 30
0.0
 11
522.66314662646982
 21
82.5
 31
0.0
  0
LINE
  5
BA3
  8
0
 62
     0
 10
602.66459746572139
 20
84.0
 30
0.0
 11
630.67359712039286
 21
84.0
 31
0.0
  0
LINE
  5
BA4
  8
0
 62
     0
 10
656.65661278249058
 20
84.0
 30
0.0
 11
684.66527652298964
 21
84.0
 31
0.0
  0
LINE
  5
BA5
  8
0
 62
     0
 10
548.67218615683839
 20
84.0
 30
0.0
 11
576.66459746572139
 21
84.0
 31
0.0
  0
LINE
  5
BA6
  8
0
 62
     0
 10
710.6505829355699
 20
84.0
 30
0.0
 11
721.10209746572093
 21
84.0
 31
0.0
  0
LINE
  5
BA7
  8
0
 62
     0
 10
512.22709746572093
 20
84.0
 30
0.0
 11
522.66314662646982
 21
84.0
 31
0.0
  0
LINE
  5
BA8
  8
0
 62
     0
 10
602.66459746572139
 20
85.5
 30
0.0
 11
630.67359712039286
 21
85.5
 31
0.0
  0
LINE
  5
BA9
  8
0
 62
     0
 10
656.65661278249058
 20
85.5
 30
0.0
 11
684.66527652298964
 21
85.5
 31
0.0
  0
LINE
  5
BAA
  8
0
 62
     0
 10
548.67218615683839
 20
85.5
 30
0.0
 11
576.66459746572139
 21
85.5
 31
0.0
  0
LINE
  5
BAB
  8
0
 62
     0
 10
710.6505829355699
 20
85.5
 30
0.0
 11
721.10209746572093
 21
85.5
 31
0.0
  0
LINE
  5
BAC
  8
0
 62
     0
 10
512.22709746572093
 20
85.5
 30
0.0
 11
522.66314662646982
 21
85.5
 31
0.0
  0
LINE
  5
BAD
  8
0
 62
     0
 10
602.66459746572139
 20
87.0
 30
0.0
 11
630.67359712039286
 21
87.0
 31
0.0
  0
LINE
  5
BAE
  8
0
 62
     0
 10
656.65661278249058
 20
87.0
 30
0.0
 11
684.66527652298964
 21
87.0
 31
0.0
  0
LINE
  5
BAF
  8
0
 62
     0
 10
548.67218615683839
 20
87.0
 30
0.0
 11
576.66459746572139
 21
87.0
 31
0.0
  0
LINE
  5
BB0
  8
0
 62
     0
 10
710.6505829355699
 20
87.0
 30
0.0
 11
721.10209746572093
 21
87.0
 31
0.0
  0
LINE
  5
BB1
  8
0
 62
     0
 10
512.22709746572093
 20
87.0
 30
0.0
 11
522.66314662646982
 21
87.0
 31
0.0
  0
LINE
  5
BB2
  8
0
 62
     0
 10
602.66459746572139
 20
88.499999999999986
 30
0.0
 11
630.67359712039286
 21
88.499999999999986
 31
0.0
  0
LINE
  5
BB3
  8
0
 62
     0
 10
656.65661278249058
 20
88.499999999999986
 30
0.0
 11
684.66527652298964
 21
88.499999999999986
 31
0.0
  0
LINE
  5
BB4
  8
0
 62
     0
 10
548.67218615683839
 20
88.499999999999986
 30
0.0
 11
576.66459746572139
 21
88.499999999999986
 31
0.0
  0
LINE
  5
BB5
  8
0
 62
     0
 10
710.6505829355699
 20
88.499999999999986
 30
0.0
 11
721.10209746572093
 21
88.499999999999986
 31
0.0
  0
LINE
  5
BB6
  8
0
 62
     0
 10
512.22709746572093
 20
88.499999999999986
 30
0.0
 11
522.66314662646982
 21
88.499999999999986
 31
0.0
  0
LINE
  5
BB7
  8
0
 62
     0
 10
602.66459746572139
 20
90.0
 30
0.0
 11
630.67359712039286
 21
90.0
 31
0.0
  0
LINE
  5
BB8
  8
0
 62
     0
 10
656.65661278249058
 20
90.0
 30
0.0
 11
684.66527652298964
 21
90.0
 31
0.0
  0
LINE
  5
BB9
  8
0
 62
     0
 10
548.67218615683839
 20
90.0
 30
0.0
 11
576.66459746572139
 21
90.0
 31
0.0
  0
LINE
  5
BBA
  8
0
 62
     0
 10
710.6505829355699
 20
90.0
 30
0.0
 11
721.10209746572093
 21
90.0
 31
0.0
  0
LINE
  5
BBB
  8
0
 62
     0
 10
512.22709746572093
 20
90.0
 30
0.0
 11
522.66314662646982
 21
90.0
 31
0.0
  0
LINE
  5
BBC
  8
0
 62
     0
 10
602.66459746572139
 20
91.5
 30
0.0
 11
630.67359712039286
 21
91.5
 31
0.0
  0
LINE
  5
BBD
  8
0
 62
     0
 10
656.65661278249058
 20
91.5
 30
0.0
 11
684.66527652298964
 21
91.5
 31
0.0
  0
LINE
  5
BBE
  8
0
 62
     0
 10
548.67218615683839
 20
91.5
 30
0.0
 11
576.66459746572139
 21
91.5
 31
0.0
  0
LINE
  5
BBF
  8
0
 62
     0
 10
710.6505829355699
 20
91.5
 30
0.0
 11
721.10209746572093
 21
91.5
 31
0.0
  0
LINE
  5
BC0
  8
0
 62
     0
 10
512.22709746572093
 20
91.5
 30
0.0
 11
522.66314662646982
 21
91.5
 31
0.0
  0
LINE
  5
BC1
  8
0
 62
     0
 10
602.66459746572139
 20
93.0
 30
0.0
 11
630.67359712039286
 21
93.0
 31
0.0
  0
LINE
  5
BC2
  8
0
 62
     0
 10
656.65661278249058
 20
93.0
 30
0.0
 11
684.66527652298964
 21
93.0
 31
0.0
  0
LINE
  5
BC3
  8
0
 62
     0
 10
548.67218615683839
 20
93.0
 30
0.0
 11
576.66459746572139
 21
93.0
 31
0.0
  0
LINE
  5
BC4
  8
0
 62
     0
 10
710.6505829355699
 20
93.0
 30
0.0
 11
721.10209746572082
 21
93.0
 31
0.0
  0
LINE
  5
BC5
  8
0
 62
     0
 10
512.22709746572093
 20
93.0
 30
0.0
 11
522.66314662646982
 21
93.0
 31
0.0
  0
LINE
  5
BC6
  8
0
 62
     0
 10
602.66459746572139
 20
94.500000000000014
 30
0.0
 11
630.67359712039286
 21
94.500000000000014
 31
0.0
  0
LINE
  5
BC7
  8
0
 62
     0
 10
656.65661278249058
 20
94.500000000000014
 30
0.0
 11
684.66527652298964
 21
94.500000000000014
 31
0.0
  0
LINE
  5
BC8
  8
0
 62
     0
 10
548.67218615683839
 20
94.500000000000014
 30
0.0
 11
576.66459746572139
 21
94.500000000000014
 31
0.0
  0
LINE
  5
BC9
  8
0
 62
     0
 10
710.6505829355699
 20
94.500000000000014
 30
0.0
 11
721.10209746572082
 21
94.500000000000014
 31
0.0
  0
LINE
  5
BCA
  8
0
 62
     0
 10
512.22709746572082
 20
94.500000000000014
 30
0.0
 11
522.66314662646982
 21
94.500000000000014
 31
0.0
  0
LINE
  5
BCB
  8
0
 62
     0
 10
602.66459746572139
 20
96.0
 30
0.0
 11
630.67359712039286
 21
96.0
 31
0.0
  0
LINE
  5
BCC
  8
0
 62
     0
 10
656.65661278249058
 20
96.0
 30
0.0
 11
684.66527652298964
 21
96.0
 31
0.0
  0
LINE
  5
BCD
  8
0
 62
     0
 10
548.67218615683839
 20
96.0
 30
0.0
 11
576.66459746572139
 21
96.0
 31
0.0
  0
LINE
  5
BCE
  8
0
 62
     0
 10
710.6505829355699
 20
96.0
 30
0.0
 11
721.10209746572082
 21
96.0
 31
0.0
  0
LINE
  5
BCF
  8
0
 62
     0
 10
512.22709746572082
 20
96.0
 30
0.0
 11
522.66314662646982
 21
96.0
 31
0.0
  0
LINE
  5
BD0
  8
0
 62
     0
 10
602.66459746572139
 20
97.5
 30
0.0
 11
630.67359712039286
 21
97.5
 31
0.0
  0
LINE
  5
BD1
  8
0
 62
     0
 10
656.65661278249058
 20
97.5
 30
0.0
 11
684.66527652298964
 21
97.5
 31
0.0
  0
LINE
  5
BD2
  8
0
 62
     0
 10
548.67218615683839
 20
97.5
 30
0.0
 11
576.66459746572139
 21
97.5
 31
0.0
  0
LINE
  5
BD3
  8
0
 62
     0
 10
710.6505829355699
 20
97.5
 30
0.0
 11
721.10209746572082
 21
97.5
 31
0.0
  0
LINE
  5
BD4
  8
0
 62
     0
 10
512.22709746572082
 20
97.5
 30
0.0
 11
522.66314662646982
 21
97.5
 31
0.0
  0
ENDBLK
  5
BD6
  8
0
  0
BLOCK
  8
0
  2
*X5
 70
     1
 10
0.0
 20
0.0
 30
0.0
  3
*X5
  1

  0
LINE
  5
BD8
  8
0
 62
     0
 10
422.63223065534561
 20
447.24999999999989
 30
0.0
 11
285.13223065534572
 21
447.24999999999989
 31
0.0
  0
LINE
  5
BD9
  8
0
 62
     0
 10
422.63223065534561
 20
445.74999999999989
 30
0.0
 11
285.13223065534572
 21
445.74999999999989
 31
0.0
  0
LINE
  5
BDA
  8
0
 62
     0
 10
422.63223065534561
 20
444.24999999999989
 30
0.0
 11
285.13223065534572
 21
444.24999999999989
 31
0.0
  0
LINE
  5
BDB
  8
0
 62
     0
 10
422.63223065534561
 20
442.74999999999989
 30
0.0
 11
285.13223065534572
 21
442.74999999999989
 31
0.0
  0
LINE
  5
BDC
  8
0
 62
     0
 10
422.63223065534561
 20
441.24999999999989
 30
0.0
 11
285.13223065534572
 21
441.24999999999989
 31
0.0
  0
LINE
  5
BDD
  8
0
 62
     0
 10
422.63223065534561
 20
439.74999999999989
 30
0.0
 11
285.13223065534572
 21
439.74999999999989
 31
0.0
  0
LINE
  5
BDE
  8
0
 62
     0
 10
422.63223065534561
 20
438.24999999999989
 30
0.0
 11
285.13223065534572
 21
438.24999999999989
 31
0.0
  0
LINE
  5
BDF
  8
0
 62
     0
 10
422.63223065534561
 20
436.74999999999989
 30
0.0
 11
285.13223065534572
 21
436.74999999999989
 31
0.0
  0
LINE
  5
BE0
  8
0
 62
     0
 10
422.63223065534561
 20
435.24999999999989
 30
0.0
 11
285.13223065534572
 21
435.24999999999989
 31
0.0
  0
LINE
  5
BE1
  8
0
 62
     0
 10
422.63223065534561
 20
433.74999999999989
 30
0.0
 11
285.13223065534572
 21
433.74999999999989
 31
0.0
  0
LINE
  5
BE2
  8
0
 62
     0
 10
422.63223065534561
 20
432.24999999999989
 30
0.0
 11
285.13223065534561
 21
432.24999999999989
 31
0.0
  0
LINE
  5
BE3
  8
0
 62
     0
 10
422.63223065534561
 20
430.74999999999989
 30
0.0
 11
285.13223065534561
 21
430.74999999999989
 31
0.0
  0
LINE
  5
BE4
  8
0
 62
     0
 10
422.63223065534561
 20
429.24999999999989
 30
0.0
 11
285.13223065534561
 21
429.24999999999989
 31
0.0
  0
LINE
  5
BE5
  8
0
 62
     0
 10
422.63223065534561
 20
427.74999999999989
 30
0.0
 11
285.13223065534561
 21
427.74999999999989
 31
0.0
  0
LINE
  5
BE6
  8
0
 62
     0
 10
422.63223065534561
 20
426.24999999999989
 30
0.0
 11
285.13223065534561
 21
426.24999999999989
 31
0.0
  0
LINE
  5
BE7
  8
0
 62
     0
 10
422.63223065534561
 20
424.74999999999989
 30
0.0
 11
285.13223065534561
 21
424.74999999999989
 31
0.0
  0
LINE
  5
BE8
  8
0
 62
     0
 10
422.63223065534561
 20
423.24999999999989
 30
0.0
 11
285.13223065534561
 21
423.24999999999989
 31
0.0
  0
LINE
  5
BE9
  8
0
 62
     0
 10
422.63223065534561
 20
421.74999999999989
 30
0.0
 11
285.13223065534561
 21
421.74999999999989
 31
0.0
  0
LINE
  5
BEA
  8
0
 62
     0
 10
422.63223065534561
 20
420.24999999999989
 30
0.0
 11
285.13223065534561
 21
420.24999999999989
 31
0.0
  0
LINE
  5
BEB
  8
0
 62
     0
 10
422.63223065534561
 20
418.74999999999989
 30
0.0
 11
285.13223065534561
 21
418.74999999999989
 31
0.0
  0
LINE
  5
BEC
  8
0
 62
     0
 10
422.63223065534561
 20
417.24999999999989
 30
0.0
 11
285.13223065534561
 21
417.24999999999989
 31
0.0
  0
LINE
  5
BED
  8
0
 62
     0
 10
422.63223065534561
 20
415.74999999999989
 30
0.0
 11
285.13223065534561
 21
415.74999999999989
 31
0.0
  0
LINE
  5
BEE
  8
0
 62
     0
 10
422.63223065534561
 20
414.24999999999989
 30
0.0
 11
285.13223065534561
 21
414.24999999999989
 31
0.0
  0
LINE
  5
BEF
  8
0
 62
     0
 10
422.63223065534561
 20
412.74999999999989
 30
0.0
 11
285.13223065534561
 21
412.74999999999989
 31
0.0
  0
LINE
  5
BF0
  8
0
 62
     0
 10
422.63223065534561
 20
411.24999999999989
 30
0.0
 11
285.13223065534561
 21
411.24999999999989
 31
0.0
  0
LINE
  5
BF1
  8
0
 62
     0
 10
422.63223065534561
 20
409.74999999999989
 30
0.0
 11
285.13223065534561
 21
409.74999999999989
 31
0.0
  0
LINE
  5
BF2
  8
0
 62
     0
 10
422.6322306553455
 20
408.24999999999989
 30
0.0
 11
285.13223065534561
 21
408.24999999999989
 31
0.0
  0
LINE
  5
BF3
  8
0
 62
     0
 10
422.6322306553455
 20
406.74999999999989
 30
0.0
 11
285.13223065534561
 21
406.74999999999989
 31
0.0
  0
LINE
  5
BF4
  8
0
 62
     0
 10
422.6322306553455
 20
405.24999999999989
 30
0.0
 11
285.13223065534561
 21
405.24999999999989
 31
0.0
  0
LINE
  5
BF5
  8
0
 62
     0
 10
422.6322306553455
 20
403.74999999999989
 30
0.0
 11
285.13223065534561
 21
403.74999999999989
 31
0.0
  0
LINE
  5
BF6
  8
0
 62
     0
 10
422.6322306553455
 20
402.24999999999989
 30
0.0
 11
285.13223065534561
 21
402.24999999999989
 31
0.0
  0
LINE
  5
BF7
  8
0
 62
     0
 10
422.6322306553455
 20
400.74999999999989
 30
0.0
 11
285.13223065534561
 21
400.74999999999989
 31
0.0
  0
LINE
  5
BF8
  8
0
 62
     0
 10
422.6322306553455
 20
399.25
 30
0.0
 11
285.13223065534561
 21
399.25
 31
0.0
  0
LINE
  5
BF9
  8
0
 62
     0
 10
422.6322306553455
 20
397.75
 30
0.0
 11
285.13223065534561
 21
397.75
 31
0.0
  0
LINE
  5
BFA
  8
0
 62
     0
 10
422.6322306553455
 20
396.25
 30
0.0
 11
285.13223065534561
 21
396.25
 31
0.0
  0
LINE
  5
BFB
  8
0
 62
     0
 10
422.6322306553455
 20
394.74999999999989
 30
0.0
 11
285.13223065534561
 21
394.74999999999989
 31
0.0
  0
LINE
  5
BFC
  8
0
 62
     0
 10
422.6322306553455
 20
393.25
 30
0.0
 11
285.13223065534561
 21
393.25
 31
0.0
  0
LINE
  5
BFD
  8
0
 62
     0
 10
422.6322306553455
 20
391.75
 30
0.0
 11
285.13223065534561
 21
391.75
 31
0.0
  0
LINE
  5
BFE
  8
0
 62
     0
 10
422.6322306553455
 20
390.24999999999989
 30
0.0
 11
285.13223065534561
 21
390.24999999999989
 31
0.0
  0
LINE
  5
BFF
  8
0
 62
     0
 10
422.6322306553455
 20
388.75
 30
0.0
 11
285.13223065534561
 21
388.75
 31
0.0
  0
LINE
  5
C00
  8
0
 62
     0
 10
422.6322306553455
 20
387.25
 30
0.0
 11
285.13223065534561
 21
387.25
 31
0.0
  0
LINE
  5
C01
  8
0
 62
     0
 10
422.6322306553455
 20
385.74999999999989
 30
0.0
 11
285.13223065534561
 21
385.74999999999989
 31
0.0
  0
LINE
  5
C02
  8
0
 62
     0
 10
422.6322306553455
 20
384.24999999999989
 30
0.0
 11
285.13223065534561
 21
384.24999999999989
 31
0.0
  0
LINE
  5
C03
  8
0
 62
     0
 10
422.6322306553455
 20
382.75
 30
0.0
 11
285.13223065534561
 21
382.75
 31
0.0
  0
LINE
  5
C04
  8
0
 62
     0
 10
422.6322306553455
 20
381.25
 30
0.0
 11
285.13223065534561
 21
381.25
 31
0.0
  0
LINE
  5
C05
  8
0
 62
     0
 10
422.6322306553455
 20
379.74999999999989
 30
0.0
 11
285.13223065534561
 21
379.74999999999989
 31
0.0
  0
LINE
  5
C06
  8
0
 62
     0
 10
422.6322306553455
 20
378.24999999999989
 30
0.0
 11
285.13223065534561
 21
378.24999999999989
 31
0.0
  0
LINE
  5
C07
  8
0
 62
     0
 10
422.6322306553455
 20
376.75
 30
0.0
 11
285.13223065534561
 21
376.75
 31
0.0
  0
LINE
  5
C08
  8
0
 62
     0
 10
422.6322306553455
 20
375.24999999999989
 30
0.0
 11
285.13223065534561
 21
375.24999999999989
 31
0.0
  0
LINE
  5
C09
  8
0
 62
     0
 10
422.6322306553455
 20
373.74999999999989
 30
0.0
 11
285.13223065534561
 21
373.74999999999989
 31
0.0
  0
LINE
  5
C0A
  8
0
 62
     0
 10
422.6322306553455
 20
372.25
 30
0.0
 11
285.13223065534561
 21
372.25
 31
0.0
  0
LINE
  5
C0B
  8
0
 62
     0
 10
422.6322306553455
 20
370.75
 30
0.0
 11
285.13223065534561
 21
370.75
 31
0.0
  0
LINE
  5
C0C
  8
0
 62
     0
 10
422.6322306553455
 20
369.24999999999989
 30
0.0
 11
285.13223065534561
 21
369.24999999999989
 31
0.0
  0
LINE
  5
C0D
  8
0
 62
     0
 10
422.6322306553455
 20
367.74999999999989
 30
0.0
 11
285.13223065534561
 21
367.74999999999989
 31
0.0
  0
LINE
  5
C0E
  8
0
 62
     0
 10
422.6322306553455
 20
366.25
 30
0.0
 11
285.13223065534561
 21
366.25
 31
0.0
  0
LINE
  5
C0F
  8
0
 62
     0
 10
422.6322306553455
 20
364.74999999999989
 30
0.0
 11
285.13223065534561
 21
364.74999999999989
 31
0.0
  0
LINE
  5
C10
  8
0
 62
     0
 10
422.6322306553455
 20
363.24999999999989
 30
0.0
 11
285.13223065534561
 21
363.24999999999989
 31
0.0
  0
LINE
  5
C11
  8
0
 62
     0
 10
422.6322306553455
 20
361.75
 30
0.0
 11
285.13223065534561
 21
361.75
 31
0.0
  0
LINE
  5
C12
  8
0
 62
     0
 10
422.6322306553455
 20
360.25
 30
0.0
 11
285.13223065534561
 21
360.25
 31
0.0
  0
LINE
  5
C13
  8
0
 62
     0
 10
422.6322306553455
 20
358.74999999999989
 30
0.0
 11
285.13223065534561
 21
358.74999999999989
 31
0.0
  0
LINE
  5
C14
  8
0
 62
     0
 10
422.6322306553455
 20
357.24999999999989
 30
0.0
 11
285.13223065534561
 21
357.24999999999989
 31
0.0
  0
LINE
  5
C15
  8
0
 62
     0
 10
422.63223065534538
 20
355.75
 30
0.0
 11
285.13223065534561
 21
355.75
 31
0.0
  0
LINE
  5
C16
  8
0
 62
     0
 10
422.63223065534538
 20
354.24999999999989
 30
0.0
 11
285.13223065534561
 21
354.24999999999989
 31
0.0
  0
LINE
  5
C17
  8
0
 62
     0
 10
422.63223065534538
 20
352.74999999999989
 30
0.0
 11
285.13223065534561
 21
352.74999999999989
 31
0.0
  0
LINE
  5
C18
  8
0
 62
     0
 10
422.63223065534538
 20
351.24999999999989
 30
0.0
 11
285.13223065534561
 21
351.24999999999989
 31
0.0
  0
LINE
  5
C19
  8
0
 62
     0
 10
422.63223065534538
 20
349.75
 30
0.0
 11
285.13223065534561
 21
349.75
 31
0.0
  0
LINE
  5
C1A
  8
0
 62
     0
 10
422.63223065534538
 20
348.24999999999989
 30
0.0
 11
285.13223065534561
 21
348.24999999999989
 31
0.0
  0
LINE
  5
C1B
  8
0
 62
     0
 10
422.63223065534538
 20
346.74999999999989
 30
0.0
 11
285.13223065534561
 21
346.74999999999989
 31
0.0
  0
LINE
  5
C1C
  8
0
 62
     0
 10
422.63223065534538
 20
345.25
 30
0.0
 11
285.13223065534561
 21
345.25
 31
0.0
  0
LINE
  5
C1D
  8
0
 62
     0
 10
422.63223065534538
 20
343.75
 30
0.0
 11
285.13223065534561
 21
343.75
 31
0.0
  0
LINE
  5
C1E
  8
0
 62
     0
 10
422.63223065534538
 20
342.24999999999989
 30
0.0
 11
285.1322306553455
 21
342.24999999999989
 31
0.0
  0
LINE
  5
C1F
  8
0
 62
     0
 10
422.63223065534538
 20
340.74999999999989
 30
0.0
 11
285.1322306553455
 21
340.74999999999989
 31
0.0
  0
LINE
  5
C20
  8
0
 62
     0
 10
422.63223065534538
 20
339.25
 30
0.0
 11
285.1322306553455
 21
339.25
 31
0.0
  0
LINE
  5
C21
  8
0
 62
     0
 10
422.63223065534538
 20
337.74999999999989
 30
0.0
 11
285.1322306553455
 21
337.74999999999989
 31
0.0
  0
LINE
  5
C22
  8
0
 62
     0
 10
422.63223065534538
 20
336.24999999999989
 30
0.0
 11
285.1322306553455
 21
336.24999999999989
 31
0.0
  0
LINE
  5
C23
  8
0
 62
     0
 10
422.63223065534538
 20
334.75
 30
0.0
 11
285.1322306553455
 21
334.75
 31
0.0
  0
LINE
  5
C24
  8
0
 62
     0
 10
422.63223065534538
 20
333.25
 30
0.0
 11
285.1322306553455
 21
333.25
 31
0.0
  0
LINE
  5
C25
  8
0
 62
     0
 10
422.63223065534538
 20
331.74999999999989
 30
0.0
 11
285.1322306553455
 21
331.74999999999989
 31
0.0
  0
LINE
  5
C26
  8
0
 62
     0
 10
422.63223065534538
 20
330.24999999999989
 30
0.0
 11
285.1322306553455
 21
330.24999999999989
 31
0.0
  0
LINE
  5
C27
  8
0
 62
     0
 10
422.63223065534538
 20
328.75
 30
0.0
 11
285.1322306553455
 21
328.75
 31
0.0
  0
LINE
  5
C28
  8
0
 62
     0
 10
422.63223065534538
 20
327.24999999999989
 30
0.0
 11
285.1322306553455
 21
327.24999999999989
 31
0.0
  0
LINE
  5
C29
  8
0
 62
     0
 10
422.63223065534538
 20
325.74999999999989
 30
0.0
 11
285.1322306553455
 21
325.74999999999989
 31
0.0
  0
LINE
  5
C2A
  8
0
 62
     0
 10
422.63223065534538
 20
324.25
 30
0.0
 11
285.1322306553455
 21
324.25
 31
0.0
  0
LINE
  5
C2B
  8
0
 62
     0
 10
422.63223065534538
 20
322.75
 30
0.0
 11
285.1322306553455
 21
322.75
 31
0.0
  0
LINE
  5
C2C
  8
0
 62
     0
 10
422.63223065534538
 20
321.24999999999989
 30
0.0
 11
285.1322306553455
 21
321.24999999999989
 31
0.0
  0
LINE
  5
C2D
  8
0
 62
     0
 10
422.63223065534538
 20
319.74999999999989
 30
0.0
 11
285.1322306553455
 21
319.74999999999989
 31
0.0
  0
LINE
  5
C2E
  8
0
 62
     0
 10
422.63223065534538
 20
318.25
 30
0.0
 11
285.1322306553455
 21
318.25
 31
0.0
  0
LINE
  5
C2F
  8
0
 62
     0
 10
422.63223065534538
 20
316.74999999999989
 30
0.0
 11
285.1322306553455
 21
316.74999999999989
 31
0.0
  0
LINE
  5
C30
  8
0
 62
     0
 10
422.63223065534538
 20
315.24999999999989
 30
0.0
 11
285.1322306553455
 21
315.24999999999989
 31
0.0
  0
LINE
  5
C31
  8
0
 62
     0
 10
422.63223065534538
 20
313.74999999999989
 30
0.0
 11
285.13223065534538
 21
313.74999999999989
 31
0.0
  0
LINE
  5
C32
  8
0
 62
     0
 10
422.63223065534538
 20
312.25
 30
0.0
 11
285.13223065534538
 21
312.25
 31
0.0
  0
LINE
  5
C33
  8
0
 62
     0
 10
422.63223065534538
 20
310.74999999999989
 30
0.0
 11
285.13223065534538
 21
310.74999999999989
 31
0.0
  0
LINE
  5
C34
  8
0
 62
     0
 10
422.63223065534538
 20
309.24999999999989
 30
0.0
 11
285.13223065534538
 21
309.24999999999989
 31
0.0
  0
LINE
  5
C35
  8
0
 62
     0
 10
422.63223065534538
 20
307.75
 30
0.0
 11
285.13223065534538
 21
307.75
 31
0.0
  0
LINE
  5
C36
  8
0
 62
     0
 10
422.63223065534538
 20
306.25
 30
0.0
 11
285.13223065534538
 21
306.25
 31
0.0
  0
LINE
  5
C37
  8
0
 62
     0
 10
422.63223065534538
 20
304.74999999999989
 30
0.0
 11
285.13223065534538
 21
304.74999999999989
 31
0.0
  0
LINE
  5
C38
  8
0
 62
     0
 10
422.63223065534532
 20
303.24999999999989
 30
0.0
 11
285.13223065534538
 21
303.24999999999989
 31
0.0
  0
LINE
  5
C39
  8
0
 62
     0
 10
422.63223065534532
 20
301.75
 30
0.0
 11
285.13223065534538
 21
301.75
 31
0.0
  0
LINE
  5
C3A
  8
0
 62
     0
 10
422.63223065534532
 20
300.24999999999989
 30
0.0
 11
285.13223065534538
 21
300.24999999999989
 31
0.0
  0
LINE
  5
C3B
  8
0
 62
     0
 10
422.63223065534532
 20
298.74999999999989
 30
0.0
 11
285.13223065534538
 21
298.74999999999989
 31
0.0
  0
LINE
  5
C3C
  8
0
 62
     0
 10
422.63223065534532
 20
297.25
 30
0.0
 11
285.13223065534538
 21
297.25
 31
0.0
  0
LINE
  5
C3D
  8
0
 62
     0
 10
422.63223065534532
 20
295.74999999999989
 30
0.0
 11
285.13223065534538
 21
295.74999999999989
 31
0.0
  0
LINE
  5
C3E
  8
0
 62
     0
 10
422.63223065534532
 20
294.24999999999989
 30
0.0
 11
285.13223065534538
 21
294.24999999999989
 31
0.0
  0
LINE
  5
C3F
  8
0
 62
     0
 10
422.63223065534532
 20
292.74999999999989
 30
0.0
 11
285.13223065534538
 21
292.74999999999989
 31
0.0
  0
LINE
  5
C40
  8
0
 62
     0
 10
422.63223065534532
 20
291.25
 30
0.0
 11
285.13223065534538
 21
291.25
 31
0.0
  0
LINE
  5
C41
  8
0
 62
     0
 10
422.63223065534532
 20
289.74999999999989
 30
0.0
 11
285.13223065534538
 21
289.74999999999989
 31
0.0
  0
LINE
  5
C42
  8
0
 62
     0
 10
422.63223065534532
 20
288.24999999999989
 30
0.0
 11
285.13223065534538
 21
288.24999999999989
 31
0.0
  0
LINE
  5
C43
  8
0
 62
     0
 10
422.63223065534532
 20
286.74999999999989
 30
0.0
 11
285.13223065534538
 21
286.74999999999989
 31
0.0
  0
LINE
  5
C44
  8
0
 62
     0
 10
422.63223065534532
 20
285.25
 30
0.0
 11
285.13223065534538
 21
285.25
 31
0.0
  0
LINE
  5
C45
  8
0
 62
     0
 10
422.63223065534532
 20
283.75
 30
0.0
 11
285.13223065534538
 21
283.75
 31
0.0
  0
LINE
  5
C46
  8
0
 62
     0
 10
422.63223065534532
 20
282.24999999999989
 30
0.0
 11
285.13223065534538
 21
282.24999999999989
 31
0.0
  0
LINE
  5
C47
  8
0
 62
     0
 10
422.63223065534532
 20
280.75
 30
0.0
 11
285.13223065534538
 21
280.75
 31
0.0
  0
LINE
  5
C48
  8
0
 62
     0
 10
422.63223065534532
 20
279.24999999999989
 30
0.0
 11
285.13223065534538
 21
279.24999999999989
 31
0.0
  0
LINE
  5
C49
  8
0
 62
     0
 10
422.63223065534521
 20
277.74999999999989
 30
0.0
 11
285.13223065534538
 21
277.74999999999989
 31
0.0
  0
LINE
  5
C4A
  8
0
 62
     0
 10
422.63223065534521
 20
276.24999999999989
 30
0.0
 11
285.13223065534538
 21
276.24999999999989
 31
0.0
  0
LINE
  5
C4B
  8
0
 62
     0
 10
422.63223065534521
 20
274.75
 30
0.0
 11
285.13223065534538
 21
274.75
 31
0.0
  0
LINE
  5
C4C
  8
0
 62
     0
 10
422.63223065534521
 20
273.24999999999989
 30
0.0
 11
285.13223065534538
 21
273.24999999999989
 31
0.0
  0
LINE
  5
C4D
  8
0
 62
     0
 10
422.63223065534521
 20
271.74999999999989
 30
0.0
 11
285.13223065534538
 21
271.74999999999989
 31
0.0
  0
LINE
  5
C4E
  8
0
 62
     0
 10
422.63223065534521
 20
270.25
 30
0.0
 11
285.13223065534538
 21
270.25
 31
0.0
  0
LINE
  5
C4F
  8
0
 62
     0
 10
422.63223065534521
 20
268.75
 30
0.0
 11
285.13223065534538
 21
268.75
 31
0.0
  0
LINE
  5
C50
  8
0
 62
     0
 10
422.63223065534521
 20
267.24999999999989
 30
0.0
 11
285.13223065534538
 21
267.24999999999989
 31
0.0
  0
LINE
  5
C51
  8
0
 62
     0
 10
422.63223065534521
 20
265.74999999999989
 30
0.0
 11
285.13223065534538
 21
265.74999999999989
 31
0.0
  0
LINE
  5
C52
  8
0
 62
     0
 10
422.63223065534521
 20
264.25
 30
0.0
 11
285.13223065534538
 21
264.25
 31
0.0
  0
LINE
  5
C53
  8
0
 62
     0
 10
422.63223065534521
 20
262.74999999999989
 30
0.0
 11
285.13223065534538
 21
262.74999999999989
 31
0.0
  0
LINE
  5
C54
  8
0
 62
     0
 10
422.63223065534521
 20
261.24999999999989
 30
0.0
 11
285.13223065534538
 21
261.24999999999989
 31
0.0
  0
LINE
  5
C55
  8
0
 62
     0
 10
422.63223065534521
 20
259.75
 30
0.0
 11
285.13223065534538
 21
259.75
 31
0.0
  0
LINE
  5
C56
  8
0
 62
     0
 10
422.63223065534521
 20
258.25
 30
0.0
 11
285.13223065534538
 21
258.25
 31
0.0
  0
LINE
  5
C57
  8
0
 62
     0
 10
422.63223065534521
 20
256.74999999999989
 30
0.0
 11
285.13223065534538
 21
256.74999999999989
 31
0.0
  0
LINE
  5
C58
  8
0
 62
     0
 10
422.63223065534521
 20
255.24999999999989
 30
0.0
 11
285.13223065534538
 21
255.25
 31
0.0
  0
LINE
  5
C59
  8
0
 62
     0
 10
422.63223065534521
 20
253.75
 30
0.0
 11
285.13223065534532
 21
253.75
 31
0.0
  0
LINE
  5
C5A
  8
0
 62
     0
 10
422.63223065534521
 20
252.24999999999989
 30
0.0
 11
285.13223065534532
 21
252.25
 31
0.0
  0
LINE
  5
C5B
  8
0
 62
     0
 10
422.63223065534521
 20
250.74999999999989
 30
0.0
 11
285.13223065534532
 21
250.75
 31
0.0
  0
LINE
  5
C5C
  8
0
 62
     0
 10
422.63223065534521
 20
249.24999999999989
 30
0.0
 11
285.13223065534532
 21
249.25
 31
0.0
  0
LINE
  5
C5D
  8
0
 62
     0
 10
422.63223065534521
 20
247.75
 30
0.0
 11
285.13223065534532
 21
247.75
 31
0.0
  0
LINE
  5
C5E
  8
0
 62
     0
 10
422.63223065534521
 20
246.24999999999989
 30
0.0
 11
285.13223065534532
 21
246.25
 31
0.0
  0
LINE
  5
C5F
  8
0
 62
     0
 10
422.63223065534521
 20
244.74999999999989
 30
0.0
 11
285.13223065534532
 21
244.75
 31
0.0
  0
LINE
  5
C60
  8
0
 62
     0
 10
422.63223065534521
 20
243.25
 30
0.0
 11
285.13223065534532
 21
243.25
 31
0.0
  0
LINE
  5
C61
  8
0
 62
     0
 10
422.63223065534521
 20
241.74999999999989
 30
0.0
 11
285.13223065534532
 21
241.75
 31
0.0
  0
LINE
  5
C62
  8
0
 62
     0
 10
422.63223065534521
 20
240.24999999999989
 30
0.0
 11
285.13223065534532
 21
240.25
 31
0.0
  0
ENDBLK
  5
C64
  8
0
  0
ENDSEC
  0
SECTION
  2
ENTITIES
  0
LINE
  5
378
  8
0
 10
283.50723065534538
 20
194.12500450375751
 30
0.0
 11
424.2572306553422
 21
194.12500450375751
 31
0.0
  0
LINE
  5
379
  8
0
 10
424.2572306553422
 20
100.00000450375769
 30
0.0
 11
283.50723065534538
 21
100.00000450375769
 31
0.0
  0
LINE
  5
37A
  8
0
 10
283.50723065534538
 20
100.00000450375769
 30
0.0
 11
283.50723065534538
 21
194.12500450375751
 31
0.0
  0
LINE
  5
37B
  8
0
 10
424.2572306553422
 20
100.00000450375769
 30
0.0
 11
424.2572306553422
 21
194.12500450375751
 31
0.0
  0
LINE
  5
37C
  8
0
 10
283.50723065534601
 20
100.00000450375769
 30
0.0
 11
425.50723065534601
 21
100.00000450375769
 31
0.0
  0
LINE
  5
37D
  8
0
 10
425.50723065534601
 20
0.0000045037577365
 30
0.0
 11
283.50723065534601
 21
0.0000045037577365
 31
0.0
  0
LINE
  5
37E
  8
0
 10
283.50723065534601
 20
100.00000450375769
 30
0.0
 11
283.50723065534601
 21
0.0000045037577365
 31
0.0
  0
LINE
  5
37F
  8
0
 10
425.50723065534601
 20
0.0000045037577365
 30
0.0
 11
425.50723065534601
 21
100.00000450375769
 31
0.0
  0
LINE
  5
380
  8
0
 10
424.50723065534618
 20
190.37500450375791
 30
0.0
 11
424.25723065534697
 21
190.37500450375791
 31
0.0
  0
LINE
  5
381
  8
0
 10
424.25723065534697
 20
180.37500450375779
 30
0.0
 11
424.50723065534618
 21
180.37500450375779
 31
0.0
  0
LINE
  5
382
  8
0
 10
424.50723065534601
 20
190.37500450375771
 30
0.0
 11
424.50723065534601
 21
190.20463363520309
 31
0.0
  0
LINE
  5
383
  8
0
 10
424.50723065534601
 20
190.2046302741131
 30
0.0
 11
424.50723065534601
 21
189.70513152267989
 31
0.0
  0
LINE
  5
384
  8
0
 10
424.50723065534601
 20
189.7051289547783
 30
0.0
 11
424.50723065534601
 21
188.9105428522756
 31
0.0
  0
LINE
  5
385
  8
0
 10
424.50723065534601
 20
188.9105384096905
 30
0.0
 11
424.50723065534601
 21
187.87500450375771
 31
0.0
  0
LINE
  5
386
  8
0
 10
424.50723065534601
 20
187.8750009177069
 30
0.0
 11
424.50723065534601
 21
186.66910253388599
 31
0.0
  0
LINE
  5
387
  8
0
 10
424.50723065534601
 20
186.6690997292703
 30
0.0
 11
424.50723065534601
 21
184.08090927824509
 31
0.0
  0
LINE
  5
388
  8
0
 10
424.50723065534601
 20
184.0809064736294
 30
0.0
 11
424.50723065534601
 21
182.8750080898082
 31
0.0
  0
LINE
  5
389
  8
0
 10
424.50723065534601
 20
182.87500450375779
 30
0.0
 11
424.50723065534601
 21
181.839470597825
 31
0.0
  0
LINE
  5
38A
  8
0
 10
424.50723065534601
 20
181.83946615523979
 30
0.0
 11
424.50723065534601
 21
181.0448800527368
 31
0.0
  0
LINE
  5
38B
  8
0
 10
424.50723065534601
 20
181.0448774848355
 30
0.0
 11
424.50723065534601
 21
180.54537873340209
 31
0.0
  0
LINE
  5
38C
  8
0
 10
424.50723065534601
 20
180.54537537231241
 30
0.0
 11
424.50723065534601
 21
180.37500450375771
 31
0.0
  0
ARC
  5
38D
  8
0
 10
348.75723065534538
 20
40.50000450375812
 30
0.0
 40
0.7499999999999965
 50
359.99999999999937
 51
179.99999999999969
  0
ARC
  5
38E
  8
0
 10
348.75723065534538
 20
40.50000450375812
 30
0.0
 40
0.7500000000000036
 50
180.00000000000031
 51
359.99999999999881
  0
ARC
  5
38F
  8
0
 10
288.25723065534538
 20
29.000004503758142
 30
0.0
 40
1.5000000000000011
 50
359.99999999999937
 51
179.9999999999994
  0
ARC
  5
390
  8
0
 10
288.25723065534538
 20
29.000004503758142
 30
0.0
 40
1.5
 50
180.0
 51
359.99999999999949
  0
ARC
  5
391
  8
0
 10
286.88223065534521
 20
6.62500450375813
 30
0.0
 40
0.999999999999996
 50
359.9999999999996
 51
179.9999999999996
  0
ARC
  5
392
  8
0
 10
286.88223065534521
 20
6.62500450375813
 30
0.0
 40
1.0000000000000011
 50
180.00000000000011
 51
359.99999999999937
  0
ARC
  5
393
  8
0
 10
310.6322306553455
 20
13.500004503758159
 30
0.0
 40
5.0000000000000107
 50
359.99999999999932
 51
179.99999999999949
  0
ARC
  5
394
  8
0
 10
310.6322306553455
 20
13.500004503758159
 30
0.0
 40
5.0000000000000009
 50
180.00000000000031
 51
359.99999999999937
  0
CIRCLE
  5
395
  8
0
 10
306.25723065534561
 20
44.250004503757722
 30
0.0
 40
11.18749999999998
  0
LINE
  5
396
  8
0
 10
510.60209746572752
 20
194.12500450375751
 30
0.0
 11
722.72709746572184
 21
194.12500450375751
 31
0.0
  0
LINE
  5
397
  8
0
 10
510.60209746572752
 20
100.00000450375769
 30
0.0
 11
510.60209746572752
 21
194.12500450375751
 31
0.0
  0
LINE
  5
398
  8
0
 10
722.72709746572173
 20
100.00000450375769
 30
0.0
 11
722.72709746572173
 21
194.12500450375751
 31
0.0
  0
LINE
  5
399
  8
0
 10
685.66459746572173
 20
6.0000045037577348
 30
0.0
 11
709.66459746572309
 21
6.0000045037577348
 31
0.0
  0
LINE
  5
39A
  8
0
 10
685.66459746572195
 20
86.080200527385429
 30
0.0
 11
709.66459746572195
 21
86.080200527385401
 31
0.0
  0
LINE
  5
39B
  8
0
 10
523.66459746572173
 20
6.0000045037584178
 30
0.0
 11
547.66459746572173
 21
6.0000045037577348
 31
0.0
  0
LINE
  5
39C
  8
0
 10
523.66459746572184
 20
86.080200527385742
 30
0.0
 11
547.66459746572184
 21
86.080200527385671
 31
0.0
  0
LINE
  5
39D
  8
0
 10
709.66459746572173
 20
4.000004503757653
 30
0.0
 11
709.66459746572195
 21
98.37500450375822
 31
0.0
  0
LINE
  5
39E
  8
0
 10
710.65058293557036
 20
98.37500450375822
 30
0.0
 11
710.65058293557013
 21
4.000004503757645
 31
0.0
  0
LINE
  5
39F
  8
0
 10
709.66459746572173
 20
4.000004503757653
 30
0.0
 11
710.65058293557013
 21
4.0000045037576486
 31
0.0
  0
LINE
  5
3A0
  8
0
 10
710.65058293557036
 20
98.37500450375822
 30
0.0
 11
709.66459746572195
 21
98.37500450375822
 31
0.0
  0
LINE
  5
3A1
  8
0
 10
684.66527652298976
 20
4.000004503757693
 30
0.0
 11
684.66527652298987
 21
98.375004503758248
 31
0.0
  0
LINE
  5
3A2
  8
0
 10
685.66459746572195
 20
98.375004503758248
 30
0.0
 11
685.66459746572173
 21
4.0000045037576886
 31
0.0
  0
LINE
  5
3A3
  8
0
 10
684.66527652298976
 20
4.000004503757693
 30
0.0
 11
685.66459746572173
 21
4.0000045037576921
 31
0.0
  0
LINE
  5
3A4
  8
0
 10
685.66459746572195
 20
98.375004503758248
 30
0.0
 11
684.66527652298987
 21
98.375004503758248
 31
0.0
  0
LINE
  5
3A5
  8
0
 10
547.66459746572173
 20
4.0000045037579133
 30
0.0
 11
547.66459746572184
 21
98.375004503758475
 31
0.0
  0
LINE
  5
3A6
  8
0
 10
548.67218615683873
 20
98.375004503758475
 30
0.0
 11
548.67218615683862
 21
4.0000045037579133
 31
0.0
  0
LINE
  5
3A7
  8
0
 10
547.66459746572173
 20
4.0000045037579133
 30
0.0
 11
548.67218615683862
 21
4.0000045037579106
 31
0.0
  0
LINE
  5
3A8
  8
0
 10
548.67218615683873
 20
98.375004503758475
 30
0.0
 11
547.66459746572184
 21
98.375004503758475
 31
0.0
  0
LINE
  5
3A9
  8
0
 10
522.66314662646994
 20
4.000004503757955
 30
0.0
 11
522.66314662647005
 21
98.375004503758518
 31
0.0
  0
LINE
  5
3AA
  8
0
 10
523.66459746572184
 20
98.375004503758518
 30
0.0
 11
523.66459746572161
 21
4.000004503757955
 31
0.0
  0
LINE
  5
3AB
  8
0
 10
522.66314662646994
 20
4.000004503757955
 30
0.0
 11
523.66459746572161
 21
4.0000045037579532
 31
0.0
  0
LINE
  5
3AC
  8
0
 10
523.66459746572184
 20
98.375004503758518
 30
0.0
 11
522.66314662647005
 21
98.375004503758518
 31
0.0
  0
LINE
  5
3AD
  8
0
 10
631.66459746572173
 20
6.0000045037577348
 30
0.0
 11
655.66459746572173
 21
6.0000045037577348
 31
0.0
  0
LINE
  5
3AE
  8
0
 10
631.66459746572195
 20
86.080200527385585
 30
0.0
 11
655.66459746572195
 21
86.080200527385514
 31
0.0
  0
LINE
  5
3AF
  8
0
 10
630.67359712039308
 20
4.0000045037577836
 30
0.0
 11
630.6735971203932
 21
98.375004503758362
 31
0.0
  0
LINE
  5
3B0
  8
0
 10
631.66459746572195
 20
98.375004503758362
 30
0.0
 11
631.66459746572173
 21
4.0000045037577836
 31
0.0
  0
LINE
  5
3B1
  8
0
 10
630.67359712039308
 20
4.0000045037577836
 30
0.0
 11
631.66459746572173
 21
4.0000045037577836
 31
0.0
  0
LINE
  5
3B2
  8
0
 10
631.66459746572195
 20
98.375004503758362
 30
0.0
 11
630.6735971203932
 21
98.375004503758362
 31
0.0
  0
LINE
  5
3B3
  8
0
 10
655.66459746572173
 20
4.0000045037577419
 30
0.0
 11
655.66459746572195
 21
98.375004503758291
 31
0.0
  0
LINE
  5
3B4
  8
0
 10
656.65661278249104
 20
98.375004503758291
 30
0.0
 11
656.6566127824907
 21
4.0000045037577419
 31
0.0
  0
LINE
  5
3B5
  8
0
 10
656.6566127824907
 20
4.0000045037577419
 30
0.0
 11
655.66459746572173
 21
4.0000045037577419
 31
0.0
  0
LINE
  5
3B6
  8
0
 10
656.65661278249104
 20
98.375004503758291
 30
0.0
 11
655.66459746572195
 21
98.375004503758291
 31
0.0
  0
LINE
  5
3B7
  8
0
 10
577.66459746572173
 20
6.0000045037577348
 30
0.0
 11
601.66459746572173
 21
6.0000045037577348
 31
0.0
  0
LINE
  5
3B8
  8
0
 10
577.66459746572082
 20
86.080200527385287
 30
0.0
 11
601.66459746572082
 21
86.080200527385514
 31
0.0
  0
LINE
  5
3B9
  8
0
 10
601.66459746572173
 20
4.000004503757828
 30
0.0
 11
601.66459746572173
 21
98.375004503758404
 31
0.0
  0
LINE
  5
3BA
  8
0
 10
602.66459746572173
 20
98.375004503758404
 30
0.0
 11
602.66459746572173
 21
4.000004503757828
 31
0.0
  0
LINE
  5
3BB
  8
0
 10
601.66459746572173
 20
4.000004503757828
 30
0.0
 11
602.66459746572173
 21
4.000004503757828
 31
0.0
  0
LINE
  5
3BC
  8
0
 10
602.66459746572173
 20
98.375004503758404
 30
0.0
 11
601.66459746572173
 21
98.375004503758404
 31
0.0
  0
LINE
  5
3BD
  8
0
 10
576.66459746572173
 20
4.0000045037578689
 30
0.0
 11
576.66459746572184
 21
98.375004503758404
 31
0.0
  0
LINE
  5
3BE
  8
0
 10
577.66459746572184
 20
98.375004503758404
 30
0.0
 11
577.66459746572173
 21
4.0000045037578689
 31
0.0
  0
LINE
  5
3BF
  8
0
 10
576.66459746572173
 20
4.0000045037578689
 30
0.0
 11
577.66459746572173
 21
4.0000045037578689
 31
0.0
  0
LINE
  5
3C0
  8
0
 10
577.66459746572184
 20
98.375004503758404
 30
0.0
 11
576.66459746572184
 21
98.375004503758404
 31
0.0
  0
LINE
  5
3C1
  8
0
 10
512.22709746572104
 20
98.375004503758404
 30
0.0
 11
512.22709746572104
 21
4.000004503757828
 31
0.0
  0
LINE
  5
3C2
  8
0
 10
512.22709746572104
 20
4.000004503757828
 30
0.0
 11
522.66314662646982
 21
4.000004503757828
 31
0.0
  0
LINE
  5
3C3
  8
0
 10
522.66314662646982
 20
4.000004503757828
 30
0.0
 11
522.66314662646982
 21
98.375004503758404
 31
0.0
1001
ACAD
1000
ASC_BOUNDS
1002
{
1070
    19
1005
530
1002
}
  0
LINE
  5
3C4
  8
0
 10
522.66314662646982
 20
98.375004503758404
 30
0.0
 11
512.22709746572104
 21
98.375004503758404
 31
0.0
  0
LINE
  5
3C5
  8
0
 10
630.67359712039286
 20
98.375004503758404
 30
0.0
 11
602.66459746572139
 21
98.375004503758404
 31
0.0
  0
LINE
  5
3C6
  8
0
 10
602.66459746572139
 20
98.375004503758404
 30
0.0
 11
602.66459746572139
 21
4.000004503757828
 31
0.0
1001
ACAD
1000
ASC_BOUNDS
1002
{
1070
    19
1005
530
1002
}
  0
LINE
  5
3C7
  8
0
 10
602.66459746572139
 20
4.000004503757828
 30
0.0
 11
630.67359712039286
 21
4.000004503757828
 31
0.0
  0
LINE
  5
3C8
  8
0
 10
630.67359712039286
 20
4.000004503757828
 30
0.0
 11
630.67359712039286
 21
98.375004503758404
 31
0.0
1001
ACAD
1000
ASC_BOUNDS
1002
{
1070
    19
1005
530
1002
}
  0
LINE
  5
3C9
  8
0
 10
721.10209746572139
 20
98.375004503758404
 30
0.0
 11
710.6505829355699
 21
98.375004503758404
 31
0.0
  0
LINE
  5
3CA
  8
0
 10
710.6505829355699
 20
98.375004503758404
 30
0.0
 11
710.6505829355699
 21
4.000004503757828
 31
0.0
1001
ACAD
1000
ASC_BOUNDS
1002
{
1070
    19
1005
530
1002
}
  0
LINE
  5
3CB
  8
0
 10
710.6505829355699
 20
4.000004503757828
 30
0.0
 11
721.10209746572139
 21
4.000004503757828
 31
0.0
  0
LINE
  5
3CC
  8
0
 10
721.10209746572139
 20
4.000004503757828
 30
0.0
 11
721.10209746572139
 21
98.375004503758404
 31
0.0
  0
LINE
  5
3CD
  8
0
 10
576.66459746572139
 20
98.375004503758404
 30
0.0
 11
548.67218615683839
 21
98.375004503758404
 31
0.0
  0
LINE
  5
3CE
  8
0
 10
548.67218615683839
 20
98.375004503758404
 30
0.0
 11
548.67218615683839
 21
4.000004503757828
 31
0.0
1001
ACAD
1000
ASC_BOUNDS
1002
{
1070
    19
1005
530
1002
}
  0
LINE
  5
3CF
  8
0
 10
548.67218615683839
 20
4.000004503757828
 30
0.0
 11
576.66459746572139
 21
4.000004503757828
 31
0.0
  0
LINE
  5
3D0
  8
0
 10
576.66459746572139
 20
4.000004503757828
 30
0.0
 11
576.66459746572139
 21
98.375004503758404
 31
0.0
1001
ACAD
1000
ASC_BOUNDS
1002
{
1070
    19
1005
530
1002
}
  0
LINE
  5
3D1
  8
0
 10
684.66527652298964
 20
98.375004503758404
 30
0.0
 11
656.65661278249058
 21
98.375004503758404
 31
0.0
  0
LINE
  5
3D2
  8
0
 10
656.65661278249058
 20
98.375004503758404
 30
0.0
 11
656.65661278249058
 21
4.000004503757828
 31
0.0
1001
ACAD
1000
ASC_BOUNDS
1002
{
1070
    19
1005
530
1002
}
  0
LINE
  5
3D3
  8
0
 10
656.65661278249058
 20
4.000004503757828
 30
0.0
 11
684.66527652298964
 21
4.000004503757828
 31
0.0
  0
LINE
  5
3D4
  8
0
 10
684.66527652298964
 20
4.000004503757828
 30
0.0
 11
684.66527652298964
 21
98.375004503758404
 31
0.0
1001
ACAD
1000
ASC_BOUNDS
1002
{
1070
    19
1005
530
1002
}
  0
LINE
  5
3D5
  8
0
 10
510.6020974657219
 20
100.00000450375769
 30
0.0
 11
722.72709746572195
 21
100.00000450375769
 31
0.0
  0
LINE
  5
3D6
  8
0
 10
722.72709746572195
 20
0.0000045037577365
 30
0.0
 11
510.6020974657219
 21
0.0000045037577365
 31
0.0
  0
LINE
  5
3D7
  8
0
 10
510.6020974657219
 20
0.0000045037577365
 30
0.0
 11
510.6020974657219
 21
100.00000450375769
 31
0.0
  0
LINE
  5
3D8
  8
0
 10
512.22709746572184
 20
4.0000045037562302
 30
0.0
 11
512.22709746572082
 21
98.375004503756784
 31
0.0
1001
ACAD
1000
ASC_BOUNDS
1002
{
1070
    19
1005
530
1002
}
  0
LINE
  5
3D9
  8
0
 10
512.22709746572082
 20
98.375004503756784
 30
0.0
 11
721.10209746572082
 21
98.375004503758944
 31
0.0
1001
ACAD
1000
ASC_BOUNDS
1002
{
1070
    19
1005
530
1005
530
1005
530
1005
530
1005
530
1002
}
  0
LINE
  5
3DA
  8
0
 10
721.10209746572082
 20
98.375004503758944
 30
0.0
 11
721.10209746572173
 21
4.0000045037583813
 31
0.0
1001
ACAD
1000
ASC_BOUNDS
1002
{
1070
    19
1005
530
1002
}
  0
LINE
  5
3DB
  8
0
 10
721.10209746572173
 20
4.000004503758392
 30
0.0
 11
512.22709746572184
 21
4.0000045037562302
 31
0.0
1001
ACAD
1000
ASC_BOUNDS
1002
{
1070
    19
1005
530
1005
530
1005
530
1005
530
1005
530
1002
}
  0
LINE
  5
3DC
  8
0
 10
722.72709746572195
 20
0.0000045037577365
 30
0.0
 11
722.72709746572195
 21
100.00000450375769
 31
0.0
  0
ARC
  5
3DD
  8
0
 10
616.66459746572139
 20
164.12500450375819
 30
0.0
 40
8.25
 50
179.99999999999969
 51
359.99999999999881
  0
ARC
  5
3DE
  8
0
 10
616.66459746572139
 20
164.12500450375819
 30
0.0
 40
8.25
 50
359.9999999999996
 51
179.99999999999969
  0
ARC
  5
3DF
  8
0
 10
616.66459746572139
 20
164.12500450375819
 30
0.0
 40
7.6874999999999956
 50
0.0000000000006934
 51
180.00000000000011
  0
ARC
  5
3E0
  8
0
 10
616.66459746572139
 20
164.12500450375819
 30
0.0
 40
7.687499999999992
 50
180.00000000000011
 51
359.9999999999996
  0
LINE
  5
3E1
  8
0
 10
621.78709823970917
 20
161.6831486549608
 30
0.0
 11
621.59215776351857
 21
161.2342399248021
 31
0.0
  0
LINE
  5
3E2
  8
0
 10
621.59215776351857
 20
161.2342399248021
 30
0.0
 11
621.14126490637591
 21
161.07699786130999
 31
0.0
  0
LINE
  5
3E3
  8
0
 10
621.14126490637591
 20
161.07699786130999
 30
0.0
 11
620.81673613653459
 21
161.14123397242119
 31
0.0
  0
LINE
  5
3E4
  8
0
 10
620.81673613653459
 20
161.14123397242119
 30
0.0
 11
620.58124506510603
 21
161.3339423057545
 31
0.0
  0
LINE
  5
3E5
  8
0
 10
620.58124506510603
 20
161.3339423057545
 30
0.0
 11
620.39027284288375
 21
162.09187881369101
 31
0.0
  0
LINE
  5
3E6
  8
0
 10
620.39027284288375
 20
162.09187881369101
 30
0.0
 11
620.57430062066146
 21
162.8557677025799
 31
0.0
  0
LINE
  5
3E7
  8
0
 10
620.57430062066146
 20
162.8557677025799
 30
0.0
 11
620.80408732701085
 21
163.04549984543701
 31
0.0
  0
LINE
  5
3E8
  8
0
 10
620.80408732701085
 20
163.04549984543701
 30
0.0
 11
621.1253918905029
 21
163.1087438930561
 31
0.0
  0
LINE
  5
3E9
  8
0
 10
621.1253918905029
 20
163.1087438930561
 30
0.0
 11
621.59364585875676
 21
162.96539071845291
 31
0.0
  0
LINE
  5
3EA
  8
0
 10
621.59364585875676
 20
162.96539071845291
 30
0.0
 11
621.78709823970917
 21
162.54029151210369
 31
0.0
  0
LINE
  5
3EB
  8
0
 10
621.78709823970917
 20
162.54029151210369
 30
0.0
 11
622.92995538256628
 21
162.54029151210369
 31
0.0
  0
LINE
  5
3EC
  8
0
 10
622.92995538256628
 20
162.54029151210369
 30
0.0
 11
622.76973712859797
 21
163.1879849644846
 31
0.0
  0
LINE
  5
3ED
  8
0
 10
622.76973712859797
 20
163.1879849644846
 30
0.0
 11
622.40217760478845
 21
163.66677960734179
 31
0.0
  0
LINE
  5
3EE
  8
0
 10
622.40217760478845
 20
163.66677960734179
 30
0.0
 11
621.84314982701085
 21
163.96253853591321
 31
0.0
  0
LINE
  5
3EF
  8
0
 10
621.84314982701085
 20
163.96253853591321
 30
0.0
 11
621.10852681113784
 21
164.06112484543701
 31
0.0
  0
LINE
  5
3F0
  8
0
 10
621.10852681113784
 20
164.06112484543701
 30
0.0
 11
620.31053573970917
 21
163.92918040099261
 31
0.0
  0
LINE
  5
3F1
  8
0
 10
620.31053573970917
 20
163.92918040099261
 30
0.0
 11
619.70029268415351
 21
163.53334706765921
 31
0.0
  0
LINE
  5
3F2
  8
0
 10
619.70029268415351
 20
163.53334706765921
 30
0.0
 11
619.3130158984394
 21
162.90933913115131
 31
0.0
  0
LINE
  5
3F3
  8
0
 10
619.3130158984394
 20
162.90933913115131
 30
0.0
 11
619.18392363653447
 21
162.092870877183
 31
0.0
  0
LINE
  5
3F4
  8
0
 10
619.18392363653447
 20
162.092870877183
 30
0.0
 11
619.31363593812193
 21
161.27454250416719
 31
0.0
  0
LINE
  5
3F5
  8
0
 10
619.31363593812193
 20
161.27454250416719
 30
0.0
 11
619.70277284288375
 21
160.65090659146881
 31
0.0
  0
LINE
  5
3F6
  8
0
 10
619.70277284288375
 20
160.65090659146881
 30
0.0
 11
620.31810022383615
 21
160.25618932956399
 31
0.0
  0
LINE
  5
3F7
  8
0
 10
620.31810022383615
 20
160.25618932956399
 30
0.0
 11
621.12638395399495
 21
160.12461690892911
 31
0.0
  0
LINE
  5
3F8
  8
0
 10
621.12638395399495
 20
160.12461690892911
 30
0.0
 11
621.84947423177266
 21
160.22679944861159
 31
0.0
  0
LINE
  5
3F9
  8
0
 10
621.84947423177266
 20
160.22679944861159
 30
0.0
 11
622.40564982701085
 21
160.53334706765921
 31
0.0
  0
LINE
  5
3FA
  8
0
 10
622.40564982701085
 20
160.53334706765921
 30
0.0
 11
622.77308534288375
 21
161.02516254384969
 31
0.0
  0
LINE
  5
3FB
  8
0
 10
622.77308534288375
 20
161.02516254384969
 30
0.0
 11
622.92995538256616
 21
161.6831486549608
 31
0.0
  0
LINE
  5
3FC
  8
0
 10
622.92995538256616
 20
161.6831486549608
 30
0.0
 11
621.78709823970917
 21
161.6831486549608
 31
0.0
  0
LINE
  5
3FD
  8
0
 10
614.56537086194135
 20
162.45722284388401
 30
0.0
 11
615.74295022702086
 21
162.45722284388401
 31
0.0
  0
LINE
  5
3FE
  8
0
 10
615.74295022702086
 20
162.45722284388401
 30
0.0
 11
615.88977562384616
 21
162.96515935182049
 31
0.0
  0
LINE
  5
3FF
  8
0
 10
615.88977562384616
 20
162.96515935182049
 30
0.0
 11
617.09314863971929
 21
162.96515935182049
 31
0.0
  0
LINE
  5
400
  8
0
 10
617.09314863971929
 20
162.96515935182049
 30
0.0
 11
617.23501371908446
 21
162.45722284388401
 31
0.0
  0
LINE
  5
401
  8
0
 10
617.23501371908446
 20
162.45722284388401
 30
0.0
 11
618.43838673495725
 21
162.45722284388401
 31
0.0
  0
LINE
  5
402
  8
0
 10
618.43838673495725
 20
162.45722284388401
 30
0.0
 11
617.10902165559219
 21
166.26674665340781
 31
0.0
  0
LINE
  5
403
  8
0
 10
617.10902165559219
 20
166.26674665340781
 30
0.0
 11
615.87985498892556
 21
166.26674665340789
 31
0.0
  0
LINE
  5
404
  8
0
 10
615.87985498892556
 20
166.26674665340789
 30
0.0
 11
614.56537086194135
 21
162.45722284388401
 31
0.0
  0
LINE
  5
405
  8
0
 10
616.11001371908435
 20
163.79055617721741
 30
0.0
 11
616.49592641749712
 21
165.0941276057888
 31
0.0
  0
LINE
  5
406
  8
0
 10
616.49592641749712
 20
165.0941276057888
 30
0.0
 11
616.8729105444811
 21
163.79055617721741
 31
0.0
  0
LINE
  5
407
  8
0
 10
616.8729105444811
 20
163.79055617721741
 30
0.0
 11
616.11001371908435
 21
163.79055617721741
 31
0.0
  0
LINE
  5
408
  8
0
 10
610.80463967168009
 20
164.19761115306429
 30
0.0
 11
612.50404443358491
 21
164.19761115306429
 31
0.0
  0
LINE
  5
409
  8
0
 10
612.50404443358491
 20
164.19761115306429
 30
0.0
 11
613.27190157644179
 21
164.2363016292548
 31
0.0
  0
LINE
  5
40A
  8
0
 10
613.27190157644179
 20
164.2363016292548
 30
0.0
 11
613.68459998914045
 21
164.3682460736992
 31
0.0
  0
LINE
  5
40B
  8
0
 10
613.68459998914045
 20
164.3682460736992
 30
0.0
 11
614.09283411612455
 21
164.7511825816357
 31
0.0
  0
LINE
  5
40C
  8
0
 10
614.09283411612455
 20
164.7511825816357
 30
0.0
 11
614.23321110025154
 21
165.3384841689373
 31
0.0
  0
LINE
  5
40D
  8
0
 10
614.23321110025154
 20
165.3384841689373
 30
0.0
 11
614.08936189390215
 21
165.9014802006833
 31
0.0
  0
LINE
  5
40E
  8
0
 10
614.08936189390215
 20
165.9014802006833
 30
0.0
 11
613.64590951294997
 21
166.22638099433411
 31
0.0
  0
LINE
  5
40F
  8
0
 10
613.64590951294997
 20
166.22638099433411
 30
0.0
 11
613.99114760818804
 21
166.54384131179449
 31
0.0
  0
LINE
  5
410
  8
0
 10
613.99114760818804
 20
166.54384131179449
 30
0.0
 11
614.10622697326744
 21
166.9962222641754
 31
0.0
  0
LINE
  5
411
  8
0
 10
614.10622697326744
 20
166.9962222641754
 30
0.0
 11
613.95245713199745
 21
167.55624210544531
 31
0.0
  0
LINE
  5
412
  8
0
 10
613.95245713199745
 20
167.55624210544531
 30
0.0
 11
613.50999681453732
 21
167.896023851477
 31
0.0
  0
LINE
  5
413
  8
0
 10
613.50999681453732
 20
167.896023851477
 30
0.0
 11
613.11465951294986
 21
167.98134131179449
 31
0.0
  0
LINE
  5
414
  8
0
 10
613.11465951294986
 20
167.98134131179449
 30
0.0
 11
612.38102856056889
 21
168.00713496258811
 31
0.0
  0
LINE
  5
415
  8
0
 10
612.38102856056889
 20
168.00713496258811
 30
0.0
 11
610.80463967168009
 21
168.00713496258811
 31
0.0
  0
LINE
  5
416
  8
0
 10
610.80463967168009
 20
168.00713496258811
 30
0.0
 11
610.80463967168009
 21
164.19761115306429
 31
0.0
  0
LINE
  5
417
  8
0
 10
612.01098887802937
 20
165.0865000419532
 30
0.0
 11
612.01098887802937
 21
165.78491274036591
 31
0.0
  0
LINE
  5
418
  8
0
 10
612.01098887802937
 20
165.78491274036591
 30
0.0
 11
612.55959998914045
 21
165.78491274036591
 31
0.0
  0
LINE
  5
419
  8
0
 10
612.55959998914045
 20
165.78491274036591
 30
0.0
 11
612.96882617961649
 21
165.70554766100079
 31
0.0
  0
LINE
  5
41A
  8
0
 10
612.96882617961649
 20
165.70554766100079
 30
0.0
 11
613.09035395739443
 21
165.4386825816357
 31
0.0
  0
LINE
  5
41B
  8
0
 10
613.09035395739443
 20
165.4386825816357
 30
0.0
 11
612.97130633834672
 21
165.16884131179441
 31
0.0
  0
LINE
  5
41C
  8
0
 10
612.97130633834672
 20
165.16884131179441
 30
0.0
 11
612.57051268755322
 21
165.0865000419532
 31
0.0
  0
LINE
  5
41D
  8
0
 10
612.57051268755322
 20
165.0865000419532
 30
0.0
 11
612.01098887802937
 21
165.0865000419532
 31
0.0
  0
LINE
  5
41E
  8
0
 10
612.01098887802937
 20
166.48332543877859
 30
0.0
 11
612.01098887802937
 21
167.1182460736992
 31
0.0
  0
LINE
  5
41F
  8
0
 10
612.01098887802937
 20
167.1182460736992
 30
0.0
 11
612.34531427485456
 21
167.1182460736992
 31
0.0
  0
LINE
  5
420
  8
0
 10
612.34531427485456
 20
167.1182460736992
 30
0.0
 11
612.85374681453732
 21
167.05078575623889
 31
0.0
  0
LINE
  5
421
  8
0
 10
612.85374681453732
 20
167.05078575623889
 30
0.0
 11
612.96336983041033
 21
166.80078575623889
 31
0.0
  0
LINE
  5
422
  8
0
 10
612.96336983041033
 20
166.80078575623889
 30
0.0
 11
612.8611872907278
 21
166.5557460736992
 31
0.0
  0
LINE
  5
423
  8
0
 10
612.8611872907278
 20
166.5557460736992
 30
0.0
 11
612.50900475104515
 21
166.48332543877859
 31
0.0
  0
LINE
  5
424
  8
0
 10
612.50900475104515
 20
166.48332543877859
 30
0.0
 11
612.01098887802937
 21
166.48332543877859
 31
0.0
  0
ARC
  5
425
  8
0
 10
616.66459746572082
 20
164.1250045037589
 30
0.0
 40
9.0000000000000178
 50
179.99999999999969
 51
359.99999999999881
  0
ARC
  5
426
  8
0
 10
616.66459746572082
 20
164.1250045037589
 30
0.0
 40
9.0
 50
359.99999999999937
 51
179.99999999999969
  0
ARC
  5
427
  8
0
 10
616.66459746571877
 20
185.37500450375771
 30
0.0
 40
4.999999999999984
 50
90.0
 51
270.0
  0
ARC
  5
428
  8
0
 10
616.66459746571877
 20
185.37500450375771
 30
0.0
 40
5.0
 50
270.0
 51
90.0
  0
LINE
  5
429
  8
0
 10
510.35209746572178
 20
39.75000450375807
 30
0.0
 11
510.6020974657223
 21
39.75000450375807
 31
0.0
  0
LINE
  5
42A
  8
0
 10
510.6020974657223
 20
41.250004503758412
 30
0.0
 11
510.35209746572178
 21
41.250004503758412
 31
0.0
  0
LINE
  5
42B
  8
0
 10
510.3520974657207
 20
27.500004503757971
 30
0.0
 11
510.6020974657211
 21
27.500004503757971
 31
0.0
  0
LINE
  5
42C
  8
0
 10
510.6020974657211
 20
30.50000450375796
 30
0.0
 11
510.3520974657207
 21
30.50000450375796
 31
0.0
  0
LINE
  5
42D
  8
0
 10
510.3520974657207
 20
5.6250045037580758
 30
0.0
 11
510.6020974657211
 21
5.6250045037580758
 31
0.0
  0
LINE
  5
42E
  8
0
 10
510.6020974657211
 20
7.625004503757963
 30
0.0
 11
510.3520974657207
 21
7.625004503757963
 31
0.0
  0
LINE
  5
42F
  8
0
 10
510.35209746572218
 20
40.50000450375812
 30
0.0
 11
510.35209746572218
 21
40.694118787585019
 31
0.0
  0
LINE
  5
430
  8
0
 10
510.35209746572218
 20
40.694119208277179
 30
0.0
 11
510.35209746572218
 21
41.030334589648028
 31
0.0
  0
LINE
  5
431
  8
0
 10
510.35209746572218
 20
41.030335256035492
 30
0.0
 11
510.35209746572218
 21
41.14952270009038
 31
0.0
  0
LINE
  5
432
  8
0
 10
510.35209746572218
 20
41.149523556596463
 30
0.0
 11
510.35209746572218
 21
41.224448873474927
 31
0.0
  0
LINE
  5
433
  8
0
 10
510.35209746572218
 20
41.224450808908692
 30
0.0
 11
510.35209746572218
 21
41.250004503758127
 31
0.0
  0
LINE
  5
434
  8
0
 10
510.35209746572218
 20
39.750004503758142
 30
0.0
 11
510.35209746572218
 21
39.775558198605118
 31
0.0
  0
LINE
  5
435
  8
0
 10
510.35209746572218
 20
39.775560134041342
 30
0.0
 11
510.35209746572218
 21
39.850485450919813
 31
0.0
  0
LINE
  5
436
  8
0
 10
510.35209746572218
 20
39.8504863074252
 30
0.0
 11
510.35209746572218
 21
39.96967375147981
 31
0.0
  0
LINE
  5
437
  8
0
 10
510.35209746572218
 20
39.969674417868241
 30
0.0
 11
510.35209746572218
 21
40.305889799238642
 31
0.0
  0
LINE
  5
438
  8
0
 10
510.35209746572218
 20
40.305890219931229
 30
0.0
 11
510.35209746572218
 21
40.50000450375812
 31
0.0
  0
LINE
  5
439
  8
0
 10
510.35209746572252
 20
29.000005468413558
 30
0.0
 11
510.35209746572252
 21
29.750004503758142
 31
0.0
  0
LINE
  5
43A
  8
0
 10
510.35209746572252
 20
29.750005547768129
 30
0.0
 11
510.35209746572252
 21
30.29904168195733
 31
0.0
  0
LINE
  5
43B
  8
0
 10
510.35209746572252
 20
30.299042609434789
 30
0.0
 11
510.35209746572252
 21
30.448893243191741
 31
0.0
  0
LINE
  5
43C
  8
0
 10
510.35209746572252
 20
30.448893321248359
 30
0.0
 11
510.35209746572252
 21
30.500004503758142
 31
0.0
  0
LINE
  5
43D
  8
0
 10
510.35209746572252
 20
27.500004503758142
 30
0.0
 11
510.35209746572252
 21
27.551113789843139
 31
0.0
  0
LINE
  5
43E
  8
0
 10
510.35209746572252
 20
27.551115764324539
 30
0.0
 11
510.35209746572252
 21
27.70096639808148
 31
0.0
  0
LINE
  5
43F
  8
0
 10
510.35209746572252
 20
27.70096654002537
 30
0.0
 11
510.35209746572252
 21
27.939344110111541
 31
0.0
  0
LINE
  5
440
  8
0
 10
510.35209746572252
 20
27.939344331978312
 30
0.0
 11
510.35209746572252
 21
29.000004503758131
 31
0.0
  0
LINE
  5
441
  8
0
 10
510.35209746572252
 20
6.6250045037581291
 30
0.0
 11
510.35209746572252
 21
6.8838235488606498
 31
0.0
  0
LINE
  5
442
  8
0
 10
510.35209746572252
 20
6.8838238598009589
 30
0.0
 11
510.35209746572252
 21
7.3321111142962136
 31
0.0
  0
LINE
  5
443
  8
0
 10
510.35209746572252
 20
7.332111284944677
 30
0.0
 11
510.35209746572252
 21
7.4910299075425666
 31
0.0
  0
LINE
  5
444
  8
0
 10
510.35209746572252
 20
7.4910302776755158
 30
0.0
 11
510.35209746572252
 21
7.5909303300471986
 31
0.0
  0
LINE
  5
445
  8
0
 10
510.35209746572252
 20
7.5909310142280528
 30
0.0
 11
510.35209746572252
 21
7.62500450375813
 31
0.0
  0
LINE
  5
446
  8
0
 10
510.35209746572252
 20
5.62500450375813
 30
0.0
 11
510.35209746572252
 21
5.6590784673935657
 31
0.0
  0
LINE
  5
447
  8
0
 10
510.35209746572252
 20
5.659078677469064
 30
0.0
 11
510.35209746572252
 21
5.7589790422399183
 31
0.0
  0
LINE
  5
448
  8
0
 10
510.35209746572252
 20
5.7589790999736943
 30
0.0
 11
510.35209746572252
 21
5.917897722571583
 31
0.0
  0
LINE
  5
449
  8
0
 10
510.35209746572252
 20
5.917897786665125
 30
0.0
 11
510.35209746572252
 21
6.12500450375813
 31
0.0
  0
LINE
  5
44A
  8
0
 10
510.35209746572252
 20
6.1250047278860302
 30
0.0
 11
510.35209746572252
 21
6.3661853976965928
 31
0.0
  0
LINE
  5
44B
  8
0
 10
510.35209746572252
 20
6.3661854586556084
 30
0.0
 11
510.35209746572252
 21
6.625004262593543
 31
0.0
  0
LINE
  5
44C
  8
0
 10
510.35209746572059
 20
8.5000045037581877
 30
0.0
 11
510.60209746572099
 21
8.5000045037581877
 31
0.0
  0
LINE
  5
44D
  8
0
 10
510.60209746572099
 20
18.50000450375796
 30
0.0
 11
510.35209746572059
 21
18.50000450375796
 31
0.0
  0
LINE
  5
44E
  8
0
 10
510.3520974657223
 20
13.50000450375814
 30
0.0
 11
510.3520974657223
 21
16.000004503758142
 31
0.0
  0
LINE
  5
44F
  8
0
 10
510.3520974657223
 20
16.00000502576302
 30
0.0
 11
510.3520974657223
 21
17.035537982667542
 31
0.0
  0
LINE
  5
450
  8
0
 10
510.3520974657223
 20
17.035538409690879
 30
0.0
 11
510.3520974657223
 21
17.830131311376839
 31
0.0
  0
LINE
  5
451
  8
0
 10
510.3520974657223
 20
17.83013152268035
 30
0.0
 11
510.3520974657223
 21
18.329633184914609
 31
0.0
  0
LINE
  5
452
  8
0
 10
510.3520974657223
 20
18.329633635203511
 30
0.0
 11
510.3520974657223
 21
18.500004503758159
 31
0.0
  0
LINE
  5
453
  8
0
 10
510.3520974657223
 20
8.5000045037581664
 30
0.0
 11
510.3520974657223
 21
8.6703752701587788
 31
0.0
  0
LINE
  5
454
  8
0
 10
510.3520974657223
 20
8.6703753723128241
 30
0.0
 11
510.3520974657223
 21
9.1698774848359719
 31
0.0
  0
LINE
  5
455
  8
0
 10
510.3520974657223
 20
9.1698776961387871
 30
0.0
 11
510.3520974657223
 21
9.9644703211494363
 31
0.0
  0
LINE
  5
456
  8
0
 10
510.3520974657223
 20
9.9644705978254251
 30
0.0
 11
510.3520974657223
 21
11.00000450375815
 31
0.0
  0
LINE
  5
457
  8
0
 10
510.3520974657223
 20
11.000004727885649
 30
0.0
 11
510.3520974657223
 21
13.50000450375814
 31
0.0
  0
LINE
  5
458
  8
0
 10
0.0000093705685913
 20
194.12500450375751
 30
0.0
 11
212.12500937056291
 21
194.12500450375751
 31
0.0
  0
LINE
  5
459
  8
0
 10
212.12500937056291
 20
100.00000450375769
 30
0.0
 11
0.0000093705685913
 21
100.00000450375769
 31
0.0
  0
LINE
  5
45A
  8
0
 10
0.0000093705685913
 20
194.12500450375751
 30
0.0
 11
0.0000093705685913
 21
100.00000450375769
 31
0.0
  0
LINE
  5
45B
  8
0
 10
212.12500937056291
 20
100.00000450375769
 30
0.0
 11
212.12500937056291
 21
194.12500450375751
 31
0.0
  0
LINE
  5
45C
  8
0
 10
0.0000093705686481
 20
100.00000450375769
 30
0.0
 11
212.12500937056851
 21
100.00000450375769
 31
0.0
  0
LINE
  5
45D
  8
0
 10
212.12500937056851
 20
0.0000045037577365
 30
0.0
 11
0.0000093705686481
 21
0.0000045037577365
 31
0.0
  0
LINE
  5
45E
  8
0
 10
212.12500937056851
 20
100.00000450375769
 30
0.0
 11
212.12500937056851
 21
0.0000045037577365
 31
0.0
  0
LINE
  5
45F
  8
0
 10
0.0000093705686481
 20
0.0000045037577365
 30
0.0
 11
0.0000093705686481
 21
100.00000450375769
 31
0.0
  0
ARC
  5
460
  8
0
 10
106.0625093705693
 20
164.12500450375859
 30
0.0
 40
8.2500000000000124
 50
179.9999999999996
 51
359.99999999999858
  0
ARC
  5
461
  8
0
 10
106.0625093705693
 20
164.12500450375859
 30
0.0
 40
8.2499999999999911
 50
359.99999999999949
 51
179.9999999999998
  0
ARC
  5
462
  8
0
 10
106.0625093705693
 20
164.12500450375859
 30
0.0
 40
7.6875
 50
0.0000000000006355
 51
179.9999999999998
  0
ARC
  5
463
  8
0
 10
106.0625093705693
 20
164.12500450375859
 30
0.0
 40
7.6874999999999831
 50
180.00000000000031
 51
359.9999999999996
  0
LINE
  5
464
  8
0
 10
111.1850101445571
 20
161.6831486549612
 30
0.0
 11
110.9900696683666
 21
161.23423992480249
 31
0.0
  0
LINE
  5
465
  8
0
 10
110.9900696683666
 20
161.23423992480249
 30
0.0
 11
110.5391768112237
 21
161.07699786131039
 31
0.0
  0
LINE
  5
466
  8
0
 10
110.5391768112237
 20
161.07699786131039
 30
0.0
 11
110.2146480413825
 21
161.14123397242159
 31
0.0
  0
LINE
  5
467
  8
0
 10
110.2146480413825
 20
161.14123397242159
 30
0.0
 11
109.97915696995391
 21
161.3339423057549
 31
0.0
  0
LINE
  5
468
  8
0
 10
109.97915696995391
 20
161.3339423057549
 30
0.0
 11
109.78818474773171
 21
162.09187881369141
 31
0.0
  0
LINE
  5
469
  8
0
 10
109.78818474773171
 20
162.09187881369141
 30
0.0
 11
109.97221252550951
 21
162.85576770258029
 31
0.0
  0
LINE
  5
46A
  8
0
 10
109.97221252550951
 20
162.85576770258029
 30
0.0
 11
110.20199923185869
 21
163.0454998454374
 31
0.0
  0
LINE
  5
46B
  8
0
 10
110.20199923185869
 20
163.0454998454374
 30
0.0
 11
110.5233037953508
 21
163.1087438930565
 31
0.0
  0
LINE
  5
46C
  8
0
 10
110.5233037953508
 20
163.1087438930565
 30
0.0
 11
110.9915577636047
 21
162.96539071845331
 31
0.0
  0
LINE
  5
46D
  8
0
 10
110.9915577636047
 20
162.96539071845331
 30
0.0
 11
111.1850101445571
 21
162.54029151210409
 31
0.0
  0
LINE
  5
46E
  8
0
 10
111.1850101445571
 20
162.54029151210409
 30
0.0
 11
112.32786728741431
 21
162.54029151210409
 31
0.0
  0
LINE
  5
46F
  8
0
 10
112.32786728741431
 20
162.54029151210409
 30
0.0
 11
112.167649033446
 21
163.187984964485
 31
0.0
  0
LINE
  5
470
  8
0
 10
112.167649033446
 20
163.187984964485
 30
0.0
 11
111.80008950963639
 21
163.66677960734219
 31
0.0
  0
LINE
  5
471
  8
0
 10
111.80008950963639
 20
163.66677960734219
 30
0.0
 11
111.24106173185869
 21
163.96253853591361
 31
0.0
  0
LINE
  5
472
  8
0
 10
111.24106173185869
 20
163.96253853591361
 30
0.0
 11
110.50643871598569
 21
164.0611248454374
 31
0.0
  0
LINE
  5
473
  8
0
 10
110.50643871598569
 20
164.0611248454374
 30
0.0
 11
109.7084476445571
 21
163.929180400993
 31
0.0
  0
LINE
  5
474
  8
0
 10
109.7084476445571
 20
163.929180400993
 30
0.0
 11
109.0982045890015
 21
163.53334706765969
 31
0.0
  0
LINE
  5
475
  8
0
 10
109.0982045890015
 20
163.53334706765969
 30
0.0
 11
108.71092780328721
 21
162.90933913115171
 31
0.0
  0
LINE
  5
476
  8
0
 10
108.71092780328721
 20
162.90933913115171
 30
0.0
 11
108.5818355413825
 21
162.09287087718349
 31
0.0
  0
LINE
  5
477
  8
0
 10
108.5818355413825
 20
162.09287087718349
 30
0.0
 11
108.71154784296991
 21
161.27454250416761
 31
0.0
  0
LINE
  5
478
  8
0
 10
108.71154784296991
 20
161.27454250416761
 30
0.0
 11
109.10068474773171
 21
160.65090659146921
 31
0.0
  0
LINE
  5
479
  8
0
 10
109.10068474773171
 20
160.65090659146921
 30
0.0
 11
109.7160121286841
 21
160.25618932956439
 31
0.0
  0
LINE
  5
47A
  8
0
 10
109.7160121286841
 20
160.25618932956439
 30
0.0
 11
110.52429585884281
 21
160.12461690892951
 31
0.0
  0
LINE
  5
47B
  8
0
 10
110.52429585884281
 20
160.12461690892951
 30
0.0
 11
111.24738613662051
 21
160.22679944861201
 31
0.0
  0
LINE
  5
47C
  8
0
 10
111.24738613662051
 20
160.22679944861201
 30
0.0
 11
111.80356173185869
 21
160.53334706765961
 31
0.0
  0
LINE
  5
47D
  8
0
 10
111.80356173185869
 20
160.53334706765961
 30
0.0
 11
112.17099724773171
 21
161.02516254385009
 31
0.0
  0
LINE
  5
47E
  8
0
 10
112.17099724773171
 20
161.02516254385009
 30
0.0
 11
112.32786728741431
 21
161.6831486549612
 31
0.0
  0
LINE
  5
47F
  8
0
 10
112.32786728741431
 20
161.6831486549612
 30
0.0
 11
111.1850101445571
 21
161.6831486549612
 31
0.0
  0
LINE
  5
480
  8
0
 10
103.9632827667894
 20
162.45722284388441
 30
0.0
 11
105.1408621318688
 21
162.45722284388441
 31
0.0
  0
LINE
  5
481
  8
0
 10
105.1408621318688
 20
162.45722284388441
 30
0.0
 11
105.28768752869421
 21
162.965159351821
 31
0.0
  0
LINE
  5
482
  8
0
 10
105.28768752869421
 20
162.965159351821
 30
0.0
 11
106.4910605445672
 21
162.965159351821
 31
0.0
  0
LINE
  5
483
  8
0
 10
106.4910605445672
 20
162.965159351821
 30
0.0
 11
106.63292562393229
 21
162.45722284388441
 31
0.0
  0
LINE
  5
484
  8
0
 10
106.63292562393229
 20
162.45722284388441
 30
0.0
 11
107.83629863980531
 21
162.45722284388441
 31
0.0
  0
LINE
  5
485
  8
0
 10
107.83629863980531
 20
162.45722284388441
 30
0.0
 11
106.5069335604402
 21
166.26674665340829
 31
0.0
  0
LINE
  5
486
  8
0
 10
106.5069335604402
 20
166.26674665340829
 30
0.0
 11
105.2777668937735
 21
166.26674665340829
 31
0.0
  0
LINE
  5
487
  8
0
 10
105.2777668937735
 20
166.26674665340829
 30
0.0
 11
103.9632827667894
 21
162.45722284388441
 31
0.0
  0
LINE
  5
488
  8
0
 10
105.50792562393229
 20
163.79055617721781
 30
0.0
 11
105.893838322345
 21
165.0941276057892
 31
0.0
  0
LINE
  5
489
  8
0
 10
105.893838322345
 20
165.0941276057892
 30
0.0
 11
106.2708224493291
 21
163.79055617721781
 31
0.0
  0
LINE
  5
48A
  8
0
 10
106.2708224493291
 20
163.79055617721781
 30
0.0
 11
105.50792562393229
 21
163.79055617721781
 31
0.0
  0
LINE
  5
48B
  8
0
 10
100.20255157652799
 20
164.19761115306471
 30
0.0
 11
101.9019563384328
 21
164.19761115306471
 31
0.0
  0
LINE
  5
48C
  8
0
 10
101.9019563384328
 20
164.19761115306471
 30
0.0
 11
102.66981348128991
 21
164.23630162925519
 31
0.0
  0
LINE
  5
48D
  8
0
 10
102.66981348128991
 20
164.23630162925519
 30
0.0
 11
103.0825118939883
 21
164.36824607369959
 31
0.0
  0
LINE
  5
48E
  8
0
 10
103.0825118939883
 20
164.36824607369959
 30
0.0
 11
103.49074602097249
 21
164.7511825816361
 31
0.0
  0
LINE
  5
48F
  8
0
 10
103.49074602097249
 20
164.7511825816361
 30
0.0
 11
103.6311230050994
 21
165.3384841689377
 31
0.0
  0
LINE
  5
490
  8
0
 10
103.6311230050994
 20
165.3384841689377
 30
0.0
 11
103.48727379875019
 21
165.90148020068381
 31
0.0
  0
LINE
  5
491
  8
0
 10
103.48727379875019
 20
165.90148020068381
 30
0.0
 11
103.0438214177978
 21
166.22638099433451
 31
0.0
  0
LINE
  5
492
  8
0
 10
103.0438214177978
 20
166.22638099433451
 30
0.0
 11
103.3890595130359
 21
166.54384131179489
 31
0.0
  0
LINE
  5
493
  8
0
 10
103.3890595130359
 20
166.54384131179489
 30
0.0
 11
103.5041388781153
 21
166.9962222641758
 31
0.0
  0
LINE
  5
494
  8
0
 10
103.5041388781153
 20
166.9962222641758
 30
0.0
 11
103.35036903684551
 21
167.55624210544559
 31
0.0
  0
LINE
  5
495
  8
0
 10
103.35036903684551
 20
167.55624210544559
 30
0.0
 11
102.9079087193852
 21
167.89602385147739
 31
0.0
  0
LINE
  5
496
  8
0
 10
102.9079087193852
 20
167.89602385147739
 30
0.0
 11
102.5125714177979
 21
167.98134131179489
 31
0.0
  0
LINE
  5
497
  8
0
 10
102.5125714177979
 20
167.98134131179489
 30
0.0
 11
101.77894046541689
 21
168.00713496258851
 31
0.0
  0
LINE
  5
498
  8
0
 10
101.77894046541689
 20
168.00713496258851
 30
0.0
 11
100.20255157652799
 21
168.00713496258851
 31
0.0
  0
LINE
  5
499
  8
0
 10
100.20255157652799
 20
168.00713496258851
 30
0.0
 11
100.20255157652799
 21
164.19761115306471
 31
0.0
  0
LINE
  5
49A
  8
0
 10
101.4089007828772
 20
165.0865000419536
 30
0.0
 11
101.4089007828772
 21
165.78491274036631
 31
0.0
  0
LINE
  5
49B
  8
0
 10
101.4089007828772
 20
165.78491274036631
 30
0.0
 11
101.9575118939883
 21
165.78491274036631
 31
0.0
  0
LINE
  5
49C
  8
0
 10
101.9575118939883
 20
165.78491274036631
 30
0.0
 11
102.3667380844645
 21
165.70554766100119
 31
0.0
  0
LINE
  5
49D
  8
0
 10
102.3667380844645
 20
165.70554766100119
 30
0.0
 11
102.4882658622424
 21
165.4386825816361
 31
0.0
  0
LINE
  5
49E
  8
0
 10
102.4882658622424
 20
165.4386825816361
 30
0.0
 11
102.36921824319469
 21
165.16884131179481
 31
0.0
  0
LINE
  5
49F
  8
0
 10
102.36921824319469
 20
165.16884131179481
 30
0.0
 11
101.96842459240101
 21
165.0865000419536
 31
0.0
  0
LINE
  5
4A0
  8
0
 10
101.96842459240101
 20
165.0865000419536
 30
0.0
 11
101.4089007828772
 21
165.0865000419536
 31
0.0
  0
LINE
  5
4A1
  8
0
 10
101.4089007828772
 20
166.48332543877899
 30
0.0
 11
101.4089007828772
 21
167.11824607369959
 31
0.0
  0
LINE
  5
4A2
  8
0
 10
101.4089007828772
 20
167.11824607369959
 30
0.0
 11
101.7432261797026
 21
167.11824607369959
 31
0.0
  0
LINE
  5
4A3
  8
0
 10
101.7432261797026
 20
167.11824607369959
 30
0.0
 11
102.25165871938511
 21
167.05078575623929
 31
0.0
  0
LINE
  5
4A4
  8
0
 10
102.25165871938511
 20
167.05078575623929
 30
0.0
 11
102.3612817352582
 21
166.80078575623929
 31
0.0
  0
LINE
  5
4A5
  8
0
 10
102.3612817352582
 20
166.80078575623929
 30
0.0
 11
102.2590991955756
 21
166.55574607369959
 31
0.0
  0
LINE
  5
4A6
  8
0
 10
102.2590991955756
 20
166.55574607369959
 30
0.0
 11
101.9069166558931
 21
166.48332543877899
 31
0.0
  0
LINE
  5
4A7
  8
0
 10
101.9069166558931
 20
166.48332543877899
 30
0.0
 11
101.4089007828772
 21
166.48332543877899
 31
0.0
  0
ARC
  5
4A8
  8
0
 10
106.0625093705688
 20
164.1250045037593
 30
0.0
 40
9.0000000000000089
 50
179.99999999999969
 51
359.99999999999881
  0
ARC
  5
4A9
  8
0
 10
106.0625093705688
 20
164.1250045037593
 30
0.0
 40
9.0000000000000089
 50
359.99999999999949
 51
179.99999999999969
  0
LINE
  5
4AA
  8
0
 10
212.1250093705674
 20
39.75000450375807
 30
0.0
 11
212.3750093705693
 21
39.75000450375807
 31
0.0
  0
LINE
  5
4AB
  8
0
 10
212.3750093705693
 20
41.250004503758412
 30
0.0
 11
212.1250093705674
 21
41.250004503758412
 31
0.0
  0
LINE
  5
4AC
  8
0
 10
212.1250093705674
 20
27.500004503757971
 30
0.0
 11
212.3750093705691
 21
27.500004503757971
 31
0.0
  0
LINE
  5
4AD
  8
0
 10
212.3750093705691
 20
30.50000450375796
 30
0.0
 11
212.1250093705674
 21
30.50000450375796
 31
0.0
  0
LINE
  5
4AE
  8
0
 10
212.1250093705674
 20
5.6250045037580758
 30
0.0
 11
212.3750093705691
 21
5.6250045037580758
 31
0.0
  0
LINE
  5
4AF
  8
0
 10
212.3750093705691
 20
7.625004503757963
 30
0.0
 11
212.1250093705674
 21
7.625004503757963
 31
0.0
  0
LINE
  5
4B0
  8
0
 10
212.37500937056899
 20
41.250004503758127
 30
0.0
 11
212.37500937056899
 21
41.224450808908692
 31
0.0
  0
LINE
  5
4B1
  8
0
 10
212.37500937056899
 20
41.224448873474927
 30
0.0
 11
212.37500937056899
 21
41.030335256035492
 31
0.0
  0
LINE
  5
4B2
  8
0
 10
212.37500937056899
 20
41.030334589648042
 30
0.0
 11
212.37500937056899
 21
40.694119208277179
 31
0.0
  0
LINE
  5
4B3
  8
0
 10
212.37500937056899
 20
40.694118787585019
 30
0.0
 11
212.37500937056899
 21
40.500004503758127
 31
0.0
  0
LINE
  5
4B4
  8
0
 10
212.37500937056899
 20
40.50000450375812
 30
0.0
 11
212.37500937056899
 21
40.305890219931229
 31
0.0
  0
LINE
  5
4B5
  8
0
 10
212.37500937056899
 20
40.305889799238642
 30
0.0
 11
212.37500937056899
 21
39.969674417868212
 31
0.0
  0
LINE
  5
4B6
  8
0
 10
212.37500937056899
 20
39.96967375147981
 30
0.0
 11
212.37500937056899
 21
39.775560134041342
 31
0.0
  0
LINE
  5
4B7
  8
0
 10
212.37500937056899
 20
39.775558198605118
 30
0.0
 11
212.37500937056899
 21
39.750004503758142
 31
0.0
  0
LINE
  5
4B8
  8
0
 10
212.37500937056879
 20
30.500004503758142
 30
0.0
 11
212.37500937056879
 21
30.44889332124837
 31
0.0
  0
LINE
  5
4B9
  8
0
 10
212.37500937056879
 20
30.448893243191751
 30
0.0
 11
212.37500937056879
 21
29.75000554776814
 31
0.0
  0
LINE
  5
4BA
  8
0
 10
212.37500937056879
 20
29.750004503758142
 30
0.0
 11
212.37500937056879
 21
29.388233071411928
 31
0.0
  0
LINE
  5
4BB
  8
0
 10
212.37500937056879
 20
29.388231991884851
 30
0.0
 11
212.37500937056879
 21
29.00000546841358
 31
0.0
  0
LINE
  5
4BC
  8
0
 10
212.37500937056879
 20
29.000004503758131
 30
0.0
 11
212.37500937056879
 21
28.611776083844109
 31
0.0
  0
LINE
  5
4BD
  8
0
 10
212.37500937056879
 20
28.611775936104351
 30
0.0
 11
212.37500937056879
 21
28.250005400270229
 31
0.0
  0
LINE
  5
4BE
  8
0
 10
212.37500937056879
 20
28.250004503758142
 30
0.0
 11
212.37500937056879
 21
27.939344331978312
 31
0.0
  0
LINE
  5
4BF
  8
0
 10
212.37500937056879
 20
27.939344110111541
 30
0.0
 11
212.37500937056879
 21
27.551115764324539
 31
0.0
  0
LINE
  5
4C0
  8
0
 10
212.37500937056879
 20
27.551113789843139
 30
0.0
 11
212.37500937056879
 21
27.500004503758142
 31
0.0
  0
LINE
  5
4C1
  8
0
 10
212.37500937056879
 20
7.62500450375813
 30
0.0
 11
212.37500937056879
 21
7.5909310142280564
 31
0.0
  0
LINE
  5
4C2
  8
0
 10
212.37500937056879
 20
7.5909303300472004
 30
0.0
 11
212.37500937056879
 21
7.4910302776755184
 31
0.0
  0
LINE
  5
4C3
  8
0
 10
212.37500937056879
 20
7.491029907542571
 30
0.0
 11
212.37500937056879
 21
7.3321112849446823
 31
0.0
  0
LINE
  5
4C4
  8
0
 10
212.37500937056879
 20
7.3321111142962181
 30
0.0
 11
212.37500937056879
 21
6.8838238598009669
 31
0.0
  0
LINE
  5
4C5
  8
0
 10
212.37500937056879
 20
6.8838235488606561
 30
0.0
 11
212.37500937056879
 21
6.6250045037581371
 31
0.0
  0
LINE
  5
4C6
  8
0
 10
212.37500937056879
 20
6.6250042625935386
 30
0.0
 11
212.37500937056879
 21
6.3661854586556057
 31
0.0
  0
LINE
  5
4C7
  8
0
 10
212.37500937056879
 20
6.3661853976965892
 30
0.0
 11
212.37500937056879
 21
6.1250047278860258
 31
0.0
  0
LINE
  5
4C8
  8
0
 10
212.37500937056879
 20
6.1250045037581273
 30
0.0
 11
212.37500937056879
 21
5.9178977866651188
 31
0.0
  0
LINE
  5
4C9
  8
0
 10
212.37500937056879
 20
5.9178977225715803
 30
0.0
 11
212.37500937056879
 21
5.7589790999736907
 31
0.0
  0
LINE
  5
4CA
  8
0
 10
212.37500937056879
 20
5.7589790422399139
 30
0.0
 11
212.37500937056879
 21
5.6590786774690622
 31
0.0
  0
LINE
  5
4CB
  8
0
 10
212.37500937056879
 20
5.6590784673935657
 30
0.0
 11
212.37500937056879
 21
5.62500450375813
 31
0.0
  0
LINE
  5
4CC
  8
0
 10
212.1250093705674
 20
8.5000045037581877
 30
0.0
 11
212.3750093705691
 21
8.5000045037581877
 31
0.0
  0
LINE
  5
4CD
  8
0
 10
212.3750093705691
 20
18.50000450375796
 30
0.0
 11
212.1250093705674
 21
18.50000450375796
 31
0.0
  0
LINE
  5
4CE
  8
0
 10
212.37500937056879
 20
18.500004503758159
 30
0.0
 11
212.37500937056879
 21
16.000005025763059
 31
0.0
  0
LINE
  5
4CF
  8
0
 10
212.37500937056879
 20
16.000004503758181
 30
0.0
 11
212.37500937056879
 21
14.794099729270791
 31
0.0
  0
LINE
  5
4D0
  8
0
 10
212.37500937056879
 20
14.79409954739757
 30
0.0
 11
212.37500937056879
 21
13.5000045037582
 31
0.0
  0
LINE
  5
4D1
  8
0
 10
212.37500937056879
 20
13.500004503758131
 30
0.0
 11
212.37500937056879
 21
12.20590946011796
 31
0.0
  0
LINE
  5
4D2
  8
0
 10
212.37500937056879
 20
12.20590927824553
 30
0.0
 11
212.37500937056879
 21
9.9644705978254162
 31
0.0
  0
LINE
  5
4D3
  8
0
 10
212.37500937056879
 20
9.9644703211494257
 30
0.0
 11
212.37500937056879
 21
8.6703753723128205
 31
0.0
  0
LINE
  5
4D4
  8
0
 10
212.37500937056879
 20
8.6703752701587771
 30
0.0
 11
212.37500937056879
 21
8.5000045037581664
 31
0.0
  0
LINE
  5
4D5
  8
0
 10
283.50723065534538
 20
449.70144884159862
 30
0.0
 11
283.50723065534532
 21
237.5764488416045
 31
0.0
  0
LINE
  5
4D6
  8
0
 10
283.50723065534532
 20
237.5764488416045
 30
0.0
 11
424.2572306553422
 21
237.57644884160419
 31
0.0
  0
LINE
  5
4D7
  8
0
 10
424.2572306553422
 20
237.57644884160419
 30
0.0
 11
424.25723065534271
 21
449.70144884159839
 31
0.0
  0
LINE
  5
4D8
  8
0
 10
424.25723065534271
 20
449.70144884159839
 30
0.0
 11
283.50723065534538
 21
449.70144884159862
 31
0.0
  0
LINE
  5
4D9
  8
0
 10
422.63223065534561
 20
448.07644884159879
 30
0.0
 11
422.63223065534521
 21
239.20144884159879
 31
0.0
1001
ACAD
1000
ASC_BOUNDS
1002
{
1070
    19
1005
53A
1002
}
  0
LINE
  5
4DA
  8
0
 10
422.63223065534521
 20
239.20144884159879
 30
0.0
 11
285.13223065534532
 21
239.20144884159919
 31
0.0
1001
ACAD
1000
ASC_BOUNDS
1002
{
1070
    19
1005
53A
1002
}
  0
LINE
  5
4DB
  8
0
 10
285.13223065534532
 20
239.20144884159919
 30
0.0
 11
285.13223065534572
 21
448.07644884159902
 31
0.0
1001
ACAD
1000
ASC_BOUNDS
1002
{
1070
    19
1005
53A
1002
}
  0
LINE
  5
4DC
  8
0
 10
285.13223065534572
 20
448.07644884159902
 30
0.0
 11
422.63223065534561
 21
448.07644884159879
 31
0.0
1001
ACAD
1000
ASC_BOUNDS
1002
{
1070
    19
1005
53A
1002
}
  0
LINE
  5
4DD
  8
0
 10
424.2572306553422
 20
237.5764488415987
 30
0.0
 11
425.50723065534589
 21
237.5764488415987
 31
0.0
  0
LINE
  5
4DE
  8
0
 10
425.50723065534589
 20
237.5764488415987
 30
0.0
 11
425.50723065534601
 21
449.70144884159862
 31
0.0
  0
LINE
  5
4DF
  8
0
 10
425.50723065534601
 20
449.70144884159862
 30
0.0
 11
424.25723065534271
 21
449.70144884159862
 31
0.0
  0
LINE
  5
4E0
  8
0
 10
424.50723065534578
 20
348.63894884159492
 30
0.0
 11
424.25723065534572
 21
348.63894884159492
 31
0.0
  0
LINE
  5
4E1
  8
0
 10
424.25723065534572
 20
338.63894884159453
 30
0.0
 11
424.50723065534578
 21
338.63894884159453
 31
0.0
  0
LINE
  5
4E2
  8
0
 10
424.50723065534612
 20
343.63894769288009
 30
0.0
 11
424.50723065534612
 21
342.3448536160829
 31
0.0
  0
LINE
  5
4E3
  8
0
 10
424.50723065534612
 20
342.34485262053659
 30
0.0
 11
424.50723065534612
 21
341.13894884159549
 31
0.0
  0
LINE
  5
4E4
  8
0
 10
424.50723065534612
 20
341.13894864239558
 30
0.0
 11
424.50723065534612
 21
340.10341562625541
 31
0.0
  0
LINE
  5
4E5
  8
0
 10
424.50723065534612
 20
340.10341493566278
 30
0.0
 11
424.50723065534612
 21
339.30882182267328
 31
0.0
  0
LINE
  5
4E6
  8
0
 10
424.50723065534612
 20
339.3088206707796
 30
0.0
 11
424.50723065534612
 21
338.8093203604393
 31
0.0
  0
LINE
  5
4E7
  8
0
 10
424.50723065534612
 20
338.80931971015019
 30
0.0
 11
424.50723065534612
 21
338.63894884159549
 31
0.0
  0
LINE
  5
4E8
  8
0
 10
424.50723065534612
 20
348.63894884159561
 30
0.0
 11
424.50723065534612
 21
348.46857797304079
 31
0.0
  0
LINE
  5
4E9
  8
0
 10
424.50723065534612
 20
348.46857772275382
 30
0.0
 11
424.50723065534612
 21
347.17448274752832
 31
0.0
  0
LINE
  5
4EA
  8
0
 10
424.50723065534612
 20
347.1744825840741
 30
0.0
 11
424.50723065534612
 21
346.13894968640528
 31
0.0
  0
LINE
  5
4EB
  8
0
 10
424.50723065534612
 20
346.13894884159561
 30
0.0
 11
424.50723065534612
 21
343.63894884159549
 31
0.0
  0
LINE
  5
4EC
  8
0
 10
349.5072306553451
 20
237.32644884159811
 30
0.0
 11
349.5072306553451
 21
237.57644884159859
 31
0.0
  0
LINE
  5
4ED
  8
0
 10
348.00723065534521
 20
237.57644884159859
 30
0.0
 11
348.00723065534521
 21
237.32644884159811
 31
0.0
  0
LINE
  5
4EE
  8
0
 10
289.75723065534493
 20
237.32644884159819
 30
0.0
 11
289.75723065534493
 21
237.57644884159859
 31
0.0
  0
LINE
  5
4EF
  8
0
 10
286.75723065534493
 20
237.57644884159859
 30
0.0
 11
286.75723065534493
 21
237.32644884159819
 31
0.0
  0
LINE
  5
4F0
  8
0
 10
285.8822306553447
 20
237.57644884159859
 30
0.0
 11
285.8822306553447
 21
237.32644884159819
 31
0.0
  0
LINE
  5
4F1
  8
0
 10
349.50723065534538
 20
237.32644884159839
 30
0.0
 11
349.48167502506209
 21
237.32644884159839
 31
0.0
  0
LINE
  5
4F2
  8
0
 10
349.48167471495577
 20
237.32644884159839
 30
0.0
 11
349.40675022008969
 21
237.32644884159839
 31
0.0
  0
LINE
  5
4F3
  8
0
 10
349.40674970818372
 20
237.32644884159839
 30
0.0
 11
349.28756140762903
 21
237.32644884159839
 31
0.0
  0
LINE
  5
4F4
  8
0
 10
349.28756074123532
 20
237.32644884159839
 30
0.0
 11
348.95134535986961
 21
237.32644884159839
 31
0.0
  0
LINE
  5
4F5
  8
0
 10
348.95134493917232
 20
237.32644884159839
 30
0.0
 11
348.5631163715185
 21
237.32644884159839
 31
0.0
  0
LINE
  5
4F6
  8
0
 10
348.5631159508311
 20
237.32644884159839
 30
0.0
 11
348.22690056945549
 21
237.32644884159839
 31
0.0
  0
LINE
  5
4F7
  8
0
 10
348.22689990307327
 20
237.32644884159839
 30
0.0
 11
348.0327862856285
 21
237.32644884159839
 31
0.0
  0
LINE
  5
4F8
  8
0
 10
348.03278435020383
 20
237.32644884159839
 30
0.0
 11
348.00723065534538
 21
237.32644884159839
 31
0.0
  0
LINE
  5
4F9
  8
0
 10
289.75723065534538
 20
237.3264488415987
 30
0.0
 11
289.55626876102201
 21
237.3264488415987
 31
0.0
  0
LINE
  5
4FA
  8
0
 10
289.55626861908218
 20
237.3264488415987
 30
0.0
 11
289.00723274337122
 21
237.3264488415987
 31
0.0
  0
LINE
  5
4FB
  8
0
 10
289.00723065534538
 20
237.3264488415987
 30
0.0
 11
288.6454620642474
 21
237.3264488415987
 31
0.0
  0
LINE
  5
4FC
  8
0
 10
288.64545922299919
 20
237.3264488415987
 30
0.0
 11
288.25723258466201
 21
237.3264488415987
 31
0.0
  0
LINE
  5
4FD
  8
0
 10
288.25723065534538
 20
237.3264488415987
 30
0.0
 11
287.86900316722267
 21
237.3264488415987
 31
0.0
  0
LINE
  5
4FE
  8
0
 10
287.86900208769163
 20
237.3264488415987
 30
0.0
 11
286.95819254966869
 21
237.3264488415987
 31
0.0
  0
LINE
  5
4FF
  8
0
 10
286.95819027627948
 20
237.3264488415987
 30
0.0
 11
286.8083419159118
 21
237.3264488415987
 31
0.0
  0
LINE
  5
500
  8
0
 10
286.80834183786499
 20
237.3264488415987
 30
0.0
 11
286.75723065534538
 21
237.3264488415987
 31
0.0
  0
LINE
  5
501
  8
0
 10
286.75612980117131
 20
237.3264488415987
 30
0.0
 11
286.62341161024273
 21
237.3264488415987
 31
0.0
  0
LINE
  5
502
  8
0
 10
286.623411049325
 20
237.3264488415987
 30
0.0
 11
286.38223244837587
 21
237.3264488415987
 31
0.0
  0
LINE
  5
503
  8
0
 10
286.38223065534521
 20
237.3264488415987
 30
0.0
 11
286.1751238741586
 21
237.3264488415987
 31
0.0
  0
LINE
  5
504
  8
0
 10
286.17512298564799
 20
237.3264488415987
 30
0.0
 11
286.01620525156079
 21
237.3264488415987
 31
0.0
  0
LINE
  5
505
  8
0
 10
286.01620456903441
 20
237.3264488415987
 30
0.0
 11
285.91630482905612
 21
237.3264488415987
 31
0.0
  0
LINE
  5
506
  8
0
 10
285.91630224848711
 20
237.3264488415987
 30
0.0
 11
285.88223065534521
 21
237.3264488415987
 31
0.0
  0
LINE
  5
507
  8
0
 10
315.63223065534493
 20
237.32644884159811
 30
0.0
 11
315.63223065534493
 21
237.57644884159859
 31
0.0
  0
LINE
  5
508
  8
0
 10
305.63223065534521
 20
237.57644884159859
 30
0.0
 11
305.63223065534521
 21
237.32644884159811
 31
0.0
  0
LINE
  5
509
  8
0
 10
315.63223065534561
 20
237.32644884159851
 30
0.0
 11
314.96235858774003
 21
237.32644884159851
 31
0.0
  0
LINE
  5
50A
  8
0
 10
314.96235767426771
 20
237.32644884159851
 30
0.0
 11
314.16776678205099
 21
237.32644884159851
 31
0.0
  0
LINE
  5
50B
  8
0
 10
314.16776456127832
 20
237.32644884159851
 30
0.0
 11
311.9263266856193
 21
237.32644884159851
 31
0.0
  0
LINE
  5
50C
  8
0
 10
311.92632588085809
 20
237.32644884159851
 30
0.0
 11
310.6322306553455
 21
237.32644884159851
 31
0.0
  0
LINE
  5
50D
  8
0
 10
310.63222872603842
 20
237.32644884159851
 30
0.0
 11
306.3021046332625
 21
237.32644884159851
 31
0.0
  0
LINE
  5
50E
  8
0
 10
306.30210363642328
 20
237.32644884159851
 30
0.0
 11
305.80260152390019
 21
237.32644884159851
 31
0.0
  0
LINE
  5
50F
  8
0
 10
305.8025962065812
 20
237.32644884159851
 30
0.0
 11
305.63223065534561
 21
237.32644884159851
 31
0.0
  0
INSERT
  5
530
  8
0
  6
CONTINUOUS
  2
*X4
 10
0.0
 20
0.0
 30
0.0
1001
GRADIENTCOLOR1ACI
1070
     5
1001
GRADIENTCOLOR2ACI
1070
     2
1001
ACAD
1000
HATCH
1002
{
1070
    19
1000
NET
1040
12.0
1040
0.0
1000
ASC_BOUNDS
1070
     5
1070
     1
1070
     4
1005
3DA
1005
3DB
1005
3CA
1005
3D9
1070
     1
1070
     4
1005
3D4
1005
3DB
1005
3D2
1005
3D9
1070
     1
1070
     4
1005
3C8
1005
3DB
1005
3C6
1005
3D9
1070
     1
1070
     4
1005
3D0
1005
3DB
1005
3CE
1005
3D9
1070
     1
1070
     4
1005
3C3
1005
3DB
1005
3D8
1005
3D9
1000
ASC_SEEDPOINT
1011
517.2562423157483
1021
0.0
1031
0.0
1021
61.99931606134043
1031
0.0
1000
R14_HATCH_DATA
1000
530
1011
1.0
1021
0.0
1031
0.0
1021
0.0
1031
0.0
1011
0.0
1021
0.0
1031
0.0
1021
1.0
1031
0.0
1011
0.0
1021
0.0
1031
0.0
1021
0.0
1031
1.0
1040
0.0
1010
0.0
1020
0.0
1030
1.0
1000
NET
1070
     0
1070
     1
1071
        5
1071
        7
1070
     0
1070
     1
1071
        4
1040
522.66314662646982
1040
98.375004503756884
1040
512.22709746572082
1040
98.375004503756784
1040
512.22709746572184
1040
4.0000045037562373
1040
522.66314662646982
1040
4.0000045037563581
1071
        4
1005
3D9
1005
3D8
1005
3DB
1005
3C3
1071
        7
1070
     0
1070
     1
1071
        4
1040
576.66459746572139
1040
98.375004503757452
1040
548.67218615683839
1040
98.375004503757168
1040
548.67218615683839
1040
4.0000045037566059
1040
576.66459746572139
1040
4.000004503756883
1071
        4
1005
3D9
1005
3CE
1005
3DB
1005
3D0
1071
        7
1070
     0
1070
     1
1071
        4
1040
630.67359712039286
1040
98.375004503758021
1040
602.66459746572139
1040
98.375004503757722
1040
602.66459746572139
1040
4.0000045037571681
1040
630.67359712039286
1040
4.0000045037574656
1071
        4
1005
3D9
1005
3C6
1005
3DB
1005
3C8
1071
        7
1070
     0
1070
     1
1071
        4
1040
684.66527652298964
1040
98.375004503758575
1040
656.65661278249058
1040
98.375004503758277
1040
656.65661278249058
1040
4.0000045037577223
1040
684.66527652298964
1040
4.0000045037580056
1071
        4
1005
3D9
1005
3D2
1005
3DB
1005
3D4
1071
        7
1070
     0
1070
     1
1071
        4
1040
721.10209746572082
1040
98.375004503758944
1040
710.6505829355699
1040
98.375004503758845
1040
710.6505829355699
1040
4.0000045037582757
1040
721.10209746572173
1040
4.0000045037583973
1071
        4
1005
3D9
1005
3CA
1005
3DB
1005
3DA
1070
     1
1070
     1
1040
0.0
1040
12.0
1070
     0
1070
     2
1040
0.0
1040
0.0
1040
0.0
1040
0.0
1040
1.5
1070
     0
1040
1.5707963267948959
1040
0.0
1040
0.0
1040
-1.5
1040
0.0000000000000001
1070
     0
1040
0.3038848510542002
1071
        5
1040
517.2562423157483
1040
61.99931606134043
1040
0.0
1040
556.78033874528899
1040
68.68478300728259
1040
0.0
1040
616.37051454132325
1040
74.458595369687146
1040
0.0
1040
676.26472148908067
1040
76.28190453676234
1040
0.0
1040
720.04525943184444
1040
74.762480230866345
1040
0.0
1002
}
  0
INSERT
  5
53A
  8
0
  6
CONTINUOUS
  2
*X5
 10
0.0
 20
0.0
 30
0.0
1001
GRADIENTCOLOR1ACI
1070
     5
1001
GRADIENTCOLOR2ACI
1070
     2
1001
ACAD
1000
HATCH
1002
{
1070
    19
1000
ANSI31
1040
12.0
1040
2.3561944901923439
1000
ASC_BOUNDS
1070
     1
1070
     1
1070
     4
1005
4D9
1005
4DA
1005
4DB
1005
4DC
1000
ASC_SEEDPOINT
1011
307.14267162736161
1021
0.0
1031
0.0
1021
411.0867180642893
1031
0.0
1000
R14_HATCH_DATA
1000
53A
1011
1.0
1021
0.0
1031
0.0
1021
0.0
1031
0.0
1011
0.0
1021
0.0
1031
0.0
1021
1.0
1031
0.0
1011
0.0
1021
0.0
1031
0.0
1021
0.0
1031
1.0
1040
0.0
1010
0.0
1020
0.0
1030
1.0
1000
ANSI31
1070
     0
1070
     1
1071
        1
1071
        7
1070
     0
1070
     1
1071
        4
1040
285.13223065534532
1040
239.20144884159919
1040
422.63223065534521
1040
239.20144884159879
1040
422.63223065534561
1040
448.07644884159879
1040
285.13223065534572
1040
448.07644884159902
1071
        4
1005
4DC
1005
4DB
1005
4DA
1005
4D9
1070
     1
1070
     1
1040
2.3561944901923439
1040
12.0
1070
     0
1070
     1
1040
3.1415926535897931
1040
0.0
1040
16.75
1040
-0.0000000000000002
1040
-1.5
1070
     0
1040
0.4860252383946801
1071
        1
1040
307.14267162736161
1040
411.0867180642893
1040
0.0
1002
}
  0
ENDSEC
  0
EOF
