  0
SECTION
  2
HEADER
  9
$ACADVER
  1
AC1009
  9
$INSBASE
 10
0.0
 20
0.0
 30
0.0
  9
$EXTMIN
 10
-0.0261836525928629
 20
-0.0156902143862681
 30
-0.0015258207003583
  9
$EXTMAX
 10
857.98879511324139
 20
536.94441228837206
 30
0.0000000349246037
  9
$LIMMIN
 10
0.0
 20
0.0
  9
$LIMMAX
 10
12.0
 20
9.0
  9
$ORTHOMODE
 70
     1
  9
$REGENMODE
 70
     1
  9
$FILLMODE
 70
     1
  9
$QTEXTMODE
 70
     0
  9
$MIRRTEXT
 70
     0
  9
$DRAGMODE
 70
     2
  9
$LTSCALE
 40
1.0
  9
$OSMODE
 70
    37
  9
$ATTMODE
 70
     1
  9
$TEXTSIZE
 40
0.2
  9
$TRACEWID
 40
0.05
  9
$TEXTSTYLE
  7
ROMANS
  9
$CLAYER
  8
0
  9
$CELTYPE
  6
BYLAYER
  9
$CECOLOR
 62
   256
  9
$DIMSCALE
 40
1.0
  9
$DIMASZ
 40
0.09375
  9
$DIMEXO
 40
0.0625
  9
$DIMDLI
 40
0.375
  9
$DIMRND
 40
0.0
  9
$DIMDLE
 40
0.0
  9
$DIMEXE
 40
0.03125
  9
$DIMTP
 40
0.0
  9
$DIMTM
 40
0.0
  9
$DIMTXT
 40
0.09375
  9
$DIMCEN
 40
0.09375
  9
$DIMTSZ
 40
0.0
  9
$DIMTOL
 70
     0
  9
$DIMLIM
 70
     0
  9
$DIMTIH
 70
     0
  9
$DIMTOH
 70
     0
  9
$DIMSE1
 70
     0
  9
$DIMSE2
 70
     0
  9
$DIMTAD
 70
     0
  9
$DIMZIN
 70
     0
  9
$DIMBLK
  1

  9
$DIMASO
 70
     1
  9
$DIMSHO
 70
     1
  9
$DIMPOST
  1

  9
$DIMAPOST
  1

  9
$DIMALT
 70
     0
  9
$DIMALTD
 70
     2
  9
$DIMALTF
 40
25.399999999999999
  9
$DIMLFAC
 40
1.0
  9
$DIMTOFL
 70
     0
  9
$DIMTVP
 40
0.0
  9
$DIMTIX
 70
     0
  9
$DIMSOXD
 70
     0
  9
$DIMSAH
 70
     0
  9
$DIMBLK1
  1

  9
$DIMBLK2
  1

  9
$DIMSTYLE
  2
BAC
  9
$DIMCLRD
 70
     0
  9
$DIMCLRE
 70
     6
  9
$DIMCLRT
 70
     0
  9
$DIMTFAC
 40
1.0
  9
$DIMGAP
 40
0.0625
  9
$LUNITS
 70
     5
  9
$LUPREC
 70
     6
  9
$SKETCHINC
 40
0.1
  9
$FILLETRAD
 40
0.5
  9
$AUNITS
 70
     0
  9
$AUPREC
 70
     0
  9
$MENU
  1
.
  9
$ELEVATION
 40
0.0
  9
$PELEVATION
 40
0.0
  9
$THICKNESS
 40
0.0
  9
$LIMCHECK
 70
     0
  9
$BLIPMODE
 70
     0
  9
$CHAMFERA
 40
0.5
  9
$CHAMFERB
 40
0.5
  9
$SKPOLY
 70
     0
  9
$TDCREATE
 40
2456834.6439948501
  9
$TDUPDATE
 40
2456834.6451705438
  9
$TDINDWG
 40
0.001177581
  9
$TDUSRTIMER
 40
0.001176956
  9
$USRTIMER
 70
     1
  9
$ANGBASE
 50
0.0
  9
$ANGDIR
 70
     0
  9
$PDMODE
 70
     0
  9
$PDSIZE
 40
0.0
  9
$PLINEWID
 40
0.0
  9
$COORDS
 70
     1
  9
$SPLFRAME
 70
     0
  9
$SPLINETYPE
 70
     6
  9
$SPLINESEGS
 70
     8
  9
$ATTDIA
 70
     0
  9
$ATTREQ
 70
     1
  9
$HANDLING
 70
     1
  9
$HANDSEED
  5
E62
  9
$SURFTAB1
 70
     6
  9
$SURFTAB2
 70
     6
  9
$SURFTYPE
 70
     6
  9
$SURFU
 70
     6
  9
$SURFV
 70
     6
  9
$UCSNAME
  2

  9
$UCSORG
 10
0.0
 20
0.0
 30
0.0
  9
$UCSXDIR
 10
1.0
 20
0.0
 30
0.0
  9
$UCSYDIR
 10
0.0
 20
1.0
 30
0.0
  9
$PUCSNAME
  2

  9
$PUCSORG
 10
0.0
 20
0.0
 30
0.0
  9
$PUCSXDIR
 10
1.0
 20
0.0
 30
0.0
  9
$PUCSYDIR
 10
0.0
 20
1.0
 30
0.0
  9
$USERI1
 70
     0
  9
$USERI2
 70
     0
  9
$USERI3
 70
     0
  9
$USERI4
 70
     0
  9
$USERI5
 70
     0
  9
$USERR1
 40
0.0
  9
$USERR2
 40
0.0
  9
$USERR3
 40
0.0
  9
$USERR4
 40
0.0
  9
$USERR5
 40
0.0
  9
$WORLDVIEW
 70
     1
  9
$SHADEDGE
 70
     3
  9
$SHADEDIF
 70
    70
  9
$TILEMODE
 70
     1
  9
$MAXACTVP
 70
    48
  9
$PLIMCHECK
 70
     0
  9
$PEXTMIN
 10
1.0000000000000000E+020
 20
1.0000000000000000E+020
 30
1.0000000000000000E+020
  9
$PEXTMAX
 10
-1.0000000000000000E+020
 20
-1.0000000000000000E+020
 30
-1.0000000000000000E+020
  9
$PLIMMIN
 10
0.0
 20
0.0
  9
$PLIMMAX
 10
12.0
 20
9.0
  9
$UNITMODE
 70
     0
  9
$VISRETAIN
 70
     1
  9
$PLINEGEN
 70
     0
  9
$PSLTSCALE
 70
     1
  0
ENDSEC
  0
SECTION
  2
TABLES
  0
TABLE
  2
VPORT
 70
     1
  0
VPORT
  2
*ACTIVE
 70
     0
 10
0.0
 20
0.0
 11
1.0
 21
1.0
 12
428.98130573032421
 22
268.46436103699301
 13
0.0
 23
0.0
 14
0.5
 24
0.5
 15
0.5
 25
0.5
 16
0.0
 26
0.0
 36
1.0
 17
0.0
 27
0.0
 37
0.0
 40
540.53189919346414
 41
1.7702552719200879
 42
50.0
 43
0.0
 44
0.0
 50
0.0
 51
0.0
 71
     0
 72
   100
 73
     1
 74
     1
 75
     0
 76
     0
 77
     0
 78
     0
  0
ENDTAB
  0
TABLE
  2
LTYPE
 70
    19
  0
LTYPE
  2
CONTINUOUS
 70
     0
  3
Solid line
 72
    65
 73
     0
 40
0.0
  0
LTYPE
  2
CENTER
 70
     0
  3
Center ____ _ ____ _ ____ _ ____ _ ____ _ ____
 72
    65
 73
     4
 40
2.0
 49
1.25
 49
-0.25
 49
0.25
 49
-0.25
  0
LTYPE
  2
CENTER2
 70
     0
  3
Center (.5x) ___ _ ___ _ ___ _ ___ _ ___ _ ___
 72
    65
 73
     4
 40
1.125
 49
0.75
 49
-0.125
 49
0.125
 49
-0.125
  0
LTYPE
  2
HIDDEN
 70
     0
  3
Hidden __ __ __ __ __ __ __ __ __ __ __ __ __ _
 72
    65
 73
     2
 40
0.375
 49
0.25
 49
-0.125
  0
LTYPE
  2
HIDDEN2
 70
     0
  3
Hidden (.5x) _ _ _ _ _ _ _ _ _ _ _ _ _ _ _ _ _
 72
    65
 73
     2
 40
0.1875
 49
0.125
 49
-0.0625
  0
LTYPE
  2
PHANTOM2
 70
     0
  3
Phantom (.5x) ___ _ _ ___ _ _ ___ _ _ ___ _ _
 72
    65
 73
     6
 40
1.25
 49
0.625
 49
-0.125
 49
0.125
 49
-0.125
 49
0.125
 49
-0.125
  0
LTYPE
  2
AMCONSTR
 70
     0
  3
_______________________
 72
    65
 73
     2
 40
9999.0
 49
9999.0
 49
0.0
  0
LTYPE
  2
AMZIGZAG2
 70
     0
  3
/\/-/\/-/\/-/\/-/\/-/\/
 72
    65
 73
     2
 40
0.4401
 49
0.0001
 49
-0.4400000000000001
  0
LTYPE
  2
ACANSTGB
 70
     0
  3
__ . . __ . .
 72
    65
 73
     6
 40
0.35433070866
 49
0.15748031496
 49
-0.03937007874
 49
0.03937007874
 49
-0.03937007874
 49
0.03937007874
 49
-0.03937007874
  0
LTYPE
  2
ACANSTGL
 70
     0
  3
_ _ _ _ _
 72
    65
 73
     2
 40
0.11811023622
 49
0.07874015748
 49
-0.03937007874
  0
ENDTAB
  0
TABLE
  2
LAYER
 70
     8
  0
LAYER
  2
0
 70
     0
 62
     7
  6
CONTINUOUS
  0
ENDTAB
  0
TABLE
  2
STYLE
 70
    11
  0
STYLE
  2
STANDARD
 70
     0
 40
0.0
 41
1.0
 50
0.0
 71
     0
 42
0.2
  3
txt
  4

  0
STYLE
  2
ROMANS
 70
     0
 40
0.0
 41
0.75
 50
0.0
 71
     0
 42
0.2
  3
romans.shx
  4

  0
STYLE
  2

 70
     1
 40
0.0
 41
1.0
 50
0.0
 71
     0
 42
0.2
  3
genltshp.shx
  4

  0
STYLE
  2
ACANSGDT
 70
     0
 40
0.0
 41
1.0
 50
0.0
 71
     0
 42
0.2
  3
amgdt.shx
  4

  0
ENDTAB
  0
TABLE
  2
VIEW
 70
     0
  0
ENDTAB
  0
TABLE
  2
UCS
 70
     0
  0
ENDTAB
  0
TABLE
  2
APPID
 70
    14
  0
APPID
  2
ACAD
 70
     0
  0
APPID
  2
ACAD_MLEADERVER
 70
     0
  0
APPID
  2
ACAD_DSTYLE_DIMJAG
 70
     0
  0
APPID
  2
ACAD_DSTYLE_DIMTALN
 70
     0
  0
APPID
  2
ACAD_PSEXT
 70
     0
  0
APPID
  2
ACADANNOPO
 70
     0
  0
APPID
  2
MCAD_NO_VIS
 70
     0
  0
APPID
  2
ACAD_TEMP_GRAPHIC
 70
     0
  0
APPID
  2
ACATTRIBSERVICES
 70
     0
  0
APPID
  2
DESIGNERASSEMBLIES
 70
     0
  0
APPID
  2
ACAD_DSTYLE_DIMBREAK
 70
     0
  0
APPID
  2
ACAD_NAV_VCDISPLAY
 70
     0
  0
APPID
  2
GRADIENTCOLOR1ACI
 70
     0
  0
APPID
  2
GRADIENTCOLOR2ACI
 70
     0
  0
ENDTAB
  0
TABLE
  2
DIMSTYLE
 70
    13
  0
DIMSTYLE
  2
BAC
 70
     0
  3

  4

  5

  6

  7

 40
1.0
 41
0.09375
 42
0.0625
 43
0.375
 44
0.03125
 45
0.0
 46
0.0
 47
0.0
 48
0.0
140
0.09375
141
0.09375
142
0.0
143
25.399999999999999
144
1.0
145
0.0
146
1.0
147
0.0625
 71
     0
 72
     0
 73
     0
 74
     0
 75
     0
 76
     0
 77
     0
 78
     0
170
     0
171
     2
172
     0
173
     0
174
     0
175
     0
176
     0
177
     6
178
     0
  0
DIMSTYLE
  2
AM_ANSI
 70
     0
  3

  4
mm
  5

  6

  7

 40
1.0
 41
0.12
 42
0.05
 43
0.5
 44
0.1
 45
0.0
 46
0.0
 47
0.1
 48
0.1
140
0.12
141
0.0
142
0.0
143
25.399999999999999
144
1.0
145
0.0
146
0.71
147
0.06
 71
     0
 72
     0
 73
     1
 74
     1
 75
     0
 76
     0
 77
     0
 78
     7
170
     0
171
     2
172
     0
173
     0
174
     0
175
     0
176
   256
177
   256
178
     2
  0
DIMSTYLE
  2
AM_ANSI$3
 70
     0
  3

  4
mm
  5

  6

  7

 40
1.0
 41
0.12
 42
0.05
 43
0.5
 44
0.1
 45
0.0
 46
0.0
 47
0.1
 48
0.1
140
0.12
141
0.0
142
0.0
143
25.399999999999999
144
1.0
145
0.0
146
0.71
147
0.06
 71
     0
 72
     0
 73
     1
 74
     1
 75
     0
 76
     0
 77
     0
 78
     7
170
     0
171
     2
172
     0
173
     0
174
     0
175
     0
176
   256
177
   256
178
     2
  0
DIMSTYLE
  2
AM_ANSI$4
 70
     0
  3

  4
mm
  5

  6

  7

 40
1.0
 41
0.12
 42
0.05
 43
0.5
 44
0.1
 45
0.0
 46
0.0
 47
0.1
 48
0.1
140
0.12
141
0.0
142
0.0
143
25.399999999999999
144
1.0
145
0.0
146
0.71
147
0.06
 71
     0
 72
     0
 73
     1
 74
     1
 75
     0
 76
     0
 77
     0
 78
     7
170
     0
171
     2
172
     0
173
     0
174
     0
175
     0
176
   256
177
   256
178
     2
  0
DIMSTYLE
  2
AM_ANSI$7
 70
     0
  3

  4
mm
  5

  6

  7

 40
1.0
 41
0.12
 42
0.05
 43
0.5
 44
0.1
 45
0.0
 46
0.0
 47
0.1
 48
0.1
140
0.12
141
0.0
142
0.0
143
25.399999999999999
144
1.0
145
0.0
146
0.71
147
0.06
 71
     0
 72
     0
 73
     1
 74
     1
 75
     0
 76
     0
 77
     0
 78
     7
170
     0
171
     2
172
     0
173
     0
174
     0
175
     0
176
   256
177
   256
178
     2
  0
DIMSTYLE
  2
AM_ANSI$SF
 70
     0
  3

  4
mm
  5

  6

  7

 40
1.0
 41
0.12
 42
0.05
 43
0.5
 44
0.1
 45
0.0
 46
0.0
 47
0.1
 48
0.1
140
0.12
141
0.0
142
0.0
143
25.399999999999999
144
1.0
145
0.0
146
0.71
147
0.06
 71
     0
 72
     0
 73
     1
 74
     1
 75
     1
 76
     1
 77
     0
 78
     7
170
     0
171
     2
172
     0
173
     0
174
     0
175
     0
176
   256
177
   256
178
     2
  0
DIMSTYLE
  2
AM_ANSI$SH
 70
     0
  3

  4
mm
  5

  6
GENAXEH
  7

 40
1.0
 41
0.12
 42
0.05
 43
0.5
 44
0.1
 45
0.0
 46
0.0
 47
0.1
 48
0.1
140
0.12
141
0.0
142
0.0
143
25.399999999999999
144
1.0
145
0.0
146
0.71
147
0.06
 71
     0
 72
     0
 73
     1
 74
     1
 75
     1
 76
     1
 77
     0
 78
     7
170
     0
171
     2
172
     0
173
     1
174
     0
175
     0
176
   256
177
   256
178
     2
  0
DIMSTYLE
  2
STANDARD
 70
     0
  3

  4

  5

  6

  7

 40
1.0
 41
0.18
 42
0.0625
 43
0.38
 44
0.18
 45
0.0
 46
0.0
 47
0.0
 48
0.0
140
0.18
141
0.09
142
0.0
143
25.399999999999999
144
1.0
145
0.0
146
1.0
147
0.09
 71
     0
 72
     0
 73
     1
 74
     1
 75
     0
 76
     0
 77
     0
 78
     0
170
     0
171
     2
172
     0
173
     0
174
     0
175
     0
176
     0
177
     0
178
     0
  0
ENDTAB
  0
ENDSEC
  0
SECTION
  2
BLOCKS
  0
BLOCK
  8
0
  2
$MODEL_SPACE
 70
     0
 10
0.0
 20
0.0
 30
0.0
  3
$MODEL_SPACE
  1

  0
ENDBLK
  5
1A
  8
0
  0
BLOCK
 67
     1
  8
0
  2
$PAPER_SPACE
 70
     0
 10
0.0
 20
0.0
 30
0.0
  3
$PAPER_SPACE
  1

  0
ENDBLK
  5
17
 67
     1
  8
0
  0
BLOCK
  8
0
  2
*U0
 70
     1
 10
0.0
 20
0.0
 30
0.0
  3
*U0
  1

  0
ENDBLK
  5
17A
  8
0
  0
BLOCK
  8
0
  2
GENAXEH
 70
     0
 10
0.0
 20
0.0
 30
0.0
  3
GENAXEH
  1

  0
LINE
  5
1AD
  8
0
 10
-1.0
 20
0.0
 30
0.0
 11
1.0
 21
0.0
 31
0.0
  0
ENDBLK
  5
1AF
  8
0
  0
BLOCK
  8
0
  2
*X3
 70
     1
 10
0.0
 20
0.0
 30
0.0
  3
*X3
  1

  0
LINE
  5
B65
  8
0
 62
     0
 10
855.0
 20
4.0000045037580074
 30
0.0
 11
855.0
 21
98.375004503758561
 31
0.0
  0
LINE
  5
B66
  8
0
 62
     0
 10
853.5
 20
4.0000045037579932
 30
0.0
 11
853.5
 21
98.375004503758561
 31
0.0
  0
LINE
  5
B67
  8
0
 62
     0
 10
852.0
 20
4.000004503757979
 30
0.0
 11
852.0
 21
98.375004503758547
 31
0.0
  0
LINE
  5
B68
  8
0
 62
     0
 10
850.5
 20
4.0000045037579639
 30
0.0
 11
850.5
 21
98.375004503758518
 31
0.0
  0
LINE
  5
B69
  8
0
 62
     0
 10
849.0
 20
4.0000045037579488
 30
0.0
 11
849.0
 21
98.375004503758475
 31
0.0
  0
LINE
  5
B6A
  8
0
 62
     0
 10
847.49999999999989
 20
4.0000045037579346
 30
0.0
 11
847.49999999999989
 21
98.375004503758475
 31
0.0
  0
LINE
  5
B6B
  8
0
 62
     0
 10
846.0
 20
4.0000045037579213
 30
0.0
 11
846.0
 21
98.375004503758475
 31
0.0
  0
LINE
  5
B6C
  8
0
 62
     0
 10
844.5
 20
4.0000045037579062
 30
0.0
 11
844.5
 21
98.375004503758447
 31
0.0
  0
LINE
  5
B6D
  8
0
 62
     0
 10
816.0
 20
4.0000045037576122
 30
0.0
 11
816.0
 21
98.375004503758149
 31
0.0
  0
LINE
  5
B6E
  8
0
 62
     0
 10
814.49999999999989
 20
4.0000045037575971
 30
0.0
 11
814.49999999999989
 21
98.375004503758134
 31
0.0
  0
LINE
  5
B6F
  8
0
 62
     0
 10
813.0
 20
4.000004503757582
 30
0.0
 11
813.0
 21
98.375004503758134
 31
0.0
  0
LINE
  5
B70
  8
0
 62
     0
 10
811.5
 20
4.0000045037575678
 30
0.0
 11
811.5
 21
98.375004503758106
 31
0.0
  0
LINE
  5
B71
  8
0
 62
     0
 10
810.0
 20
4.0000045037575527
 30
0.0
 11
810.0
 21
98.375004503758092
 31
0.0
  0
LINE
  5
B72
  8
0
 62
     0
 10
808.5
 20
4.0000045037575394
 30
0.0
 11
808.5
 21
98.375004503758078
 31
0.0
  0
LINE
  5
B73
  8
0
 62
     0
 10
807.0
 20
4.0000045037575243
 30
0.0
 11
807.0
 21
98.375004503758063
 31
0.0
  0
LINE
  5
B74
  8
0
 62
     0
 10
805.49999999999989
 20
4.00000450375751
 30
0.0
 11
805.49999999999989
 21
98.375004503758035
 31
0.0
  0
LINE
  5
B75
  8
0
 62
     0
 10
804.0
 20
4.0000045037574941
 30
0.0
 11
804.0
 21
98.375004503758021
 31
0.0
  0
LINE
  5
B76
  8
0
 62
     0
 10
802.5
 20
4.0000045037574798
 30
0.0
 11
802.5
 21
98.375004503758007
 31
0.0
  0
LINE
  5
B77
  8
0
 62
     0
 10
774.0
 20
4.0000045037571841
 30
0.0
 11
774.0
 21
98.375004503757694
 31
0.0
  0
LINE
  5
B78
  8
0
 62
     0
 10
772.5
 20
4.0000045037571681
 30
0.0
 11
772.5
 21
98.375004503757694
 31
0.0
  0
LINE
  5
B79
  8
0
 62
     0
 10
771.0
 20
4.0000045037571521
 30
0.0
 11
771.0
 21
98.375004503757694
 31
0.0
  0
LINE
  5
B7A
  8
0
 62
     0
 10
769.5
 20
4.000004503757137
 30
0.0
 11
769.5
 21
98.375004503757665
 31
0.0
  0
LINE
  5
B7B
  8
0
 62
     0
 10
768.0
 20
4.000004503757121
 30
0.0
 11
768.0
 21
98.375004503757651
 31
0.0
  0
LINE
  5
B7C
  8
0
 62
     0
 10
766.5
 20
4.000004503757105
 30
0.0
 11
766.5
 21
98.375004503757637
 31
0.0
  0
LINE
  5
B7D
  8
0
 62
     0
 10
765.0
 20
4.000004503757089
 30
0.0
 11
765.0
 21
98.375004503757609
 31
0.0
  0
LINE
  5
B7E
  8
0
 62
     0
 10
763.49999999999989
 20
4.0000045037570731
 30
0.0
 11
763.49999999999989
 21
98.375004503757594
 31
0.0
  0
LINE
  5
B7F
  8
0
 62
     0
 10
762.0
 20
4.0000045037570571
 30
0.0
 11
762.0
 21
98.37500450375758
 31
0.0
  0
LINE
  5
B80
  8
0
 62
     0
 10
760.5
 20
4.0000045037570411
 30
0.0
 11
760.5
 21
98.375004503757566
 31
0.0
  0
LINE
  5
B81
  8
0
 62
     0
 10
732.0
 20
4.0000045037567444
 30
0.0
 11
732.0
 21
98.375004503757282
 31
0.0
  0
LINE
  5
B82
  8
0
 62
     0
 10
730.49999999999989
 20
4.0000045037567276
 30
0.0
 11
730.49999999999989
 21
98.375004503757253
 31
0.0
  0
LINE
  5
B83
  8
0
 62
     0
 10
729.0
 20
4.0000045037567116
 30
0.0
 11
729.0
 21
98.375004503757239
 31
0.0
  0
LINE
  5
B84
  8
0
 62
     0
 10
727.5
 20
4.0000045037566956
 30
0.0
 11
727.5
 21
98.375004503757225
 31
0.0
  0
LINE
  5
B85
  8
0
 62
     0
 10
726.0
 20
4.0000045037566787
 30
0.0
 11
726.0
 21
98.375004503757211
 31
0.0
  0
LINE
  5
B86
  8
0
 62
     0
 10
724.5
 20
4.0000045037566627
 30
0.0
 11
724.5
 21
98.375004503757211
 31
0.0
  0
LINE
  5
B87
  8
0
 62
     0
 10
723.0
 20
4.0000045037566467
 30
0.0
 11
723.0
 21
98.375004503757168
 31
0.0
  0
LINE
  5
B88
  8
0
 62
     0
 10
721.49999999999989
 20
4.0000045037566307
 30
0.0
 11
721.49999999999989
 21
98.375004503757154
 31
0.0
  0
LINE
  5
B89
  8
0
 62
     0
 10
720.0
 20
4.0000045037566148
 30
0.0
 11
720.0
 21
98.375004503757125
 31
0.0
  0
LINE
  5
B8A
  8
0
 62
     0
 10
715.5
 20
4.0000045037580048
 30
0.0
 11
715.5
 21
98.375004503758575
 31
0.0
  0
LINE
  5
B8B
  8
0
 62
     0
 10
714.0
 20
4.0000045037579932
 30
0.0
 11
714.0
 21
98.375004503758561
 31
0.0
  0
LINE
  5
B8C
  8
0
 62
     0
 10
712.5
 20
4.000004503757979
 30
0.0
 11
712.5
 21
98.375004503758561
 31
0.0
  0
LINE
  5
B8D
  8
0
 62
     0
 10
711.0
 20
4.0000045037579666
 30
0.0
 11
711.0
 21
98.375004503758547
 31
0.0
  0
LINE
  5
B8E
  8
0
 62
     0
 10
709.49999999999989
 20
4.0000045037579541
 30
0.0
 11
709.49999999999989
 21
98.375004503758504
 31
0.0
  0
LINE
  5
B8F
  8
0
 62
     0
 10
708.0
 20
4.0000045037579408
 30
0.0
 11
708.0
 21
98.375004503758475
 31
0.0
  0
LINE
  5
B90
  8
0
 62
     0
 10
706.5
 20
4.0000045037579284
 30
0.0
 11
706.5
 21
98.375004503758475
 31
0.0
  0
LINE
  5
B91
  8
0
 62
     0
 10
705.0
 20
4.0000045037579151
 30
0.0
 11
705.0
 21
98.375004503758475
 31
0.0
  0
LINE
  5
B92
  8
0
 62
     0
 10
703.5
 20
4.0000045037579017
 30
0.0
 11
703.5
 21
98.375004503758447
 31
0.0
  0
LINE
  5
B93
  8
0
 62
     0
 10
675.0
 20
4.0000045037575953
 30
0.0
 11
675.0
 21
98.375004503758149
 31
0.0
  0
LINE
  5
B94
  8
0
 62
     0
 10
673.5
 20
4.0000045037575811
 30
0.0
 11
673.5
 21
98.375004503758134
 31
0.0
  0
LINE
  5
B95
  8
0
 62
     0
 10
672.0
 20
4.0000045037575651
 30
0.0
 11
672.0
 21
98.375004503758134
 31
0.0
  0
LINE
  5
B96
  8
0
 62
     0
 10
670.5
 20
4.0000045037575509
 30
0.0
 11
670.5
 21
98.375004503758106
 31
0.0
  0
LINE
  5
B97
  8
0
 62
     0
 10
669.0
 20
4.0000045037575358
 30
0.0
 11
669.0
 21
98.375004503758078
 31
0.0
  0
LINE
  5
B98
  8
0
 62
     0
 10
667.49999999999989
 20
4.0000045037575216
 30
0.0
 11
667.49999999999989
 21
98.375004503758063
 31
0.0
  0
LINE
  5
B99
  8
0
 62
     0
 10
666.0
 20
4.0000045037575074
 30
0.0
 11
666.0
 21
98.375004503758063
 31
0.0
  0
LINE
  5
B9A
  8
0
 62
     0
 10
664.5
 20
4.0000045037574932
 30
0.0
 11
664.5
 21
98.375004503758035
 31
0.0
  0
LINE
  5
B9B
  8
0
 62
     0
 10
663.0
 20
4.0000045037574781
 30
0.0
 11
663.0
 21
98.375004503758021
 31
0.0
  0
LINE
  5
B9C
  8
0
 62
     0
 10
661.5
 20
4.000004503757463
 30
0.0
 11
661.5
 21
98.375004503758007
 31
0.0
  0
LINE
  5
B9D
  8
0
 62
     0
 10
633.0
 20
4.0000045037571681
 30
0.0
 11
633.0
 21
98.375004503757694
 31
0.0
  0
LINE
  5
B9E
  8
0
 62
     0
 10
631.5
 20
4.0000045037571539
 30
0.0
 11
631.5
 21
98.375004503757694
 31
0.0
  0
LINE
  5
B9F
  8
0
 62
     0
 10
630.0
 20
4.0000045037571388
 30
0.0
 11
630.0
 21
98.375004503757694
 31
0.0
  0
LINE
  5
BA0
  8
0
 62
     0
 10
628.5
 20
4.0000045037571246
 30
0.0
 11
628.5
 21
98.375004503757665
 31
0.0
  0
LINE
  5
BA1
  8
0
 62
     0
 10
627.0
 20
4.0000045037571104
 30
0.0
 11
627.0
 21
98.375004503757637
 31
0.0
  0
LINE
  5
BA2
  8
0
 62
     0
 10
625.49999999999989
 20
4.0000045037570962
 30
0.0
 11
625.49999999999989
 21
98.375004503757637
 31
0.0
  0
LINE
  5
BA3
  8
0
 62
     0
 10
624.0
 20
4.0000045037570811
 30
0.0
 11
624.0
 21
98.375004503757609
 31
0.0
  0
LINE
  5
BA4
  8
0
 62
     0
 10
622.5
 20
4.000004503757066
 30
0.0
 11
622.5
 21
98.375004503757594
 31
0.0
  0
LINE
  5
BA5
  8
0
 62
     0
 10
621.0
 20
4.0000045037570509
 30
0.0
 11
621.0
 21
98.37500450375758
 31
0.0
  0
LINE
  5
BA6
  8
0
 62
     0
 10
619.5
 20
4.0000045037570366
 30
0.0
 11
619.5
 21
98.375004503757566
 31
0.0
  0
LINE
  5
BA7
  8
0
 62
     0
 10
591.0
 20
4.0000045037567276
 30
0.0
 11
591.0
 21
98.375004503757282
 31
0.0
  0
LINE
  5
BA8
  8
0
 62
     0
 10
589.5
 20
4.0000045037567142
 30
0.0
 11
589.5
 21
98.375004503757253
 31
0.0
  0
LINE
  5
BA9
  8
0
 62
     0
 10
588.0
 20
4.0000045037567
 30
0.0
 11
588.0
 21
98.375004503757239
 31
0.0
  0
LINE
  5
BAA
  8
0
 62
     0
 10
586.5
 20
4.0000045037566849
 30
0.0
 11
586.5
 21
98.375004503757225
 31
0.0
  0
LINE
  5
BAB
  8
0
 62
     0
 10
585.0
 20
4.0000045037566698
 30
0.0
 11
585.0
 21
98.375004503757211
 31
0.0
  0
LINE
  5
BAC
  8
0
 62
     0
 10
583.49999999999989
 20
4.0000045037566556
 30
0.0
 11
583.49999999999989
 21
98.375004503757197
 31
0.0
  0
LINE
  5
BAD
  8
0
 62
     0
 10
582.0
 20
4.0000045037566423
 30
0.0
 11
582.0
 21
98.375004503757168
 31
0.0
  0
LINE
  5
BAE
  8
0
 62
     0
 10
580.49999999999989
 20
4.0000045037566272
 30
0.0
 11
580.49999999999989
 21
98.375004503757154
 31
0.0
  0
LINE
  5
BAF
  8
0
 62
     0
 10
719.83761017454378
 20
4.5
 30
0.0
 11
733.08761017454253
 21
4.5
 31
0.0
  0
LINE
  5
BB0
  8
0
 62
     0
 10
702.32962549131264
 20
4.5
 30
0.0
 11
715.58761017454367
 21
4.5
 31
0.0
  0
LINE
  5
BB1
  8
0
 62
     0
 10
759.08761017454344
 20
4.5
 30
0.0
 11
775.08483214571675
 21
4.5
 31
0.0
  0
LINE
  5
BB2
  8
0
 62
     0
 10
660.33009577529003
 20
4.5
 30
0.0
 11
676.3466098292148
 21
4.5
 31
0.0
  0
LINE
  5
BB3
  8
0
 62
     0
 10
801.08009577528981
 20
4.5
 30
0.0
 11
817.09660982921469
 21
4.5
 31
0.0
  0
LINE
  5
BB4
  8
0
 62
     0
 10
618.33761017454356
 20
4.5
 30
0.0
 11
634.33483214571675
 21
4.5
 31
0.0
  0
LINE
  5
BB5
  8
0
 62
     0
 10
843.07962549131264
 20
4.5
 30
0.0
 11
856.33761017454356
 21
4.5
 31
0.0
  0
LINE
  5
BB6
  8
0
 62
     0
 10
579.08761017454367
 20
4.5
 30
0.0
 11
592.33761017454265
 21
4.5
 31
0.0
  0
LINE
  5
BB7
  8
0
 62
     0
 10
719.83761017454378
 20
6.0
 30
0.0
 11
733.08761017454253
 21
6.0
 31
0.0
  0
LINE
  5
BB8
  8
0
 62
     0
 10
702.32962549131264
 20
6.0
 30
0.0
 11
715.58761017454367
 21
6.0
 31
0.0
  0
LINE
  5
BB9
  8
0
 62
     0
 10
759.08761017454344
 20
6.0
 30
0.0
 11
775.08483214571675
 21
6.0
 31
0.0
  0
LINE
  5
BBA
  8
0
 62
     0
 10
660.33009577529003
 20
6.0
 30
0.0
 11
676.3466098292148
 21
6.0
 31
0.0
  0
LINE
  5
BBB
  8
0
 62
     0
 10
801.08009577528981
 20
6.0
 30
0.0
 11
817.09660982921469
 21
6.0
 31
0.0
  0
LINE
  5
BBC
  8
0
 62
     0
 10
618.33761017454356
 20
6.0
 30
0.0
 11
634.33483214571675
 21
6.0
 31
0.0
  0
LINE
  5
BBD
  8
0
 62
     0
 10
843.07962549131264
 20
6.0
 30
0.0
 11
856.33761017454356
 21
6.0
 31
0.0
  0
LINE
  5
BBE
  8
0
 62
     0
 10
579.08761017454367
 20
6.0
 30
0.0
 11
592.33761017454265
 21
6.0
 31
0.0
  0
LINE
  5
BBF
  8
0
 62
     0
 10
719.83761017454378
 20
7.5
 30
0.0
 11
733.08761017454253
 21
7.5
 31
0.0
  0
LINE
  5
BC0
  8
0
 62
     0
 10
702.32962549131264
 20
7.5
 30
0.0
 11
715.58761017454367
 21
7.5
 31
0.0
  0
LINE
  5
BC1
  8
0
 62
     0
 10
759.08761017454344
 20
7.5
 30
0.0
 11
775.08483214571675
 21
7.5
 31
0.0
  0
LINE
  5
BC2
  8
0
 62
     0
 10
660.33009577529003
 20
7.5
 30
0.0
 11
676.3466098292148
 21
7.5
 31
0.0
  0
LINE
  5
BC3
  8
0
 62
     0
 10
801.08009577528981
 20
7.5
 30
0.0
 11
817.09660982921469
 21
7.5
 31
0.0
  0
LINE
  5
BC4
  8
0
 62
     0
 10
618.33761017454356
 20
7.5
 30
0.0
 11
634.33483214571675
 21
7.5
 31
0.0
  0
LINE
  5
BC5
  8
0
 62
     0
 10
843.07962549131264
 20
7.5
 30
0.0
 11
856.33761017454356
 21
7.5
 31
0.0
  0
LINE
  5
BC6
  8
0
 62
     0
 10
579.08761017454367
 20
7.5
 30
0.0
 11
592.33761017454265
 21
7.5
 31
0.0
  0
LINE
  5
BC7
  8
0
 62
     0
 10
719.83761017454378
 20
9.0
 30
0.0
 11
733.08761017454253
 21
9.0
 31
0.0
  0
LINE
  5
BC8
  8
0
 62
     0
 10
702.32962549131264
 20
9.0
 30
0.0
 11
715.58761017454367
 21
9.0
 31
0.0
  0
LINE
  5
BC9
  8
0
 62
     0
 10
759.08761017454344
 20
9.0
 30
0.0
 11
775.08483214571675
 21
9.0
 31
0.0
  0
LINE
  5
BCA
  8
0
 62
     0
 10
660.33009577529003
 20
9.0
 30
0.0
 11
676.3466098292148
 21
9.0
 31
0.0
  0
LINE
  5
BCB
  8
0
 62
     0
 10
801.08009577528981
 20
9.0
 30
0.0
 11
817.09660982921469
 21
9.0
 31
0.0
  0
LINE
  5
BCC
  8
0
 62
     0
 10
618.33761017454356
 20
9.0
 30
0.0
 11
634.33483214571675
 21
9.0
 31
0.0
  0
LINE
  5
BCD
  8
0
 62
     0
 10
843.07962549131264
 20
9.0
 30
0.0
 11
856.33761017454356
 21
9.0
 31
0.0
  0
LINE
  5
BCE
  8
0
 62
     0
 10
579.08761017454367
 20
9.0
 30
0.0
 11
592.33761017454265
 21
9.0
 31
0.0
  0
LINE
  5
BCF
  8
0
 62
     0
 10
719.83761017454356
 20
10.5
 30
0.0
 11
733.08761017454253
 21
10.5
 31
0.0
  0
LINE
  5
BD0
  8
0
 62
     0
 10
702.32962549131264
 20
10.5
 30
0.0
 11
715.58761017454356
 21
10.5
 31
0.0
  0
LINE
  5
BD1
  8
0
 62
     0
 10
759.08761017454344
 20
10.5
 30
0.0
 11
775.08483214571675
 21
10.5
 31
0.0
  0
LINE
  5
BD2
  8
0
 62
     0
 10
660.33009577529003
 20
10.5
 30
0.0
 11
676.3466098292148
 21
10.5
 31
0.0
  0
LINE
  5
BD3
  8
0
 62
     0
 10
801.08009577528981
 20
10.5
 30
0.0
 11
817.09660982921469
 21
10.5
 31
0.0
  0
LINE
  5
BD4
  8
0
 62
     0
 10
618.33761017454356
 20
10.5
 30
0.0
 11
634.33483214571675
 21
10.5
 31
0.0
  0
LINE
  5
BD5
  8
0
 62
     0
 10
843.07962549131264
 20
10.5
 30
0.0
 11
856.33761017454356
 21
10.5
 31
0.0
  0
LINE
  5
BD6
  8
0
 62
     0
 10
579.08761017454356
 20
10.5
 30
0.0
 11
592.33761017454265
 21
10.5
 31
0.0
  0
LINE
  5
BD7
  8
0
 62
     0
 10
719.83761017454356
 20
12.0
 30
0.0
 11
733.08761017454253
 21
12.0
 31
0.0
  0
LINE
  5
BD8
  8
0
 62
     0
 10
702.32962549131264
 20
12.0
 30
0.0
 11
715.58761017454356
 21
12.0
 31
0.0
  0
LINE
  5
BD9
  8
0
 62
     0
 10
759.08761017454344
 20
12.0
 30
0.0
 11
775.08483214571675
 21
12.0
 31
0.0
  0
LINE
  5
BDA
  8
0
 62
     0
 10
660.33009577529003
 20
12.0
 30
0.0
 11
676.3466098292148
 21
12.0
 31
0.0
  0
LINE
  5
BDB
  8
0
 62
     0
 10
801.08009577528981
 20
12.0
 30
0.0
 11
817.09660982921469
 21
12.0
 31
0.0
  0
LINE
  5
BDC
  8
0
 62
     0
 10
618.33761017454356
 20
12.0
 30
0.0
 11
634.33483214571675
 21
12.0
 31
0.0
  0
LINE
  5
BDD
  8
0
 62
     0
 10
843.07962549131264
 20
12.0
 30
0.0
 11
856.33761017454356
 21
12.0
 31
0.0
  0
LINE
  5
BDE
  8
0
 62
     0
 10
579.08761017454356
 20
12.0
 30
0.0
 11
592.33761017454265
 21
12.0
 31
0.0
  0
LINE
  5
BDF
  8
0
 62
     0
 10
719.83761017454356
 20
13.5
 30
0.0
 11
733.08761017454253
 21
13.5
 31
0.0
  0
LINE
  5
BE0
  8
0
 62
     0
 10
702.32962549131264
 20
13.5
 30
0.0
 11
715.58761017454356
 21
13.5
 31
0.0
  0
LINE
  5
BE1
  8
0
 62
     0
 10
759.08761017454344
 20
13.5
 30
0.0
 11
775.08483214571675
 21
13.5
 31
0.0
  0
LINE
  5
BE2
  8
0
 62
     0
 10
660.33009577529003
 20
13.5
 30
0.0
 11
676.3466098292148
 21
13.5
 31
0.0
  0
LINE
  5
BE3
  8
0
 62
     0
 10
801.08009577528981
 20
13.5
 30
0.0
 11
817.09660982921469
 21
13.5
 31
0.0
  0
LINE
  5
BE4
  8
0
 62
     0
 10
618.33761017454356
 20
13.5
 30
0.0
 11
634.33483214571675
 21
13.5
 31
0.0
  0
LINE
  5
BE5
  8
0
 62
     0
 10
843.07962549131264
 20
13.5
 30
0.0
 11
856.33761017454356
 21
13.5
 31
0.0
  0
LINE
  5
BE6
  8
0
 62
     0
 10
579.08761017454356
 20
13.5
 30
0.0
 11
592.33761017454265
 21
13.5
 31
0.0
  0
LINE
  5
BE7
  8
0
 62
     0
 10
719.83761017454356
 20
15.0
 30
0.0
 11
733.08761017454253
 21
15.0
 31
0.0
  0
LINE
  5
BE8
  8
0
 62
     0
 10
702.32962549131264
 20
15.0
 30
0.0
 11
715.58761017454356
 21
15.0
 31
0.0
  0
LINE
  5
BE9
  8
0
 62
     0
 10
759.08761017454344
 20
15.0
 30
0.0
 11
775.08483214571675
 21
15.0
 31
0.0
  0
LINE
  5
BEA
  8
0
 62
     0
 10
660.33009577529003
 20
15.0
 30
0.0
 11
676.3466098292148
 21
15.0
 31
0.0
  0
LINE
  5
BEB
  8
0
 62
     0
 10
801.08009577528981
 20
15.0
 30
0.0
 11
817.09660982921469
 21
15.0
 31
0.0
  0
LINE
  5
BEC
  8
0
 62
     0
 10
618.33761017454356
 20
15.0
 30
0.0
 11
634.33483214571675
 21
15.0
 31
0.0
  0
LINE
  5
BED
  8
0
 62
     0
 10
843.07962549131264
 20
15.0
 30
0.0
 11
856.33761017454356
 21
15.0
 31
0.0
  0
LINE
  5
BEE
  8
0
 62
     0
 10
579.08761017454356
 20
15.0
 30
0.0
 11
592.33761017454265
 21
15.0
 31
0.0
  0
LINE
  5
BEF
  8
0
 62
     0
 10
719.83761017454356
 20
16.5
 30
0.0
 11
733.08761017454253
 21
16.5
 31
0.0
  0
LINE
  5
BF0
  8
0
 62
     0
 10
702.32962549131264
 20
16.5
 30
0.0
 11
715.58761017454356
 21
16.5
 31
0.0
  0
LINE
  5
BF1
  8
0
 62
     0
 10
759.08761017454344
 20
16.5
 30
0.0
 11
775.08483214571675
 21
16.5
 31
0.0
  0
LINE
  5
BF2
  8
0
 62
     0
 10
660.33009577529003
 20
16.5
 30
0.0
 11
676.3466098292148
 21
16.5
 31
0.0
  0
LINE
  5
BF3
  8
0
 62
     0
 10
801.08009577528981
 20
16.5
 30
0.0
 11
817.09660982921469
 21
16.5
 31
0.0
  0
LINE
  5
BF4
  8
0
 62
     0
 10
618.33761017454356
 20
16.5
 30
0.0
 11
634.33483214571675
 21
16.5
 31
0.0
  0
LINE
  5
BF5
  8
0
 62
     0
 10
843.07962549131264
 20
16.5
 30
0.0
 11
856.33761017454356
 21
16.5
 31
0.0
  0
LINE
  5
BF6
  8
0
 62
     0
 10
579.08761017454356
 20
16.5
 30
0.0
 11
592.33761017454265
 21
16.5
 31
0.0
  0
LINE
  5
BF7
  8
0
 62
     0
 10
719.83761017454356
 20
18.0
 30
0.0
 11
733.08761017454253
 21
18.0
 31
0.0
  0
LINE
  5
BF8
  8
0
 62
     0
 10
702.32962549131264
 20
18.0
 30
0.0
 11
715.58761017454356
 21
18.0
 31
0.0
  0
LINE
  5
BF9
  8
0
 62
     0
 10
759.08761017454344
 20
18.0
 30
0.0
 11
775.08483214571675
 21
18.0
 31
0.0
  0
LINE
  5
BFA
  8
0
 62
     0
 10
660.33009577529003
 20
18.0
 30
0.0
 11
676.3466098292148
 21
18.0
 31
0.0
  0
LINE
  5
BFB
  8
0
 62
     0
 10
801.08009577528981
 20
18.0
 30
0.0
 11
817.09660982921469
 21
18.0
 31
0.0
  0
LINE
  5
BFC
  8
0
 62
     0
 10
618.33761017454356
 20
18.0
 30
0.0
 11
634.33483214571675
 21
18.0
 31
0.0
  0
LINE
  5
BFD
  8
0
 62
     0
 10
843.07962549131264
 20
18.0
 30
0.0
 11
856.33761017454356
 21
18.0
 31
0.0
  0
LINE
  5
BFE
  8
0
 62
     0
 10
579.08761017454356
 20
18.0
 30
0.0
 11
592.33761017454265
 21
18.0
 31
0.0
  0
LINE
  5
BFF
  8
0
 62
     0
 10
719.83761017454356
 20
19.5
 30
0.0
 11
733.08761017454253
 21
19.5
 31
0.0
  0
LINE
  5
C00
  8
0
 62
     0
 10
702.32962549131264
 20
19.5
 30
0.0
 11
715.58761017454356
 21
19.5
 31
0.0
  0
LINE
  5
C01
  8
0
 62
     0
 10
759.08761017454344
 20
19.5
 30
0.0
 11
775.08483214571675
 21
19.5
 31
0.0
  0
LINE
  5
C02
  8
0
 62
     0
 10
660.33009577529003
 20
19.5
 30
0.0
 11
676.3466098292148
 21
19.5
 31
0.0
  0
LINE
  5
C03
  8
0
 62
     0
 10
801.08009577528981
 20
19.5
 30
0.0
 11
817.09660982921469
 21
19.5
 31
0.0
  0
LINE
  5
C04
  8
0
 62
     0
 10
618.33761017454356
 20
19.5
 30
0.0
 11
634.33483214571675
 21
19.5
 31
0.0
  0
LINE
  5
C05
  8
0
 62
     0
 10
843.07962549131264
 20
19.5
 30
0.0
 11
856.33761017454356
 21
19.5
 31
0.0
  0
LINE
  5
C06
  8
0
 62
     0
 10
579.08761017454356
 20
19.5
 30
0.0
 11
592.33761017454265
 21
19.5
 31
0.0
  0
LINE
  5
C07
  8
0
 62
     0
 10
719.83761017454356
 20
21.0
 30
0.0
 11
733.08761017454253
 21
21.0
 31
0.0
  0
LINE
  5
C08
  8
0
 62
     0
 10
702.32962549131264
 20
21.0
 30
0.0
 11
715.58761017454356
 21
21.0
 31
0.0
  0
LINE
  5
C09
  8
0
 62
     0
 10
759.08761017454344
 20
21.0
 30
0.0
 11
775.08483214571675
 21
21.0
 31
0.0
  0
LINE
  5
C0A
  8
0
 62
     0
 10
660.33009577529003
 20
21.0
 30
0.0
 11
676.3466098292148
 21
21.0
 31
0.0
  0
LINE
  5
C0B
  8
0
 62
     0
 10
801.08009577528981
 20
21.0
 30
0.0
 11
817.09660982921469
 21
21.0
 31
0.0
  0
LINE
  5
C0C
  8
0
 62
     0
 10
618.33761017454356
 20
21.0
 30
0.0
 11
634.33483214571675
 21
21.0
 31
0.0
  0
LINE
  5
C0D
  8
0
 62
     0
 10
843.07962549131264
 20
21.0
 30
0.0
 11
856.33761017454356
 21
21.0
 31
0.0
  0
LINE
  5
C0E
  8
0
 62
     0
 10
579.08761017454356
 20
21.0
 30
0.0
 11
592.33761017454265
 21
21.0
 31
0.0
  0
LINE
  5
C0F
  8
0
 62
     0
 10
719.83761017454356
 20
22.5
 30
0.0
 11
733.08761017454253
 21
22.5
 31
0.0
  0
LINE
  5
C10
  8
0
 62
     0
 10
702.32962549131264
 20
22.5
 30
0.0
 11
715.58761017454344
 21
22.5
 31
0.0
  0
LINE
  5
C11
  8
0
 62
     0
 10
759.08761017454344
 20
22.5
 30
0.0
 11
775.08483214571675
 21
22.5
 31
0.0
  0
LINE
  5
C12
  8
0
 62
     0
 10
660.33009577529003
 20
22.5
 30
0.0
 11
676.3466098292148
 21
22.5
 31
0.0
  0
LINE
  5
C13
  8
0
 62
     0
 10
801.08009577528981
 20
22.5
 30
0.0
 11
817.09660982921469
 21
22.5
 31
0.0
  0
LINE
  5
C14
  8
0
 62
     0
 10
618.33761017454356
 20
22.5
 30
0.0
 11
634.33483214571675
 21
22.5
 31
0.0
  0
LINE
  5
C15
  8
0
 62
     0
 10
843.07962549131264
 20
22.5
 30
0.0
 11
856.33761017454356
 21
22.5
 31
0.0
  0
LINE
  5
C16
  8
0
 62
     0
 10
579.08761017454356
 20
22.5
 30
0.0
 11
592.33761017454265
 21
22.5
 31
0.0
  0
LINE
  5
C17
  8
0
 62
     0
 10
719.83761017454356
 20
24.0
 30
0.0
 11
733.08761017454253
 21
24.0
 31
0.0
  0
LINE
  5
C18
  8
0
 62
     0
 10
702.32962549131264
 20
24.0
 30
0.0
 11
715.58761017454344
 21
24.0
 31
0.0
  0
LINE
  5
C19
  8
0
 62
     0
 10
759.08761017454344
 20
24.0
 30
0.0
 11
775.08483214571675
 21
24.0
 31
0.0
  0
LINE
  5
C1A
  8
0
 62
     0
 10
660.33009577529003
 20
24.0
 30
0.0
 11
676.3466098292148
 21
24.0
 31
0.0
  0
LINE
  5
C1B
  8
0
 62
     0
 10
801.08009577528981
 20
24.0
 30
0.0
 11
817.09660982921469
 21
24.0
 31
0.0
  0
LINE
  5
C1C
  8
0
 62
     0
 10
618.33761017454356
 20
24.0
 30
0.0
 11
634.33483214571675
 21
24.0
 31
0.0
  0
LINE
  5
C1D
  8
0
 62
     0
 10
843.07962549131264
 20
24.0
 30
0.0
 11
856.33761017454356
 21
24.0
 31
0.0
  0
LINE
  5
C1E
  8
0
 62
     0
 10
579.08761017454356
 20
24.0
 30
0.0
 11
592.33761017454265
 21
24.0
 31
0.0
  0
LINE
  5
C1F
  8
0
 62
     0
 10
719.83761017454356
 20
25.5
 30
0.0
 11
733.08761017454253
 21
25.5
 31
0.0
  0
LINE
  5
C20
  8
0
 62
     0
 10
702.32962549131264
 20
25.5
 30
0.0
 11
715.58761017454344
 21
25.5
 31
0.0
  0
LINE
  5
C21
  8
0
 62
     0
 10
759.08761017454344
 20
25.5
 30
0.0
 11
775.08483214571675
 21
25.5
 31
0.0
  0
LINE
  5
C22
  8
0
 62
     0
 10
660.33009577529003
 20
25.5
 30
0.0
 11
676.3466098292148
 21
25.5
 31
0.0
  0
LINE
  5
C23
  8
0
 62
     0
 10
801.08009577528981
 20
25.5
 30
0.0
 11
817.09660982921469
 21
25.5
 31
0.0
  0
LINE
  5
C24
  8
0
 62
     0
 10
618.33761017454356
 20
25.5
 30
0.0
 11
634.33483214571675
 21
25.5
 31
0.0
  0
LINE
  5
C25
  8
0
 62
     0
 10
843.07962549131264
 20
25.5
 30
0.0
 11
856.33761017454356
 21
25.5
 31
0.0
  0
LINE
  5
C26
  8
0
 62
     0
 10
579.08761017454356
 20
25.5
 30
0.0
 11
592.33761017454265
 21
25.5
 31
0.0
  0
LINE
  5
C27
  8
0
 62
     0
 10
719.83761017454356
 20
27.0
 30
0.0
 11
733.08761017454253
 21
27.0
 31
0.0
  0
LINE
  5
C28
  8
0
 62
     0
 10
702.32962549131264
 20
27.0
 30
0.0
 11
715.58761017454344
 21
27.0
 31
0.0
  0
LINE
  5
C29
  8
0
 62
     0
 10
759.08761017454344
 20
27.0
 30
0.0
 11
775.08483214571675
 21
27.0
 31
0.0
  0
LINE
  5
C2A
  8
0
 62
     0
 10
660.33009577529003
 20
27.0
 30
0.0
 11
676.3466098292148
 21
27.0
 31
0.0
  0
LINE
  5
C2B
  8
0
 62
     0
 10
801.08009577528981
 20
27.0
 30
0.0
 11
817.09660982921469
 21
27.0
 31
0.0
  0
LINE
  5
C2C
  8
0
 62
     0
 10
618.33761017454356
 20
27.0
 30
0.0
 11
634.33483214571675
 21
27.0
 31
0.0
  0
LINE
  5
C2D
  8
0
 62
     0
 10
843.07962549131264
 20
27.0
 30
0.0
 11
856.33761017454356
 21
27.0
 31
0.0
  0
LINE
  5
C2E
  8
0
 62
     0
 10
579.08761017454356
 20
27.0
 30
0.0
 11
592.33761017454265
 21
27.0
 31
0.0
  0
LINE
  5
C2F
  8
0
 62
     0
 10
719.83761017454356
 20
28.5
 30
0.0
 11
733.08761017454253
 21
28.5
 31
0.0
  0
LINE
  5
C30
  8
0
 62
     0
 10
702.32962549131264
 20
28.5
 30
0.0
 11
715.58761017454344
 21
28.5
 31
0.0
  0
LINE
  5
C31
  8
0
 62
     0
 10
759.08761017454344
 20
28.5
 30
0.0
 11
775.08483214571675
 21
28.5
 31
0.0
  0
LINE
  5
C32
  8
0
 62
     0
 10
660.33009577529003
 20
28.5
 30
0.0
 11
676.3466098292148
 21
28.5
 31
0.0
  0
LINE
  5
C33
  8
0
 62
     0
 10
801.08009577528981
 20
28.5
 30
0.0
 11
817.09660982921469
 21
28.5
 31
0.0
  0
LINE
  5
C34
  8
0
 62
     0
 10
618.33761017454356
 20
28.5
 30
0.0
 11
634.33483214571675
 21
28.5
 31
0.0
  0
LINE
  5
C35
  8
0
 62
     0
 10
843.07962549131264
 20
28.5
 30
0.0
 11
856.33761017454356
 21
28.5
 31
0.0
  0
LINE
  5
C36
  8
0
 62
     0
 10
579.08761017454356
 20
28.5
 30
0.0
 11
592.33761017454265
 21
28.5
 31
0.0
  0
LINE
  5
C37
  8
0
 62
     0
 10
719.83761017454356
 20
30.0
 30
0.0
 11
733.08761017454253
 21
30.0
 31
0.0
  0
LINE
  5
C38
  8
0
 62
     0
 10
702.32962549131264
 20
30.0
 30
0.0
 11
715.58761017454344
 21
30.0
 31
0.0
  0
LINE
  5
C39
  8
0
 62
     0
 10
759.08761017454344
 20
30.0
 30
0.0
 11
775.08483214571675
 21
30.0
 31
0.0
  0
LINE
  5
C3A
  8
0
 62
     0
 10
660.33009577529003
 20
30.0
 30
0.0
 11
676.3466098292148
 21
30.0
 31
0.0
  0
LINE
  5
C3B
  8
0
 62
     0
 10
801.08009577528981
 20
30.0
 30
0.0
 11
817.09660982921469
 21
30.0
 31
0.0
  0
LINE
  5
C3C
  8
0
 62
     0
 10
618.33761017454356
 20
30.0
 30
0.0
 11
634.33483214571675
 21
30.0
 31
0.0
  0
LINE
  5
C3D
  8
0
 62
     0
 10
843.07962549131264
 20
30.0
 30
0.0
 11
856.33761017454356
 21
30.0
 31
0.0
  0
LINE
  5
C3E
  8
0
 62
     0
 10
579.08761017454356
 20
30.0
 30
0.0
 11
592.33761017454265
 21
30.0
 31
0.0
  0
LINE
  5
C3F
  8
0
 62
     0
 10
719.83761017454344
 20
31.5
 30
0.0
 11
733.08761017454253
 21
31.5
 31
0.0
  0
LINE
  5
C40
  8
0
 62
     0
 10
702.32962549131264
 20
31.5
 30
0.0
 11
715.58761017454344
 21
31.5
 31
0.0
  0
LINE
  5
C41
  8
0
 62
     0
 10
759.08761017454344
 20
31.5
 30
0.0
 11
775.08483214571675
 21
31.5
 31
0.0
  0
LINE
  5
C42
  8
0
 62
     0
 10
660.33009577529003
 20
31.5
 30
0.0
 11
676.3466098292148
 21
31.5
 31
0.0
  0
LINE
  5
C43
  8
0
 62
     0
 10
801.08009577528981
 20
31.5
 30
0.0
 11
817.09660982921469
 21
31.5
 31
0.0
  0
LINE
  5
C44
  8
0
 62
     0
 10
618.33761017454356
 20
31.5
 30
0.0
 11
634.33483214571675
 21
31.5
 31
0.0
  0
LINE
  5
C45
  8
0
 62
     0
 10
843.07962549131264
 20
31.5
 30
0.0
 11
856.33761017454356
 21
31.5
 31
0.0
  0
LINE
  5
C46
  8
0
 62
     0
 10
579.08761017454344
 20
31.5
 30
0.0
 11
592.33761017454265
 21
31.5
 31
0.0
  0
LINE
  5
C47
  8
0
 62
     0
 10
719.83761017454344
 20
33.0
 30
0.0
 11
733.08761017454253
 21
33.0
 31
0.0
  0
LINE
  5
C48
  8
0
 62
     0
 10
702.32962549131264
 20
33.0
 30
0.0
 11
715.58761017454344
 21
33.0
 31
0.0
  0
LINE
  5
C49
  8
0
 62
     0
 10
759.08761017454344
 20
33.0
 30
0.0
 11
775.08483214571675
 21
33.0
 31
0.0
  0
LINE
  5
C4A
  8
0
 62
     0
 10
660.33009577529003
 20
33.0
 30
0.0
 11
676.3466098292148
 21
33.0
 31
0.0
  0
LINE
  5
C4B
  8
0
 62
     0
 10
801.08009577528981
 20
33.0
 30
0.0
 11
817.09660982921469
 21
33.0
 31
0.0
  0
LINE
  5
C4C
  8
0
 62
     0
 10
618.33761017454356
 20
33.0
 30
0.0
 11
634.33483214571675
 21
33.0
 31
0.0
  0
LINE
  5
C4D
  8
0
 62
     0
 10
843.07962549131264
 20
33.0
 30
0.0
 11
856.33761017454356
 21
33.0
 31
0.0
  0
LINE
  5
C4E
  8
0
 62
     0
 10
579.08761017454344
 20
33.0
 30
0.0
 11
592.33761017454265
 21
33.0
 31
0.0
  0
LINE
  5
C4F
  8
0
 62
     0
 10
719.83761017454344
 20
34.5
 30
0.0
 11
733.08761017454253
 21
34.5
 31
0.0
  0
LINE
  5
C50
  8
0
 62
     0
 10
702.32962549131264
 20
34.5
 30
0.0
 11
715.58761017454333
 21
34.5
 31
0.0
  0
LINE
  5
C51
  8
0
 62
     0
 10
759.08761017454344
 20
34.5
 30
0.0
 11
775.08483214571675
 21
34.5
 31
0.0
  0
LINE
  5
C52
  8
0
 62
     0
 10
660.33009577529003
 20
34.5
 30
0.0
 11
676.3466098292148
 21
34.5
 31
0.0
  0
LINE
  5
C53
  8
0
 62
     0
 10
801.08009577528981
 20
34.5
 30
0.0
 11
817.09660982921469
 21
34.5
 31
0.0
  0
LINE
  5
C54
  8
0
 62
     0
 10
618.33761017454356
 20
34.5
 30
0.0
 11
634.33483214571675
 21
34.5
 31
0.0
  0
LINE
  5
C55
  8
0
 62
     0
 10
843.07962549131264
 20
34.5
 30
0.0
 11
856.33761017454333
 21
34.5
 31
0.0
  0
LINE
  5
C56
  8
0
 62
     0
 10
579.08761017454344
 20
34.5
 30
0.0
 11
592.33761017454265
 21
34.5
 31
0.0
  0
LINE
  5
C57
  8
0
 62
     0
 10
719.83761017454344
 20
36.0
 30
0.0
 11
733.08761017454253
 21
36.0
 31
0.0
  0
LINE
  5
C58
  8
0
 62
     0
 10
702.32962549131264
 20
36.0
 30
0.0
 11
715.58761017454333
 21
36.0
 31
0.0
  0
LINE
  5
C59
  8
0
 62
     0
 10
759.08761017454344
 20
36.0
 30
0.0
 11
775.08483214571675
 21
36.0
 31
0.0
  0
LINE
  5
C5A
  8
0
 62
     0
 10
660.33009577529003
 20
36.0
 30
0.0
 11
676.3466098292148
 21
36.0
 31
0.0
  0
LINE
  5
C5B
  8
0
 62
     0
 10
801.08009577528981
 20
36.0
 30
0.0
 11
817.09660982921469
 21
36.0
 31
0.0
  0
LINE
  5
C5C
  8
0
 62
     0
 10
618.33761017454356
 20
36.0
 30
0.0
 11
634.33483214571675
 21
36.0
 31
0.0
  0
LINE
  5
C5D
  8
0
 62
     0
 10
843.07962549131264
 20
36.0
 30
0.0
 11
856.33761017454333
 21
36.0
 31
0.0
  0
LINE
  5
C5E
  8
0
 62
     0
 10
579.08761017454344
 20
36.0
 30
0.0
 11
592.33761017454265
 21
36.0
 31
0.0
  0
LINE
  5
C5F
  8
0
 62
     0
 10
719.83761017454344
 20
37.5
 30
0.0
 11
733.08761017454253
 21
37.5
 31
0.0
  0
LINE
  5
C60
  8
0
 62
     0
 10
702.32962549131264
 20
37.5
 30
0.0
 11
715.58761017454333
 21
37.5
 31
0.0
  0
LINE
  5
C61
  8
0
 62
     0
 10
759.08761017454344
 20
37.5
 30
0.0
 11
775.08483214571675
 21
37.5
 31
0.0
  0
LINE
  5
C62
  8
0
 62
     0
 10
660.33009577529003
 20
37.5
 30
0.0
 11
676.3466098292148
 21
37.5
 31
0.0
  0
LINE
  5
C63
  8
0
 62
     0
 10
801.08009577528981
 20
37.5
 30
0.0
 11
817.09660982921469
 21
37.5
 31
0.0
  0
LINE
  5
C64
  8
0
 62
     0
 10
618.33761017454356
 20
37.5
 30
0.0
 11
634.33483214571675
 21
37.5
 31
0.0
  0
LINE
  5
C65
  8
0
 62
     0
 10
843.07962549131264
 20
37.5
 30
0.0
 11
856.33761017454333
 21
37.5
 31
0.0
  0
LINE
  5
C66
  8
0
 62
     0
 10
579.08761017454344
 20
37.5
 30
0.0
 11
592.33761017454265
 21
37.5
 31
0.0
  0
LINE
  5
C67
  8
0
 62
     0
 10
719.83761017454344
 20
39.0
 30
0.0
 11
733.08761017454253
 21
39.0
 31
0.0
  0
LINE
  5
C68
  8
0
 62
     0
 10
702.32962549131264
 20
39.0
 30
0.0
 11
715.58761017454333
 21
39.0
 31
0.0
  0
LINE
  5
C69
  8
0
 62
     0
 10
759.08761017454344
 20
39.0
 30
0.0
 11
775.08483214571675
 21
39.0
 31
0.0
  0
LINE
  5
C6A
  8
0
 62
     0
 10
660.33009577529003
 20
39.0
 30
0.0
 11
676.3466098292148
 21
39.0
 31
0.0
  0
LINE
  5
C6B
  8
0
 62
     0
 10
801.08009577528981
 20
39.0
 30
0.0
 11
817.09660982921469
 21
39.0
 31
0.0
  0
LINE
  5
C6C
  8
0
 62
     0
 10
618.33761017454356
 20
39.0
 30
0.0
 11
634.33483214571675
 21
39.0
 31
0.0
  0
LINE
  5
C6D
  8
0
 62
     0
 10
843.07962549131264
 20
39.0
 30
0.0
 11
856.33761017454333
 21
39.0
 31
0.0
  0
LINE
  5
C6E
  8
0
 62
     0
 10
579.08761017454344
 20
39.0
 30
0.0
 11
592.33761017454265
 21
39.0
 31
0.0
  0
LINE
  5
C6F
  8
0
 62
     0
 10
719.83761017454344
 20
40.499999999999993
 30
0.0
 11
733.08761017454253
 21
40.499999999999993
 31
0.0
  0
LINE
  5
C70
  8
0
 62
     0
 10
702.32962549131264
 20
40.499999999999993
 30
0.0
 11
715.58761017454333
 21
40.499999999999993
 31
0.0
  0
LINE
  5
C71
  8
0
 62
     0
 10
759.08761017454344
 20
40.499999999999993
 30
0.0
 11
775.08483214571675
 21
40.499999999999993
 31
0.0
  0
LINE
  5
C72
  8
0
 62
     0
 10
660.33009577529003
 20
40.499999999999993
 30
0.0
 11
676.3466098292148
 21
40.499999999999993
 31
0.0
  0
LINE
  5
C73
  8
0
 62
     0
 10
801.08009577528981
 20
40.499999999999993
 30
0.0
 11
817.09660982921469
 21
40.499999999999993
 31
0.0
  0
LINE
  5
C74
  8
0
 62
     0
 10
618.33761017454356
 20
40.499999999999993
 30
0.0
 11
634.33483214571675
 21
40.499999999999993
 31
0.0
  0
LINE
  5
C75
  8
0
 62
     0
 10
843.07962549131264
 20
40.499999999999993
 30
0.0
 11
856.33761017454333
 21
40.499999999999993
 31
0.0
  0
LINE
  5
C76
  8
0
 62
     0
 10
579.08761017454344
 20
40.499999999999993
 30
0.0
 11
592.33761017454265
 21
40.499999999999993
 31
0.0
  0
LINE
  5
C77
  8
0
 62
     0
 10
719.83761017454333
 20
42.0
 30
0.0
 11
733.08761017454253
 21
42.0
 31
0.0
  0
LINE
  5
C78
  8
0
 62
     0
 10
702.32962549131264
 20
42.0
 30
0.0
 11
715.58761017454333
 21
42.0
 31
0.0
  0
LINE
  5
C79
  8
0
 62
     0
 10
759.08761017454344
 20
42.0
 30
0.0
 11
775.08483214571675
 21
42.0
 31
0.0
  0
LINE
  5
C7A
  8
0
 62
     0
 10
660.33009577529003
 20
42.0
 30
0.0
 11
676.3466098292148
 21
42.0
 31
0.0
  0
LINE
  5
C7B
  8
0
 62
     0
 10
801.08009577528981
 20
42.0
 30
0.0
 11
817.09660982921469
 21
42.0
 31
0.0
  0
LINE
  5
C7C
  8
0
 62
     0
 10
618.33761017454356
 20
42.0
 30
0.0
 11
634.33483214571675
 21
42.0
 31
0.0
  0
LINE
  5
C7D
  8
0
 62
     0
 10
843.07962549131264
 20
42.0
 30
0.0
 11
856.33761017454333
 21
42.0
 31
0.0
  0
LINE
  5
C7E
  8
0
 62
     0
 10
579.08761017454333
 20
42.0
 30
0.0
 11
592.33761017454265
 21
42.0
 31
0.0
  0
LINE
  5
C7F
  8
0
 62
     0
 10
719.83761017454333
 20
43.5
 30
0.0
 11
733.08761017454253
 21
43.5
 31
0.0
  0
LINE
  5
C80
  8
0
 62
     0
 10
702.32962549131264
 20
43.5
 30
0.0
 11
715.58761017454333
 21
43.5
 31
0.0
  0
LINE
  5
C81
  8
0
 62
     0
 10
759.08761017454344
 20
43.5
 30
0.0
 11
775.08483214571675
 21
43.5
 31
0.0
  0
LINE
  5
C82
  8
0
 62
     0
 10
660.33009577529003
 20
43.5
 30
0.0
 11
676.3466098292148
 21
43.5
 31
0.0
  0
LINE
  5
C83
  8
0
 62
     0
 10
801.08009577528981
 20
43.5
 30
0.0
 11
817.09660982921469
 21
43.5
 31
0.0
  0
LINE
  5
C84
  8
0
 62
     0
 10
618.33761017454356
 20
43.5
 30
0.0
 11
634.33483214571675
 21
43.5
 31
0.0
  0
LINE
  5
C85
  8
0
 62
     0
 10
843.07962549131264
 20
43.5
 30
0.0
 11
856.33761017454333
 21
43.5
 31
0.0
  0
LINE
  5
C86
  8
0
 62
     0
 10
579.08761017454333
 20
43.5
 30
0.0
 11
592.33761017454265
 21
43.5
 31
0.0
  0
LINE
  5
C87
  8
0
 62
     0
 10
719.83761017454333
 20
45.0
 30
0.0
 11
733.08761017454253
 21
45.0
 31
0.0
  0
LINE
  5
C88
  8
0
 62
     0
 10
702.32962549131264
 20
45.0
 30
0.0
 11
715.58761017454333
 21
45.0
 31
0.0
  0
LINE
  5
C89
  8
0
 62
     0
 10
759.08761017454344
 20
45.0
 30
0.0
 11
775.08483214571675
 21
45.0
 31
0.0
  0
LINE
  5
C8A
  8
0
 62
     0
 10
660.33009577529003
 20
45.0
 30
0.0
 11
676.3466098292148
 21
45.0
 31
0.0
  0
LINE
  5
C8B
  8
0
 62
     0
 10
801.08009577528981
 20
45.0
 30
0.0
 11
817.09660982921469
 21
45.0
 31
0.0
  0
LINE
  5
C8C
  8
0
 62
     0
 10
618.33761017454356
 20
45.0
 30
0.0
 11
634.33483214571675
 21
45.0
 31
0.0
  0
LINE
  5
C8D
  8
0
 62
     0
 10
843.07962549131264
 20
45.0
 30
0.0
 11
856.33761017454333
 21
45.0
 31
0.0
  0
LINE
  5
C8E
  8
0
 62
     0
 10
579.08761017454333
 20
45.0
 30
0.0
 11
592.33761017454265
 21
45.0
 31
0.0
  0
LINE
  5
C8F
  8
0
 62
     0
 10
719.83761017454333
 20
46.5
 30
0.0
 11
733.08761017454253
 21
46.5
 31
0.0
  0
LINE
  5
C90
  8
0
 62
     0
 10
702.32962549131264
 20
46.5
 30
0.0
 11
715.58761017454322
 21
46.5
 31
0.0
  0
LINE
  5
C91
  8
0
 62
     0
 10
759.08761017454344
 20
46.5
 30
0.0
 11
775.08483214571675
 21
46.5
 31
0.0
  0
LINE
  5
C92
  8
0
 62
     0
 10
660.33009577529003
 20
46.5
 30
0.0
 11
676.3466098292148
 21
46.5
 31
0.0
  0
LINE
  5
C93
  8
0
 62
     0
 10
801.08009577528981
 20
46.5
 30
0.0
 11
817.09660982921469
 21
46.5
 31
0.0
  0
LINE
  5
C94
  8
0
 62
     0
 10
618.33761017454356
 20
46.5
 30
0.0
 11
634.33483214571675
 21
46.5
 31
0.0
  0
LINE
  5
C95
  8
0
 62
     0
 10
843.07962549131264
 20
46.5
 30
0.0
 11
856.3376101745431
 21
46.5
 31
0.0
  0
LINE
  5
C96
  8
0
 62
     0
 10
579.08761017454333
 20
46.5
 30
0.0
 11
592.33761017454265
 21
46.5
 31
0.0
  0
LINE
  5
C97
  8
0
 62
     0
 10
719.83761017454333
 20
48.0
 30
0.0
 11
733.08761017454253
 21
48.0
 31
0.0
  0
LINE
  5
C98
  8
0
 62
     0
 10
702.32962549131264
 20
48.0
 30
0.0
 11
715.58761017454322
 21
48.0
 31
0.0
  0
LINE
  5
C99
  8
0
 62
     0
 10
759.08761017454344
 20
48.0
 30
0.0
 11
775.08483214571675
 21
48.0
 31
0.0
  0
LINE
  5
C9A
  8
0
 62
     0
 10
660.33009577529003
 20
48.0
 30
0.0
 11
676.3466098292148
 21
48.0
 31
0.0
  0
LINE
  5
C9B
  8
0
 62
     0
 10
801.08009577528981
 20
48.0
 30
0.0
 11
817.09660982921469
 21
48.0
 31
0.0
  0
LINE
  5
C9C
  8
0
 62
     0
 10
618.33761017454356
 20
48.0
 30
0.0
 11
634.33483214571675
 21
48.0
 31
0.0
  0
LINE
  5
C9D
  8
0
 62
     0
 10
843.07962549131264
 20
48.0
 30
0.0
 11
856.3376101745431
 21
48.0
 31
0.0
  0
LINE
  5
C9E
  8
0
 62
     0
 10
579.08761017454333
 20
48.0
 30
0.0
 11
592.33761017454265
 21
48.0
 31
0.0
  0
LINE
  5
C9F
  8
0
 62
     0
 10
719.83761017454333
 20
49.5
 30
0.0
 11
733.08761017454253
 21
49.5
 31
0.0
  0
LINE
  5
CA0
  8
0
 62
     0
 10
702.32962549131264
 20
49.5
 30
0.0
 11
715.58761017454322
 21
49.5
 31
0.0
  0
LINE
  5
CA1
  8
0
 62
     0
 10
759.08761017454344
 20
49.5
 30
0.0
 11
775.08483214571675
 21
49.5
 31
0.0
  0
LINE
  5
CA2
  8
0
 62
     0
 10
660.33009577529003
 20
49.5
 30
0.0
 11
676.3466098292148
 21
49.5
 31
0.0
  0
LINE
  5
CA3
  8
0
 62
     0
 10
801.08009577528981
 20
49.5
 30
0.0
 11
817.09660982921469
 21
49.5
 31
0.0
  0
LINE
  5
CA4
  8
0
 62
     0
 10
618.33761017454356
 20
49.5
 30
0.0
 11
634.33483214571675
 21
49.5
 31
0.0
  0
LINE
  5
CA5
  8
0
 62
     0
 10
843.07962549131264
 20
49.5
 30
0.0
 11
856.3376101745431
 21
49.5
 31
0.0
  0
LINE
  5
CA6
  8
0
 62
     0
 10
579.08761017454333
 20
49.5
 30
0.0
 11
592.33761017454265
 21
49.5
 31
0.0
  0
LINE
  5
CA7
  8
0
 62
     0
 10
719.83761017454333
 20
51.0
 30
0.0
 11
733.08761017454253
 21
51.0
 31
0.0
  0
LINE
  5
CA8
  8
0
 62
     0
 10
702.32962549131264
 20
51.0
 30
0.0
 11
715.58761017454322
 21
51.0
 31
0.0
  0
LINE
  5
CA9
  8
0
 62
     0
 10
759.08761017454344
 20
51.0
 30
0.0
 11
775.08483214571675
 21
51.0
 31
0.0
  0
LINE
  5
CAA
  8
0
 62
     0
 10
660.33009577529003
 20
51.0
 30
0.0
 11
676.3466098292148
 21
51.0
 31
0.0
  0
LINE
  5
CAB
  8
0
 62
     0
 10
801.08009577528981
 20
51.0
 30
0.0
 11
817.09660982921469
 21
51.0
 31
0.0
  0
LINE
  5
CAC
  8
0
 62
     0
 10
618.33761017454356
 20
51.0
 30
0.0
 11
634.33483214571675
 21
51.0
 31
0.0
  0
LINE
  5
CAD
  8
0
 62
     0
 10
843.07962549131264
 20
51.0
 30
0.0
 11
856.3376101745431
 21
51.0
 31
0.0
  0
LINE
  5
CAE
  8
0
 62
     0
 10
579.08761017454333
 20
51.0
 30
0.0
 11
592.33761017454265
 21
51.0
 31
0.0
  0
LINE
  5
CAF
  8
0
 62
     0
 10
719.83761017454322
 20
52.5
 30
0.0
 11
733.08761017454253
 21
52.5
 31
0.0
  0
LINE
  5
CB0
  8
0
 62
     0
 10
702.32962549131264
 20
52.5
 30
0.0
 11
715.58761017454322
 21
52.5
 31
0.0
  0
LINE
  5
CB1
  8
0
 62
     0
 10
759.08761017454344
 20
52.5
 30
0.0
 11
775.08483214571675
 21
52.5
 31
0.0
  0
LINE
  5
CB2
  8
0
 62
     0
 10
660.33009577529003
 20
52.5
 30
0.0
 11
676.3466098292148
 21
52.5
 31
0.0
  0
LINE
  5
CB3
  8
0
 62
     0
 10
801.08009577528981
 20
52.5
 30
0.0
 11
817.09660982921469
 21
52.5
 31
0.0
  0
LINE
  5
CB4
  8
0
 62
     0
 10
618.33761017454356
 20
52.5
 30
0.0
 11
634.33483214571675
 21
52.5
 31
0.0
  0
LINE
  5
CB5
  8
0
 62
     0
 10
843.07962549131264
 20
52.5
 30
0.0
 11
856.3376101745431
 21
52.5
 31
0.0
  0
LINE
  5
CB6
  8
0
 62
     0
 10
579.08761017454322
 20
52.5
 30
0.0
 11
592.33761017454265
 21
52.5
 31
0.0
  0
LINE
  5
CB7
  8
0
 62
     0
 10
719.83761017454322
 20
54.0
 30
0.0
 11
733.08761017454253
 21
54.0
 31
0.0
  0
LINE
  5
CB8
  8
0
 62
     0
 10
702.32962549131264
 20
54.0
 30
0.0
 11
715.58761017454322
 21
54.0
 31
0.0
  0
LINE
  5
CB9
  8
0
 62
     0
 10
759.08761017454344
 20
54.0
 30
0.0
 11
775.08483214571675
 21
54.0
 31
0.0
  0
LINE
  5
CBA
  8
0
 62
     0
 10
660.33009577529003
 20
54.0
 30
0.0
 11
676.3466098292148
 21
54.0
 31
0.0
  0
LINE
  5
CBB
  8
0
 62
     0
 10
801.08009577528981
 20
54.0
 30
0.0
 11
817.09660982921469
 21
54.0
 31
0.0
  0
LINE
  5
CBC
  8
0
 62
     0
 10
618.33761017454356
 20
54.0
 30
0.0
 11
634.33483214571675
 21
54.0
 31
0.0
  0
LINE
  5
CBD
  8
0
 62
     0
 10
843.07962549131264
 20
54.0
 30
0.0
 11
856.3376101745431
 21
54.0
 31
0.0
  0
LINE
  5
CBE
  8
0
 62
     0
 10
579.08761017454322
 20
54.0
 30
0.0
 11
592.33761017454265
 21
54.0
 31
0.0
  0
LINE
  5
CBF
  8
0
 62
     0
 10
719.83761017454322
 20
55.5
 30
0.0
 11
733.08761017454253
 21
55.5
 31
0.0
  0
LINE
  5
CC0
  8
0
 62
     0
 10
702.32962549131264
 20
55.5
 30
0.0
 11
715.58761017454322
 21
55.5
 31
0.0
  0
LINE
  5
CC1
  8
0
 62
     0
 10
759.08761017454344
 20
55.5
 30
0.0
 11
775.08483214571675
 21
55.5
 31
0.0
  0
LINE
  5
CC2
  8
0
 62
     0
 10
660.33009577529003
 20
55.5
 30
0.0
 11
676.3466098292148
 21
55.5
 31
0.0
  0
LINE
  5
CC3
  8
0
 62
     0
 10
801.08009577528981
 20
55.5
 30
0.0
 11
817.09660982921469
 21
55.5
 31
0.0
  0
LINE
  5
CC4
  8
0
 62
     0
 10
618.33761017454356
 20
55.5
 30
0.0
 11
634.33483214571675
 21
55.5
 31
0.0
  0
LINE
  5
CC5
  8
0
 62
     0
 10
843.07962549131264
 20
55.5
 30
0.0
 11
856.3376101745431
 21
55.5
 31
0.0
  0
LINE
  5
CC6
  8
0
 62
     0
 10
579.08761017454322
 20
55.5
 30
0.0
 11
592.33761017454265
 21
55.5
 31
0.0
  0
LINE
  5
CC7
  8
0
 62
     0
 10
719.83761017454322
 20
57.0
 30
0.0
 11
733.08761017454253
 21
57.0
 31
0.0
  0
LINE
  5
CC8
  8
0
 62
     0
 10
702.32962549131264
 20
57.0
 30
0.0
 11
715.58761017454322
 21
57.0
 31
0.0
  0
LINE
  5
CC9
  8
0
 62
     0
 10
759.08761017454344
 20
57.0
 30
0.0
 11
775.08483214571675
 21
57.0
 31
0.0
  0
LINE
  5
CCA
  8
0
 62
     0
 10
660.33009577529003
 20
57.0
 30
0.0
 11
676.3466098292148
 21
57.0
 31
0.0
  0
LINE
  5
CCB
  8
0
 62
     0
 10
801.08009577528981
 20
57.0
 30
0.0
 11
817.09660982921469
 21
57.0
 31
0.0
  0
LINE
  5
CCC
  8
0
 62
     0
 10
618.33761017454356
 20
57.0
 30
0.0
 11
634.33483214571675
 21
57.0
 31
0.0
  0
LINE
  5
CCD
  8
0
 62
     0
 10
843.07962549131264
 20
57.0
 30
0.0
 11
856.3376101745431
 21
57.0
 31
0.0
  0
LINE
  5
CCE
  8
0
 62
     0
 10
579.08761017454322
 20
57.0
 30
0.0
 11
592.33761017454265
 21
57.0
 31
0.0
  0
LINE
  5
CCF
  8
0
 62
     0
 10
719.83761017454322
 20
58.5
 30
0.0
 11
733.08761017454253
 21
58.5
 31
0.0
  0
LINE
  5
CD0
  8
0
 62
     0
 10
702.32962549131264
 20
58.5
 30
0.0
 11
715.58761017454299
 21
58.5
 31
0.0
  0
LINE
  5
CD1
  8
0
 62
     0
 10
759.08761017454344
 20
58.5
 30
0.0
 11
775.08483214571675
 21
58.5
 31
0.0
  0
LINE
  5
CD2
  8
0
 62
     0
 10
660.33009577529003
 20
58.5
 30
0.0
 11
676.3466098292148
 21
58.5
 31
0.0
  0
LINE
  5
CD3
  8
0
 62
     0
 10
801.08009577528981
 20
58.5
 30
0.0
 11
817.09660982921469
 21
58.5
 31
0.0
  0
LINE
  5
CD4
  8
0
 62
     0
 10
618.33761017454356
 20
58.5
 30
0.0
 11
634.33483214571675
 21
58.5
 31
0.0
  0
LINE
  5
CD5
  8
0
 62
     0
 10
843.07962549131264
 20
58.5
 30
0.0
 11
856.3376101745431
 21
58.5
 31
0.0
  0
LINE
  5
CD6
  8
0
 62
     0
 10
579.08761017454322
 20
58.5
 30
0.0
 11
592.33761017454265
 21
58.5
 31
0.0
  0
LINE
  5
CD7
  8
0
 62
     0
 10
719.83761017454322
 20
60.0
 30
0.0
 11
733.08761017454253
 21
60.0
 31
0.0
  0
LINE
  5
CD8
  8
0
 62
     0
 10
702.32962549131264
 20
60.0
 30
0.0
 11
715.58761017454299
 21
60.0
 31
0.0
  0
LINE
  5
CD9
  8
0
 62
     0
 10
759.08761017454344
 20
60.0
 30
0.0
 11
775.08483214571675
 21
60.0
 31
0.0
  0
LINE
  5
CDA
  8
0
 62
     0
 10
660.33009577529003
 20
60.0
 30
0.0
 11
676.3466098292148
 21
60.0
 31
0.0
  0
LINE
  5
CDB
  8
0
 62
     0
 10
801.08009577528981
 20
60.0
 30
0.0
 11
817.09660982921469
 21
60.0
 31
0.0
  0
LINE
  5
CDC
  8
0
 62
     0
 10
618.33761017454356
 20
60.0
 30
0.0
 11
634.33483214571675
 21
60.0
 31
0.0
  0
LINE
  5
CDD
  8
0
 62
     0
 10
843.07962549131264
 20
60.0
 30
0.0
 11
856.3376101745431
 21
60.0
 31
0.0
  0
LINE
  5
CDE
  8
0
 62
     0
 10
579.08761017454322
 20
60.0
 30
0.0
 11
592.33761017454265
 21
60.0
 31
0.0
  0
LINE
  5
CDF
  8
0
 62
     0
 10
719.83761017454322
 20
61.5
 30
0.0
 11
733.08761017454253
 21
61.5
 31
0.0
  0
LINE
  5
CE0
  8
0
 62
     0
 10
702.32962549131264
 20
61.5
 30
0.0
 11
715.58761017454299
 21
61.5
 31
0.0
  0
LINE
  5
CE1
  8
0
 62
     0
 10
759.08761017454344
 20
61.5
 30
0.0
 11
775.08483214571675
 21
61.5
 31
0.0
  0
LINE
  5
CE2
  8
0
 62
     0
 10
660.33009577529003
 20
61.5
 30
0.0
 11
676.3466098292148
 21
61.5
 31
0.0
  0
LINE
  5
CE3
  8
0
 62
     0
 10
801.08009577528981
 20
61.5
 30
0.0
 11
817.09660982921469
 21
61.5
 31
0.0
  0
LINE
  5
CE4
  8
0
 62
     0
 10
618.33761017454356
 20
61.5
 30
0.0
 11
634.33483214571675
 21
61.5
 31
0.0
  0
LINE
  5
CE5
  8
0
 62
     0
 10
843.07962549131264
 20
61.5
 30
0.0
 11
856.3376101745431
 21
61.5
 31
0.0
  0
LINE
  5
CE6
  8
0
 62
     0
 10
579.08761017454322
 20
61.5
 30
0.0
 11
592.33761017454265
 21
61.5
 31
0.0
  0
LINE
  5
CE7
  8
0
 62
     0
 10
719.8376101745431
 20
63.0
 30
0.0
 11
733.08761017454253
 21
63.0
 31
0.0
  0
LINE
  5
CE8
  8
0
 62
     0
 10
702.32962549131264
 20
63.0
 30
0.0
 11
715.58761017454299
 21
63.0
 31
0.0
  0
LINE
  5
CE9
  8
0
 62
     0
 10
759.08761017454344
 20
63.0
 30
0.0
 11
775.08483214571675
 21
63.0
 31
0.0
  0
LINE
  5
CEA
  8
0
 62
     0
 10
660.33009577529003
 20
63.0
 30
0.0
 11
676.3466098292148
 21
63.0
 31
0.0
  0
LINE
  5
CEB
  8
0
 62
     0
 10
801.08009577528981
 20
63.0
 30
0.0
 11
817.09660982921469
 21
63.0
 31
0.0
  0
LINE
  5
CEC
  8
0
 62
     0
 10
618.33761017454356
 20
63.0
 30
0.0
 11
634.33483214571675
 21
63.0
 31
0.0
  0
LINE
  5
CED
  8
0
 62
     0
 10
843.07962549131264
 20
63.0
 30
0.0
 11
856.3376101745431
 21
63.0
 31
0.0
  0
LINE
  5
CEE
  8
0
 62
     0
 10
579.0876101745431
 20
63.0
 30
0.0
 11
592.33761017454265
 21
63.0
 31
0.0
  0
LINE
  5
CEF
  8
0
 62
     0
 10
719.8376101745431
 20
64.5
 30
0.0
 11
733.08761017454253
 21
64.5
 31
0.0
  0
LINE
  5
CF0
  8
0
 62
     0
 10
702.32962549131264
 20
64.5
 30
0.0
 11
715.58761017454299
 21
64.5
 31
0.0
  0
LINE
  5
CF1
  8
0
 62
     0
 10
759.08761017454344
 20
64.5
 30
0.0
 11
775.08483214571675
 21
64.5
 31
0.0
  0
LINE
  5
CF2
  8
0
 62
     0
 10
660.33009577529003
 20
64.5
 30
0.0
 11
676.3466098292148
 21
64.5
 31
0.0
  0
LINE
  5
CF3
  8
0
 62
     0
 10
801.08009577528981
 20
64.5
 30
0.0
 11
817.09660982921469
 21
64.5
 31
0.0
  0
LINE
  5
CF4
  8
0
 62
     0
 10
618.33761017454356
 20
64.5
 30
0.0
 11
634.33483214571675
 21
64.5
 31
0.0
  0
LINE
  5
CF5
  8
0
 62
     0
 10
843.07962549131264
 20
64.5
 30
0.0
 11
856.3376101745431
 21
64.5
 31
0.0
  0
LINE
  5
CF6
  8
0
 62
     0
 10
579.0876101745431
 20
64.5
 30
0.0
 11
592.33761017454265
 21
64.5
 31
0.0
  0
LINE
  5
CF7
  8
0
 62
     0
 10
719.8376101745431
 20
66.0
 30
0.0
 11
733.08761017454253
 21
66.0
 31
0.0
  0
LINE
  5
CF8
  8
0
 62
     0
 10
702.32962549131264
 20
66.0
 30
0.0
 11
715.58761017454299
 21
66.0
 31
0.0
  0
LINE
  5
CF9
  8
0
 62
     0
 10
759.08761017454344
 20
66.0
 30
0.0
 11
775.08483214571675
 21
66.0
 31
0.0
  0
LINE
  5
CFA
  8
0
 62
     0
 10
660.33009577529003
 20
66.0
 30
0.0
 11
676.3466098292148
 21
66.0
 31
0.0
  0
LINE
  5
CFB
  8
0
 62
     0
 10
801.08009577528981
 20
66.0
 30
0.0
 11
817.09660982921469
 21
66.0
 31
0.0
  0
LINE
  5
CFC
  8
0
 62
     0
 10
618.33761017454356
 20
66.0
 30
0.0
 11
634.33483214571675
 21
66.0
 31
0.0
  0
LINE
  5
CFD
  8
0
 62
     0
 10
843.07962549131264
 20
66.0
 30
0.0
 11
856.3376101745431
 21
66.0
 31
0.0
  0
LINE
  5
CFE
  8
0
 62
     0
 10
579.0876101745431
 20
66.0
 30
0.0
 11
592.33761017454265
 21
66.0
 31
0.0
  0
LINE
  5
CFF
  8
0
 62
     0
 10
719.8376101745431
 20
67.5
 30
0.0
 11
733.08761017454253
 21
67.5
 31
0.0
  0
LINE
  5
D00
  8
0
 62
     0
 10
702.32962549131264
 20
67.5
 30
0.0
 11
715.58761017454299
 21
67.5
 31
0.0
  0
LINE
  5
D01
  8
0
 62
     0
 10
759.08761017454344
 20
67.5
 30
0.0
 11
775.08483214571675
 21
67.5
 31
0.0
  0
LINE
  5
D02
  8
0
 62
     0
 10
660.33009577529003
 20
67.5
 30
0.0
 11
676.3466098292148
 21
67.5
 31
0.0
  0
LINE
  5
D03
  8
0
 62
     0
 10
801.08009577528981
 20
67.5
 30
0.0
 11
817.09660982921469
 21
67.5
 31
0.0
  0
LINE
  5
D04
  8
0
 62
     0
 10
618.33761017454356
 20
67.5
 30
0.0
 11
634.33483214571675
 21
67.5
 31
0.0
  0
LINE
  5
D05
  8
0
 62
     0
 10
843.07962549131264
 20
67.5
 30
0.0
 11
856.3376101745431
 21
67.5
 31
0.0
  0
LINE
  5
D06
  8
0
 62
     0
 10
579.0876101745431
 20
67.5
 30
0.0
 11
592.33761017454265
 21
67.5
 31
0.0
  0
LINE
  5
D07
  8
0
 62
     0
 10
719.8376101745431
 20
69.0
 30
0.0
 11
733.08761017454253
 21
69.0
 31
0.0
  0
LINE
  5
D08
  8
0
 62
     0
 10
702.32962549131264
 20
69.0
 30
0.0
 11
715.58761017454287
 21
69.0
 31
0.0
  0
LINE
  5
D09
  8
0
 62
     0
 10
759.08761017454344
 20
69.0
 30
0.0
 11
775.08483214571675
 21
69.0
 31
0.0
  0
LINE
  5
D0A
  8
0
 62
     0
 10
660.33009577529003
 20
69.0
 30
0.0
 11
676.3466098292148
 21
69.0
 31
0.0
  0
LINE
  5
D0B
  8
0
 62
     0
 10
801.08009577528981
 20
69.0
 30
0.0
 11
817.09660982921469
 21
69.0
 31
0.0
  0
LINE
  5
D0C
  8
0
 62
     0
 10
618.33761017454356
 20
69.0
 30
0.0
 11
634.33483214571675
 21
69.0
 31
0.0
  0
LINE
  5
D0D
  8
0
 62
     0
 10
843.07962549131264
 20
69.0
 30
0.0
 11
856.33761017454287
 21
69.0
 31
0.0
  0
LINE
  5
D0E
  8
0
 62
     0
 10
579.0876101745431
 20
69.0
 30
0.0
 11
592.33761017454265
 21
69.0
 31
0.0
  0
LINE
  5
D0F
  8
0
 62
     0
 10
719.8376101745431
 20
70.5
 30
0.0
 11
733.08761017454253
 21
70.5
 31
0.0
  0
LINE
  5
D10
  8
0
 62
     0
 10
702.32962549131264
 20
70.5
 30
0.0
 11
715.58761017454287
 21
70.5
 31
0.0
  0
LINE
  5
D11
  8
0
 62
     0
 10
759.08761017454344
 20
70.5
 30
0.0
 11
775.08483214571675
 21
70.5
 31
0.0
  0
LINE
  5
D12
  8
0
 62
     0
 10
660.33009577529003
 20
70.5
 30
0.0
 11
676.3466098292148
 21
70.5
 31
0.0
  0
LINE
  5
D13
  8
0
 62
     0
 10
801.08009577528981
 20
70.5
 30
0.0
 11
817.09660982921469
 21
70.5
 31
0.0
  0
LINE
  5
D14
  8
0
 62
     0
 10
618.33761017454356
 20
70.5
 30
0.0
 11
634.33483214571675
 21
70.5
 31
0.0
  0
LINE
  5
D15
  8
0
 62
     0
 10
843.07962549131264
 20
70.5
 30
0.0
 11
856.33761017454287
 21
70.5
 31
0.0
  0
LINE
  5
D16
  8
0
 62
     0
 10
579.0876101745431
 20
70.5
 30
0.0
 11
592.33761017454265
 21
70.5
 31
0.0
  0
LINE
  5
D17
  8
0
 62
     0
 10
719.8376101745431
 20
72.0
 30
0.0
 11
733.08761017454253
 21
72.0
 31
0.0
  0
LINE
  5
D18
  8
0
 62
     0
 10
702.32962549131264
 20
72.0
 30
0.0
 11
715.58761017454287
 21
72.0
 31
0.0
  0
LINE
  5
D19
  8
0
 62
     0
 10
759.08761017454344
 20
72.0
 30
0.0
 11
775.08483214571675
 21
72.0
 31
0.0
  0
LINE
  5
D1A
  8
0
 62
     0
 10
660.33009577529003
 20
72.0
 30
0.0
 11
676.3466098292148
 21
72.0
 31
0.0
  0
LINE
  5
D1B
  8
0
 62
     0
 10
801.08009577528981
 20
72.0
 30
0.0
 11
817.09660982921469
 21
72.0
 31
0.0
  0
LINE
  5
D1C
  8
0
 62
     0
 10
618.33761017454356
 20
72.0
 30
0.0
 11
634.33483214571675
 21
72.0
 31
0.0
  0
LINE
  5
D1D
  8
0
 62
     0
 10
843.07962549131264
 20
72.0
 30
0.0
 11
856.33761017454287
 21
72.0
 31
0.0
  0
LINE
  5
D1E
  8
0
 62
     0
 10
579.0876101745431
 20
72.0
 30
0.0
 11
592.33761017454265
 21
72.0
 31
0.0
  0
LINE
  5
D1F
  8
0
 62
     0
 10
719.83761017454299
 20
73.5
 30
0.0
 11
733.08761017454253
 21
73.5
 31
0.0
  0
LINE
  5
D20
  8
0
 62
     0
 10
702.32962549131264
 20
73.5
 30
0.0
 11
715.58761017454287
 21
73.5
 31
0.0
  0
LINE
  5
D21
  8
0
 62
     0
 10
759.08761017454344
 20
73.5
 30
0.0
 11
775.08483214571675
 21
73.5
 31
0.0
  0
LINE
  5
D22
  8
0
 62
     0
 10
660.33009577529003
 20
73.5
 30
0.0
 11
676.3466098292148
 21
73.5
 31
0.0
  0
LINE
  5
D23
  8
0
 62
     0
 10
801.08009577528981
 20
73.5
 30
0.0
 11
817.09660982921469
 21
73.5
 31
0.0
  0
LINE
  5
D24
  8
0
 62
     0
 10
618.33761017454356
 20
73.5
 30
0.0
 11
634.33483214571675
 21
73.5
 31
0.0
  0
LINE
  5
D25
  8
0
 62
     0
 10
843.07962549131264
 20
73.5
 30
0.0
 11
856.33761017454287
 21
73.5
 31
0.0
  0
LINE
  5
D26
  8
0
 62
     0
 10
579.08761017454287
 20
73.5
 30
0.0
 11
592.33761017454265
 21
73.5
 31
0.0
  0
LINE
  5
D27
  8
0
 62
     0
 10
719.83761017454299
 20
75.0
 30
0.0
 11
733.08761017454253
 21
75.0
 31
0.0
  0
LINE
  5
D28
  8
0
 62
     0
 10
702.32962549131264
 20
75.0
 30
0.0
 11
715.58761017454287
 21
75.0
 31
0.0
  0
LINE
  5
D29
  8
0
 62
     0
 10
759.08761017454344
 20
75.0
 30
0.0
 11
775.08483214571675
 21
75.0
 31
0.0
  0
LINE
  5
D2A
  8
0
 62
     0
 10
660.33009577529003
 20
75.0
 30
0.0
 11
676.3466098292148
 21
75.0
 31
0.0
  0
LINE
  5
D2B
  8
0
 62
     0
 10
801.08009577528981
 20
75.0
 30
0.0
 11
817.09660982921469
 21
75.0
 31
0.0
  0
LINE
  5
D2C
  8
0
 62
     0
 10
618.33761017454356
 20
75.0
 30
0.0
 11
634.33483214571675
 21
75.0
 31
0.0
  0
LINE
  5
D2D
  8
0
 62
     0
 10
843.07962549131264
 20
75.0
 30
0.0
 11
856.33761017454287
 21
75.0
 31
0.0
  0
LINE
  5
D2E
  8
0
 62
     0
 10
579.08761017454287
 20
75.0
 30
0.0
 11
592.33761017454265
 21
75.0
 31
0.0
  0
LINE
  5
D2F
  8
0
 62
     0
 10
719.83761017454299
 20
76.5
 30
0.0
 11
733.08761017454253
 21
76.5
 31
0.0
  0
LINE
  5
D30
  8
0
 62
     0
 10
702.32962549131264
 20
76.5
 30
0.0
 11
715.58761017454287
 21
76.5
 31
0.0
  0
LINE
  5
D31
  8
0
 62
     0
 10
759.08761017454344
 20
76.5
 30
0.0
 11
775.08483214571675
 21
76.5
 31
0.0
  0
LINE
  5
D32
  8
0
 62
     0
 10
660.33009577529003
 20
76.5
 30
0.0
 11
676.3466098292148
 21
76.5
 31
0.0
  0
LINE
  5
D33
  8
0
 62
     0
 10
801.08009577528981
 20
76.5
 30
0.0
 11
817.09660982921469
 21
76.5
 31
0.0
  0
LINE
  5
D34
  8
0
 62
     0
 10
618.33761017454356
 20
76.5
 30
0.0
 11
634.33483214571675
 21
76.5
 31
0.0
  0
LINE
  5
D35
  8
0
 62
     0
 10
843.07962549131264
 20
76.5
 30
0.0
 11
856.33761017454287
 21
76.5
 31
0.0
  0
LINE
  5
D36
  8
0
 62
     0
 10
579.08761017454287
 20
76.5
 30
0.0
 11
592.33761017454265
 21
76.5
 31
0.0
  0
LINE
  5
D37
  8
0
 62
     0
 10
719.83761017454299
 20
78.0
 30
0.0
 11
733.08761017454253
 21
78.0
 31
0.0
  0
LINE
  5
D38
  8
0
 62
     0
 10
702.32962549131264
 20
78.0
 30
0.0
 11
715.58761017454287
 21
78.0
 31
0.0
  0
LINE
  5
D39
  8
0
 62
     0
 10
759.08761017454344
 20
78.0
 30
0.0
 11
775.08483214571675
 21
78.0
 31
0.0
  0
LINE
  5
D3A
  8
0
 62
     0
 10
660.33009577529003
 20
78.0
 30
0.0
 11
676.3466098292148
 21
78.0
 31
0.0
  0
LINE
  5
D3B
  8
0
 62
     0
 10
801.08009577528981
 20
78.0
 30
0.0
 11
817.09660982921469
 21
78.0
 31
0.0
  0
LINE
  5
D3C
  8
0
 62
     0
 10
618.33761017454356
 20
78.0
 30
0.0
 11
634.33483214571675
 21
78.0
 31
0.0
  0
LINE
  5
D3D
  8
0
 62
     0
 10
843.07962549131264
 20
78.0
 30
0.0
 11
856.33761017454287
 21
78.0
 31
0.0
  0
LINE
  5
D3E
  8
0
 62
     0
 10
579.08761017454287
 20
78.0
 30
0.0
 11
592.33761017454265
 21
78.0
 31
0.0
  0
LINE
  5
D3F
  8
0
 62
     0
 10
719.83761017454299
 20
79.5
 30
0.0
 11
733.08761017454253
 21
79.5
 31
0.0
  0
LINE
  5
D40
  8
0
 62
     0
 10
702.32962549131264
 20
79.5
 30
0.0
 11
715.58761017454287
 21
79.5
 31
0.0
  0
LINE
  5
D41
  8
0
 62
     0
 10
759.08761017454344
 20
79.5
 30
0.0
 11
775.08483214571675
 21
79.5
 31
0.0
  0
LINE
  5
D42
  8
0
 62
     0
 10
660.33009577529003
 20
79.5
 30
0.0
 11
676.3466098292148
 21
79.5
 31
0.0
  0
LINE
  5
D43
  8
0
 62
     0
 10
801.08009577528981
 20
79.5
 30
0.0
 11
817.09660982921469
 21
79.5
 31
0.0
  0
LINE
  5
D44
  8
0
 62
     0
 10
618.33761017454356
 20
79.5
 30
0.0
 11
634.33483214571675
 21
79.5
 31
0.0
  0
LINE
  5
D45
  8
0
 62
     0
 10
843.07962549131264
 20
79.5
 30
0.0
 11
856.33761017454287
 21
79.5
 31
0.0
  0
LINE
  5
D46
  8
0
 62
     0
 10
579.08761017454287
 20
79.5
 30
0.0
 11
592.33761017454265
 21
79.5
 31
0.0
  0
LINE
  5
D47
  8
0
 62
     0
 10
719.83761017454299
 20
81.0
 30
0.0
 11
733.08761017454253
 21
81.0
 31
0.0
  0
LINE
  5
D48
  8
0
 62
     0
 10
702.32962549131264
 20
81.0
 30
0.0
 11
715.58761017454287
 21
81.0
 31
0.0
  0
LINE
  5
D49
  8
0
 62
     0
 10
759.08761017454344
 20
81.0
 30
0.0
 11
775.08483214571675
 21
81.0
 31
0.0
  0
LINE
  5
D4A
  8
0
 62
     0
 10
660.33009577529003
 20
81.0
 30
0.0
 11
676.3466098292148
 21
81.0
 31
0.0
  0
LINE
  5
D4B
  8
0
 62
     0
 10
801.08009577528981
 20
81.0
 30
0.0
 11
817.09660982921469
 21
81.0
 31
0.0
  0
LINE
  5
D4C
  8
0
 62
     0
 10
618.33761017454356
 20
81.0
 30
0.0
 11
634.33483214571675
 21
81.0
 31
0.0
  0
LINE
  5
D4D
  8
0
 62
     0
 10
843.07962549131264
 20
81.0
 30
0.0
 11
856.33761017454287
 21
81.0
 31
0.0
  0
LINE
  5
D4E
  8
0
 62
     0
 10
579.08761017454287
 20
81.0
 30
0.0
 11
592.33761017454265
 21
81.0
 31
0.0
  0
LINE
  5
D4F
  8
0
 62
     0
 10
719.83761017454299
 20
82.5
 30
0.0
 11
733.08761017454253
 21
82.5
 31
0.0
  0
LINE
  5
D50
  8
0
 62
     0
 10
702.32962549131264
 20
82.5
 30
0.0
 11
715.58761017454287
 21
82.5
 31
0.0
  0
LINE
  5
D51
  8
0
 62
     0
 10
759.08761017454344
 20
82.5
 30
0.0
 11
775.08483214571675
 21
82.5
 31
0.0
  0
LINE
  5
D52
  8
0
 62
     0
 10
660.33009577529003
 20
82.5
 30
0.0
 11
676.3466098292148
 21
82.5
 31
0.0
  0
LINE
  5
D53
  8
0
 62
     0
 10
801.08009577528981
 20
82.5
 30
0.0
 11
817.09660982921469
 21
82.5
 31
0.0
  0
LINE
  5
D54
  8
0
 62
     0
 10
618.33761017454356
 20
82.5
 30
0.0
 11
634.33483214571675
 21
82.5
 31
0.0
  0
LINE
  5
D55
  8
0
 62
     0
 10
843.07962549131264
 20
82.5
 30
0.0
 11
856.33761017454287
 21
82.5
 31
0.0
  0
LINE
  5
D56
  8
0
 62
     0
 10
579.08761017454287
 20
82.5
 30
0.0
 11
592.33761017454265
 21
82.5
 31
0.0
  0
LINE
  5
D57
  8
0
 62
     0
 10
719.83761017454276
 20
84.0
 30
0.0
 11
733.08761017454253
 21
84.0
 31
0.0
  0
LINE
  5
D58
  8
0
 62
     0
 10
702.32962549131264
 20
84.0
 30
0.0
 11
715.58761017454287
 21
84.0
 31
0.0
  0
LINE
  5
D59
  8
0
 62
     0
 10
759.08761017454344
 20
84.0
 30
0.0
 11
775.08483214571675
 21
84.0
 31
0.0
  0
LINE
  5
D5A
  8
0
 62
     0
 10
660.33009577529003
 20
84.0
 30
0.0
 11
676.3466098292148
 21
84.0
 31
0.0
  0
LINE
  5
D5B
  8
0
 62
     0
 10
801.08009577528981
 20
84.0
 30
0.0
 11
817.09660982921469
 21
84.0
 31
0.0
  0
LINE
  5
D5C
  8
0
 62
     0
 10
618.33761017454356
 20
84.0
 30
0.0
 11
634.33483214571675
 21
84.0
 31
0.0
  0
LINE
  5
D5D
  8
0
 62
     0
 10
843.07962549131264
 20
84.0
 30
0.0
 11
856.33761017454287
 21
84.0
 31
0.0
  0
LINE
  5
D5E
  8
0
 62
     0
 10
579.08761017454276
 20
84.0
 30
0.0
 11
592.33761017454265
 21
84.0
 31
0.0
  0
LINE
  5
D5F
  8
0
 62
     0
 10
719.83761017454276
 20
85.5
 30
0.0
 11
733.08761017454253
 21
85.5
 31
0.0
  0
LINE
  5
D60
  8
0
 62
     0
 10
702.32962549131264
 20
85.5
 30
0.0
 11
715.58761017454287
 21
85.5
 31
0.0
  0
LINE
  5
D61
  8
0
 62
     0
 10
759.08761017454344
 20
85.5
 30
0.0
 11
775.08483214571675
 21
85.5
 31
0.0
  0
LINE
  5
D62
  8
0
 62
     0
 10
660.33009577529003
 20
85.5
 30
0.0
 11
676.3466098292148
 21
85.5
 31
0.0
  0
LINE
  5
D63
  8
0
 62
     0
 10
801.08009577528981
 20
85.5
 30
0.0
 11
817.09660982921469
 21
85.5
 31
0.0
  0
LINE
  5
D64
  8
0
 62
     0
 10
618.33761017454356
 20
85.5
 30
0.0
 11
634.33483214571675
 21
85.5
 31
0.0
  0
LINE
  5
D65
  8
0
 62
     0
 10
843.07962549131264
 20
85.5
 30
0.0
 11
856.33761017454287
 21
85.5
 31
0.0
  0
LINE
  5
D66
  8
0
 62
     0
 10
579.08761017454276
 20
85.5
 30
0.0
 11
592.33761017454265
 21
85.5
 31
0.0
  0
LINE
  5
D67
  8
0
 62
     0
 10
719.83761017454276
 20
87.0
 30
0.0
 11
733.08761017454253
 21
87.0
 31
0.0
  0
LINE
  5
D68
  8
0
 62
     0
 10
702.32962549131264
 20
87.0
 30
0.0
 11
715.58761017454287
 21
87.0
 31
0.0
  0
LINE
  5
D69
  8
0
 62
     0
 10
759.08761017454344
 20
87.0
 30
0.0
 11
775.08483214571675
 21
87.0
 31
0.0
  0
LINE
  5
D6A
  8
0
 62
     0
 10
660.33009577529003
 20
87.0
 30
0.0
 11
676.3466098292148
 21
87.0
 31
0.0
  0
LINE
  5
D6B
  8
0
 62
     0
 10
801.08009577528981
 20
87.0
 30
0.0
 11
817.09660982921469
 21
87.0
 31
0.0
  0
LINE
  5
D6C
  8
0
 62
     0
 10
618.33761017454356
 20
87.0
 30
0.0
 11
634.33483214571675
 21
87.0
 31
0.0
  0
LINE
  5
D6D
  8
0
 62
     0
 10
843.07962549131264
 20
87.0
 30
0.0
 11
856.33761017454287
 21
87.0
 31
0.0
  0
LINE
  5
D6E
  8
0
 62
     0
 10
579.08761017454276
 20
87.0
 30
0.0
 11
592.33761017454265
 21
87.0
 31
0.0
  0
LINE
  5
D6F
  8
0
 62
     0
 10
719.83761017454276
 20
88.499999999999986
 30
0.0
 11
733.08761017454253
 21
88.499999999999986
 31
0.0
  0
LINE
  5
D70
  8
0
 62
     0
 10
702.32962549131264
 20
88.499999999999986
 30
0.0
 11
715.58761017454287
 21
88.499999999999986
 31
0.0
  0
LINE
  5
D71
  8
0
 62
     0
 10
759.08761017454344
 20
88.499999999999986
 30
0.0
 11
775.08483214571675
 21
88.499999999999986
 31
0.0
  0
LINE
  5
D72
  8
0
 62
     0
 10
660.33009577529003
 20
88.499999999999986
 30
0.0
 11
676.3466098292148
 21
88.499999999999986
 31
0.0
  0
LINE
  5
D73
  8
0
 62
     0
 10
801.08009577528981
 20
88.499999999999986
 30
0.0
 11
817.09660982921469
 21
88.499999999999986
 31
0.0
  0
LINE
  5
D74
  8
0
 62
     0
 10
618.33761017454356
 20
88.499999999999986
 30
0.0
 11
634.33483214571675
 21
88.499999999999986
 31
0.0
  0
LINE
  5
D75
  8
0
 62
     0
 10
843.07962549131264
 20
88.499999999999986
 30
0.0
 11
856.33761017454287
 21
88.499999999999986
 31
0.0
  0
LINE
  5
D76
  8
0
 62
     0
 10
579.08761017454276
 20
88.499999999999986
 30
0.0
 11
592.33761017454265
 21
88.499999999999986
 31
0.0
  0
LINE
  5
D77
  8
0
 62
     0
 10
719.83761017454276
 20
90.0
 30
0.0
 11
733.08761017454253
 21
90.0
 31
0.0
  0
LINE
  5
D78
  8
0
 62
     0
 10
702.32962549131264
 20
90.0
 30
0.0
 11
715.58761017454287
 21
90.0
 31
0.0
  0
LINE
  5
D79
  8
0
 62
     0
 10
759.08761017454344
 20
90.0
 30
0.0
 11
775.08483214571675
 21
90.0
 31
0.0
  0
LINE
  5
D7A
  8
0
 62
     0
 10
660.33009577529003
 20
90.0
 30
0.0
 11
676.3466098292148
 21
90.0
 31
0.0
  0
LINE
  5
D7B
  8
0
 62
     0
 10
801.08009577528981
 20
90.0
 30
0.0
 11
817.09660982921469
 21
90.0
 31
0.0
  0
LINE
  5
D7C
  8
0
 62
     0
 10
618.33761017454356
 20
90.0
 30
0.0
 11
634.33483214571675
 21
90.0
 31
0.0
  0
LINE
  5
D7D
  8
0
 62
     0
 10
843.07962549131264
 20
90.0
 30
0.0
 11
856.33761017454287
 21
90.0
 31
0.0
  0
LINE
  5
D7E
  8
0
 62
     0
 10
579.08761017454276
 20
90.0
 30
0.0
 11
592.33761017454265
 21
90.0
 31
0.0
  0
LINE
  5
D7F
  8
0
 62
     0
 10
719.83761017454276
 20
91.5
 30
0.0
 11
733.08761017454253
 21
91.5
 31
0.0
  0
LINE
  5
D80
  8
0
 62
     0
 10
702.32962549131264
 20
91.5
 30
0.0
 11
715.58761017454287
 21
91.5
 31
0.0
  0
LINE
  5
D81
  8
0
 62
     0
 10
759.08761017454344
 20
91.5
 30
0.0
 11
775.08483214571675
 21
91.5
 31
0.0
  0
LINE
  5
D82
  8
0
 62
     0
 10
660.33009577529003
 20
91.5
 30
0.0
 11
676.3466098292148
 21
91.5
 31
0.0
  0
LINE
  5
D83
  8
0
 62
     0
 10
801.08009577528981
 20
91.5
 30
0.0
 11
817.09660982921469
 21
91.5
 31
0.0
  0
LINE
  5
D84
  8
0
 62
     0
 10
618.33761017454356
 20
91.5
 30
0.0
 11
634.33483214571675
 21
91.5
 31
0.0
  0
LINE
  5
D85
  8
0
 62
     0
 10
843.07962549131264
 20
91.5
 30
0.0
 11
856.33761017454287
 21
91.5
 31
0.0
  0
LINE
  5
D86
  8
0
 62
     0
 10
579.08761017454276
 20
91.5
 30
0.0
 11
592.33761017454265
 21
91.5
 31
0.0
  0
LINE
  5
D87
  8
0
 62
     0
 10
719.83761017454276
 20
93.0
 30
0.0
 11
733.08761017454253
 21
93.0
 31
0.0
  0
LINE
  5
D88
  8
0
 62
     0
 10
702.32962549131264
 20
93.0
 30
0.0
 11
715.58761017454265
 21
93.0
 31
0.0
  0
LINE
  5
D89
  8
0
 62
     0
 10
759.08761017454344
 20
93.0
 30
0.0
 11
775.08483214571675
 21
93.0
 31
0.0
  0
LINE
  5
D8A
  8
0
 62
     0
 10
660.33009577529003
 20
93.0
 30
0.0
 11
676.3466098292148
 21
93.0
 31
0.0
  0
LINE
  5
D8B
  8
0
 62
     0
 10
801.08009577528981
 20
93.0
 30
0.0
 11
817.09660982921469
 21
93.0
 31
0.0
  0
LINE
  5
D8C
  8
0
 62
     0
 10
618.33761017454356
 20
93.0
 30
0.0
 11
634.33483214571675
 21
93.0
 31
0.0
  0
LINE
  5
D8D
  8
0
 62
     0
 10
843.07962549131264
 20
93.0
 30
0.0
 11
856.33761017454265
 21
93.0
 31
0.0
  0
LINE
  5
D8E
  8
0
 62
     0
 10
579.08761017454276
 20
93.0
 30
0.0
 11
592.33761017454265
 21
93.0
 31
0.0
  0
LINE
  5
D8F
  8
0
 62
     0
 10
719.83761017454265
 20
94.500000000000014
 30
0.0
 11
733.08761017454253
 21
94.500000000000014
 31
0.0
  0
LINE
  5
D90
  8
0
 62
     0
 10
702.32962549131264
 20
94.500000000000014
 30
0.0
 11
715.58761017454265
 21
94.500000000000014
 31
0.0
  0
LINE
  5
D91
  8
0
 62
     0
 10
759.08761017454344
 20
94.500000000000014
 30
0.0
 11
775.08483214571675
 21
94.500000000000014
 31
0.0
  0
LINE
  5
D92
  8
0
 62
     0
 10
660.33009577529003
 20
94.500000000000014
 30
0.0
 11
676.3466098292148
 21
94.500000000000014
 31
0.0
  0
LINE
  5
D93
  8
0
 62
     0
 10
801.08009577528981
 20
94.500000000000014
 30
0.0
 11
817.09660982921469
 21
94.500000000000014
 31
0.0
  0
LINE
  5
D94
  8
0
 62
     0
 10
618.33761017454356
 20
94.500000000000014
 30
0.0
 11
634.33483214571675
 21
94.500000000000014
 31
0.0
  0
LINE
  5
D95
  8
0
 62
     0
 10
843.07962549131264
 20
94.500000000000014
 30
0.0
 11
856.33761017454265
 21
94.500000000000014
 31
0.0
  0
LINE
  5
D96
  8
0
 62
     0
 10
579.08761017454265
 20
94.500000000000014
 30
0.0
 11
592.33761017454265
 21
94.500000000000014
 31
0.0
  0
LINE
  5
D97
  8
0
 62
     0
 10
719.83761017454265
 20
96.0
 30
0.0
 11
733.08761017454253
 21
96.0
 31
0.0
  0
LINE
  5
D98
  8
0
 62
     0
 10
702.32962549131264
 20
96.0
 30
0.0
 11
715.58761017454265
 21
96.0
 31
0.0
  0
LINE
  5
D99
  8
0
 62
     0
 10
759.08761017454344
 20
96.0
 30
0.0
 11
775.08483214571675
 21
96.0
 31
0.0
  0
LINE
  5
D9A
  8
0
 62
     0
 10
660.33009577529003
 20
96.0
 30
0.0
 11
676.3466098292148
 21
96.0
 31
0.0
  0
LINE
  5
D9B
  8
0
 62
     0
 10
801.08009577528981
 20
96.0
 30
0.0
 11
817.09660982921469
 21
96.0
 31
0.0
  0
LINE
  5
D9C
  8
0
 62
     0
 10
618.33761017454356
 20
96.0
 30
0.0
 11
634.33483214571675
 21
96.0
 31
0.0
  0
LINE
  5
D9D
  8
0
 62
     0
 10
843.07962549131264
 20
96.0
 30
0.0
 11
856.33761017454265
 21
96.0
 31
0.0
  0
LINE
  5
D9E
  8
0
 62
     0
 10
579.08761017454265
 20
96.0
 30
0.0
 11
592.33761017454265
 21
96.0
 31
0.0
  0
LINE
  5
D9F
  8
0
 62
     0
 10
719.83761017454265
 20
97.5
 30
0.0
 11
733.08761017454253
 21
97.5
 31
0.0
  0
LINE
  5
DA0
  8
0
 62
     0
 10
702.32962549131264
 20
97.5
 30
0.0
 11
715.58761017454265
 21
97.5
 31
0.0
  0
LINE
  5
DA1
  8
0
 62
     0
 10
759.08761017454344
 20
97.5
 30
0.0
 11
775.08483214571675
 21
97.5
 31
0.0
  0
LINE
  5
DA2
  8
0
 62
     0
 10
660.33009577529003
 20
97.5
 30
0.0
 11
676.3466098292148
 21
97.5
 31
0.0
  0
LINE
  5
DA3
  8
0
 62
     0
 10
801.08009577528981
 20
97.5
 30
0.0
 11
817.09660982921469
 21
97.5
 31
0.0
  0
LINE
  5
DA4
  8
0
 62
     0
 10
618.33761017454356
 20
97.5
 30
0.0
 11
634.33483214571675
 21
97.5
 31
0.0
  0
LINE
  5
DA5
  8
0
 62
     0
 10
843.07962549131264
 20
97.5
 30
0.0
 11
856.33761017454265
 21
97.5
 31
0.0
  0
LINE
  5
DA6
  8
0
 62
     0
 10
579.08761017454265
 20
97.5
 30
0.0
 11
592.33761017454265
 21
97.5
 31
0.0
  0
ENDBLK
  5
DA8
  8
0
  0
BLOCK
  8
0
  2
*X4
 70
     1
 10
0.0
 20
0.0
 30
0.0
  3
*X4
  1

  0
LINE
  5
DAA
  8
0
 62
     0
 10
498.20240957355759
 20
534.24999999999989
 30
0.0
 11
360.7024095735577
 21
534.25
 31
0.0
  0
LINE
  5
DAB
  8
0
 62
     0
 10
498.20240957355759
 20
532.74999999999977
 30
0.0
 11
360.7024095735577
 21
532.74999999999989
 31
0.0
  0
LINE
  5
DAC
  8
0
 62
     0
 10
498.20240957355759
 20
531.24999999999989
 30
0.0
 11
360.7024095735577
 21
531.25
 31
0.0
  0
LINE
  5
DAD
  8
0
 62
     0
 10
498.20240957355759
 20
529.74999999999977
 30
0.0
 11
360.7024095735577
 21
529.75
 31
0.0
  0
LINE
  5
DAE
  8
0
 62
     0
 10
498.20240957355759
 20
528.24999999999977
 30
0.0
 11
360.7024095735577
 21
528.24999999999989
 31
0.0
  0
LINE
  5
DAF
  8
0
 62
     0
 10
498.20240957355759
 20
526.74999999999989
 30
0.0
 11
360.7024095735577
 21
526.75
 31
0.0
  0
LINE
  5
DB0
  8
0
 62
     0
 10
498.20240957355759
 20
525.24999999999977
 30
0.0
 11
360.7024095735577
 21
525.25
 31
0.0
  0
LINE
  5
DB1
  8
0
 62
     0
 10
498.20240957355759
 20
523.74999999999977
 30
0.0
 11
360.7024095735577
 21
523.74999999999989
 31
0.0
  0
LINE
  5
DB2
  8
0
 62
     0
 10
498.20240957355759
 20
522.24999999999989
 30
0.0
 11
360.7024095735577
 21
522.25
 31
0.0
  0
LINE
  5
DB3
  8
0
 62
     0
 10
498.20240957355747
 20
520.74999999999977
 30
0.0
 11
360.7024095735577
 21
520.75
 31
0.0
  0
LINE
  5
DB4
  8
0
 62
     0
 10
498.20240957355747
 20
519.24999999999989
 30
0.0
 11
360.7024095735577
 21
519.24999999999989
 31
0.0
  0
LINE
  5
DB5
  8
0
 62
     0
 10
498.20240957355747
 20
517.74999999999989
 30
0.0
 11
360.70240957355759
 21
517.75
 31
0.0
  0
LINE
  5
DB6
  8
0
 62
     0
 10
498.20240957355747
 20
516.24999999999977
 30
0.0
 11
360.70240957355759
 21
516.25
 31
0.0
  0
LINE
  5
DB7
  8
0
 62
     0
 10
498.20240957355747
 20
514.74999999999989
 30
0.0
 11
360.70240957355759
 21
514.74999999999989
 31
0.0
  0
LINE
  5
DB8
  8
0
 62
     0
 10
498.20240957355747
 20
513.24999999999989
 30
0.0
 11
360.70240957355759
 21
513.25
 31
0.0
  0
LINE
  5
DB9
  8
0
 62
     0
 10
498.20240957355747
 20
511.74999999999989
 30
0.0
 11
360.70240957355759
 21
511.74999999999989
 31
0.0
  0
LINE
  5
DBA
  8
0
 62
     0
 10
498.20240957355747
 20
510.24999999999989
 30
0.0
 11
360.70240957355759
 21
510.24999999999989
 31
0.0
  0
LINE
  5
DBB
  8
0
 62
     0
 10
498.20240957355747
 20
508.74999999999989
 30
0.0
 11
360.70240957355759
 21
508.74999999999989
 31
0.0
  0
LINE
  5
DBC
  8
0
 62
     0
 10
498.20240957355747
 20
507.24999999999989
 30
0.0
 11
360.70240957355759
 21
507.24999999999989
 31
0.0
  0
LINE
  5
DBD
  8
0
 62
     0
 10
498.20240957355747
 20
505.74999999999989
 30
0.0
 11
360.70240957355759
 21
505.74999999999989
 31
0.0
  0
LINE
  5
DBE
  8
0
 62
     0
 10
498.20240957355747
 20
504.24999999999989
 30
0.0
 11
360.70240957355759
 21
504.24999999999989
 31
0.0
  0
LINE
  5
DBF
  8
0
 62
     0
 10
498.20240957355747
 20
502.74999999999989
 30
0.0
 11
360.70240957355759
 21
502.74999999999989
 31
0.0
  0
LINE
  5
DC0
  8
0
 62
     0
 10
498.20240957355747
 20
501.24999999999989
 30
0.0
 11
360.70240957355759
 21
501.24999999999989
 31
0.0
  0
LINE
  5
DC1
  8
0
 62
     0
 10
498.20240957355747
 20
499.74999999999989
 30
0.0
 11
360.70240957355759
 21
499.74999999999989
 31
0.0
  0
LINE
  5
DC2
  8
0
 62
     0
 10
498.20240957355747
 20
498.24999999999989
 30
0.0
 11
360.70240957355759
 21
498.24999999999989
 31
0.0
  0
LINE
  5
DC3
  8
0
 62
     0
 10
498.20240957355747
 20
496.74999999999989
 30
0.0
 11
360.70240957355759
 21
496.74999999999989
 31
0.0
  0
LINE
  5
DC4
  8
0
 62
     0
 10
498.20240957355747
 20
495.24999999999989
 30
0.0
 11
360.70240957355759
 21
495.24999999999989
 31
0.0
  0
LINE
  5
DC5
  8
0
 62
     0
 10
498.20240957355747
 20
493.74999999999989
 30
0.0
 11
360.70240957355759
 21
493.74999999999989
 31
0.0
  0
LINE
  5
DC6
  8
0
 62
     0
 10
498.20240957355747
 20
492.24999999999989
 30
0.0
 11
360.70240957355759
 21
492.24999999999989
 31
0.0
  0
LINE
  5
DC7
  8
0
 62
     0
 10
498.20240957355747
 20
490.74999999999989
 30
0.0
 11
360.70240957355759
 21
490.74999999999989
 31
0.0
  0
LINE
  5
DC8
  8
0
 62
     0
 10
498.20240957355747
 20
489.24999999999989
 30
0.0
 11
360.70240957355759
 21
489.24999999999989
 31
0.0
  0
LINE
  5
DC9
  8
0
 62
     0
 10
498.20240957355747
 20
487.74999999999989
 30
0.0
 11
360.70240957355759
 21
487.74999999999989
 31
0.0
  0
LINE
  5
DCA
  8
0
 62
     0
 10
498.20240957355747
 20
486.24999999999989
 30
0.0
 11
360.70240957355759
 21
486.24999999999989
 31
0.0
  0
LINE
  5
DCB
  8
0
 62
     0
 10
498.20240957355747
 20
484.74999999999989
 30
0.0
 11
360.70240957355759
 21
484.74999999999989
 31
0.0
  0
LINE
  5
DCC
  8
0
 62
     0
 10
498.20240957355747
 20
483.24999999999989
 30
0.0
 11
360.70240957355759
 21
483.24999999999989
 31
0.0
  0
LINE
  5
DCD
  8
0
 62
     0
 10
498.20240957355747
 20
481.74999999999989
 30
0.0
 11
360.70240957355759
 21
481.74999999999989
 31
0.0
  0
LINE
  5
DCE
  8
0
 62
     0
 10
498.20240957355747
 20
480.24999999999989
 30
0.0
 11
360.70240957355759
 21
480.24999999999989
 31
0.0
  0
LINE
  5
DCF
  8
0
 62
     0
 10
498.20240957355747
 20
478.74999999999989
 30
0.0
 11
360.70240957355759
 21
478.74999999999989
 31
0.0
  0
LINE
  5
DD0
  8
0
 62
     0
 10
498.20240957355747
 20
477.24999999999989
 30
0.0
 11
360.70240957355759
 21
477.24999999999989
 31
0.0
  0
LINE
  5
DD1
  8
0
 62
     0
 10
498.20240957355747
 20
475.74999999999989
 30
0.0
 11
360.70240957355759
 21
475.74999999999989
 31
0.0
  0
LINE
  5
DD2
  8
0
 62
     0
 10
498.20240957355747
 20
474.24999999999989
 30
0.0
 11
360.70240957355759
 21
474.24999999999989
 31
0.0
  0
LINE
  5
DD3
  8
0
 62
     0
 10
498.20240957355747
 20
472.74999999999989
 30
0.0
 11
360.70240957355759
 21
472.74999999999989
 31
0.0
  0
LINE
  5
DD4
  8
0
 62
     0
 10
498.20240957355747
 20
471.24999999999989
 30
0.0
 11
360.70240957355759
 21
471.24999999999989
 31
0.0
  0
LINE
  5
DD5
  8
0
 62
     0
 10
498.20240957355747
 20
469.74999999999989
 30
0.0
 11
360.70240957355759
 21
469.74999999999989
 31
0.0
  0
LINE
  5
DD6
  8
0
 62
     0
 10
498.20240957355747
 20
468.24999999999989
 30
0.0
 11
360.70240957355759
 21
468.24999999999989
 31
0.0
  0
LINE
  5
DD7
  8
0
 62
     0
 10
498.20240957355747
 20
466.74999999999989
 30
0.0
 11
360.70240957355759
 21
466.74999999999989
 31
0.0
  0
LINE
  5
DD8
  8
0
 62
     0
 10
498.20240957355747
 20
465.24999999999989
 30
0.0
 11
360.70240957355759
 21
465.24999999999989
 31
0.0
  0
LINE
  5
DD9
  8
0
 62
     0
 10
498.20240957355747
 20
463.74999999999989
 30
0.0
 11
360.70240957355759
 21
463.74999999999989
 31
0.0
  0
LINE
  5
DDA
  8
0
 62
     0
 10
498.20240957355747
 20
462.24999999999989
 30
0.0
 11
360.70240957355759
 21
462.24999999999989
 31
0.0
  0
LINE
  5
DDB
  8
0
 62
     0
 10
498.20240957355747
 20
460.74999999999989
 30
0.0
 11
360.70240957355759
 21
460.74999999999989
 31
0.0
  0
LINE
  5
DDC
  8
0
 62
     0
 10
498.20240957355747
 20
459.24999999999989
 30
0.0
 11
360.70240957355759
 21
459.24999999999989
 31
0.0
  0
LINE
  5
DDD
  8
0
 62
     0
 10
498.20240957355747
 20
457.74999999999989
 30
0.0
 11
360.70240957355759
 21
457.74999999999989
 31
0.0
  0
LINE
  5
DDE
  8
0
 62
     0
 10
498.20240957355747
 20
456.24999999999989
 30
0.0
 11
360.70240957355759
 21
456.24999999999989
 31
0.0
  0
LINE
  5
DDF
  8
0
 62
     0
 10
498.20240957355747
 20
454.74999999999989
 30
0.0
 11
360.70240957355759
 21
454.74999999999989
 31
0.0
  0
LINE
  5
DE0
  8
0
 62
     0
 10
498.20240957355747
 20
453.24999999999989
 30
0.0
 11
360.70240957355759
 21
453.24999999999989
 31
0.0
  0
LINE
  5
DE1
  8
0
 62
     0
 10
498.20240957355747
 20
451.74999999999989
 30
0.0
 11
360.70240957355759
 21
451.74999999999989
 31
0.0
  0
LINE
  5
DE2
  8
0
 62
     0
 10
498.20240957355747
 20
450.24999999999989
 30
0.0
 11
360.70240957355759
 21
450.24999999999989
 31
0.0
  0
LINE
  5
DE3
  8
0
 62
     0
 10
498.20240957355747
 20
448.74999999999989
 30
0.0
 11
360.70240957355747
 21
448.74999999999989
 31
0.0
  0
LINE
  5
DE4
  8
0
 62
     0
 10
498.20240957355747
 20
447.24999999999989
 30
0.0
 11
360.70240957355747
 21
447.24999999999989
 31
0.0
  0
LINE
  5
DE5
  8
0
 62
     0
 10
498.20240957355747
 20
445.74999999999989
 30
0.0
 11
360.70240957355747
 21
445.74999999999989
 31
0.0
  0
LINE
  5
DE6
  8
0
 62
     0
 10
498.20240957355747
 20
444.24999999999989
 30
0.0
 11
360.70240957355747
 21
444.24999999999989
 31
0.0
  0
LINE
  5
DE7
  8
0
 62
     0
 10
498.20240957355747
 20
442.74999999999989
 30
0.0
 11
360.70240957355747
 21
442.74999999999989
 31
0.0
  0
LINE
  5
DE8
  8
0
 62
     0
 10
498.20240957355747
 20
441.24999999999989
 30
0.0
 11
360.70240957355747
 21
441.24999999999989
 31
0.0
  0
LINE
  5
DE9
  8
0
 62
     0
 10
498.20240957355742
 20
439.74999999999989
 30
0.0
 11
360.70240957355747
 21
439.74999999999989
 31
0.0
  0
LINE
  5
DEA
  8
0
 62
     0
 10
498.20240957355742
 20
438.24999999999989
 30
0.0
 11
360.70240957355747
 21
438.24999999999989
 31
0.0
  0
LINE
  5
DEB
  8
0
 62
     0
 10
498.20240957355742
 20
436.74999999999989
 30
0.0
 11
360.70240957355747
 21
436.74999999999989
 31
0.0
  0
LINE
  5
DEC
  8
0
 62
     0
 10
498.20240957355742
 20
435.24999999999989
 30
0.0
 11
360.70240957355747
 21
435.24999999999989
 31
0.0
  0
LINE
  5
DED
  8
0
 62
     0
 10
498.20240957355742
 20
433.74999999999989
 30
0.0
 11
360.70240957355747
 21
433.74999999999989
 31
0.0
  0
LINE
  5
DEE
  8
0
 62
     0
 10
498.20240957355742
 20
432.24999999999989
 30
0.0
 11
360.70240957355747
 21
432.24999999999989
 31
0.0
  0
LINE
  5
DEF
  8
0
 62
     0
 10
498.20240957355742
 20
430.74999999999989
 30
0.0
 11
360.70240957355747
 21
430.74999999999989
 31
0.0
  0
LINE
  5
DF0
  8
0
 62
     0
 10
498.20240957355742
 20
429.24999999999989
 30
0.0
 11
360.70240957355747
 21
429.24999999999989
 31
0.0
  0
LINE
  5
DF1
  8
0
 62
     0
 10
498.20240957355742
 20
427.74999999999989
 30
0.0
 11
360.70240957355747
 21
427.74999999999989
 31
0.0
  0
LINE
  5
DF2
  8
0
 62
     0
 10
498.20240957355742
 20
426.24999999999989
 30
0.0
 11
360.70240957355747
 21
426.24999999999989
 31
0.0
  0
LINE
  5
DF3
  8
0
 62
     0
 10
498.20240957355742
 20
424.74999999999989
 30
0.0
 11
360.70240957355747
 21
424.74999999999989
 31
0.0
  0
LINE
  5
DF4
  8
0
 62
     0
 10
498.20240957355742
 20
423.24999999999989
 30
0.0
 11
360.70240957355747
 21
423.24999999999989
 31
0.0
  0
LINE
  5
DF5
  8
0
 62
     0
 10
498.20240957355742
 20
421.74999999999989
 30
0.0
 11
360.70240957355747
 21
421.74999999999989
 31
0.0
  0
LINE
  5
DF6
  8
0
 62
     0
 10
498.20240957355742
 20
420.24999999999989
 30
0.0
 11
360.70240957355747
 21
420.24999999999989
 31
0.0
  0
LINE
  5
DF7
  8
0
 62
     0
 10
498.20240957355742
 20
418.74999999999989
 30
0.0
 11
360.70240957355747
 21
418.74999999999989
 31
0.0
  0
LINE
  5
DF8
  8
0
 62
     0
 10
498.20240957355742
 20
417.24999999999989
 30
0.0
 11
360.70240957355747
 21
417.24999999999989
 31
0.0
  0
LINE
  5
DF9
  8
0
 62
     0
 10
498.20240957355742
 20
415.74999999999989
 30
0.0
 11
360.70240957355747
 21
415.74999999999989
 31
0.0
  0
LINE
  5
DFA
  8
0
 62
     0
 10
498.20240957355742
 20
414.24999999999989
 30
0.0
 11
360.70240957355747
 21
414.24999999999989
 31
0.0
  0
LINE
  5
DFB
  8
0
 62
     0
 10
498.20240957355742
 20
412.74999999999989
 30
0.0
 11
360.70240957355747
 21
412.74999999999989
 31
0.0
  0
LINE
  5
DFC
  8
0
 62
     0
 10
498.20240957355742
 20
411.24999999999989
 30
0.0
 11
360.70240957355747
 21
411.24999999999989
 31
0.0
  0
LINE
  5
DFD
  8
0
 62
     0
 10
498.20240957355742
 20
409.74999999999989
 30
0.0
 11
360.70240957355747
 21
409.74999999999989
 31
0.0
  0
LINE
  5
DFE
  8
0
 62
     0
 10
498.20240957355742
 20
408.24999999999989
 30
0.0
 11
360.70240957355747
 21
408.24999999999989
 31
0.0
  0
LINE
  5
DFF
  8
0
 62
     0
 10
498.20240957355742
 20
406.74999999999989
 30
0.0
 11
360.70240957355747
 21
406.74999999999989
 31
0.0
  0
LINE
  5
E00
  8
0
 62
     0
 10
498.20240957355742
 20
405.24999999999989
 30
0.0
 11
360.70240957355747
 21
405.24999999999989
 31
0.0
  0
LINE
  5
E01
  8
0
 62
     0
 10
498.20240957355742
 20
403.74999999999989
 30
0.0
 11
360.70240957355747
 21
403.74999999999989
 31
0.0
  0
LINE
  5
E02
  8
0
 62
     0
 10
498.20240957355742
 20
402.24999999999989
 30
0.0
 11
360.70240957355747
 21
402.24999999999989
 31
0.0
  0
LINE
  5
E03
  8
0
 62
     0
 10
498.20240957355742
 20
400.74999999999989
 30
0.0
 11
360.70240957355747
 21
400.74999999999989
 31
0.0
  0
LINE
  5
E04
  8
0
 62
     0
 10
498.20240957355742
 20
399.25
 30
0.0
 11
360.70240957355747
 21
399.25
 31
0.0
  0
LINE
  5
E05
  8
0
 62
     0
 10
498.20240957355708
 20
393.25
 30
0.0
 11
360.70240957355719
 21
393.25
 31
0.0
  0
LINE
  5
E06
  8
0
 62
     0
 10
498.20240957355708
 20
391.75
 30
0.0
 11
360.70240957355719
 21
391.75
 31
0.0
  0
LINE
  5
E07
  8
0
 62
     0
 10
498.20240957355708
 20
390.24999999999989
 30
0.0
 11
360.70240957355719
 21
390.24999999999989
 31
0.0
  0
LINE
  5
E08
  8
0
 62
     0
 10
498.20240957355708
 20
388.75
 30
0.0
 11
360.70240957355719
 21
388.75
 31
0.0
  0
LINE
  5
E09
  8
0
 62
     0
 10
498.20240957355708
 20
387.25
 30
0.0
 11
360.70240957355719
 21
387.25
 31
0.0
  0
LINE
  5
E0A
  8
0
 62
     0
 10
498.20240957355708
 20
385.74999999999989
 30
0.0
 11
360.70240957355719
 21
385.74999999999989
 31
0.0
  0
LINE
  5
E0B
  8
0
 62
     0
 10
498.20240957355708
 20
384.24999999999989
 30
0.0
 11
360.70240957355719
 21
384.24999999999989
 31
0.0
  0
LINE
  5
E0C
  8
0
 62
     0
 10
498.20240957355708
 20
382.75
 30
0.0
 11
360.70240957355719
 21
382.75
 31
0.0
  0
LINE
  5
E0D
  8
0
 62
     0
 10
498.20240957355708
 20
381.25
 30
0.0
 11
360.70240957355719
 21
381.25
 31
0.0
  0
LINE
  5
E0E
  8
0
 62
     0
 10
498.20240957355708
 20
379.74999999999989
 30
0.0
 11
360.70240957355719
 21
379.74999999999989
 31
0.0
  0
LINE
  5
E0F
  8
0
 62
     0
 10
498.20240957355708
 20
378.24999999999989
 30
0.0
 11
360.70240957355719
 21
378.24999999999989
 31
0.0
  0
LINE
  5
E10
  8
0
 62
     0
 10
498.20240957355702
 20
376.75
 30
0.0
 11
360.70240957355719
 21
376.75
 31
0.0
  0
LINE
  5
E11
  8
0
 62
     0
 10
498.20240957355702
 20
375.24999999999989
 30
0.0
 11
360.70240957355719
 21
375.24999999999989
 31
0.0
  0
LINE
  5
E12
  8
0
 62
     0
 10
498.20240957355702
 20
373.74999999999989
 30
0.0
 11
360.70240957355719
 21
373.74999999999989
 31
0.0
  0
LINE
  5
E13
  8
0
 62
     0
 10
498.20240957355702
 20
372.25
 30
0.0
 11
360.70240957355719
 21
372.25
 31
0.0
  0
LINE
  5
E14
  8
0
 62
     0
 10
498.20240957355702
 20
370.75
 30
0.0
 11
360.70240957355719
 21
370.75
 31
0.0
  0
LINE
  5
E15
  8
0
 62
     0
 10
498.20240957355702
 20
369.24999999999989
 30
0.0
 11
360.70240957355719
 21
369.24999999999989
 31
0.0
  0
LINE
  5
E16
  8
0
 62
     0
 10
498.20240957355702
 20
367.74999999999989
 30
0.0
 11
360.70240957355719
 21
367.74999999999989
 31
0.0
  0
LINE
  5
E17
  8
0
 62
     0
 10
498.20240957355702
 20
366.25
 30
0.0
 11
360.70240957355719
 21
366.25
 31
0.0
  0
LINE
  5
E18
  8
0
 62
     0
 10
498.20240957355702
 20
364.74999999999989
 30
0.0
 11
360.70240957355719
 21
364.74999999999989
 31
0.0
  0
LINE
  5
E19
  8
0
 62
     0
 10
498.20240957355702
 20
363.24999999999989
 30
0.0
 11
360.70240957355719
 21
363.24999999999989
 31
0.0
  0
LINE
  5
E1A
  8
0
 62
     0
 10
498.20240957355702
 20
361.75
 30
0.0
 11
360.70240957355719
 21
361.75
 31
0.0
  0
LINE
  5
E1B
  8
0
 62
     0
 10
498.20240957355702
 20
360.25
 30
0.0
 11
360.70240957355719
 21
360.25
 31
0.0
  0
LINE
  5
E1C
  8
0
 62
     0
 10
498.20240957355702
 20
358.74999999999989
 30
0.0
 11
360.70240957355719
 21
358.74999999999989
 31
0.0
  0
LINE
  5
E1D
  8
0
 62
     0
 10
498.20240957355702
 20
357.24999999999989
 30
0.0
 11
360.70240957355719
 21
357.24999999999989
 31
0.0
  0
LINE
  5
E1E
  8
0
 62
     0
 10
498.20240957355702
 20
355.75
 30
0.0
 11
360.70240957355719
 21
355.75
 31
0.0
  0
LINE
  5
E1F
  8
0
 62
     0
 10
498.20240957355702
 20
354.24999999999989
 30
0.0
 11
360.70240957355719
 21
354.24999999999989
 31
0.0
  0
LINE
  5
E20
  8
0
 62
     0
 10
498.20240957355702
 20
352.74999999999989
 30
0.0
 11
360.70240957355708
 21
352.74999999999989
 31
0.0
  0
LINE
  5
E21
  8
0
 62
     0
 10
498.20240957355702
 20
351.24999999999989
 30
0.0
 11
360.70240957355708
 21
351.24999999999989
 31
0.0
  0
LINE
  5
E22
  8
0
 62
     0
 10
498.20240957355702
 20
349.75
 30
0.0
 11
360.70240957355708
 21
349.75
 31
0.0
  0
LINE
  5
E23
  8
0
 62
     0
 10
498.20240957355702
 20
348.24999999999989
 30
0.0
 11
360.70240957355708
 21
348.24999999999989
 31
0.0
  0
LINE
  5
E24
  8
0
 62
     0
 10
498.20240957355702
 20
346.74999999999989
 30
0.0
 11
360.70240957355708
 21
346.74999999999989
 31
0.0
  0
LINE
  5
E25
  8
0
 62
     0
 10
498.20240957355702
 20
345.25
 30
0.0
 11
360.70240957355708
 21
345.25
 31
0.0
  0
LINE
  5
E26
  8
0
 62
     0
 10
498.20240957355702
 20
343.75
 30
0.0
 11
360.70240957355708
 21
343.75
 31
0.0
  0
LINE
  5
E27
  8
0
 62
     0
 10
498.20240957355702
 20
342.24999999999989
 30
0.0
 11
360.70240957355708
 21
342.24999999999989
 31
0.0
  0
LINE
  5
E28
  8
0
 62
     0
 10
498.20240957355702
 20
340.74999999999989
 30
0.0
 11
360.70240957355708
 21
340.74999999999989
 31
0.0
  0
LINE
  5
E29
  8
0
 62
     0
 10
498.20240957355702
 20
339.25
 30
0.0
 11
360.70240957355708
 21
339.25
 31
0.0
  0
LINE
  5
E2A
  8
0
 62
     0
 10
498.20240957355702
 20
337.74999999999989
 30
0.0
 11
360.70240957355708
 21
337.74999999999989
 31
0.0
  0
LINE
  5
E2B
  8
0
 62
     0
 10
498.20240957355702
 20
336.24999999999989
 30
0.0
 11
360.70240957355708
 21
336.24999999999989
 31
0.0
  0
LINE
  5
E2C
  8
0
 62
     0
 10
498.20240957355702
 20
334.75
 30
0.0
 11
360.70240957355708
 21
334.75
 31
0.0
  0
LINE
  5
E2D
  8
0
 62
     0
 10
498.20240957355702
 20
333.25
 30
0.0
 11
360.70240957355708
 21
333.25
 31
0.0
  0
LINE
  5
E2E
  8
0
 62
     0
 10
498.20240957355702
 20
331.74999999999989
 30
0.0
 11
360.70240957355708
 21
331.74999999999989
 31
0.0
  0
LINE
  5
E2F
  8
0
 62
     0
 10
498.20240957355702
 20
330.24999999999989
 30
0.0
 11
360.70240957355708
 21
330.24999999999989
 31
0.0
  0
LINE
  5
E30
  8
0
 62
     0
 10
498.20240957355702
 20
328.75
 30
0.0
 11
360.70240957355708
 21
328.75
 31
0.0
  0
LINE
  5
E31
  8
0
 62
     0
 10
498.20240957355702
 20
327.24999999999989
 30
0.0
 11
360.70240957355708
 21
327.24999999999989
 31
0.0
  0
LINE
  5
E32
  8
0
 62
     0
 10
498.20240957355702
 20
325.74999999999989
 30
0.0
 11
360.70240957355708
 21
325.74999999999989
 31
0.0
  0
LINE
  5
E33
  8
0
 62
     0
 10
498.20240957355702
 20
324.25
 30
0.0
 11
360.70240957355708
 21
324.25
 31
0.0
  0
LINE
  5
E34
  8
0
 62
     0
 10
498.20240957355702
 20
322.75
 30
0.0
 11
360.70240957355708
 21
322.75
 31
0.0
  0
LINE
  5
E35
  8
0
 62
     0
 10
498.20240957355702
 20
321.24999999999989
 30
0.0
 11
360.70240957355708
 21
321.24999999999989
 31
0.0
  0
LINE
  5
E36
  8
0
 62
     0
 10
498.20240957355702
 20
319.74999999999989
 30
0.0
 11
360.70240957355708
 21
319.74999999999989
 31
0.0
  0
LINE
  5
E37
  8
0
 62
     0
 10
498.20240957355702
 20
318.25
 30
0.0
 11
360.70240957355708
 21
318.25
 31
0.0
  0
LINE
  5
E38
  8
0
 62
     0
 10
498.20240957355702
 20
316.74999999999989
 30
0.0
 11
360.70240957355708
 21
316.74999999999989
 31
0.0
  0
LINE
  5
E39
  8
0
 62
     0
 10
498.20240957355702
 20
315.24999999999989
 30
0.0
 11
360.70240957355708
 21
315.24999999999989
 31
0.0
  0
LINE
  5
E3A
  8
0
 62
     0
 10
498.20240957355702
 20
313.74999999999989
 30
0.0
 11
360.70240957355708
 21
313.74999999999989
 31
0.0
  0
LINE
  5
E3B
  8
0
 62
     0
 10
498.20240957355702
 20
312.25
 30
0.0
 11
360.70240957355708
 21
312.25
 31
0.0
  0
LINE
  5
E3C
  8
0
 62
     0
 10
498.20240957355702
 20
310.74999999999989
 30
0.0
 11
360.70240957355708
 21
310.74999999999989
 31
0.0
  0
LINE
  5
E3D
  8
0
 62
     0
 10
498.20240957355702
 20
309.24999999999989
 30
0.0
 11
360.70240957355708
 21
309.24999999999989
 31
0.0
  0
LINE
  5
E3E
  8
0
 62
     0
 10
498.20240957355691
 20
307.75
 30
0.0
 11
360.70240957355708
 21
307.75
 31
0.0
  0
LINE
  5
E3F
  8
0
 62
     0
 10
498.20240957355691
 20
306.25
 30
0.0
 11
360.70240957355708
 21
306.25
 31
0.0
  0
LINE
  5
E40
  8
0
 62
     0
 10
498.20240957355691
 20
304.74999999999989
 30
0.0
 11
360.70240957355708
 21
304.74999999999989
 31
0.0
  0
LINE
  5
E41
  8
0
 62
     0
 10
498.20240957355691
 20
303.24999999999989
 30
0.0
 11
360.70240957355708
 21
303.24999999999989
 31
0.0
  0
LINE
  5
E42
  8
0
 62
     0
 10
498.20240957355691
 20
301.75
 30
0.0
 11
360.70240957355708
 21
301.75
 31
0.0
  0
LINE
  5
E43
  8
0
 62
     0
 10
498.20240957355691
 20
300.24999999999989
 30
0.0
 11
360.70240957355708
 21
300.24999999999989
 31
0.0
  0
LINE
  5
E44
  8
0
 62
     0
 10
498.20240957355691
 20
298.74999999999989
 30
0.0
 11
360.70240957355702
 21
298.74999999999989
 31
0.0
  0
LINE
  5
E45
  8
0
 62
     0
 10
498.20240957355691
 20
297.25
 30
0.0
 11
360.70240957355702
 21
297.25
 31
0.0
  0
LINE
  5
E46
  8
0
 62
     0
 10
498.20240957355691
 20
295.74999999999989
 30
0.0
 11
360.70240957355702
 21
295.74999999999989
 31
0.0
  0
LINE
  5
E47
  8
0
 62
     0
 10
498.20240957355691
 20
294.24999999999989
 30
0.0
 11
360.70240957355702
 21
294.24999999999989
 31
0.0
  0
LINE
  5
E48
  8
0
 62
     0
 10
498.20240957355691
 20
292.74999999999989
 30
0.0
 11
360.70240957355702
 21
292.74999999999989
 31
0.0
  0
LINE
  5
E49
  8
0
 62
     0
 10
498.20240957355691
 20
291.25
 30
0.0
 11
360.70240957355702
 21
291.25
 31
0.0
  0
LINE
  5
E4A
  8
0
 62
     0
 10
498.20240957355691
 20
289.74999999999989
 30
0.0
 11
360.70240957355702
 21
289.74999999999989
 31
0.0
  0
LINE
  5
E4B
  8
0
 62
     0
 10
498.20240957355691
 20
288.24999999999989
 30
0.0
 11
360.70240957355702
 21
288.24999999999989
 31
0.0
  0
LINE
  5
E4C
  8
0
 62
     0
 10
498.20240957355691
 20
286.74999999999989
 30
0.0
 11
360.70240957355702
 21
286.74999999999989
 31
0.0
  0
LINE
  5
E4D
  8
0
 62
     0
 10
498.20240957355691
 20
285.25
 30
0.0
 11
360.70240957355702
 21
285.25
 31
0.0
  0
LINE
  5
E4E
  8
0
 62
     0
 10
498.20240957355691
 20
283.75
 30
0.0
 11
360.70240957355702
 21
283.75
 31
0.0
  0
LINE
  5
E4F
  8
0
 62
     0
 10
498.20240957355691
 20
282.24999999999989
 30
0.0
 11
360.70240957355702
 21
282.24999999999989
 31
0.0
  0
LINE
  5
E50
  8
0
 62
     0
 10
498.20240957355691
 20
280.75
 30
0.0
 11
360.70240957355702
 21
280.75
 31
0.0
  0
LINE
  5
E51
  8
0
 62
     0
 10
498.20240957355691
 20
279.24999999999989
 30
0.0
 11
360.70240957355702
 21
279.24999999999989
 31
0.0
  0
LINE
  5
E52
  8
0
 62
     0
 10
498.20240957355691
 20
277.74999999999989
 30
0.0
 11
360.70240957355702
 21
277.74999999999989
 31
0.0
  0
LINE
  5
E53
  8
0
 62
     0
 10
498.20240957355691
 20
276.24999999999989
 30
0.0
 11
360.70240957355702
 21
276.24999999999989
 31
0.0
  0
LINE
  5
E54
  8
0
 62
     0
 10
498.20240957355679
 20
274.75
 30
0.0
 11
360.70240957355702
 21
274.75
 31
0.0
  0
LINE
  5
E55
  8
0
 62
     0
 10
498.20240957355679
 20
273.24999999999989
 30
0.0
 11
360.70240957355702
 21
273.24999999999989
 31
0.0
  0
LINE
  5
E56
  8
0
 62
     0
 10
498.20240957355679
 20
271.74999999999989
 30
0.0
 11
360.70240957355702
 21
271.74999999999989
 31
0.0
  0
LINE
  5
E57
  8
0
 62
     0
 10
498.20240957355679
 20
270.25
 30
0.0
 11
360.70240957355702
 21
270.25
 31
0.0
  0
LINE
  5
E58
  8
0
 62
     0
 10
498.20240957355679
 20
268.75
 30
0.0
 11
360.70240957355702
 21
268.75
 31
0.0
  0
LINE
  5
E59
  8
0
 62
     0
 10
498.20240957355679
 20
267.24999999999989
 30
0.0
 11
360.70240957355702
 21
267.24999999999989
 31
0.0
  0
LINE
  5
E5A
  8
0
 62
     0
 10
498.20240957355679
 20
265.74999999999989
 30
0.0
 11
360.70240957355702
 21
265.74999999999989
 31
0.0
  0
LINE
  5
E5B
  8
0
 62
     0
 10
498.20240957355679
 20
264.25
 30
0.0
 11
360.70240957355702
 21
264.25
 31
0.0
  0
LINE
  5
E5C
  8
0
 62
     0
 10
498.20240957355679
 20
262.74999999999989
 30
0.0
 11
360.70240957355702
 21
262.74999999999989
 31
0.0
  0
LINE
  5
E5D
  8
0
 62
     0
 10
498.20240957355679
 20
261.24999999999989
 30
0.0
 11
360.70240957355702
 21
261.24999999999989
 31
0.0
  0
LINE
  5
E5E
  8
0
 62
     0
 10
498.20240957355679
 20
259.75
 30
0.0
 11
360.70240957355702
 21
259.75
 31
0.0
  0
LINE
  5
E5F
  8
0
 62
     0
 10
498.20240957355679
 20
258.25
 30
0.0
 11
360.70240957355702
 21
258.25
 31
0.0
  0
ENDBLK
  5
E61
  8
0
  0
ENDSEC
  0
SECTION
  2
ENTITIES
  0
LINE
  5
4B6
  8
0
 10
358.9563158235581
 20
139.12500450376129
 30
0.0
 11
359.01740820027157
 21
139.12500450376129
 31
0.0
  0
LINE
  5
4B7
  8
0
 10
359.01740820027157
 20
155.62500450376129
 30
0.0
 11
358.9563158235581
 21
155.62500450376129
 31
0.0
  0
LINE
  5
4B8
  8
0
 10
358.95631582355662
 20
139.18515629245221
 30
0.0
 11
358.95631582355662
 21
139.661117146435
 31
0.0
  0
LINE
  5
4B9
  8
0
 10
358.95631582355662
 20
139.66112050160649
 30
0.0
 11
358.95631582355662
 21
140.58538761013841
 31
0.0
  0
LINE
  5
4BA
  8
0
 10
358.95631582355662
 20
140.5853886943101
 30
0.0
 11
358.95631582355662
 21
141.90424005035999
 31
0.0
  0
LINE
  5
4BB
  8
0
 10
358.95631582355662
 20
141.9042425732745
 30
0.0
 11
358.95631582355662
 21
143.54103833440001
 31
0.0
  0
LINE
  5
4BC
  8
0
 10
358.95631582355662
 20
143.54104277955381
 30
0.0
 11
358.95631582355662
 21
147.37500450376101
 31
0.0
  0
LINE
  5
4BD
  8
0
 10
358.95631582355662
 20
147.3750083558391
 30
0.0
 11
358.95631582355662
 21
151.20897067312231
 31
0.0
  0
LINE
  5
4BE
  8
0
 10
358.95631582355662
 20
151.20897385138949
 30
0.0
 11
358.95631582355662
 21
154.16461703737329
 31
0.0
  0
LINE
  5
4BF
  8
0
 10
358.95631582355662
 20
154.1646213973838
 30
0.0
 11
358.95631582355662
 21
155.56485271507009
 31
0.0
  0
LINE
  5
4C1
  8
0
 10
359.0174095735573
 20
138.375004503762
 30
0.0
 11
359.07740957355719
 21
138.375004503762
 31
0.0
  0
LINE
  5
4C2
  8
0
 10
359.07740957355719
 20
156.375004503762
 30
0.0
 11
359.0174095735573
 21
156.375004503762
 31
0.0
  0
LINE
  5
4C3
  8
0
 10
359.01740957355662
 20
138.3750045037618
 30
0.0
 11
359.01740957355662
 21
138.6006496739854
 31
0.0
  0
LINE
  5
4C4
  8
0
 10
359.01740957355662
 20
138.60065329412541
 30
0.0
 11
359.01740957355662
 21
140.3385161856057
 31
0.0
  0
LINE
  5
4C5
  8
0
 10
359.01740957355662
 20
140.33852116154949
 30
0.0
 11
359.01740957355662
 21
141.76359204160451
 31
0.0
  0
LINE
  5
4C6
  8
0
 10
359.01740957355662
 20
141.7635962870331
 30
0.0
 11
359.01740957355662
 21
143.47005085170369
 31
0.0
  0
LINE
  5
4C7
  8
0
 10
359.01740957355662
 20
143.47005512152751
 30
0.0
 11
359.01740957355662
 21
145.37231510866869
 31
0.0
  0
LINE
  5
4C8
  8
0
 10
359.01740957355662
 20
145.3723160981549
 30
0.0
 11
359.01740957355662
 21
147.37500450376169
 31
0.0
  0
LINE
  5
4C9
  8
0
 10
359.01740957355662
 20
147.37500835065859
 30
0.0
 11
359.01740957355662
 21
151.2799581558198
 31
0.0
  0
LINE
  5
4CA
  8
0
 10
359.01740957355662
 20
151.27996153126119
 30
0.0
 11
359.01740957355662
 21
154.41148784597411
 31
0.0
  0
LINE
  5
4CB
  8
0
 10
359.01740957355662
 20
154.411488342063
 30
0.0
 11
359.01740957355662
 21
156.14935436512221
 31
0.0
  0
LINE
  5
4CC
  8
0
 10
359.01740957355662
 20
156.14935571339819
 30
0.0
 11
359.01740957355662
 21
156.3750045037618
 31
0.0
  0
LINE
  5
4CD
  8
0
 10
499.88740903950372
 20
139.12500450375691
 30
0.0
 11
499.94850332355708
 21
139.12500450375691
 31
0.0
  0
LINE
  5
4CE
  8
0
 10
499.94850332355708
 20
155.62500450375649
 30
0.0
 11
499.88740903950372
 21
155.62500450375649
 31
0.0
  0
LINE
  5
4CF
  8
0
 10
499.94850332355691
 20
147.3750045037566
 30
0.0
 11
499.94850332355691
 21
141.90424257327001
 31
0.0
  0
LINE
  5
4D0
  8
0
 10
499.94850332355691
 20
141.90424005036061
 30
0.0
 11
499.94850332355691
 21
140.5853886943095
 31
0.0
  0
LINE
  5
4D1
  8
0
 10
499.94850332355691
 20
140.58538761013389
 30
0.0
 11
499.94850332355691
 21
139.66112050160191
 31
0.0
  0
LINE
  5
4D2
  8
0
 10
499.94850332355691
 20
139.66111714643719
 30
0.0
 11
499.94850332355691
 21
139.1851562924476
 31
0.0
  0
LINE
  5
4D4
  8
0
 10
499.94850332355691
 20
155.56485271506551
 30
0.0
 11
499.94850332355691
 21
154.16462139737919
 31
0.0
  0
LINE
  5
4D5
  8
0
 10
499.94850332355691
 20
154.16461703737261
 30
0.0
 11
499.94850332355691
 21
152.8457664342431
 31
0.0
  0
LINE
  5
4D6
  8
0
 10
499.94850332355691
 20
152.84576498913449
 30
0.0
 11
499.94850332355691
 21
151.2089738513898
 31
0.0
  0
LINE
  5
4D7
  8
0
 10
499.94850332355691
 20
151.2089706731177
 30
0.0
 11
499.94850332355691
 21
147.37500835583899
 31
0.0
  0
LINE
  5
4D8
  8
0
 10
499.82740957355799
 20
138.3750045037572
 30
0.0
 11
499.88740957355668
 21
138.3750045037572
 31
0.0
  0
LINE
  5
4D9
  8
0
 10
499.88740957355668
 20
156.3750045037572
 30
0.0
 11
499.82740957355799
 21
156.3750045037572
 31
0.0
  0
LINE
  5
4DA
  8
0
 10
499.88740957355691
 20
147.3750045037572
 30
0.0
 11
499.88740957355691
 21
145.37231609815041
 31
0.0
  0
LINE
  5
4DB
  8
0
 10
499.88740957355691
 20
145.37231510866889
 30
0.0
 11
499.88740957355691
 21
143.47005512152731
 31
0.0
  0
LINE
  5
4DC
  8
0
 10
499.88740957355691
 20
143.4700508516992
 30
0.0
 11
499.88740957355691
 21
141.76359628702861
 31
0.0
  0
LINE
  5
4DD
  8
0
 10
499.88740957355691
 20
141.76359204160539
 30
0.0
 11
499.88740957355691
 21
140.338521161545
 31
0.0
  0
LINE
  5
4DE
  8
0
 10
499.88740957355691
 20
140.33851618560649
 30
0.0
 11
499.88740957355691
 21
138.6006532941208
 31
0.0
  0
LINE
  5
4DF
  8
0
 10
499.88740957355691
 20
138.60064967398981
 30
0.0
 11
499.88740957355691
 21
138.3750045037572
 31
0.0
  0
LINE
  5
4E0
  8
0
 10
499.88740957355691
 20
156.3750045037572
 30
0.0
 11
499.88740957355691
 21
156.14935571339359
 31
0.0
  0
LINE
  5
4E1
  8
0
 10
499.88740957355691
 20
156.14935436512059
 30
0.0
 11
499.88740957355691
 21
154.41148834206419
 31
0.0
  0
LINE
  5
4E2
  8
0
 10
499.88740957355691
 20
154.4114878459695
 30
0.0
 11
499.88740957355691
 21
151.27996153126151
 31
0.0
  0
LINE
  5
4E3
  8
0
 10
499.88740957355691
 20
151.27995815581519
 30
0.0
 11
499.88740957355691
 21
149.3776929093641
 31
0.0
  0
LINE
  5
4E4
  8
0
 10
499.88740957355691
 20
149.37769009877809
 30
0.0
 11
499.88740957355691
 21
147.37500835065899
 31
0.0
  0
LINE
  5
4E5
  8
0
 10
359.07740957355691
 20
177.37500450375751
 30
0.0
 11
499.82740957355389
 21
177.37500450375751
 31
0.0
  0
LINE
  5
4E6
  8
0
 10
499.82740957355389
 20
100.00000450375769
 30
0.0
 11
359.07740957355691
 21
100.00000450375769
 31
0.0
  0
LINE
  5
4E7
  8
0
 10
359.07740957355691
 20
100.00000450375769
 30
0.0
 11
359.07740957355691
 21
177.37500450375751
 31
0.0
  0
LINE
  5
4E8
  8
0
 10
499.82740957355389
 20
100.00000450375769
 30
0.0
 11
499.82740957355389
 21
177.37500450375751
 31
0.0
  0
LINE
  5
4E9
  8
0
 10
359.07740957355719
 20
100.00000450375769
 30
0.0
 11
501.07740957355719
 21
100.00000450375769
 31
0.0
  0
LINE
  5
4EA
  8
0
 10
501.07740957355719
 20
0.0000045037577365
 30
0.0
 11
359.07740957355719
 21
0.0000045037577365
 31
0.0
  0
LINE
  5
4EB
  8
0
 10
359.07740957355719
 20
100.00000450375769
 30
0.0
 11
359.07740957355719
 21
0.0000045037577365
 31
0.0
  0
LINE
  5
4EC
  8
0
 10
501.07740957355719
 20
0.0000045037577365
 30
0.0
 11
501.07740957355719
 21
100.00000450375769
 31
0.0
  0
LINE
  5
4ED
  8
0
 10
500.07740957355719
 20
173.62500450375791
 30
0.0
 11
499.82740957355799
 21
173.62500450375791
 31
0.0
  0
LINE
  5
4EE
  8
0
 10
499.82740957355799
 20
165.62500450375759
 30
0.0
 11
500.07740957355719
 21
165.62500450375759
 31
0.0
  0
LINE
  5
4EF
  8
0
 10
500.07740957355719
 20
173.62500450375771
 30
0.0
 11
500.07740957355719
 21
173.48871054564151
 31
0.0
  0
LINE
  5
4F0
  8
0
 10
500.07740957355719
 20
173.488707808914
 30
0.0
 11
500.07740957355719
 21
173.08910611889539
 31
0.0
  0
LINE
  5
4F1
  8
0
 10
500.07740957355719
 20
173.08910469300091
 30
0.0
 11
500.07740957355708
 21
172.45343162850389
 31
0.0
  0
LINE
  5
4F2
  8
0
 10
500.07740957355708
 20
172.453430945913
 30
0.0
 11
500.07740957355708
 21
170.66028068416779
 31
0.0
  0
LINE
  5
4F3
  8
0
 10
500.07740957355708
 20
170.66027904781191
 30
0.0
 11
500.07740957355708
 21
169.62500450375771
 31
0.0
  0
LINE
  5
4F4
  8
0
 10
500.07740957355708
 20
169.6250006451335
 30
0.0
 11
500.07740957355708
 21
168.5897336868496
 31
0.0
  0
LINE
  5
4F5
  8
0
 10
500.07740957355708
 20
168.5897283233476
 30
0.0
 11
500.07740957355708
 21
167.6250080898088
 31
0.0
  0
LINE
  5
4F6
  8
0
 10
500.07740957355708
 20
167.62500450375771
 30
0.0
 11
500.07740957355708
 21
166.796581471331
 31
0.0
  0
LINE
  5
4F7
  8
0
 10
500.07740957355708
 20
166.7965773790115
 30
0.0
 11
500.07740957355708
 21
166.1609074566511
 31
0.0
  0
LINE
  5
4F8
  8
0
 10
500.07740957355708
 20
166.16090288861989
 30
0.0
 11
500.07740957355708
 21
165.76130285251921
 31
0.0
  0
LINE
  5
4F9
  8
0
 10
500.07740957355708
 20
165.76130119860139
 30
0.0
 11
500.07740957355708
 21
165.62500450375771
 31
0.0
  0
ARC
  5
4FA
  8
0
 10
424.32740957355628
 20
40.50000450375812
 30
0.0
 40
1.0000000000000131
 50
359.99999999999881
 51
179.99999999999881
  0
ARC
  5
4FB
  8
0
 10
424.32740957355628
 20
40.50000450375812
 30
0.0
 40
0.9999999999999678
 50
180.00000000000099
 51
0.0000000000006107
  0
ARC
  5
4FC
  8
0
 10
363.82740957355628
 20
29.000004503758142
 30
0.0
 40
1.499999999999998
 50
359.9999999999996
 51
179.9999999999996
  0
ARC
  5
4FD
  8
0
 10
363.82740957355628
 20
29.000004503758142
 30
0.0
 40
1.500000000000004
 50
180.0000000000002
 51
359.99999999999932
  0
ARC
  5
4FE
  8
0
 10
362.45240957355611
 20
6.62500450375813
 30
0.0
 40
0.9999999999999856
 50
359.9999999999996
 51
179.9999999999996
  0
ARC
  5
4FF
  8
0
 10
362.45240957355611
 20
6.62500450375813
 30
0.0
 40
1.0000000000000131
 50
180.00000000000011
 51
359.99999999999937
  0
ARC
  5
500
  8
0
 10
386.20240957355651
 20
12.500004503758159
 30
0.0
 40
6.0000000000000071
 50
359.99999999999932
 51
179.99999999999949
  0
ARC
  5
501
  8
0
 10
386.20240957355651
 20
12.500004503758159
 30
0.0
 40
5.9999999999999956
 50
180.0000000000004
 51
359.99999999999949
  0
CIRCLE
  5
502
  8
0
 10
381.82740957355639
 20
44.250004503757722
 30
0.0
 40
11.18749999999998
  0
ARC
  5
503
  8
0
 10
788.08761017454265
 20
147.37500450375649
 30
0.0
 40
8.2500000000000018
 50
179.9999999999998
 51
359.99999999999881
  0
ARC
  5
504
  8
0
 10
788.08761017454265
 20
147.37500450375649
 30
0.0
 40
8.2500000000000053
 50
359.9999999999996
 51
179.9999999999998
  0
ARC
  5
505
  8
0
 10
788.08761017454265
 20
147.37500450375649
 30
0.0
 40
7.6874999999999849
 50
0.0000000000009478
 51
180.0000000000002
  0
ARC
  5
506
  8
0
 10
788.08761017454265
 20
147.37500450375649
 30
0.0
 40
7.687499999999992
 50
180.00000000000011
 51
0.0000000000000509
  0
LINE
  5
507
  8
0
 10
793.21011094853054
 20
144.93314865495921
 30
0.0
 11
793.01517047233995
 21
144.48423992480039
 31
0.0
  0
LINE
  5
508
  8
0
 10
793.01517047233995
 20
144.48423992480039
 30
0.0
 11
792.56427761519717
 21
144.3269978613084
 31
0.0
  0
LINE
  5
509
  8
0
 10
792.56427761519717
 20
144.3269978613084
 30
0.0
 11
792.23974884535585
 21
144.39123397241951
 31
0.0
  0
LINE
  5
50A
  8
0
 10
792.23974884535585
 20
144.39123397241951
 30
0.0
 11
792.00425777392741
 21
144.5839423057528
 31
0.0
  0
LINE
  5
50B
  8
0
 10
792.00425777392741
 20
144.5839423057528
 30
0.0
 11
791.81328555170523
 21
145.34187881368931
 31
0.0
  0
LINE
  5
50C
  8
0
 10
791.81328555170523
 20
145.34187881368931
 30
0.0
 11
791.99731332948295
 21
146.10576770257819
 31
0.0
  0
LINE
  5
50D
  8
0
 10
791.99731332948295
 20
146.10576770257819
 30
0.0
 11
792.22710003583222
 21
146.2954998454353
 31
0.0
  0
LINE
  5
50E
  8
0
 10
792.22710003583222
 20
146.2954998454353
 30
0.0
 11
792.54840459932416
 21
146.3587438930544
 31
0.0
  0
LINE
  5
50F
  8
0
 10
792.54840459932416
 20
146.3587438930544
 30
0.0
 11
793.01665856757825
 21
146.2153907184512
 31
0.0
  0
LINE
  5
510
  8
0
 10
793.01665856757825
 20
146.2153907184512
 30
0.0
 11
793.21011094853054
 21
145.79029151210199
 31
0.0
  0
LINE
  5
511
  8
0
 10
793.21011094853054
 20
145.79029151210199
 30
0.0
 11
794.35296809138777
 21
145.79029151210199
 31
0.0
  0
LINE
  5
512
  8
0
 10
794.35296809138777
 20
145.79029151210199
 30
0.0
 11
794.19274983741946
 21
146.43798496448301
 31
0.0
  0
LINE
  5
513
  8
0
 10
794.19274983741946
 20
146.43798496448301
 30
0.0
 11
793.82519031360994
 21
146.91677960734009
 31
0.0
  0
LINE
  5
514
  8
0
 10
793.82519031360994
 20
146.91677960734009
 30
0.0
 11
793.26616253583211
 21
147.21253853591159
 31
0.0
  0
LINE
  5
515
  8
0
 10
793.26616253583211
 20
147.21253853591159
 30
0.0
 11
792.53153951995921
 21
147.31112484543539
 31
0.0
  0
LINE
  5
516
  8
0
 10
792.53153951995921
 20
147.31112484543539
 30
0.0
 11
791.73354844853054
 21
147.1791804009909
 31
0.0
  0
LINE
  5
517
  8
0
 10
791.73354844853054
 20
147.1791804009909
 30
0.0
 11
791.12330539297488
 21
146.78334706765759
 31
0.0
  0
LINE
  5
518
  8
0
 10
791.12330539297488
 20
146.78334706765759
 30
0.0
 11
790.73602860726066
 21
146.15933913114961
 31
0.0
  0
LINE
  5
519
  8
0
 10
790.73602860726066
 20
146.15933913114961
 30
0.0
 11
790.60693634535596
 21
145.34287087718141
 31
0.0
  0
LINE
  5
51A
  8
0
 10
790.60693634535596
 20
145.34287087718141
 30
0.0
 11
790.73664864694331
 21
144.52454250416551
 31
0.0
  0
LINE
  5
51B
  8
0
 10
790.73664864694331
 20
144.52454250416551
 30
0.0
 11
791.12578555170523
 21
143.90090659146711
 31
0.0
  0
LINE
  5
51C
  8
0
 10
791.12578555170523
 20
143.90090659146711
 30
0.0
 11
791.74111293265753
 21
143.50618932956229
 31
0.0
  0
LINE
  5
51D
  8
0
 10
791.74111293265753
 20
143.50618932956229
 30
0.0
 11
792.54939666281632
 21
143.37461690892741
 31
0.0
  0
LINE
  5
51E
  8
0
 10
792.54939666281632
 20
143.37461690892741
 30
0.0
 11
793.27248694059404
 21
143.47679944861
 31
0.0
  0
LINE
  5
51F
  8
0
 10
793.27248694059404
 20
143.47679944861
 30
0.0
 11
793.82866253583222
 21
143.78334706765759
 31
0.0
  0
LINE
  5
520
  8
0
 10
793.82866253583222
 20
143.78334706765759
 30
0.0
 11
794.19609805170523
 21
144.2751625438481
 31
0.0
  0
LINE
  5
521
  8
0
 10
794.19609805170523
 20
144.2751625438481
 30
0.0
 11
794.35296809138777
 21
144.93314865495921
 31
0.0
  0
LINE
  5
522
  8
0
 10
794.35296809138777
 20
144.93314865495921
 30
0.0
 11
793.21011094853054
 21
144.93314865495921
 31
0.0
  0
LINE
  5
523
  8
0
 10
785.98838357076295
 20
145.70722284388239
 30
0.0
 11
787.16596293584234
 21
145.70722284388239
 31
0.0
  0
LINE
  5
524
  8
0
 10
787.16596293584234
 20
145.70722284388239
 30
0.0
 11
787.31278833266765
 21
146.2151593518189
 31
0.0
  0
LINE
  5
525
  8
0
 10
787.31278833266765
 20
146.2151593518189
 30
0.0
 11
788.51616134854055
 21
146.2151593518189
 31
0.0
  0
LINE
  5
526
  8
0
 10
788.51616134854055
 20
146.2151593518189
 30
0.0
 11
788.65802642790584
 21
145.70722284388239
 31
0.0
  0
LINE
  5
527
  8
0
 10
788.65802642790584
 20
145.70722284388239
 30
0.0
 11
789.86139944377874
 21
145.70722284388239
 31
0.0
  0
LINE
  5
528
  8
0
 10
789.86139944377874
 20
145.70722284388239
 30
0.0
 11
788.53203436441368
 21
149.51674665340619
 31
0.0
  0
LINE
  5
529
  8
0
 10
788.53203436441368
 20
149.51674665340619
 30
0.0
 11
787.30286769774705
 21
149.51674665340619
 31
0.0
  0
LINE
  5
52A
  8
0
 10
787.30286769774705
 20
149.51674665340619
 30
0.0
 11
785.98838357076295
 21
145.70722284388239
 31
0.0
  0
LINE
  5
52B
  8
0
 10
787.53302642790584
 20
147.04055617721571
 30
0.0
 11
787.91893912631838
 21
148.34412760578709
 31
0.0
  0
LINE
  5
52C
  8
0
 10
787.91893912631838
 20
148.34412760578709
 30
0.0
 11
788.29592325330259
 21
147.04055617721571
 31
0.0
  0
LINE
  5
52D
  8
0
 10
788.29592325330259
 20
147.04055617721571
 30
0.0
 11
787.53302642790584
 21
147.04055617721571
 31
0.0
  0
LINE
  5
52E
  8
0
 10
782.22765238050135
 20
147.44761115306261
 30
0.0
 11
783.92705714240617
 21
147.44761115306261
 31
0.0
  0
LINE
  5
52F
  8
0
 10
783.92705714240617
 20
147.44761115306261
 30
0.0
 11
784.69491428526339
 21
147.48630162925309
 31
0.0
  0
LINE
  5
530
  8
0
 10
784.69491428526339
 20
147.48630162925309
 30
0.0
 11
785.10761269796183
 21
147.61824607369749
 31
0.0
  0
LINE
  5
531
  8
0
 10
785.10761269796183
 20
147.61824607369749
 30
0.0
 11
785.51584682494592
 21
148.00118258163411
 31
0.0
  0
LINE
  5
532
  8
0
 10
785.51584682494592
 20
148.00118258163411
 30
0.0
 11
785.65622380907291
 21
148.58848416893571
 31
0.0
  0
LINE
  5
533
  8
0
 10
785.65622380907291
 20
148.58848416893571
 30
0.0
 11
785.51237460272375
 21
149.1514802006817
 31
0.0
  0
LINE
  5
534
  8
0
 10
785.51237460272375
 20
149.1514802006817
 30
0.0
 11
785.06892222177134
 21
149.47638099433249
 31
0.0
  0
LINE
  5
535
  8
0
 10
785.06892222177134
 20
149.47638099433249
 30
0.0
 11
785.41416031700942
 21
149.79384131179279
 31
0.0
  0
LINE
  5
536
  8
0
 10
785.41416031700942
 20
149.79384131179279
 30
0.0
 11
785.52923968208881
 21
150.24622226417381
 31
0.0
  0
LINE
  5
537
  8
0
 10
785.52923968208881
 20
150.24622226417381
 30
0.0
 11
785.37546984081894
 21
150.8062421054436
 31
0.0
  0
LINE
  5
538
  8
0
 10
785.37546984081894
 20
150.8062421054436
 30
0.0
 11
784.93300952335869
 21
151.14602385147529
 31
0.0
  0
LINE
  5
539
  8
0
 10
784.93300952335869
 20
151.14602385147529
 30
0.0
 11
784.53767222177134
 21
151.23134131179279
 31
0.0
  0
LINE
  5
53A
  8
0
 10
784.53767222177134
 20
151.23134131179279
 30
0.0
 11
783.80404126939038
 21
151.25713496258649
 31
0.0
  0
LINE
  5
53B
  8
0
 10
783.80404126939038
 20
151.25713496258649
 30
0.0
 11
782.22765238050135
 21
151.25713496258649
 31
0.0
  0
LINE
  5
53C
  8
0
 10
782.22765238050135
 20
151.25713496258649
 30
0.0
 11
782.22765238050135
 21
147.44761115306261
 31
0.0
  0
LINE
  5
53D
  8
0
 10
783.43400158685074
 20
148.3365000419515
 30
0.0
 11
783.43400158685074
 21
149.03491274036421
 31
0.0
  0
LINE
  5
53E
  8
0
 10
783.43400158685074
 20
149.03491274036421
 30
0.0
 11
783.98261269796183
 21
149.03491274036421
 31
0.0
  0
LINE
  5
53F
  8
0
 10
783.98261269796183
 20
149.03491274036421
 30
0.0
 11
784.39183888843797
 21
148.95554766099909
 31
0.0
  0
LINE
  5
540
  8
0
 10
784.39183888843797
 20
148.95554766099909
 30
0.0
 11
784.5133666662158
 21
148.688682581634
 31
0.0
  0
LINE
  5
541
  8
0
 10
784.5133666662158
 20
148.688682581634
 30
0.0
 11
784.39431904716821
 21
148.41884131179279
 31
0.0
  0
LINE
  5
542
  8
0
 10
784.39431904716821
 20
148.41884131179279
 30
0.0
 11
783.99352539637437
 21
148.3365000419515
 31
0.0
  0
LINE
  5
543
  8
0
 10
783.99352539637437
 20
148.3365000419515
 30
0.0
 11
783.43400158685074
 21
148.3365000419515
 31
0.0
  0
LINE
  5
544
  8
0
 10
783.43400158685074
 20
149.73332543877689
 30
0.0
 11
783.43400158685074
 21
150.36824607369761
 31
0.0
  0
LINE
  5
545
  8
0
 10
783.43400158685074
 20
150.36824607369761
 30
0.0
 11
783.76832698367616
 21
150.36824607369761
 31
0.0
  0
LINE
  5
546
  8
0
 10
783.76832698367616
 20
150.36824607369761
 30
0.0
 11
784.27675952335869
 21
150.30078575623719
 31
0.0
  0
LINE
  5
547
  8
0
 10
784.27675952335869
 20
150.30078575623719
 30
0.0
 11
784.38638253923159
 21
150.05078575623719
 31
0.0
  0
LINE
  5
548
  8
0
 10
784.38638253923159
 20
150.05078575623719
 30
0.0
 11
784.28419999954906
 21
149.80574607369761
 31
0.0
  0
LINE
  5
549
  8
0
 10
784.28419999954906
 20
149.80574607369761
 30
0.0
 11
783.93201745986664
 21
149.73332543877689
 31
0.0
  0
LINE
  5
54A
  8
0
 10
783.93201745986664
 20
149.73332543877689
 30
0.0
 11
783.43400158685074
 21
149.73332543877689
 31
0.0
  0
ARC
  5
54B
  8
0
 10
788.08761017454231
 20
147.3750045037572
 30
0.0
 40
9.0000000000000213
 50
179.9999999999998
 51
359.99999999999881
  0
ARC
  5
54C
  8
0
 10
788.08761017454231
 20
147.3750045037572
 30
0.0
 40
9.0000000000000089
 50
359.9999999999996
 51
179.9999999999998
  0
LINE
  5
54D
  8
0
 10
577.46261017454935
 20
177.37500450375751
 30
0.0
 11
717.21261017454356
 21
177.37500450375751
 31
0.0
  0
LINE
  5
54E
  8
0
 10
577.46261017454935
 20
100.00000450375769
 30
0.0
 11
577.46261017454935
 21
177.37500450375751
 31
0.0
  0
LINE
  5
54F
  8
0
 10
717.21261017454356
 20
100.00000450375769
 30
0.0
 11
717.21261017454356
 21
177.37500450375751
 31
0.0
  0
LINE
  5
550
  8
0
 10
635.3376101745431
 20
6.0000045037577348
 30
0.0
 11
659.33761017454299
 21
6.0000045037584178
 31
0.0
  0
LINE
  5
551
  8
0
 10
635.33761017454287
 20
86.080200527385671
 30
0.0
 11
659.33761017454287
 21
86.080200527385912
 31
0.0
  0
LINE
  5
552
  8
0
 10
659.33761017454367
 20
4.0000045037577836
 30
0.0
 11
659.33761017454378
 21
98.375004503758362
 31
0.0
  0
LINE
  5
553
  8
0
 10
660.33009577529026
 20
98.375004503758362
 30
0.0
 11
660.33009577529015
 21
4.0000045037577836
 31
0.0
  0
LINE
  5
554
  8
0
 10
659.33761017454367
 20
4.0000045037577836
 30
0.0
 11
660.33009577529015
 21
4.0000045037577827
 31
0.0
  0
LINE
  5
555
  8
0
 10
660.33009577529026
 20
98.375004503758362
 30
0.0
 11
659.33761017454378
 21
98.375004503758362
 31
0.0
  0
LINE
  5
556
  8
0
 10
634.33483214571686
 20
4.0000045037578227
 30
0.0
 11
634.33483214571697
 21
98.375004503758404
 31
0.0
  0
LINE
  5
557
  8
0
 10
635.3376101745439
 20
98.375004503758404
 30
0.0
 11
635.33761017454356
 21
4.000004503757828
 31
0.0
  0
LINE
  5
558
  8
0
 10
634.33483214571686
 20
4.0000045037578227
 30
0.0
 11
635.33761017454356
 21
4.0000045037578218
 31
0.0
  0
LINE
  5
559
  8
0
 10
635.3376101745439
 20
98.375004503758404
 30
0.0
 11
634.33483214571697
 21
98.375004503758404
 31
0.0
  0
LINE
  5
55A
  8
0
 10
677.33761017454287
 20
6.0000045037577348
 30
0.0
 11
701.33761017454287
 21
6.0000045037577348
 31
0.0
  0
LINE
  5
55B
  8
0
 10
677.3376101745439
 20
86.080200527385514
 30
0.0
 11
701.33761017454378
 21
86.080200527385514
 31
0.0
  0
LINE
  5
55C
  8
0
 10
676.34660982921503
 20
4.0000045037577632
 30
0.0
 11
676.34660982921514
 21
98.375004503758333
 31
0.0
  0
LINE
  5
55D
  8
0
 10
677.3376101745439
 20
98.375004503758333
 30
0.0
 11
677.33761017454356
 21
4.0000045037577632
 31
0.0
  0
LINE
  5
55E
  8
0
 10
676.34660982921503
 20
4.0000045037577632
 30
0.0
 11
677.33761017454356
 21
4.0000045037577632
 31
0.0
  0
LINE
  5
55F
  8
0
 10
677.3376101745439
 20
98.375004503758333
 30
0.0
 11
676.34660982921514
 21
98.375004503758333
 31
0.0
  0
LINE
  5
560
  8
0
 10
701.33761017454367
 20
4.0000045037577223
 30
0.0
 11
701.33761017454378
 21
98.375004503758291
 31
0.0
  0
LINE
  5
561
  8
0
 10
702.32962549131287
 20
98.375004503758291
 30
0.0
 11
702.32962549131275
 21
4.0000045037577214
 31
0.0
  0
LINE
  5
562
  8
0
 10
702.32962549131275
 20
4.0000045037577214
 30
0.0
 11
701.33761017454367
 21
4.0000045037577223
 31
0.0
  0
LINE
  5
563
  8
0
 10
702.32962549131287
 20
98.375004503758291
 30
0.0
 11
701.33761017454378
 21
98.375004503758291
 31
0.0
  0
LINE
  5
564
  8
0
 10
593.33761017454174
 20
6.0000045037573919
 30
0.0
 11
617.33761017454299
 21
6.0000045037577348
 31
0.0
  0
LINE
  5
565
  8
0
 10
593.33761017454276
 20
86.080200527385244
 30
0.0
 11
617.33761017454287
 21
86.080200527385514
 31
0.0
  0
LINE
  5
566
  8
0
 10
617.33761017454367
 20
4.0000045037578484
 30
0.0
 11
617.33761017454378
 21
98.375004503758404
 31
0.0
  0
LINE
  5
567
  8
0
 10
618.33761017454367
 20
98.375004503758404
 30
0.0
 11
618.33761017454356
 21
4.0000045037578484
 31
0.0
  0
LINE
  5
568
  8
0
 10
617.33761017454367
 20
4.0000045037578484
 30
0.0
 11
618.33761017454356
 21
4.0000045037578484
 31
0.0
  0
LINE
  5
569
  8
0
 10
618.33761017454367
 20
98.375004503758404
 30
0.0
 11
617.33761017454378
 21
98.375004503758404
 31
0.0
  0
LINE
  5
56A
  8
0
 10
592.33761017454367
 20
4.0000045037578911
 30
0.0
 11
592.33761017454378
 21
98.375004503758475
 31
0.0
  0
LINE
  5
56B
  8
0
 10
593.33761017454367
 20
98.375004503758475
 30
0.0
 11
593.33761017454356
 21
4.0000045037578911
 31
0.0
  0
LINE
  5
56C
  8
0
 10
592.33761017454367
 20
4.0000045037578911
 30
0.0
 11
593.33761017454356
 21
4.0000045037578911
 31
0.0
  0
LINE
  5
56D
  8
0
 10
593.33761017454367
 20
98.375004503758475
 30
0.0
 11
592.33761017454378
 21
98.375004503758475
 31
0.0
  0
LINE
  5
56E
  8
0
 10
579.08761017454356
 20
98.375004503759627
 30
0.0
 11
579.08761017454356
 21
4.0000045037577321
 31
0.0
  0
LINE
  5
56F
  8
0
 10
579.08761017454356
 20
4.0000045037577321
 30
0.0
 11
592.33761017454265
 21
4.0000045037577321
 31
0.0
  0
LINE
  5
570
  8
0
 10
592.33761017454265
 20
4.0000045037577321
 30
0.0
 11
592.33761017454265
 21
98.375004503759627
 31
0.0
1001
ACAD
1000
ASC_BOUNDS
1002
{
1070
    19
1005
7BB
1002
}
  0
LINE
  5
571
  8
0
 10
592.33761017454265
 20
98.375004503759627
 30
0.0
 11
579.08761017454356
 21
98.375004503759627
 31
0.0
  0
LINE
  5
572
  8
0
 10
634.33483214571675
 20
98.375004503758404
 30
0.0
 11
618.33761017454356
 21
98.375004503758404
 31
0.0
  0
LINE
  5
573
  8
0
 10
618.33761017454356
 20
98.375004503758404
 30
0.0
 11
618.33761017454356
 21
4.0000045037578484
 31
0.0
1001
ACAD
1000
ASC_BOUNDS
1002
{
1070
    19
1005
7BB
1002
}
  0
LINE
  5
574
  8
0
 10
618.33761017454356
 20
4.0000045037578484
 30
0.0
 11
634.33483214571675
 21
4.0000045037578484
 31
0.0
  0
LINE
  5
575
  8
0
 10
634.33483214571675
 20
4.0000045037578484
 30
0.0
 11
634.33483214571675
 21
98.375004503758404
 31
0.0
1001
ACAD
1000
ASC_BOUNDS
1002
{
1070
    19
1005
7BB
1002
}
  0
LINE
  5
576
  8
0
 10
715.58761017454344
 20
98.375004503758404
 30
0.0
 11
702.32962549131264
 21
98.375004503758404
 31
0.0
  0
LINE
  5
577
  8
0
 10
702.32962549131264
 20
98.375004503758404
 30
0.0
 11
702.32962549131264
 21
4.0000045037578484
 31
0.0
1001
ACAD
1000
ASC_BOUNDS
1002
{
1070
    19
1005
7BB
1002
}
  0
LINE
  5
578
  8
0
 10
702.32962549131264
 20
4.0000045037578484
 30
0.0
 11
715.58761017454344
 21
4.0000045037578484
 31
0.0
  0
LINE
  5
579
  8
0
 10
715.58761017454344
 20
4.0000045037578484
 30
0.0
 11
715.58761017454344
 21
98.375004503758404
 31
0.0
  0
LINE
  5
57A
  8
0
 10
676.3466098292148
 20
98.375004503758404
 30
0.0
 11
660.33009577529003
 21
98.375004503758404
 31
0.0
  0
LINE
  5
57B
  8
0
 10
660.33009577529003
 20
98.375004503758404
 30
0.0
 11
660.33009577529003
 21
4.0000045037578484
 31
0.0
1001
ACAD
1000
ASC_BOUNDS
1002
{
1070
    19
1005
7BB
1002
}
  0
LINE
  5
57C
  8
0
 10
660.33009577529003
 20
4.0000045037578484
 30
0.0
 11
676.3466098292148
 21
4.0000045037578484
 31
0.0
  0
LINE
  5
57D
  8
0
 10
676.3466098292148
 20
4.0000045037578484
 30
0.0
 11
676.3466098292148
 21
98.375004503758404
 31
0.0
1001
ACAD
1000
ASC_BOUNDS
1002
{
1070
    19
1005
7BB
1002
}
  0
LINE
  5
57E
  8
0
 10
577.46261017454401
 20
100.00000450375769
 30
0.0
 11
717.2126101745439
 21
100.00000450375769
 31
0.0
  0
LINE
  5
57F
  8
0
 10
717.2126101745439
 20
0.0000045037577365
 30
0.0
 11
577.46261017454401
 21
0.0000045037577365
 31
0.0
  0
LINE
  5
580
  8
0
 10
577.46261017454401
 20
0.0000045037577365
 30
0.0
 11
577.46261017454401
 21
100.00000450375769
 31
0.0
  0
LINE
  5
581
  8
0
 10
579.08761017454367
 20
4.0000045037565908
 30
0.0
 11
579.08761017454265
 21
98.375004503757125
 31
0.0
1001
ACAD
1000
ASC_BOUNDS
1002
{
1070
    19
1005
7BB
1002
}
  0
LINE
  5
582
  8
0
 10
579.08761017454265
 20
98.375004503757125
 30
0.0
 11
715.58761017454265
 21
98.375004503758575
 31
0.0
1001
ACAD
1000
ASC_BOUNDS
1002
{
1070
    19
1005
7BB
1005
7BB
1005
7BB
1005
7BB
1002
}
  0
LINE
  5
583
  8
0
 10
715.58761017454265
 20
98.375004503758575
 30
0.0
 11
715.58761017454367
 21
4.0000045037579977
 31
0.0
1001
ACAD
1000
ASC_BOUNDS
1002
{
1070
    19
1005
7BB
1002
}
  0
LINE
  5
584
  8
0
 10
715.58761017454367
 20
4.000004503758019
 30
0.0
 11
579.08761017454367
 21
4.0000045037566121
 31
0.0
1001
ACAD
1000
ASC_BOUNDS
1002
{
1070
    19
1005
7BB
1005
7BB
1005
7BB
1005
7BB
1002
}
  0
LINE
  5
585
  8
0
 10
717.2126101745439
 20
0.0000045037577365
 30
0.0
 11
717.2126101745439
 21
100.00000450375769
 31
0.0
  0
LINE
  5
586
  8
0
 10
718.21261017454935
 20
177.37500450375751
 30
0.0
 11
857.96261017454356
 21
177.37500450375751
 31
0.0
  0
LINE
  5
587
  8
0
 10
718.21261017454935
 20
100.00000450375769
 30
0.0
 11
718.21261017454935
 21
177.37500450375751
 31
0.0
  0
LINE
  5
588
  8
0
 10
857.96261017454356
 20
100.00000450375769
 30
0.0
 11
857.96261017454356
 21
177.37500450375751
 31
0.0
  0
LINE
  5
589
  8
0
 10
776.0876101745439
 20
6.0000045037577348
 30
0.0
 11
800.08761017454265
 21
6.0000045037584178
 31
0.0
  0
LINE
  5
58A
  8
0
 10
776.08761017454265
 20
86.080200527385671
 30
0.0
 11
800.08761017454287
 21
86.080200527385912
 31
0.0
  0
LINE
  5
58B
  8
0
 10
800.08761017454356
 20
4.0000045037577836
 30
0.0
 11
800.08761017454378
 21
98.375004503758362
 31
0.0
  0
LINE
  5
58C
  8
0
 10
801.08009577529015
 20
98.375004503758362
 30
0.0
 11
801.08009577529003
 21
4.0000045037577836
 31
0.0
  0
LINE
  5
58D
  8
0
 10
800.08761017454356
 20
4.0000045037577836
 30
0.0
 11
801.08009577529003
 21
4.0000045037577827
 31
0.0
  0
LINE
  5
58E
  8
0
 10
801.08009577529015
 20
98.375004503758362
 30
0.0
 11
800.08761017454378
 21
98.375004503758362
 31
0.0
  0
LINE
  5
58F
  8
0
 10
775.08483214571686
 20
4.0000045037578227
 30
0.0
 11
775.08483214571686
 21
98.375004503758404
 31
0.0
  0
LINE
  5
590
  8
0
 10
776.08761017454378
 20
98.375004503758404
 30
0.0
 11
776.08761017454356
 21
4.000004503757828
 31
0.0
  0
LINE
  5
591
  8
0
 10
775.08483214571686
 20
4.0000045037578227
 30
0.0
 11
776.08761017454356
 21
4.0000045037578218
 31
0.0
  0
LINE
  5
592
  8
0
 10
776.08761017454378
 20
98.375004503758404
 30
0.0
 11
775.08483214571686
 21
98.375004503758404
 31
0.0
  0
LINE
  5
593
  8
0
 10
818.08761017454253
 20
6.0000045037577348
 30
0.0
 11
842.08761017454378
 21
6.0000045037577348
 31
0.0
  0
LINE
  5
594
  8
0
 10
818.08761017454378
 20
86.080200527385514
 30
0.0
 11
842.08761017454378
 21
86.080200527385514
 31
0.0
  0
LINE
  5
595
  8
0
 10
817.09660982921514
 20
4.0000045037577632
 30
0.0
 11
817.09660982921514
 21
98.375004503758333
 31
0.0
  0
LINE
  5
596
  8
0
 10
818.08761017454378
 20
98.375004503758333
 30
0.0
 11
818.08761017454356
 21
4.0000045037577632
 31
0.0
  0
LINE
  5
597
  8
0
 10
817.09660982921514
 20
4.0000045037577632
 30
0.0
 11
818.08761017454356
 21
4.0000045037577632
 31
0.0
  0
LINE
  5
598
  8
0
 10
818.08761017454378
 20
98.375004503758333
 30
0.0
 11
817.09660982921514
 21
98.375004503758333
 31
0.0
  0
LINE
  5
599
  8
0
 10
842.08761017454356
 20
4.0000045037577223
 30
0.0
 11
842.08761017454378
 21
98.375004503758291
 31
0.0
  0
LINE
  5
59A
  8
0
 10
843.07962549131287
 20
98.375004503758291
 30
0.0
 11
843.07962549131275
 21
4.0000045037577214
 31
0.0
  0
LINE
  5
59B
  8
0
 10
843.07962549131275
 20
4.0000045037577214
 30
0.0
 11
842.08761017454356
 21
4.0000045037577223
 31
0.0
  0
LINE
  5
59C
  8
0
 10
843.07962549131287
 20
98.375004503758291
 30
0.0
 11
842.08761017454378
 21
98.375004503758291
 31
0.0
  0
LINE
  5
59D
  8
0
 10
734.08761017454253
 20
6.0000045037573919
 30
0.0
 11
758.08761017454253
 21
6.0000045037577348
 31
0.0
  0
LINE
  5
59E
  8
0
 10
734.08761017454265
 20
86.080200527385244
 30
0.0
 11
758.08761017454276
 21
86.080200527385514
 31
0.0
  0
LINE
  5
59F
  8
0
 10
758.08761017454356
 20
4.0000045037578484
 30
0.0
 11
758.08761017454356
 21
98.375004503758404
 31
0.0
  0
LINE
  5
5A0
  8
0
 10
759.08761017454356
 20
98.375004503758404
 30
0.0
 11
759.08761017454356
 21
4.0000045037578484
 31
0.0
  0
LINE
  5
5A1
  8
0
 10
758.08761017454356
 20
4.0000045037578484
 30
0.0
 11
759.08761017454356
 21
4.0000045037578484
 31
0.0
  0
LINE
  5
5A2
  8
0
 10
759.08761017454356
 20
98.375004503758404
 30
0.0
 11
758.08761017454356
 21
98.375004503758404
 31
0.0
  0
LINE
  5
5A3
  8
0
 10
733.08761017454356
 20
4.0000045037578911
 30
0.0
 11
733.08761017454356
 21
98.375004503758475
 31
0.0
  0
LINE
  5
5A4
  8
0
 10
734.08761017454356
 20
98.375004503758475
 30
0.0
 11
734.08761017454356
 21
4.0000045037578911
 31
0.0
  0
LINE
  5
5A5
  8
0
 10
733.08761017454356
 20
4.0000045037578911
 30
0.0
 11
734.08761017454356
 21
4.0000045037578911
 31
0.0
  0
LINE
  5
5A6
  8
0
 10
734.08761017454356
 20
98.375004503758475
 30
0.0
 11
733.08761017454356
 21
98.375004503758475
 31
0.0
  0
LINE
  5
5A7
  8
0
 10
719.83761017454344
 20
98.375004503759627
 30
0.0
 11
719.83761017454344
 21
4.0000045037577321
 31
0.0
  0
LINE
  5
5A8
  8
0
 10
719.83761017454344
 20
4.0000045037577321
 30
0.0
 11
733.08761017454253
 21
4.0000045037577321
 31
0.0
  0
LINE
  5
5A9
  8
0
 10
733.08761017454253
 20
4.0000045037577321
 30
0.0
 11
733.08761017454253
 21
98.375004503759627
 31
0.0
1001
ACAD
1000
ASC_BOUNDS
1002
{
1070
    19
1005
7BB
1002
}
  0
LINE
  5
5AA
  8
0
 10
733.08761017454253
 20
98.375004503759627
 30
0.0
 11
719.83761017454344
 21
98.375004503759627
 31
0.0
  0
LINE
  5
5AB
  8
0
 10
775.08483214571675
 20
98.375004503758404
 30
0.0
 11
759.08761017454344
 21
98.375004503758404
 31
0.0
  0
LINE
  5
5AC
  8
0
 10
759.08761017454344
 20
98.375004503758404
 30
0.0
 11
759.08761017454344
 21
4.0000045037578484
 31
0.0
1001
ACAD
1000
ASC_BOUNDS
1002
{
1070
    19
1005
7BB
1002
}
  0
LINE
  5
5AD
  8
0
 10
759.08761017454344
 20
4.0000045037578484
 30
0.0
 11
775.08483214571675
 21
4.0000045037578484
 31
0.0
  0
LINE
  5
5AE
  8
0
 10
775.08483214571675
 20
4.0000045037578484
 30
0.0
 11
775.08483214571675
 21
98.375004503758404
 31
0.0
1001
ACAD
1000
ASC_BOUNDS
1002
{
1070
    19
1005
7BB
1002
}
  0
LINE
  5
5AF
  8
0
 10
856.33761017454356
 20
98.375004503758404
 30
0.0
 11
843.07962549131264
 21
98.375004503758404
 31
0.0
  0
LINE
  5
5B0
  8
0
 10
843.07962549131264
 20
98.375004503758404
 30
0.0
 11
843.07962549131264
 21
4.0000045037578484
 31
0.0
1001
ACAD
1000
ASC_BOUNDS
1002
{
1070
    19
1005
7BB
1002
}
  0
LINE
  5
5B1
  8
0
 10
843.07962549131264
 20
4.0000045037578484
 30
0.0
 11
856.33761017454356
 21
4.0000045037578484
 31
0.0
  0
LINE
  5
5B2
  8
0
 10
856.33761017454356
 20
4.0000045037578484
 30
0.0
 11
856.33761017454356
 21
98.375004503758404
 31
0.0
  0
LINE
  5
5B3
  8
0
 10
817.09660982921469
 20
98.375004503758404
 30
0.0
 11
801.08009577528981
 21
98.375004503758404
 31
0.0
  0
LINE
  5
5B4
  8
0
 10
801.08009577528981
 20
98.375004503758404
 30
0.0
 11
801.08009577528981
 21
4.0000045037578484
 31
0.0
1001
ACAD
1000
ASC_BOUNDS
1002
{
1070
    19
1005
7BB
1002
}
  0
LINE
  5
5B5
  8
0
 10
801.08009577528981
 20
4.0000045037578484
 30
0.0
 11
817.09660982921469
 21
4.0000045037578484
 31
0.0
  0
LINE
  5
5B6
  8
0
 10
817.09660982921469
 20
4.0000045037578484
 30
0.0
 11
817.09660982921469
 21
98.375004503758404
 31
0.0
1001
ACAD
1000
ASC_BOUNDS
1002
{
1070
    19
1005
7BB
1002
}
  0
LINE
  5
5B7
  8
0
 10
718.21261017454412
 20
100.00000450375769
 30
0.0
 11
857.9626101745439
 21
100.00000450375769
 31
0.0
  0
LINE
  5
5B8
  8
0
 10
857.9626101745439
 20
0.0000045037577365
 30
0.0
 11
718.21261017454412
 21
0.0000045037577365
 31
0.0
  0
LINE
  5
5B9
  8
0
 10
718.21261017454412
 20
0.0000045037577365
 30
0.0
 11
718.21261017454412
 21
100.00000450375769
 31
0.0
  0
LINE
  5
5BA
  8
0
 10
719.83761017454378
 20
4.0000045037565908
 30
0.0
 11
719.83761017454265
 21
98.375004503757125
 31
0.0
1001
ACAD
1000
ASC_BOUNDS
1002
{
1070
    19
1005
7BB
1002
}
  0
LINE
  5
5BB
  8
0
 10
719.83761017454265
 20
98.375004503757125
 30
0.0
 11
856.33761017454265
 21
98.375004503758575
 31
0.0
1001
ACAD
1000
ASC_BOUNDS
1002
{
1070
    19
1005
7BB
1005
7BB
1005
7BB
1005
7BB
1002
}
  0
LINE
  5
5BC
  8
0
 10
856.33761017454265
 20
98.375004503758575
 30
0.0
 11
856.33761017454356
 21
4.0000045037579977
 31
0.0
1001
ACAD
1000
ASC_BOUNDS
1002
{
1070
    19
1005
7BB
1002
}
  0
LINE
  5
5BD
  8
0
 10
856.33761017454356
 20
4.000004503758019
 30
0.0
 11
719.83761017454356
 21
4.0000045037566121
 31
0.0
1001
ACAD
1000
ASC_BOUNDS
1002
{
1070
    19
1005
7BB
1005
7BB
1005
7BB
1005
7BB
1002
}
  0
LINE
  5
5BE
  8
0
 10
857.9626101745439
 20
0.0000045037577365
 30
0.0
 11
857.9626101745439
 21
100.00000450375769
 31
0.0
  0
ARC
  5
5BF
  8
0
 10
647.33761017454287
 20
147.3750045037568
 30
0.0
 40
8.25
 50
179.99999999999969
 51
359.99999999999881
  0
ARC
  5
5C0
  8
0
 10
647.33761017454287
 20
147.3750045037568
 30
0.0
 40
8.2499999999999751
 50
359.9999999999996
 51
179.9999999999998
  0
ARC
  5
5C1
  8
0
 10
647.33761017454287
 20
147.3750045037568
 30
0.0
 40
7.6874999999999822
 50
0.000000000000687
 51
180.0000000000002
  0
ARC
  5
5C2
  8
0
 10
647.33761017454287
 20
147.3750045037568
 30
0.0
 40
7.6874999999999831
 50
180.00000000000031
 51
359.9999999999996
  0
LINE
  5
5C3
  8
0
 10
652.46011094853066
 20
144.93314865495941
 30
0.0
 11
652.26517047234029
 21
144.4842399248007
 31
0.0
  0
LINE
  5
5C4
  8
0
 10
652.26517047234029
 20
144.4842399248007
 30
0.0
 11
651.81427761519751
 21
144.3269978613086
 31
0.0
  0
LINE
  5
5C5
  8
0
 10
651.81427761519751
 20
144.3269978613086
 30
0.0
 11
651.48974884535619
 21
144.39123397241971
 31
0.0
  0
LINE
  5
5C6
  8
0
 10
651.48974884535619
 20
144.39123397241971
 30
0.0
 11
651.25425777392775
 21
144.58394230575311
 31
0.0
  0
LINE
  5
5C7
  8
0
 10
651.25425777392775
 20
144.58394230575311
 30
0.0
 11
651.06328555170546
 21
145.34187881368959
 31
0.0
  0
LINE
  5
5C8
  8
0
 10
651.06328555170546
 20
145.34187881368959
 30
0.0
 11
651.24731332948318
 21
146.1057677025785
 31
0.0
  0
LINE
  5
5C9
  8
0
 10
651.24731332948318
 20
146.1057677025785
 30
0.0
 11
651.47710003583245
 21
146.29549984543559
 31
0.0
  0
LINE
  5
5CA
  8
0
 10
651.47710003583245
 20
146.29549984543559
 30
0.0
 11
651.79840459932439
 21
146.35874389305459
 31
0.0
  0
LINE
  5
5CB
  8
0
 10
651.79840459932439
 20
146.35874389305459
 30
0.0
 11
652.26665856757847
 21
146.21539071845149
 31
0.0
  0
LINE
  5
5CC
  8
0
 10
652.26665856757847
 20
146.21539071845149
 30
0.0
 11
652.46011094853066
 21
145.7902915121023
 31
0.0
  0
LINE
  5
5CD
  8
0
 10
652.46011094853066
 20
145.7902915121023
 30
0.0
 11
653.60296809138799
 21
145.7902915121023
 31
0.0
  0
LINE
  5
5CE
  8
0
 10
653.60296809138799
 20
145.7902915121023
 30
0.0
 11
653.44274983741968
 21
146.43798496448321
 31
0.0
  0
LINE
  5
5CF
  8
0
 10
653.44274983741968
 20
146.43798496448321
 30
0.0
 11
653.07519031361005
 21
146.91677960734029
 31
0.0
  0
LINE
  5
5D0
  8
0
 10
653.07519031361005
 20
146.91677960734029
 30
0.0
 11
652.51616253583245
 21
147.21253853591179
 31
0.0
  0
LINE
  5
5D1
  8
0
 10
652.51616253583245
 20
147.21253853591179
 30
0.0
 11
651.78153951995944
 21
147.31112484543559
 31
0.0
  0
LINE
  5
5D2
  8
0
 10
651.78153951995944
 20
147.31112484543559
 30
0.0
 11
650.98354844853066
 21
147.17918040099121
 31
0.0
  0
LINE
  5
5D3
  8
0
 10
650.98354844853066
 20
147.17918040099121
 30
0.0
 11
650.37330539297534
 21
146.78334706765779
 31
0.0
  0
LINE
  5
5D4
  8
0
 10
650.37330539297534
 20
146.78334706765779
 30
0.0
 11
649.98602860726101
 21
146.15933913114989
 31
0.0
  0
LINE
  5
5D5
  8
0
 10
649.98602860726101
 20
146.15933913114989
 30
0.0
 11
649.8569363453563
 21
145.34287087718161
 31
0.0
  0
LINE
  5
5D6
  8
0
 10
649.8569363453563
 20
145.34287087718161
 30
0.0
 11
649.98664864694354
 21
144.52454250416579
 31
0.0
  0
LINE
  5
5D7
  8
0
 10
649.98664864694354
 20
144.52454250416579
 30
0.0
 11
650.37578555170546
 21
143.9009065914673
 31
0.0
  0
LINE
  5
5D8
  8
0
 10
650.37578555170546
 20
143.9009065914673
 30
0.0
 11
650.99111293265776
 21
143.5061893295626
 31
0.0
  0
LINE
  5
5D9
  8
0
 10
650.99111293265776
 20
143.5061893295626
 30
0.0
 11
651.79939666281655
 21
143.37461690892769
 31
0.0
  0
LINE
  5
5DA
  8
0
 10
651.79939666281655
 20
143.37461690892769
 30
0.0
 11
652.52248694059449
 21
143.47679944861019
 31
0.0
  0
LINE
  5
5DB
  8
0
 10
652.52248694059449
 20
143.47679944861019
 30
0.0
 11
653.07866253583245
 21
143.78334706765779
 31
0.0
  0
LINE
  5
5DC
  8
0
 10
653.07866253583245
 20
143.78334706765779
 30
0.0
 11
653.44609805170558
 21
144.2751625438483
 31
0.0
  0
LINE
  5
5DD
  8
0
 10
653.44609805170558
 20
144.2751625438483
 30
0.0
 11
653.60296809138799
 21
144.93314865495941
 31
0.0
  0
LINE
  5
5DE
  8
0
 10
653.60296809138799
 20
144.93314865495941
 30
0.0
 11
652.46011094853066
 21
144.93314865495941
 31
0.0
  0
LINE
  5
5DF
  8
0
 10
645.23838357076329
 20
145.70722284388259
 30
0.0
 11
646.41596293584257
 21
145.70722284388259
 31
0.0
  0
LINE
  5
5E0
  8
0
 10
646.41596293584257
 20
145.70722284388259
 30
0.0
 11
646.56278833266788
 21
146.2151593518191
 31
0.0
  0
LINE
  5
5E1
  8
0
 10
646.56278833266788
 20
146.2151593518191
 30
0.0
 11
647.766161348541
 21
146.2151593518191
 31
0.0
  0
LINE
  5
5E2
  8
0
 10
647.766161348541
 20
146.2151593518191
 30
0.0
 11
647.90802642790595
 21
145.70722284388259
 31
0.0
  0
LINE
  5
5E3
  8
0
 10
647.90802642790595
 20
145.70722284388259
 30
0.0
 11
649.11139944377919
 21
145.70722284388259
 31
0.0
  0
LINE
  5
5E4
  8
0
 10
649.11139944377919
 20
145.70722284388259
 30
0.0
 11
647.78203436441402
 21
149.51674665340639
 31
0.0
  0
LINE
  5
5E5
  8
0
 10
647.78203436441402
 20
149.51674665340639
 30
0.0
 11
646.55286769774727
 21
149.51674665340639
 31
0.0
  0
LINE
  5
5E6
  8
0
 10
646.55286769774727
 20
149.51674665340639
 30
0.0
 11
645.23838357076329
 21
145.70722284388259
 31
0.0
  0
LINE
  5
5E7
  8
0
 10
646.78302642790595
 20
147.0405561772159
 30
0.0
 11
647.16893912631872
 21
148.34412760578741
 31
0.0
  0
LINE
  5
5E8
  8
0
 10
647.16893912631872
 20
148.34412760578741
 30
0.0
 11
647.54592325330293
 21
147.0405561772159
 31
0.0
  0
LINE
  5
5E9
  8
0
 10
647.54592325330293
 20
147.0405561772159
 30
0.0
 11
646.78302642790595
 21
147.0405561772159
 31
0.0
  0
LINE
  5
5EA
  8
0
 10
641.4776523805017
 20
147.44761115306289
 30
0.0
 11
643.17705714240662
 21
147.44761115306289
 31
0.0
  0
LINE
  5
5EB
  8
0
 10
643.17705714240662
 20
147.44761115306289
 30
0.0
 11
643.94491428526374
 21
147.48630162925329
 31
0.0
  0
LINE
  5
5EC
  8
0
 10
643.94491428526374
 20
147.48630162925329
 30
0.0
 11
644.35761269796205
 21
147.6182460736978
 31
0.0
  0
LINE
  5
5ED
  8
0
 10
644.35761269796205
 20
147.6182460736978
 30
0.0
 11
644.76584682494615
 21
148.00118258163431
 31
0.0
  0
LINE
  5
5EE
  8
0
 10
644.76584682494615
 20
148.00118258163431
 30
0.0
 11
644.90622380907325
 21
148.58848416893591
 31
0.0
  0
LINE
  5
5EF
  8
0
 10
644.90622380907325
 20
148.58848416893591
 30
0.0
 11
644.76237460272398
 21
149.1514802006819
 31
0.0
  0
LINE
  5
5F0
  8
0
 10
644.76237460272398
 20
149.1514802006819
 30
0.0
 11
644.31892222177146
 21
149.47638099433269
 31
0.0
  0
LINE
  5
5F1
  8
0
 10
644.31892222177146
 20
149.47638099433269
 30
0.0
 11
644.66416031700965
 21
149.79384131179299
 31
0.0
  0
LINE
  5
5F2
  8
0
 10
644.66416031700965
 20
149.79384131179299
 30
0.0
 11
644.77923968208916
 21
150.24622226417401
 31
0.0
  0
LINE
  5
5F3
  8
0
 10
644.77923968208916
 20
150.24622226417401
 30
0.0
 11
644.62546984081928
 21
150.8062421054438
 31
0.0
  0
LINE
  5
5F4
  8
0
 10
644.62546984081928
 20
150.8062421054438
 30
0.0
 11
644.18300952335892
 21
151.1460238514756
 31
0.0
  0
LINE
  5
5F5
  8
0
 10
644.18300952335892
 20
151.1460238514756
 30
0.0
 11
643.78767222177157
 21
151.23134131179299
 31
0.0
  0
LINE
  5
5F6
  8
0
 10
643.78767222177157
 20
151.23134131179299
 30
0.0
 11
643.05404126939072
 21
151.25713496258669
 31
0.0
  0
LINE
  5
5F7
  8
0
 10
643.05404126939072
 20
151.25713496258669
 30
0.0
 11
641.4776523805017
 21
151.25713496258669
 31
0.0
  0
LINE
  5
5F8
  8
0
 10
641.4776523805017
 20
151.25713496258669
 30
0.0
 11
641.4776523805017
 21
147.44761115306289
 31
0.0
  0
LINE
  5
5F9
  8
0
 10
642.68400158685085
 20
148.33650004195181
 30
0.0
 11
642.68400158685085
 21
149.03491274036449
 31
0.0
  0
LINE
  5
5FA
  8
0
 10
642.68400158685085
 20
149.03491274036449
 30
0.0
 11
643.23261269796217
 21
149.03491274036449
 31
0.0
  0
LINE
  5
5FB
  8
0
 10
643.23261269796217
 20
149.03491274036449
 30
0.0
 11
643.64183888843831
 21
148.9555476609994
 31
0.0
  0
LINE
  5
5FC
  8
0
 10
643.64183888843831
 20
148.9555476609994
 30
0.0
 11
643.76336666621614
 21
148.68868258163431
 31
0.0
  0
LINE
  5
5FD
  8
0
 10
643.76336666621614
 20
148.68868258163431
 30
0.0
 11
643.64431904716844
 21
148.41884131179299
 31
0.0
  0
LINE
  5
5FE
  8
0
 10
643.64431904716844
 20
148.41884131179299
 30
0.0
 11
643.24352539637482
 21
148.33650004195181
 31
0.0
  0
LINE
  5
5FF
  8
0
 10
643.24352539637482
 20
148.33650004195181
 30
0.0
 11
642.68400158685085
 21
148.33650004195181
 31
0.0
  0
LINE
  5
600
  8
0
 10
642.68400158685085
 20
149.73332543877709
 30
0.0
 11
642.68400158685085
 21
150.3682460736978
 31
0.0
  0
LINE
  5
601
  8
0
 10
642.68400158685085
 20
150.3682460736978
 30
0.0
 11
643.01832698367639
 21
150.3682460736978
 31
0.0
  0
LINE
  5
602
  8
0
 10
643.01832698367639
 20
150.3682460736978
 30
0.0
 11
643.52675952335892
 21
150.3007857562375
 31
0.0
  0
LINE
  5
603
  8
0
 10
643.52675952335892
 20
150.3007857562375
 30
0.0
 11
643.63638253923205
 21
150.0507857562375
 31
0.0
  0
LINE
  5
604
  8
0
 10
643.63638253923205
 20
150.0507857562375
 30
0.0
 11
643.53419999954929
 21
149.8057460736978
 31
0.0
  0
LINE
  5
605
  8
0
 10
643.53419999954929
 20
149.8057460736978
 30
0.0
 11
643.18201745986687
 21
149.73332543877709
 31
0.0
  0
LINE
  5
606
  8
0
 10
643.18201745986687
 20
149.73332543877709
 30
0.0
 11
642.68400158685085
 21
149.73332543877709
 31
0.0
  0
ARC
  5
607
  8
0
 10
647.33761017454253
 20
147.3750045037574
 30
0.0
 40
9.0
 50
179.99999999999969
 51
359.99999999999881
  0
ARC
  5
608
  8
0
 10
647.33761017454253
 20
147.3750045037574
 30
0.0
 40
9.0000000000000231
 50
359.99999999999949
 51
179.9999999999996
  0
ARC
  5
609
  8
0
 10
788.08761017454071
 20
169.62500450375771
 30
0.0
 40
3.9999999999999929
 50
90.0
 51
270.0
  0
ARC
  5
60A
  8
0
 10
788.08761017454071
 20
169.62500450375771
 30
0.0
 40
4.0000000000000062
 50
270.0
 51
90.0
  0
ARC
  5
60B
  8
0
 10
647.33761017454356
 20
169.62500450375771
 30
0.0
 40
3.9999999999999929
 50
90.0
 51
270.0
  0
ARC
  5
60C
  8
0
 10
647.33761017454356
 20
169.62500450375771
 30
0.0
 40
4.0000000000000062
 50
270.0
 51
90.0
  0
LINE
  5
60D
  8
0
 10
577.21261017454322
 20
39.500004503757957
 30
0.0
 11
577.46261017454231
 21
39.500004503757957
 31
0.0
  0
LINE
  5
60E
  8
0
 10
577.46261017454231
 20
41.50000450375817
 30
0.0
 11
577.21261017454322
 21
41.50000450375817
 31
0.0
  0
LINE
  5
60F
  8
0
 10
577.21261017454356
 20
27.500004503757971
 30
0.0
 11
577.46261017454265
 21
27.500004503757971
 31
0.0
  0
LINE
  5
610
  8
0
 10
577.46261017454265
 20
30.50000450375796
 30
0.0
 11
577.21261017454356
 21
30.50000450375796
 31
0.0
  0
LINE
  5
611
  8
0
 10
577.21261017454356
 20
5.6250045037580758
 30
0.0
 11
577.46261017454265
 21
5.6250045037580758
 31
0.0
  0
LINE
  5
612
  8
0
 10
577.21261017454401
 20
40.50000450375812
 30
0.0
 11
577.21261017454401
 21
40.758823548860647
 31
0.0
  0
LINE
  5
613
  8
0
 10
577.21261017454401
 20
40.758824109783092
 30
0.0
 11
577.21261017454401
 21
41.00000450375812
 31
0.0
  0
LINE
  5
614
  8
0
 10
577.21261017454401
 20
41.000005547768012
 30
0.0
 11
577.21261017454401
 21
41.207111284944673
 31
0.0
  0
LINE
  5
615
  8
0
 10
577.21261017454401
 20
41.20711217346112
 30
0.0
 11
577.21261017454401
 21
41.366029907542583
 31
0.0
  0
LINE
  5
616
  8
0
 10
577.21261017454401
 20
41.366030590074878
 30
0.0
 11
577.21261017454401
 21
41.4659303300472
 31
0.0
  0
LINE
  5
617
  8
0
 10
577.21261017454401
 20
41.465932910626073
 30
0.0
 11
577.21261017454401
 21
41.500004503758127
 31
0.0
  0
LINE
  5
618
  8
0
 10
577.21261017454401
 20
39.500004503758142
 30
0.0
 11
577.21261017454401
 21
39.534076096888548
 31
0.0
  0
LINE
  5
619
  8
0
 10
577.21261017454401
 20
39.534078677469068
 30
0.0
 11
577.21261017454401
 21
39.633978417440296
 31
0.0
  0
LINE
  5
61A
  8
0
 10
577.21261017454401
 20
39.6339790999737
 30
0.0
 11
577.21261017454401
 21
39.792896834054169
 31
0.0
  0
LINE
  5
61B
  8
0
 10
577.21261017454401
 20
39.792897722571588
 30
0.0
 11
577.21261017454401
 21
40.0000034597469
 31
0.0
  0
LINE
  5
61C
  8
0
 10
577.21261017454401
 20
40.000004503758127
 30
0.0
 11
577.21261017454401
 21
40.241184897731863
 31
0.0
  0
LINE
  5
61D
  8
0
 10
577.21261017454401
 20
40.241185458655607
 30
0.0
 11
577.21261017454401
 21
40.50000450375812
 31
0.0
  0
LINE
  5
61E
  8
0
 10
577.21261017454435
 20
29.000005468413558
 30
0.0
 11
577.21261017454435
 21
29.750004503758142
 31
0.0
  0
LINE
  5
61F
  8
0
 10
577.21261017454435
 20
29.750005547768129
 30
0.0
 11
577.21261017454435
 21
30.29904168195733
 31
0.0
  0
LINE
  5
620
  8
0
 10
577.21261017454435
 20
30.299042609434789
 30
0.0
 11
577.21261017454435
 21
30.448893243191741
 31
0.0
  0
LINE
  5
621
  8
0
 10
577.21261017454435
 20
30.448893321248359
 30
0.0
 11
577.21261017454435
 21
30.500004503758142
 31
0.0
  0
LINE
  5
622
  8
0
 10
577.21261017454435
 20
27.500004503758142
 30
0.0
 11
577.21261017454435
 21
27.551113789843139
 31
0.0
  0
LINE
  5
623
  8
0
 10
577.21261017454435
 20
27.551115764324539
 30
0.0
 11
577.21261017454435
 21
27.70096639808148
 31
0.0
  0
LINE
  5
624
  8
0
 10
577.21261017454435
 20
27.70096654002537
 30
0.0
 11
577.21261017454435
 21
27.939344110111541
 31
0.0
  0
LINE
  5
625
  8
0
 10
577.21261017454435
 20
27.939344331978312
 30
0.0
 11
577.21261017454435
 21
29.000004503758131
 31
0.0
  0
LINE
  5
626
  8
0
 10
577.21261017454435
 20
5.62500450375813
 30
0.0
 11
577.21261017454435
 21
5.6590784673935657
 31
0.0
  0
LINE
  5
627
  8
0
 10
577.21261017454435
 20
5.659078677469064
 30
0.0
 11
577.21261017454435
 21
5.7589790422399183
 31
0.0
  0
LINE
  5
628
  8
0
 10
577.21261017454435
 20
5.7589790999736943
 30
0.0
 11
577.21261017454435
 21
5.917897722571583
 31
0.0
  0
LINE
  5
629
  8
0
 10
577.21261017454435
 20
5.917897786665125
 30
0.0
 11
577.21261017454435
 21
6.12500450375813
 31
0.0
  0
LINE
  5
62A
  8
0
 10
577.21261017454435
 20
6.1250047278860302
 30
0.0
 11
577.21261017454435
 21
6.3661853976965928
 31
0.0
  0
LINE
  5
62B
  8
0
 10
577.21261017454435
 20
6.3661854586556084
 30
0.0
 11
577.21261017454435
 21
6.4989019749060573
 31
0.0
  0
LINE
  5
62C
  8
0
 10
577.21261017454344
 20
6.5000045037583041
 30
0.0
 11
577.46261017454253
 21
6.5000045037583041
 31
0.0
  0
LINE
  5
62D
  8
0
 10
577.46261017454253
 20
18.50000450375796
 30
0.0
 11
577.21261017454344
 21
18.50000450375796
 31
0.0
  0
LINE
  5
62E
  8
0
 10
577.21261017454424
 20
12.50000450375815
 30
0.0
 11
577.21261017454424
 21
14.0529186493044
 31
0.0
  0
LINE
  5
62F
  8
0
 10
577.21261017454424
 20
14.052918774373261
 30
0.0
 11
577.21261017454435
 21
15.50000405550159
 31
0.0
  0
LINE
  5
630
  8
0
 10
577.21261017454435
 20
15.500004503758131
 30
0.0
 11
577.21261017454435
 21
16.742645019421602
 31
0.0
  0
LINE
  5
631
  8
0
 10
577.21261017454435
 20
16.742645190877418
 30
0.0
 11
577.21261017454435
 21
18.295559461492559
 31
0.0
  0
LINE
  5
632
  8
0
 10
577.21261017454435
 20
18.295559773719042
 30
0.0
 11
577.21261017454435
 21
18.500004503758159
 31
0.0
  0
LINE
  5
633
  8
0
 10
577.21261017454435
 20
6.5000045037581637
 30
0.0
 11
577.21261017454435
 21
6.7044495460237536
 31
0.0
  0
LINE
  5
634
  8
0
 10
577.21261017454435
 20
6.7044497629487942
 30
0.0
 11
577.21261017454435
 21
7.3038520470520281
 31
0.0
  0
LINE
  5
635
  8
0
 10
577.21261017454435
 20
7.3038520810515308
 30
0.0
 11
577.21261017454435
 21
8.2573637623557783
 31
0.0
  0
LINE
  5
636
  8
0
 10
577.21261017454435
 20
8.2573638166388754
 30
0.0
 11
577.21261017454435
 21
9.5000045037581557
 31
0.0
  0
LINE
  5
637
  8
0
 10
577.21261017454435
 20
9.5000047278860436
 30
0.0
 11
577.21261017454424
 21
10.94709011737498
 31
0.0
  0
LINE
  5
638
  8
0
 10
577.21261017454424
 20
10.947090233143021
 30
0.0
 11
577.21261017454424
 21
12.50000402142938
 31
0.0
  0
ARC
  5
639
  8
0
 10
210.62499729090609
 20
147.37500450376109
 30
0.0
 40
8.2500000000000089
 50
179.9999999999998
 51
359.99999999999881
  0
ARC
  5
63A
  8
0
 10
210.62499729090609
 20
147.37500450376109
 30
0.0
 40
8.2500000000000213
 50
359.99999999999949
 51
179.9999999999996
  0
ARC
  5
63B
  8
0
 10
210.62499729090609
 20
147.37500450376109
 30
0.0
 40
7.6874999999999831
 50
0.0000000000009669
 51
180.0000000000002
  0
ARC
  5
63C
  8
0
 10
210.62499729090609
 20
147.37500450376109
 30
0.0
 40
7.687499999999976
 50
180.00000000000031
 51
0.0000000000001527
  0
LINE
  5
63D
  8
0
 10
215.7474980648939
 20
144.93314865496379
 30
0.0
 11
215.55255758870339
 21
144.484239924805
 31
0.0
  0
LINE
  5
63E
  8
0
 10
215.55255758870339
 20
144.484239924805
 30
0.0
 11
215.10166473156059
 21
144.326997861313
 31
0.0
  0
LINE
  5
63F
  8
0
 10
215.10166473156059
 20
144.326997861313
 30
0.0
 11
214.77713596171941
 21
144.39123397242409
 31
0.0
  0
LINE
  5
640
  8
0
 10
214.77713596171941
 20
144.39123397242409
 30
0.0
 11
214.5416448902908
 21
144.5839423057574
 31
0.0
  0
LINE
  5
641
  8
0
 10
214.5416448902908
 20
144.5839423057574
 30
0.0
 11
214.35067266806851
 21
145.34187881369391
 31
0.0
  0
LINE
  5
642
  8
0
 10
214.35067266806851
 20
145.34187881369391
 30
0.0
 11
214.53470044584631
 21
146.1057677025828
 31
0.0
  0
LINE
  5
643
  8
0
 10
214.53470044584631
 20
146.1057677025828
 30
0.0
 11
214.7644871521955
 21
146.29549984543991
 31
0.0
  0
LINE
  5
644
  8
0
 10
214.7644871521955
 20
146.29549984543991
 30
0.0
 11
215.08579171568761
 21
146.358743893059
 31
0.0
  0
LINE
  5
645
  8
0
 10
215.08579171568761
 20
146.358743893059
 30
0.0
 11
215.5540456839415
 21
146.21539071845581
 31
0.0
  0
LINE
  5
646
  8
0
 10
215.5540456839415
 20
146.21539071845581
 30
0.0
 11
215.7474980648939
 21
145.79029151210659
 31
0.0
  0
LINE
  5
647
  8
0
 10
215.7474980648939
 20
145.79029151210659
 30
0.0
 11
216.8903552077511
 21
145.79029151210659
 31
0.0
  0
LINE
  5
648
  8
0
 10
216.8903552077511
 20
145.79029151210659
 30
0.0
 11
216.73013695378279
 21
146.43798496448761
 31
0.0
  0
LINE
  5
649
  8
0
 10
216.73013695378279
 20
146.43798496448761
 30
0.0
 11
216.3625774299733
 21
146.91677960734469
 31
0.0
  0
LINE
  5
64A
  8
0
 10
216.3625774299733
 20
146.91677960734469
 30
0.0
 11
215.8035496521955
 21
147.2125385359162
 31
0.0
  0
LINE
  5
64B
  8
0
 10
215.8035496521955
 20
147.2125385359162
 30
0.0
 11
215.06892663632249
 21
147.31112484543999
 31
0.0
  0
LINE
  5
64C
  8
0
 10
215.06892663632249
 20
147.31112484543999
 30
0.0
 11
214.2709355648939
 21
147.17918040099551
 31
0.0
  0
LINE
  5
64D
  8
0
 10
214.2709355648939
 20
147.17918040099551
 30
0.0
 11
213.66069250933839
 21
146.78334706766219
 31
0.0
  0
LINE
  5
64E
  8
0
 10
213.66069250933839
 20
146.78334706766219
 30
0.0
 11
213.27341572362411
 21
146.1593391311543
 31
0.0
  0
LINE
  5
64F
  8
0
 10
213.27341572362411
 20
146.1593391311543
 30
0.0
 11
213.1443234617193
 21
145.34287087718599
 31
0.0
  0
LINE
  5
650
  8
0
 10
213.1443234617193
 20
145.34287087718599
 30
0.0
 11
213.27403576330661
 21
144.52454250417011
 31
0.0
  0
LINE
  5
651
  8
0
 10
213.27403576330661
 20
144.52454250417011
 30
0.0
 11
213.66317266806851
 21
143.90090659147171
 31
0.0
  0
LINE
  5
652
  8
0
 10
213.66317266806851
 20
143.90090659147171
 30
0.0
 11
214.27850004902089
 21
143.50618932956689
 31
0.0
  0
LINE
  5
653
  8
0
 10
214.27850004902089
 20
143.50618932956689
 30
0.0
 11
215.0867837791796
 21
143.37461690893201
 31
0.0
  0
LINE
  5
654
  8
0
 10
215.0867837791796
 20
143.37461690893201
 30
0.0
 11
215.8098740569574
 21
143.47679944861451
 31
0.0
  0
LINE
  5
655
  8
0
 10
215.8098740569574
 20
143.47679944861451
 30
0.0
 11
216.3660496521955
 21
143.78334706766219
 31
0.0
  0
LINE
  5
656
  8
0
 10
216.3660496521955
 20
143.78334706766219
 30
0.0
 11
216.73348516806851
 21
144.2751625438527
 31
0.0
  0
LINE
  5
657
  8
0
 10
216.73348516806851
 20
144.2751625438527
 30
0.0
 11
216.8903552077511
 21
144.93314865496379
 31
0.0
  0
LINE
  5
658
  8
0
 10
216.8903552077511
 20
144.93314865496379
 30
0.0
 11
215.7474980648939
 21
144.93314865496379
 31
0.0
  0
LINE
  5
659
  8
0
 10
208.5257706871262
 20
145.707222843887
 30
0.0
 11
209.70335005220559
 21
145.707222843887
 31
0.0
  0
LINE
  5
65A
  8
0
 10
209.70335005220559
 20
145.707222843887
 30
0.0
 11
209.85017544903101
 21
146.2151593518235
 31
0.0
  0
LINE
  5
65B
  8
0
 10
209.85017544903101
 20
146.2151593518235
 30
0.0
 11
211.053548464904
 21
146.2151593518235
 31
0.0
  0
LINE
  5
65C
  8
0
 10
211.053548464904
 20
146.2151593518235
 30
0.0
 11
211.19541354426909
 21
145.707222843887
 31
0.0
  0
LINE
  5
65D
  8
0
 10
211.19541354426909
 20
145.707222843887
 30
0.0
 11
212.3987865601421
 21
145.707222843887
 31
0.0
  0
LINE
  5
65E
  8
0
 10
212.3987865601421
 20
145.707222843887
 30
0.0
 11
211.06942148077709
 21
149.51674665341079
 31
0.0
  0
LINE
  5
65F
  8
0
 10
211.06942148077709
 20
149.51674665341079
 30
0.0
 11
209.84025481411041
 21
149.51674665341079
 31
0.0
  0
LINE
  5
660
  8
0
 10
209.84025481411041
 20
149.51674665341079
 30
0.0
 11
208.5257706871262
 21
145.707222843887
 31
0.0
  0
LINE
  5
661
  8
0
 10
210.07041354426909
 20
147.04055617722031
 30
0.0
 11
210.4563262426818
 21
148.3441276057917
 31
0.0
  0
LINE
  5
662
  8
0
 10
210.4563262426818
 20
148.3441276057917
 30
0.0
 11
210.8333103696659
 21
147.04055617722031
 31
0.0
  0
LINE
  5
663
  8
0
 10
210.8333103696659
 20
147.04055617722031
 30
0.0
 11
210.07041354426909
 21
147.04055617722031
 31
0.0
  0
LINE
  5
664
  8
0
 10
204.7650394968648
 20
147.44761115306719
 30
0.0
 11
206.46444425876959
 21
147.44761115306719
 31
0.0
  0
LINE
  5
665
  8
0
 10
206.46444425876959
 20
147.44761115306719
 30
0.0
 11
207.2323014016267
 21
147.4863016292577
 31
0.0
  0
LINE
  5
666
  8
0
 10
207.2323014016267
 20
147.4863016292577
 30
0.0
 11
207.64499981432519
 21
147.6182460737021
 31
0.0
  0
LINE
  5
667
  8
0
 10
207.64499981432519
 20
147.6182460737021
 30
0.0
 11
208.05323394130929
 21
148.00118258163869
 31
0.0
  0
LINE
  5
668
  8
0
 10
208.05323394130929
 20
148.00118258163869
 30
0.0
 11
208.1936109254363
 21
148.58848416894031
 31
0.0
  0
LINE
  5
669
  8
0
 10
208.1936109254363
 20
148.58848416894031
 30
0.0
 11
208.04976171908709
 21
149.15148020068631
 31
0.0
  0
LINE
  5
66A
  8
0
 10
208.04976171908709
 20
149.15148020068631
 30
0.0
 11
207.60630933813471
 21
149.47638099433709
 31
0.0
  0
LINE
  5
66B
  8
0
 10
207.60630933813471
 20
149.47638099433709
 30
0.0
 11
207.95154743337281
 21
149.79384131179739
 31
0.0
  0
LINE
  5
66C
  8
0
 10
207.95154743337281
 20
149.79384131179739
 30
0.0
 11
208.06662679845221
 21
150.24622226417841
 31
0.0
  0
LINE
  5
66D
  8
0
 10
208.06662679845221
 20
150.24622226417841
 30
0.0
 11
207.9128569571823
 21
150.80624210544821
 31
0.0
  0
LINE
  5
66E
  8
0
 10
207.9128569571823
 20
150.80624210544821
 30
0.0
 11
207.470396639722
 21
151.1460238514799
 31
0.0
  0
LINE
  5
66F
  8
0
 10
207.470396639722
 20
151.1460238514799
 30
0.0
 11
207.07505933813471
 21
151.23134131179739
 31
0.0
  0
LINE
  5
670
  8
0
 10
207.07505933813471
 20
151.23134131179739
 30
0.0
 11
206.34142838575369
 21
151.2571349625911
 31
0.0
  0
LINE
  5
671
  8
0
 10
206.34142838575369
 20
151.2571349625911
 30
0.0
 11
204.7650394968648
 21
151.2571349625911
 31
0.0
  0
LINE
  5
672
  8
0
 10
204.7650394968648
 20
151.2571349625911
 30
0.0
 11
204.7650394968648
 21
147.44761115306719
 31
0.0
  0
LINE
  5
673
  8
0
 10
205.9713887032141
 20
148.3365000419561
 30
0.0
 11
205.9713887032141
 21
149.03491274036881
 31
0.0
  0
LINE
  5
674
  8
0
 10
205.9713887032141
 20
149.03491274036881
 30
0.0
 11
206.51999981432519
 21
149.03491274036881
 31
0.0
  0
LINE
  5
675
  8
0
 10
206.51999981432519
 20
149.03491274036881
 30
0.0
 11
206.92922600480139
 21
148.95554766100369
 31
0.0
  0
LINE
  5
676
  8
0
 10
206.92922600480139
 20
148.95554766100369
 30
0.0
 11
207.05075378257911
 21
148.6886825816386
 31
0.0
  0
LINE
  5
677
  8
0
 10
207.05075378257911
 20
148.6886825816386
 30
0.0
 11
206.93170616353149
 21
148.41884131179739
 31
0.0
  0
LINE
  5
678
  8
0
 10
206.93170616353149
 20
148.41884131179739
 30
0.0
 11
206.5309125127379
 21
148.3365000419561
 31
0.0
  0
LINE
  5
679
  8
0
 10
206.5309125127379
 20
148.3365000419561
 30
0.0
 11
205.9713887032141
 21
148.3365000419561
 31
0.0
  0
LINE
  5
67A
  8
0
 10
205.9713887032141
 20
149.73332543878149
 30
0.0
 11
205.9713887032141
 21
150.36824607370221
 31
0.0
  0
LINE
  5
67B
  8
0
 10
205.9713887032141
 20
150.36824607370221
 30
0.0
 11
206.30571410003949
 21
150.36824607370221
 31
0.0
  0
LINE
  5
67C
  8
0
 10
206.30571410003949
 20
150.36824607370221
 30
0.0
 11
206.814146639722
 21
150.30078575624191
 31
0.0
  0
LINE
  5
67D
  8
0
 10
206.814146639722
 20
150.30078575624191
 30
0.0
 11
206.92376965559501
 21
150.05078575624179
 31
0.0
  0
LINE
  5
67E
  8
0
 10
206.92376965559501
 20
150.05078575624179
 30
0.0
 11
206.82158711591251
 21
149.80574607370221
 31
0.0
  0
LINE
  5
67F
  8
0
 10
206.82158711591251
 20
149.80574607370221
 30
0.0
 11
206.46940457622989
 21
149.73332543878149
 31
0.0
  0
LINE
  5
680
  8
0
 10
206.46940457622989
 20
149.73332543878149
 30
0.0
 11
205.9713887032141
 21
149.73332543878149
 31
0.0
  0
ARC
  5
681
  8
0
 10
210.62499729090561
 20
147.3750045037618
 30
0.0
 40
9.0000000000000124
 50
179.9999999999998
 51
359.99999999999881
  0
ARC
  5
682
  8
0
 10
210.62499729090561
 20
147.3750045037618
 30
0.0
 40
9.0
 50
0.0
 51
179.99999999999989
  0
LINE
  5
683
  8
0
 10
140.74999729090459
 20
177.37500450375751
 30
0.0
 11
280.49999729089888
 21
177.37500450375751
 31
0.0
  0
LINE
  5
684
  8
0
 10
280.49999729089888
 20
100.00000450375769
 30
0.0
 11
140.74999729090459
 21
100.00000450375769
 31
0.0
  0
LINE
  5
685
  8
0
 10
140.74999729090459
 20
177.37500450375751
 30
0.0
 11
140.74999729090459
 21
100.00000450375769
 31
0.0
  0
LINE
  5
686
  8
0
 10
280.49999729089888
 20
100.00000450375769
 30
0.0
 11
280.49999729089888
 21
177.37500450375751
 31
0.0
  0
LINE
  5
687
  8
0
 10
140.74999729090459
 20
100.00000450375769
 30
0.0
 11
280.4999972909045
 21
100.00000450375769
 31
0.0
  0
LINE
  5
688
  8
0
 10
280.4999972909045
 20
0.0000045037577365
 30
0.0
 11
140.74999729090459
 21
0.0000045037577365
 31
0.0
  0
LINE
  5
689
  8
0
 10
280.4999972909045
 20
100.00000450375769
 30
0.0
 11
280.4999972909045
 21
0.0000045037577365
 31
0.0
  0
LINE
  5
68A
  8
0
 10
140.74999729090459
 20
0.0000045037577365
 30
0.0
 11
140.74999729090459
 21
100.00000450375769
 31
0.0
  0
LINE
  5
68B
  8
0
 10
-0.0000027090953267
 20
177.37500450375751
 30
0.0
 11
139.7499972908989
 21
177.37500450375751
 31
0.0
  0
LINE
  5
68C
  8
0
 10
139.7499972908989
 20
100.00000450375769
 30
0.0
 11
-0.0000027090953267
 21
100.00000450375769
 31
0.0
  0
LINE
  5
68D
  8
0
 10
-0.0000027090953267
 20
177.37500450375751
 30
0.0
 11
-0.0000027090953267
 21
100.00000450375769
 31
0.0
  0
LINE
  5
68E
  8
0
 10
139.7499972908989
 20
100.00000450375769
 30
0.0
 11
139.7499972908989
 21
177.37500450375751
 31
0.0
  0
LINE
  5
68F
  8
0
 10
-0.0000027090953836
 20
100.00000450375769
 30
0.0
 11
139.7499972909045
 21
100.00000450375769
 31
0.0
  0
LINE
  5
690
  8
0
 10
139.7499972909045
 20
0.0000045037577365
 30
0.0
 11
-0.0000027090953836
 21
0.0000045037577365
 31
0.0
  0
LINE
  5
691
  8
0
 10
139.7499972909045
 20
100.00000450375769
 30
0.0
 11
139.7499972909045
 21
0.0000045037577365
 31
0.0
  0
LINE
  5
692
  8
0
 10
-0.0000027090953836
 20
0.0000045037577365
 30
0.0
 11
-0.0000027090953836
 21
100.00000450375769
 31
0.0
  0
ARC
  5
693
  8
0
 10
69.87499729090618
 20
147.3750045037566
 30
0.0
 40
8.2500000000000018
 50
179.99999999999969
 51
359.99999999999881
  0
ARC
  5
694
  8
0
 10
69.87499729090618
 20
147.3750045037566
 30
0.0
 40
8.2500000000000089
 50
359.99999999999949
 51
179.9999999999996
  0
ARC
  5
695
  8
0
 10
69.87499729090618
 20
147.3750045037566
 30
0.0
 40
7.6874999999999956
 50
0.0000000000006679
 51
180.00000000000011
  0
ARC
  5
696
  8
0
 10
69.87499729090618
 20
147.3750045037566
 30
0.0
 40
7.687499999999992
 50
180.00000000000011
 51
359.9999999999996
  0
LINE
  5
697
  8
0
 10
74.997498064893989
 20
144.93314865495921
 30
0.0
 11
74.802557588703536
 21
144.48423992480051
 31
0.0
  0
LINE
  5
698
  8
0
 10
74.802557588703536
 20
144.48423992480051
 30
0.0
 11
74.351664731560675
 21
144.32699786130851
 31
0.0
  0
LINE
  5
699
  8
0
 10
74.351664731560675
 20
144.32699786130851
 30
0.0
 11
74.027135961719409
 21
144.3912339724196
 31
0.0
  0
LINE
  5
69A
  8
0
 10
74.027135961719409
 20
144.3912339724196
 30
0.0
 11
73.791644890290826
 21
144.58394230575291
 31
0.0
  0
LINE
  5
69B
  8
0
 10
73.791644890290826
 20
144.58394230575291
 30
0.0
 11
73.600672668068597
 21
145.34187881368939
 31
0.0
  0
LINE
  5
69C
  8
0
 10
73.600672668068597
 20
145.34187881368939
 30
0.0
 11
73.784700445846397
 21
146.10576770257831
 31
0.0
  0
LINE
  5
69D
  8
0
 10
73.784700445846397
 20
146.10576770257831
 30
0.0
 11
74.014487152195585
 21
146.2954998454355
 31
0.0
  0
LINE
  5
69E
  8
0
 10
74.014487152195585
 20
146.2954998454355
 30
0.0
 11
74.335791715687662
 21
146.35874389305451
 31
0.0
  0
LINE
  5
69F
  8
0
 10
74.335791715687662
 20
146.35874389305451
 30
0.0
 11
74.804045683941624
 21
146.21539071845129
 31
0.0
  0
LINE
  5
6A0
  8
0
 10
74.804045683941624
 20
146.21539071845129
 30
0.0
 11
74.997498064893989
 21
145.7902915121021
 31
0.0
  0
LINE
  5
6A1
  8
0
 10
74.997498064893989
 20
145.7902915121021
 30
0.0
 11
76.140355207751156
 21
145.7902915121021
 31
0.0
  0
LINE
  5
6A2
  8
0
 10
76.140355207751156
 20
145.7902915121021
 30
0.0
 11
75.980136953782903
 21
146.43798496448301
 31
0.0
  0
LINE
  5
6A3
  8
0
 10
75.980136953782903
 20
146.43798496448301
 30
0.0
 11
75.612577429973385
 21
146.9167796073402
 31
0.0
  0
LINE
  5
6A4
  8
0
 10
75.612577429973385
 20
146.9167796073402
 30
0.0
 11
75.053549652195585
 21
147.21253853591159
 31
0.0
  0
LINE
  5
6A5
  8
0
 10
75.053549652195585
 20
147.21253853591159
 30
0.0
 11
74.318926636322573
 21
147.31112484543539
 31
0.0
  0
LINE
  5
6A6
  8
0
 10
74.318926636322573
 20
147.31112484543539
 30
0.0
 11
73.520935564893989
 21
147.17918040099099
 31
0.0
  0
LINE
  5
6A7
  8
0
 10
73.520935564893989
 20
147.17918040099099
 30
0.0
 11
72.910692509338446
 21
146.7833470676577
 31
0.0
  0
LINE
  5
6A8
  8
0
 10
72.910692509338446
 20
146.7833470676577
 30
0.0
 11
72.523415723624169
 21
146.15933913114969
 31
0.0
  0
LINE
  5
6A9
  8
0
 10
72.523415723624169
 20
146.15933913114969
 30
0.0
 11
72.394323461719409
 21
145.3428708771815
 31
0.0
  0
LINE
  5
6AA
  8
0
 10
72.394323461719409
 20
145.3428708771815
 30
0.0
 11
72.524035763306699
 21
144.52454250416559
 31
0.0
  0
LINE
  5
6AB
  8
0
 10
72.524035763306699
 20
144.52454250416559
 30
0.0
 11
72.913172668068597
 21
143.90090659146719
 31
0.0
  0
LINE
  5
6AC
  8
0
 10
72.913172668068597
 20
143.90090659146719
 30
0.0
 11
73.528500049020977
 21
143.5061893295624
 31
0.0
  0
LINE
  5
6AD
  8
0
 10
73.528500049020977
 20
143.5061893295624
 30
0.0
 11
74.336783779179711
 21
143.37461690892749
 31
0.0
  0
LINE
  5
6AE
  8
0
 10
74.336783779179711
 20
143.37461690892749
 30
0.0
 11
75.059874056957483
 21
143.47679944861
 31
0.0
  0
LINE
  5
6AF
  8
0
 10
75.059874056957483
 20
143.47679944861
 30
0.0
 11
75.616049652195585
 21
143.78334706765759
 31
0.0
  0
LINE
  5
6B0
  8
0
 10
75.616049652195585
 20
143.78334706765759
 30
0.0
 11
75.983485168068597
 21
144.2751625438481
 31
0.0
  0
LINE
  5
6B1
  8
0
 10
75.983485168068597
 20
144.2751625438481
 30
0.0
 11
76.140355207751156
 21
144.93314865495921
 31
0.0
  0
LINE
  5
6B2
  8
0
 10
76.140355207751156
 20
144.93314865495921
 30
0.0
 11
74.997498064893989
 21
144.93314865495921
 31
0.0
  0
LINE
  5
6B3
  8
0
 10
67.775770687126339
 20
145.70722284388251
 30
0.0
 11
68.953350052205707
 21
145.70722284388251
 31
0.0
  0
LINE
  5
6B4
  8
0
 10
68.953350052205707
 20
145.70722284388251
 30
0.0
 11
69.100175449031099
 21
146.21515935181901
 31
0.0
  0
LINE
  5
6B5
  8
0
 10
69.100175449031099
 20
146.21515935181901
 30
0.0
 11
70.303548464904111
 21
146.21515935181901
 31
0.0
  0
LINE
  5
6B6
  8
0
 10
70.303548464904111
 20
146.21515935181901
 30
0.0
 11
70.445413544269201
 21
145.70722284388251
 31
0.0
  0
LINE
  5
6B7
  8
0
 10
70.445413544269201
 20
145.70722284388251
 30
0.0
 11
71.648786560142213
 21
145.70722284388251
 31
0.0
  0
LINE
  5
6B8
  8
0
 10
71.648786560142213
 20
145.70722284388251
 30
0.0
 11
70.319421480777152
 21
149.5167466534063
 31
0.0
  0
LINE
  5
6B9
  8
0
 10
70.319421480777152
 20
149.5167466534063
 30
0.0
 11
69.090254814110466
 21
149.5167466534063
 31
0.0
  0
LINE
  5
6BA
  8
0
 10
69.090254814110466
 20
149.5167466534063
 30
0.0
 11
67.775770687126339
 21
145.70722284388251
 31
0.0
  0
LINE
  5
6BB
  8
0
 10
69.320413544269201
 20
147.04055617721579
 30
0.0
 11
69.706326242681911
 21
148.34412760578721
 31
0.0
  0
LINE
  5
6BC
  8
0
 10
69.706326242681911
 20
148.34412760578721
 30
0.0
 11
70.083310369666037
 21
147.04055617721579
 31
0.0
  0
LINE
  5
6BD
  8
0
 10
70.083310369666037
 20
147.04055617721579
 30
0.0
 11
69.320413544269201
 21
147.04055617721579
 31
0.0
  0
LINE
  5
6BE
  8
0
 10
64.015039496864915
 20
147.4476111530627
 30
0.0
 11
65.714444258769703
 21
147.4476111530627
 31
0.0
  0
LINE
  5
6BF
  8
0
 10
65.714444258769703
 20
147.4476111530627
 30
0.0
 11
66.482301401626842
 21
147.48630162925321
 31
0.0
  0
LINE
  5
6C0
  8
0
 10
66.482301401626842
 20
147.48630162925321
 30
0.0
 11
66.894999814325246
 21
147.61824607369761
 31
0.0
  0
LINE
  5
6C1
  8
0
 10
66.894999814325246
 20
147.61824607369761
 30
0.0
 11
67.303233941309372
 21
148.00118258163411
 31
0.0
  0
LINE
  5
6C2
  8
0
 10
67.303233941309372
 20
148.00118258163411
 30
0.0
 11
67.44361092543636
 21
148.58848416893571
 31
0.0
  0
LINE
  5
6C3
  8
0
 10
67.44361092543636
 20
148.58848416893571
 30
0.0
 11
67.299761719087172
 21
149.15148020068179
 31
0.0
  0
LINE
  5
6C4
  8
0
 10
67.299761719087172
 20
149.15148020068179
 30
0.0
 11
66.856309338134793
 21
149.47638099433249
 31
0.0
  0
LINE
  5
6C5
  8
0
 10
66.856309338134793
 20
149.47638099433249
 30
0.0
 11
67.201547433372866
 21
149.7938413117929
 31
0.0
  0
LINE
  5
6C6
  8
0
 10
67.201547433372866
 20
149.7938413117929
 30
0.0
 11
67.316626798452234
 21
150.24622226417381
 31
0.0
  0
LINE
  5
6C7
  8
0
 10
67.316626798452234
 20
150.24622226417381
 30
0.0
 11
67.162856957182385
 21
150.80624210544369
 31
0.0
  0
LINE
  5
6C8
  8
0
 10
67.162856957182385
 20
150.80624210544369
 30
0.0
 11
66.720396639722082
 21
151.14602385147541
 31
0.0
  0
LINE
  5
6C9
  8
0
 10
66.720396639722082
 20
151.14602385147541
 30
0.0
 11
66.325059338134793
 21
151.2313413117929
 31
0.0
  0
LINE
  5
6CA
  8
0
 10
66.325059338134793
 20
151.2313413117929
 30
0.0
 11
65.591428385753815
 21
151.25713496258649
 31
0.0
  0
LINE
  5
6CB
  8
0
 10
65.591428385753815
 20
151.25713496258649
 30
0.0
 11
64.015039496864944
 21
151.25713496258649
 31
0.0
  0
LINE
  5
6CC
  8
0
 10
64.015039496864944
 20
151.25713496258649
 30
0.0
 11
64.015039496864915
 21
147.4476111530627
 31
0.0
  0
LINE
  5
6CD
  8
0
 10
65.221388703214132
 20
148.33650004195161
 30
0.0
 11
65.221388703214132
 21
149.03491274036429
 31
0.0
  0
LINE
  5
6CE
  8
0
 10
65.221388703214132
 20
149.03491274036429
 30
0.0
 11
65.769999814325246
 21
149.03491274036429
 31
0.0
  0
LINE
  5
6CF
  8
0
 10
65.769999814325246
 20
149.03491274036429
 30
0.0
 11
66.17922600480145
 21
148.9555476609992
 31
0.0
  0
LINE
  5
6D0
  8
0
 10
66.17922600480145
 20
148.9555476609992
 30
0.0
 11
66.300753782579221
 21
148.68868258163411
 31
0.0
  0
LINE
  5
6D1
  8
0
 10
66.300753782579221
 20
148.68868258163411
 30
0.0
 11
66.181706163531601
 21
148.4188413117929
 31
0.0
  0
LINE
  5
6D2
  8
0
 10
66.181706163531601
 20
148.4188413117929
 30
0.0
 11
65.780912512737956
 21
148.33650004195161
 31
0.0
  0
LINE
  5
6D3
  8
0
 10
65.780912512737956
 20
148.33650004195161
 30
0.0
 11
65.221388703214132
 21
148.33650004195161
 31
0.0
  0
LINE
  5
6D4
  8
0
 10
65.221388703214132
 20
149.733325438777
 30
0.0
 11
65.221388703214132
 21
150.36824607369761
 31
0.0
  0
LINE
  5
6D5
  8
0
 10
65.221388703214132
 20
150.36824607369761
 30
0.0
 11
65.555714100039552
 21
150.36824607369761
 31
0.0
  0
LINE
  5
6D6
  8
0
 10
65.555714100039552
 20
150.36824607369761
 30
0.0
 11
66.064146639722082
 21
150.3007857562373
 31
0.0
  0
LINE
  5
6D7
  8
0
 10
66.064146639722082
 20
150.3007857562373
 30
0.0
 11
66.173769655595095
 21
150.0507857562373
 31
0.0
  0
LINE
  5
6D8
  8
0
 10
66.173769655595095
 20
150.0507857562373
 30
0.0
 11
66.071587115912564
 21
149.80574607369761
 31
0.0
  0
LINE
  5
6D9
  8
0
 10
66.071587115912564
 20
149.80574607369761
 30
0.0
 11
65.719404576230005
 21
149.733325438777
 31
0.0
  0
LINE
  5
6DA
  8
0
 10
65.719404576230005
 20
149.733325438777
 30
0.0
 11
65.221388703214132
 21
149.733325438777
 31
0.0
  0
ARC
  5
6DB
  8
0
 10
69.874997290905696
 20
147.37500450375731
 30
0.0
 40
9.0000000000000089
 50
179.99999999999969
 51
359.99999999999881
  0
ARC
  5
6DC
  8
0
 10
69.874997290905696
 20
147.37500450375731
 30
0.0
 40
9.0000000000000089
 50
359.99999999999937
 51
179.99999999999969
  0
LINE
  5
6DD
  8
0
 10
280.4999972909053
 20
39.500004503757957
 30
0.0
 11
280.74999729090439
 21
39.500004503757957
 31
0.0
  0
LINE
  5
6DE
  8
0
 10
280.74999729090439
 20
41.50000450375817
 30
0.0
 11
280.4999972909053
 21
41.50000450375817
 31
0.0
  0
LINE
  5
6DF
  8
0
 10
280.49999729090518
 20
27.500004503757971
 30
0.0
 11
280.74999729090428
 21
27.500004503757971
 31
0.0
  0
LINE
  5
6E0
  8
0
 10
280.74999729090428
 20
30.50000450375796
 30
0.0
 11
280.49999729090518
 21
30.50000450375796
 31
0.0
  0
LINE
  5
6E1
  8
0
 10
280.49999729090518
 20
5.6250045037580758
 30
0.0
 11
280.74999729090428
 21
5.6250045037580758
 31
0.0
  0
LINE
  5
6E2
  8
0
 10
280.74999729090428
 20
7.625004503757963
 30
0.0
 11
280.49999729090518
 21
7.625004503757963
 31
0.0
  0
LINE
  5
6E3
  8
0
 10
280.74999729090501
 20
41.500004503758127
 30
0.0
 11
280.74999729090501
 21
41.465932910626073
 31
0.0
  0
LINE
  5
6E4
  8
0
 10
280.74999729090501
 20
41.4659303300472
 30
0.0
 11
280.74999729090501
 21
41.366030590074892
 31
0.0
  0
LINE
  5
6E5
  8
0
 10
280.74999729090501
 20
41.366029907542583
 30
0.0
 11
280.74999729090501
 21
41.207112173461127
 31
0.0
  0
LINE
  5
6E6
  8
0
 10
280.74999729090501
 20
41.207111284944688
 30
0.0
 11
280.74999729090501
 21
41.000005547768012
 31
0.0
  0
LINE
  5
6E7
  8
0
 10
280.74999729090501
 20
41.000004503758127
 30
0.0
 11
280.74999729090501
 21
40.758824109783099
 31
0.0
  0
LINE
  5
6E8
  8
0
 10
280.74999729090501
 20
40.758823548860647
 30
0.0
 11
280.74999729090501
 21
40.500004503758127
 31
0.0
  0
LINE
  5
6E9
  8
0
 10
280.74999729090501
 20
40.50000450375812
 30
0.0
 11
280.74999729090501
 21
40.2411854586556
 31
0.0
  0
LINE
  5
6EA
  8
0
 10
280.74999729090501
 20
40.241184897731863
 30
0.0
 11
280.74999729090501
 21
40.000004503758127
 31
0.0
  0
LINE
  5
6EB
  8
0
 10
280.74999729090501
 20
40.0000034597469
 30
0.0
 11
280.74999729090501
 21
39.792897722571588
 31
0.0
  0
LINE
  5
6EC
  8
0
 10
280.74999729090501
 20
39.792896834054169
 30
0.0
 11
280.74999729090501
 21
39.6339790999737
 31
0.0
  0
LINE
  5
6ED
  8
0
 10
280.74999729090501
 20
39.633978417440296
 30
0.0
 11
280.74999729090501
 21
39.534078677469068
 31
0.0
  0
LINE
  5
6EE
  8
0
 10
280.74999729090501
 20
39.534076096888541
 30
0.0
 11
280.74999729090501
 21
39.500004503758142
 31
0.0
  0
LINE
  5
6EF
  8
0
 10
280.74999729090479
 20
30.500004503758142
 30
0.0
 11
280.74999729090479
 21
30.44889332124837
 31
0.0
  0
LINE
  5
6F0
  8
0
 10
280.74999729090479
 20
30.448893243191751
 30
0.0
 11
280.74999729090479
 21
29.75000554776814
 31
0.0
  0
LINE
  5
6F1
  8
0
 10
280.74999729090479
 20
29.750004503758142
 30
0.0
 11
280.74999729090479
 21
29.388233071411928
 31
0.0
  0
LINE
  5
6F2
  8
0
 10
280.74999729090479
 20
29.388231991884851
 30
0.0
 11
280.74999729090479
 21
29.00000546841358
 31
0.0
  0
LINE
  5
6F3
  8
0
 10
280.74999729090479
 20
29.000004503758131
 30
0.0
 11
280.74999729090479
 21
28.611776083844109
 31
0.0
  0
LINE
  5
6F4
  8
0
 10
280.74999729090479
 20
28.611775936104351
 30
0.0
 11
280.74999729090479
 21
28.250005400270229
 31
0.0
  0
LINE
  5
6F5
  8
0
 10
280.74999729090479
 20
28.250004503758142
 30
0.0
 11
280.74999729090479
 21
27.939344331978312
 31
0.0
  0
LINE
  5
6F6
  8
0
 10
280.74999729090479
 20
27.939344110111541
 30
0.0
 11
280.74999729090479
 21
27.551115764324539
 31
0.0
  0
LINE
  5
6F7
  8
0
 10
280.74999729090479
 20
27.551113789843139
 30
0.0
 11
280.74999729090479
 21
27.500004503758142
 31
0.0
  0
LINE
  5
6F8
  8
0
 10
280.74999729090479
 20
7.62500450375813
 30
0.0
 11
280.74999729090479
 21
7.5909310142280564
 31
0.0
  0
LINE
  5
6F9
  8
0
 10
280.74999729090479
 20
7.5909303300472004
 30
0.0
 11
280.74999729090479
 21
7.4910302776755184
 31
0.0
  0
LINE
  5
6FA
  8
0
 10
280.74999729090479
 20
7.491029907542571
 30
0.0
 11
280.74999729090479
 21
7.3321112849446823
 31
0.0
  0
LINE
  5
6FB
  8
0
 10
280.74999729090479
 20
7.3321111142962181
 30
0.0
 11
280.74999729090479
 21
6.8838238598009669
 31
0.0
  0
LINE
  5
6FC
  8
0
 10
280.74999729090479
 20
6.8838235488606561
 30
0.0
 11
280.74999729090479
 21
6.6250045037581371
 31
0.0
  0
LINE
  5
6FD
  8
0
 10
280.74999729090479
 20
6.6250042625935386
 30
0.0
 11
280.74999729090479
 21
6.3661854586556057
 31
0.0
  0
LINE
  5
6FE
  8
0
 10
280.74999729090479
 20
6.3661853976970209
 30
0.0
 11
280.74999729090479
 21
6.1250047278860258
 31
0.0
  0
LINE
  5
6FF
  8
0
 10
280.74999729090479
 20
6.1250045037581273
 30
0.0
 11
280.74999729090479
 21
5.9178977866651188
 31
0.0
  0
LINE
  5
700
  8
0
 10
280.74999729090479
 20
5.9178977225715803
 30
0.0
 11
280.74999729090479
 21
5.7589790999736907
 31
0.0
  0
LINE
  5
701
  8
0
 10
280.74999729090479
 20
5.7589790422399139
 30
0.0
 11
280.74999729090479
 21
5.6590786774690622
 31
0.0
  0
LINE
  5
702
  8
0
 10
280.74999729090479
 20
5.6590784673935657
 30
0.0
 11
280.74999729090479
 21
5.62500450375813
 31
0.0
  0
LINE
  5
703
  8
0
 10
280.74999729090428
 20
18.50000450375796
 30
0.0
 11
280.49999729090518
 21
18.50000450375796
 31
0.0
  0
LINE
  5
704
  8
0
 10
280.74999729090479
 20
18.500004503758159
 30
0.0
 11
280.74999729090479
 21
18.29555977371907
 31
0.0
  0
LINE
  5
705
  8
0
 10
280.74999729090479
 20
18.295559461492569
 30
0.0
 11
280.74999729090479
 21
17.696156926464809
 31
0.0
  0
LINE
  5
706
  8
0
 10
280.74999729090479
 20
17.696156751453952
 30
0.0
 11
280.74999729090479
 21
16.742645190877461
 31
0.0
  0
LINE
  5
707
  8
0
 10
280.74999729090479
 20
16.742645019421651
 30
0.0
 11
280.74999729090479
 21
12.5000045037582
 31
0.0
  0
LINE
  5
708
  8
0
 10
280.74999729090479
 20
12.500004021429779
 30
0.0
 11
280.74999729090479
 21
10.947090233142999
 31
0.0
  0
LINE
  5
709
  8
0
 10
280.74999729090479
 20
10.947090117374961
 30
0.0
 11
280.74999729090479
 21
8.2573638166388648
 31
0.0
  0
LINE
  5
70A
  8
0
 10
280.74999729090479
 20
8.2573637623557641
 30
0.0
 11
280.74999729090479
 21
7.5882270052827456
 31
0.0
  0
LINE
  5
70B
  8
0
 10
359.01740820026993
 20
334.55117293808212
 30
0.0
 11
358.95631582355611
 21
334.55117293808212
 31
0.0
  0
LINE
  5
70C
  8
0
 10
358.95631582355611
 20
318.05117293808348
 30
0.0
 11
359.01740820026993
 21
318.05117293808348
 31
0.0
  0
LINE
  5
70D
  8
0
 10
358.95631582355662
 20
318.05117293808303
 30
0.0
 11
358.95631582355662
 21
318.99615608333528
 31
0.0
  0
LINE
  5
70E
  8
0
 10
358.95631582355662
 20
318.9961607264442
 30
0.0
 11
358.95631582355662
 21
321.61463357779638
 31
0.0
  0
LINE
  5
70F
  8
0
 10
358.95631582355662
 20
321.61463877755102
 30
0.0
 11
358.95631582355662
 21
325.30674532597658
 31
0.0
  0
LINE
  5
710
  8
0
 10
358.95631582355662
 20
325.30674982151203
 30
0.0
 11
358.95631582355662
 21
327.29559569249341
 31
0.0
  0
LINE
  5
711
  8
0
 10
358.95631582355662
 20
327.29560055018942
 30
0.0
 11
358.95631582355662
 21
330.98770709861509
 31
0.0
  0
LINE
  5
712
  8
0
 10
358.95631582355662
 20
330.98771189725329
 30
0.0
 11
358.95631582355662
 21
333.60618514972202
 31
0.0
  0
LINE
  5
713
  8
0
 10
358.95631582355662
 20
333.60618931472061
 30
0.0
 11
358.95631582355662
 21
334.55117293808303
 31
0.0
  0
LINE
  5
714
  8
0
 10
359.07740957355651
 20
335.30117293808348
 30
0.0
 11
359.01740957355622
 21
335.30117293808348
 31
0.0
  0
LINE
  5
715
  8
0
 10
359.01740957355622
 20
317.30117293808348
 30
0.0
 11
359.07740957355651
 21
317.30117293808348
 31
0.0
  0
LINE
  5
716
  8
0
 10
359.01740957355662
 20
317.30117293808348
 30
0.0
 11
359.01740957355662
 21
318.1924491017769
 31
0.0
  0
LINE
  5
717
  8
0
 10
359.01740957355662
 20
318.19245312696182
 30
0.0
 11
359.01740957355662
 21
319.26468959587129
 31
0.0
  0
LINE
  5
718
  8
0
 10
359.01740957355662
 20
319.26469243249062
 30
0.0
 11
359.01740957355662
 21
320.68976472135489
 31
0.0
  0
LINE
  5
719
  8
0
 10
359.01740957355662
 20
320.68976806707133
 30
0.0
 11
359.01740957355662
 21
324.2984794062059
 31
0.0
  0
LINE
  5
71A
  8
0
 10
359.01740957355662
 20
324.29848453247672
 30
0.0
 11
359.01740957355662
 21
326.30117275458059
 31
0.0
  0
LINE
  5
71B
  8
0
 10
359.01740957355662
 20
326.30117293808348
 30
0.0
 11
359.01740957355662
 21
328.30386134369041
 31
0.0
  0
LINE
  5
71C
  8
0
 10
359.01740957355662
 20
328.30386609326791
 30
0.0
 11
359.01740957355662
 21
331.9125774723463
 31
0.0
  0
LINE
  5
71D
  8
0
 10
359.01740957355662
 20
331.91258115481207
 30
0.0
 11
359.01740957355662
 21
333.33765312210443
 31
0.0
  0
LINE
  5
71E
  8
0
 10
359.01740957355662
 20
333.33765628029579
 30
0.0
 11
359.01740957355662
 21
334.40989274920531
 31
0.0
  0
LINE
  5
71F
  8
0
 10
359.01740957355662
 20
334.40989629529128
 30
0.0
 11
359.01740957355662
 21
335.07552414771988
 31
0.0
  0
LINE
  5
720
  8
0
 10
359.01740957355662
 20
335.075535002685
 30
0.0
 11
359.01740957355662
 21
335.30117293808348
 31
0.0
  0
LINE
  5
721
  8
0
 10
499.88740903950332
 20
458.80117293808303
 30
0.0
 11
499.94850332355679
 21
458.80117293808303
 31
0.0
  0
LINE
  5
722
  8
0
 10
499.94850332355679
 20
475.30117293808291
 30
0.0
 11
499.88740903950332
 21
475.30117293808291
 31
0.0
  0
LINE
  5
723
  8
0
 10
499.94850332355702
 20
475.30117293808331
 30
0.0
 11
499.94850332355702
 21
474.35618680897932
 31
0.0
  0
LINE
  5
724
  8
0
 10
499.94850332355702
 20
474.35618514972231
 30
0.0
 11
499.94850332355702
 21
471.07821820742089
 31
0.0
  0
LINE
  5
725
  8
0
 10
499.94850332355702
 20
463.02412636684591
 30
0.0
 11
499.94850332355702
 21
462.36463877755131
 31
0.0
  0
LINE
  5
726
  8
0
 10
499.94850332355702
 20
462.36463778225777
 30
0.0
 11
499.94850332355702
 21
460.87595926567172
 31
0.0
  0
LINE
  5
727
  8
0
 10
499.94850332355702
 20
460.8759588873092
 30
0.0
 11
499.94850332355702
 21
459.74616095639709
 31
0.0
  0
LINE
  5
728
  8
0
 10
499.94850332355702
 20
459.74616072644437
 30
0.0
 11
499.94850332355702
 21
458.80117293808331
 31
0.0
  0
LINE
  5
729
  8
0
 10
499.82740957355668
 20
458.05117293808291
 30
0.0
 11
499.88740957355702
 21
458.05117293808291
 31
0.0
  0
LINE
  5
72A
  8
0
 10
499.88740957355702
 20
476.05117293808291
 30
0.0
 11
499.82740957355668
 21
476.05117293808291
 31
0.0
  0
LINE
  5
72B
  8
0
 10
499.88740957355702
 20
476.0511729380828
 30
0.0
 11
499.88740957355702
 21
475.82552550612212
 31
0.0
  0
LINE
  5
72C
  8
0
 10
499.88740957355702
 20
475.82552414771931
 30
0.0
 11
499.88740957355702
 21
475.15989378436871
 31
0.0
  0
LINE
  5
72D
  8
0
 10
499.88740957355702
 20
475.15989274920469
 30
0.0
 11
499.88740957355702
 21
474.08765656269401
 31
0.0
  0
LINE
  5
72E
  8
0
 10
499.88740957355702
 20
474.08765628029511
 30
0.0
 11
499.88740957355702
 21
472.66258115481151
 31
0.0
  0
LINE
  5
72F
  8
0
 10
499.88740957355702
 20
472.6625810020891
 30
0.0
 11
499.88740957355702
 21
471.05716667382018
 31
0.0
  0
LINE
  5
730
  8
0
 10
499.88740957355702
 20
463.0451778059483
 30
0.0
 11
499.88740957355702
 21
461.43976497854823
 31
0.0
  0
LINE
  5
731
  8
0
 10
499.88740957355702
 20
461.43976472135421
 30
0.0
 11
499.88740957355702
 21
460.01468959587049
 31
0.0
  0
LINE
  5
732
  8
0
 10
499.88740957355702
 20
460.01468944606222
 30
0.0
 11
499.88740957355702
 21
458.94245312696103
 31
0.0
  0
LINE
  5
733
  8
0
 10
499.88740957355702
 20
458.94245224043033
 30
0.0
 11
499.88740957355702
 21
458.27682172844641
 31
0.0
  0
LINE
  5
734
  8
0
 10
499.88740957355702
 20
458.27682059490422
 30
0.0
 11
499.88740957355702
 21
458.05117293808291
 31
0.0
  0
LINE
  5
735
  8
0
 10
359.07740957355691
 20
396.17617293808462
 30
0.0
 11
359.07740957355691
 21
256.4261729380903
 31
0.0
  0
LINE
  5
736
  8
0
 10
359.07740957355691
 20
256.4261729380903
 30
0.0
 11
499.82740957355389
 21
256.42617293809002
 31
0.0
  0
LINE
  5
737
  8
0
 10
499.82740957355389
 20
256.42617293809002
 30
0.0
 11
499.82740957355418
 21
396.17617293808428
 31
0.0
  0
LINE
  5
738
  8
0
 10
499.82740957355418
 20
396.17617293808428
 30
0.0
 11
359.07740957355691
 21
396.17617293808462
 31
0.0
  0
LINE
  5
739
  8
0
 10
498.20240957355708
 20
394.55117293808462
 30
0.0
 11
498.20240957355679
 21
258.05117293808468
 31
0.0
1001
ACAD
1000
ASC_BOUNDS
1002
{
1070
    19
1005
7C9
1002
}
  0
LINE
  5
73A
  8
0
 10
498.20240957355679
 20
258.05117293808468
 30
0.0
 11
360.70240957355702
 21
258.0511729380849
 31
0.0
1001
ACAD
1000
ASC_BOUNDS
1002
{
1070
    19
1005
7C9
1002
}
  0
LINE
  5
73B
  8
0
 10
360.70240957355702
 20
258.0511729380849
 30
0.0
 11
360.70240957355719
 21
394.5511729380849
 31
0.0
1001
ACAD
1000
ASC_BOUNDS
1002
{
1070
    19
1005
7C9
1002
}
  0
LINE
  5
73C
  8
0
 10
360.70240957355719
 20
394.5511729380849
 30
0.0
 11
498.20240957355708
 21
394.55117293808462
 31
0.0
1001
ACAD
1000
ASC_BOUNDS
1002
{
1070
    19
1005
7C9
1002
}
  0
LINE
  5
73D
  8
0
 10
499.82740957355389
 20
256.42617293808468
 30
0.0
 11
501.07740957355719
 21
256.42617293808468
 31
0.0
  0
LINE
  5
73E
  8
0
 10
501.07740957355719
 20
256.42617293808468
 30
0.0
 11
501.07740957355719
 21
396.17617293808462
 31
0.0
  0
LINE
  5
73F
  8
0
 10
501.07740957355719
 20
396.17617293808462
 30
0.0
 11
499.82740957355389
 21
396.17617293808462
 31
0.0
  0
LINE
  5
740
  8
0
 10
359.07740957355747
 20
536.92617293808451
 30
0.0
 11
359.07740957355742
 21
397.1761729380903
 31
0.0
  0
LINE
  5
741
  8
0
 10
359.07740957355742
 20
397.1761729380903
 30
0.0
 11
499.82740957355452
 21
397.17617293808991
 31
0.0
  0
LINE
  5
742
  8
0
 10
499.82740957355452
 20
397.17617293808991
 30
0.0
 11
499.82740957355469
 21
536.92617293808416
 31
0.0
  0
LINE
  5
743
  8
0
 10
499.82740957355469
 20
536.92617293808416
 30
0.0
 11
359.07740957355747
 21
536.92617293808451
 31
0.0
  0
LINE
  5
744
  8
0
 10
498.20240957355759
 20
535.30117293808451
 30
0.0
 11
498.20240957355742
 21
398.80117293808468
 31
0.0
1001
ACAD
1000
ASC_BOUNDS
1002
{
1070
    19
1005
7C9
1002
}
  0
LINE
  5
745
  8
0
 10
498.20240957355742
 20
398.80117293808462
 30
0.0
 11
360.70240957355747
 21
398.8011729380849
 31
0.0
1001
ACAD
1000
ASC_BOUNDS
1002
{
1070
    19
1005
7C9
1002
}
  0
LINE
  5
746
  8
0
 10
360.70240957355747
 20
398.8011729380849
 30
0.0
 11
360.7024095735577
 21
535.30117293808485
 31
0.0
1001
ACAD
1000
ASC_BOUNDS
1002
{
1070
    19
1005
7C9
1002
}
  0
LINE
  5
747
  8
0
 10
360.7024095735577
 20
535.30117293808485
 30
0.0
 11
498.20240957355759
 21
535.30117293808451
 31
0.0
1001
ACAD
1000
ASC_BOUNDS
1002
{
1070
    19
1005
7C9
1002
}
  0
LINE
  5
748
  8
0
 10
499.82740957355458
 20
397.17617293808462
 30
0.0
 11
501.07740957355742
 21
397.17617293808462
 31
0.0
  0
LINE
  5
749
  8
0
 10
501.07740957355742
 20
397.17617293808462
 30
0.0
 11
501.07740957355747
 21
536.92617293808451
 31
0.0
  0
LINE
  5
74A
  8
0
 10
501.07740957355747
 20
536.92617293808451
 30
0.0
 11
499.82740957355509
 21
536.92617293808451
 31
0.0
  0
LINE
  5
74B
  8
0
 10
500.07740957355679
 20
471.05117293808058
 30
0.0
 11
499.82740957355668
 21
471.05117293808058
 31
0.0
  0
LINE
  5
74C
  8
0
 10
499.82740957355668
 20
463.05117293808121
 30
0.0
 11
500.07740957355679
 21
463.05117293808121
 31
0.0
  0
LINE
  5
74D
  8
0
 10
500.07740957355668
 20
330.30117293808388
 30
0.0
 11
499.82740957355662
 21
330.30117293808388
 31
0.0
  0
LINE
  5
74E
  8
0
 10
499.82740957355662
 20
322.30117293808303
 30
0.0
 11
500.07740957355668
 21
322.30117293808303
 31
0.0
  0
LINE
  5
74F
  8
0
 10
500.07740957355708
 20
467.05117293808121
 30
0.0
 11
500.07740957355708
 21
466.01589675767121
 31
0.0
  0
LINE
  5
750
  8
0
 10
500.07740957355708
 20
466.01589532311829
 30
0.0
 11
500.07740957355708
 21
465.05117293808132
 31
0.0
  0
LINE
  5
751
  8
0
 10
500.07740957355708
 20
465.0511727388805
 30
0.0
 11
500.07740957355708
 21
463.58707132294359
 31
0.0
  0
LINE
  5
752
  8
0
 10
500.07740957355708
 20
463.58706960398177
 30
0.0
 11
500.07740957355708
 21
463.05117293808121
 31
0.0
  0
LINE
  5
753
  8
0
 10
500.07740957355708
 20
471.05117293808121
 30
0.0
 11
500.07740957355708
 21
470.91487672168802
 31
0.0
  0
LINE
  5
754
  8
0
 10
500.07740957355708
 20
470.91487624323747
 30
0.0
 11
500.07740957355708
 21
469.8796011831119
 31
0.0
  0
LINE
  5
755
  8
0
 10
500.07740957355708
 20
469.87960006282748
 30
0.0
 11
500.07740957355708
 21
468.08644917153401
 31
0.0
  0
LINE
  5
756
  8
0
 10
500.07740957355708
 20
468.08644911849137
 30
0.0
 11
500.07740957355708
 21
467.05117371867749
 31
0.0
  0
LINE
  5
757
  8
0
 10
500.07740957355708
 20
326.3011727540204
 30
0.0
 11
500.07740957355708
 21
325.26589675767411
 31
0.0
  0
LINE
  5
758
  8
0
 10
500.07740957355708
 20
325.26589432318832
 30
0.0
 11
500.07740957355708
 21
324.30117293808422
 31
0.0
  0
LINE
  5
759
  8
0
 10
500.07740957355708
 20
324.30116856283769
 30
0.0
 11
500.07740957355708
 21
323.47274581333801
 31
0.0
  0
LINE
  5
75A
  8
0
 10
500.07740957355708
 20
323.4727420473003
 30
0.0
 11
500.07740957355708
 21
322.83707132294637
 31
0.0
  0
LINE
  5
75B
  8
0
 10
500.07740957355708
 20
322.8370683543821
 30
0.0
 11
500.07740957355708
 21
322.4374696329279
 31
0.0
  0
LINE
  5
75C
  8
0
 10
500.07740957355708
 20
322.43745894877031
 30
0.0
 11
500.07740957355708
 21
322.30117293808422
 31
0.0
  0
LINE
  5
75D
  8
0
 10
500.07740957355708
 20
330.30117293808422
 30
0.0
 11
500.07740957355708
 21
330.16488620371672
 31
0.0
  0
LINE
  5
75E
  8
0
 10
500.07740957355708
 20
330.16487624324049
 30
0.0
 11
500.07740957355708
 21
329.76527704492042
 31
0.0
  0
LINE
  5
75F
  8
0
 10
500.07740957355708
 20
329.7652745532219
 30
0.0
 11
500.07740957355708
 21
329.12960340493009
 31
0.0
  0
LINE
  5
760
  8
0
 10
500.07740957355708
 20
329.12960006283038
 30
0.0
 11
500.07740957355708
 21
328.301176914922
 31
0.0
  0
LINE
  5
761
  8
0
 10
500.07740957355708
 20
328.30117293808422
 30
0.0
 11
500.07740957355708
 21
327.33645117139321
 31
0.0
  0
LINE
  5
762
  8
0
 10
500.07740957355708
 20
327.33644911849427
 30
0.0
 11
500.07740957355708
 21
326.30117293808422
 31
0.0
  0
LINE
  5
763
  8
0
 10
425.32740957355611
 20
256.17617293808348
 30
0.0
 11
425.32740957355611
 21
256.42617293808388
 31
0.0
  0
LINE
  5
764
  8
0
 10
423.32740957355588
 20
256.42617293808388
 30
0.0
 11
423.32740957355588
 21
256.17617293808348
 31
0.0
  0
LINE
  5
765
  8
0
 10
365.327409573556
 20
256.17617293808348
 30
0.0
 11
365.327409573556
 21
256.42617293808388
 31
0.0
  0
LINE
  5
766
  8
0
 10
362.32740957355588
 20
256.42617293808388
 30
0.0
 11
362.32740957355588
 21
256.17617293808348
 31
0.0
  0
LINE
  5
767
  8
0
 10
361.45240957355611
 20
256.42617293808388
 30
0.0
 11
361.45240957355611
 21
256.17617293808348
 31
0.0
  0
LINE
  5
768
  8
0
 10
425.32740957355628
 20
256.17617293808428
 30
0.0
 11
425.29333539984538
 21
256.17617293808428
 31
0.0
  0
LINE
  5
769
  8
0
 10
425.2933353097909
 20
256.17617293808428
 30
0.0
 11
425.19343565987998
 21
256.17617293808428
 31
0.0
  0
LINE
  5
76A
  8
0
 10
425.1934349773407
 20
256.17617293808428
 30
0.0
 11
425.03451635474289
 21
256.17617293808428
 31
0.0
  0
LINE
  5
76B
  8
0
 10
425.0345157578837
 20
256.17617293808428
 30
0.0
 11
424.82740957355628
 21
256.17617293808428
 31
0.0
  0
LINE
  5
76C
  8
0
 10
424.82740912530471
 20
256.17617293808428
 30
0.0
 11
424.58622917958729
 21
256.17617293808428
 31
0.0
  0
LINE
  5
76D
  8
0
 10
424.58622861865882
 20
256.17617293808428
 30
0.0
 11
424.0685905284538
 21
256.17617293808428
 31
0.0
  0
LINE
  5
76E
  8
0
 10
424.06858996753601
 20
256.17617293808428
 30
0.0
 11
423.82740957355628
 21
256.17617293808428
 31
0.0
  0
LINE
  5
76F
  8
0
 10
423.82740852955141
 20
256.17617293808428
 30
0.0
 11
423.62030279236973
 21
256.17617293808428
 31
0.0
  0
LINE
  5
770
  8
0
 10
423.6203019038586
 20
256.17617293808428
 30
0.0
 11
423.46138416977192
 21
256.17617293808428
 31
0.0
  0
LINE
  5
771
  8
0
 10
423.4613834872448
 20
256.17617293808428
 30
0.0
 11
423.36148374726719
 21
256.17617293808428
 31
0.0
  0
LINE
  5
772
  8
0
 10
423.36148116669722
 20
256.17617293808428
 30
0.0
 11
423.32740957355628
 21
256.17617293808428
 31
0.0
  0
LINE
  5
773
  8
0
 10
365.32740957355639
 20
256.17617293808439
 30
0.0
 11
365.12644767923302
 21
256.17617293808439
 31
0.0
  0
LINE
  5
774
  8
0
 10
365.12644753729319
 20
256.17617293808439
 30
0.0
 11
364.57741166158257
 21
256.17617293808439
 31
0.0
  0
LINE
  5
775
  8
0
 10
364.57740957355628
 20
256.17617293808439
 30
0.0
 11
364.21564098245852
 21
256.17617293808439
 31
0.0
  0
LINE
  5
776
  8
0
 10
364.21563814121009
 20
256.17617293808439
 30
0.0
 11
363.82741150287302
 21
256.17617293808439
 31
0.0
  0
LINE
  5
777
  8
0
 10
363.82740957355628
 20
256.17617293808439
 30
0.0
 11
363.43918208543403
 21
256.17617293808439
 31
0.0
  0
LINE
  5
778
  8
0
 10
363.43918100590253
 20
256.17617293808439
 30
0.0
 11
362.52837146787971
 21
256.17617293808439
 31
0.0
  0
LINE
  5
779
  8
0
 10
362.52836919449049
 20
256.17617293808439
 30
0.0
 11
362.3785208341227
 21
256.17617293808439
 31
0.0
  0
LINE
  5
77A
  8
0
 10
362.37852075607589
 20
256.17617293808439
 30
0.0
 11
362.32740957355628
 21
256.17617293808439
 31
0.0
  0
LINE
  5
77B
  8
0
 10
362.32630871938233
 20
256.17617293808439
 30
0.0
 11
362.19359052845363
 21
256.17617293808439
 31
0.0
  0
LINE
  5
77C
  8
0
 10
362.1935899675359
 20
256.17617293808439
 30
0.0
 11
361.95241136658677
 21
256.17617293808439
 31
0.0
  0
LINE
  5
77D
  8
0
 10
361.95240957355622
 20
256.17617293808439
 30
0.0
 11
361.74530279236961
 21
256.17617293808439
 31
0.0
  0
LINE
  5
77E
  8
0
 10
361.745301903859
 20
256.17617293808439
 30
0.0
 11
361.58638416977169
 21
256.17617293808439
 31
0.0
  0
LINE
  5
77F
  8
0
 10
361.58638348724531
 20
256.17617293808439
 30
0.0
 11
361.48648374726707
 21
256.17617293808439
 31
0.0
  0
LINE
  5
780
  8
0
 10
361.48648116669801
 20
256.17617293808439
 30
0.0
 11
361.45240957355611
 21
256.17617293808439
 31
0.0
  0
LINE
  5
781
  8
0
 10
392.20240957355628
 20
256.17617293808348
 30
0.0
 11
392.20240957355628
 21
256.42617293808388
 31
0.0
  0
LINE
  5
782
  8
0
 10
380.20240957355611
 20
256.42617293808388
 30
0.0
 11
380.20240957355611
 21
256.17617293808348
 31
0.0
  0
LINE
  5
783
  8
0
 10
392.20240957355651
 20
256.17617293808439
 30
0.0
 11
391.997964843528
 21
256.17617293808439
 31
0.0
  0
LINE
  5
784
  8
0
 10
391.9979645312909
 20
256.17617293808439
 30
0.0
 11
391.39856359226923
 21
256.17617293808439
 31
0.0
  0
LINE
  5
785
  8
0
 10
391.39856199626308
 20
256.17617293808439
 30
0.0
 11
390.44505336996599
 21
256.17617293808439
 31
0.0
  0
LINE
  5
786
  8
0
 10
390.44505026067583
 20
256.17617293808439
 30
0.0
 11
387.7553252098561
 21
256.17617293808439
 31
0.0
  0
LINE
  5
787
  8
0
 10
387.75532384417158
 20
256.17617293808439
 30
0.0
 11
386.20240957355651
 21
256.17617293808439
 31
0.0
  0
LINE
  5
788
  8
0
 10
386.20240764424938
 20
256.17617293808439
 30
0.0
 11
384.64949589390773
 21
256.17617293808439
 31
0.0
  0
LINE
  5
789
  8
0
 10
384.64949530294138
 20
256.17617293808439
 30
0.0
 11
383.20240957355651
 21
256.17617293808439
 31
0.0
  0
LINE
  5
78A
  8
0
 10
383.20240748554028
 20
256.17617293808439
 30
0.0
 11
381.9597688864373
 21
256.17617293808439
 31
0.0
  0
LINE
  5
78B
  8
0
 10
381.95976799897778
 20
256.17617293808439
 30
0.0
 11
380.20240957355651
 21
256.17617293808439
 31
0.0
  0
INSERT
  5
7BB
  8
0
  6
CONTINUOUS
  2
*X3
 10
0.0
 20
0.0
 30
0.0
1001
GRADIENTCOLOR1ACI
1070
     5
1001
GRADIENTCOLOR2ACI
1070
     2
1001
ACAD
1000
HATCH
1002
{
1070
    19
1000
NET
1040
12.0
1040
0.0
1000
ASC_BOUNDS
1070
     8
1070
     1
1070
     4
1005
5BC
1005
5BD
1005
5B0
1005
5BB
1070
     1
1070
     4
1005
5B6
1005
5BD
1005
5B4
1005
5BB
1070
     1
1070
     4
1005
5AE
1005
5BD
1005
5AC
1005
5BB
1070
     1
1070
     4
1005
5A9
1005
5BD
1005
5BA
1005
5BB
1070
     1
1070
     4
1005
583
1005
584
1005
577
1005
582
1070
     1
1070
     4
1005
57D
1005
584
1005
57B
1005
582
1070
     1
1070
     4
1005
575
1005
584
1005
573
1005
582
1070
     1
1070
     4
1005
570
1005
584
1005
581
1005
582
1000
ASC_SEEDPOINT
1011
588.42577625298907
1021
0.0
1031
0.0
1021
72.048175335068208
1031
0.0
1000
R14_HATCH_DATA
1000
7BB
1011
1.0
1021
0.0
1031
0.0
1021
0.0
1031
0.0
1011
0.0
1021
0.0
1031
0.0
1021
1.0
1031
0.0
1011
0.0
1021
0.0
1031
0.0
1021
0.0
1031
1.0
1040
0.0
1010
0.0
1020
0.0
1030
1.0
1000
NET
1070
     0
1070
     1
1071
        8
1071
        7
1070
     0
1070
     1
1071
        4
1040
592.33761017454265
1040
98.375004503757282
1040
579.08761017454265
1040
98.375004503757125
1040
579.08761017454367
1040
4.000004503756613
1040
592.33761017454265
1040
4.0000045037567409
1071
        4
1005
582
1005
581
1005
584
1005
570
1071
        7
1070
     0
1070
     1
1071
        4
1040
634.33483214571675
1040
98.375004503757722
1040
618.33761017454356
1040
98.375004503757566
1040
618.33761017454356
1040
4.0000045037570251
1040
634.33483214571675
1040
4.0000045037571823
1071
        4
1005
582
1005
573
1005
584
1005
575
1071
        7
1070
     0
1070
     1
1071
        4
1040
676.3466098292148
1040
98.375004503758163
1040
660.33009577529003
1040
98.375004503757992
1040
660.33009577529003
1040
4.0000045037574523
1040
676.3466098292148
1040
4.0000045037576077
1071
        4
1005
582
1005
57B
1005
584
1005
57D
1071
        7
1070
     0
1070
     1
1071
        4
1040
715.58761017454265
1040
98.375004503758575
1040
702.32962549131264
1040
98.375004503758433
1040
702.32962549131264
1040
4.000004503757892
1040
715.58761017454367
1040
4.0000045037580056
1071
        4
1005
582
1005
577
1005
584
1005
583
1071
        7
1070
     0
1070
     1
1071
        4
1040
733.08761017454253
1040
98.375004503757282
1040
719.83761017454265
1040
98.375004503757125
1040
719.83761017454378
1040
4.000004503756613
1040
733.08761017454253
1040
4.0000045037567551
1071
        4
1005
5BB
1005
5BA
1005
5BD
1005
5A9
1071
        7
1070
     0
1070
     1
1071
        4
1040
775.08483214571675
1040
98.375004503757722
1040
759.08761017454344
1040
98.375004503757566
1040
759.08761017454344
1040
4.0000045037570251
1040
775.08483214571675
1040
4.0000045037571956
1071
        4
1005
5BB
1005
5AC
1005
5BD
1005
5AE
1071
        7
1070
     0
1070
     1
1071
        4
1040
817.09660982921469
1040
98.375004503758163
1040
801.08009577528981
1040
98.375004503757992
1040
801.08009577528981
1040
4.0000045037574656
1040
817.09660982921469
1040
4.000004503757622
1071
        4
1005
5BB
1005
5B4
1005
5BD
1005
5B6
1071
        7
1070
     0
1070
     1
1071
        4
1040
856.33761017454265
1040
98.375004503758575
1040
843.07962549131264
1040
98.375004503758433
1040
843.07962549131264
1040
4.000004503757892
1040
856.33761017454356
1040
4.0000045037580199
1071
        4
1005
5BB
1005
5B0
1005
5BD
1005
5BC
1070
     1
1070
     1
1040
0.0
1040
12.0
1070
     0
1070
     2
1040
0.0
1040
0.0
1040
0.0
1040
0.0
1040
1.5
1070
     0
1040
1.5707963267948959
1040
0.0
1040
0.0
1040
-1.5
1040
0.0000000000000001
1070
     0
1040
0.2269754501531136
1071
        8
1040
588.42577625298907
1040
72.048175335068208
1040
0.0
1040
624.53229148556829
1040
79.311390506864427
1040
0.0
1040
669.94929019486108
1040
76.587684666800442
1040
0.0
1040
710.37041857678923
1040
76.587684666800442
1040
0.0
1040
724.4496873659873
1040
77.268611729377881
1040
0.0
1040
765.5520729259315
1040
77.041635238436811
1040
0.0
1040
812.5586667393859
1040
76.360709380982371
1040
0.0
1040
854.11522019571476
1040
74.317930603495824
1040
0.0
1002
}
  0
INSERT
  5
7C9
  8
0
  6
CONTINUOUS
  2
*X4
 10
0.0
 20
0.0
 30
0.0
1001
GRADIENTCOLOR1ACI
1070
     5
1001
GRADIENTCOLOR2ACI
1070
     2
1001
ACAD
1000
HATCH
1002
{
1070
    19
1000
ANSI31
1040
12.0
1040
2.3561944901923439
1000
ASC_BOUNDS
1070
     2
1070
     1
1070
     4
1005
739
1005
73A
1005
73B
1005
73C
1070
     1
1070
     4
1005
744
1005
745
1005
746
1005
747
1000
ASC_SEEDPOINT
1011
428.07377968930768
1021
0.0
1031
0.0
1021
485.98196273377653
1031
0.0
1000
R14_HATCH_DATA
1000
7C9
1011
1.0
1021
0.0
1031
0.0
1021
0.0
1031
0.0
1011
0.0
1021
0.0
1031
0.0
1021
1.0
1031
0.0
1011
0.0
1021
0.0
1031
0.0
1021
0.0
1031
1.0
1040
0.0
1010
0.0
1020
0.0
1030
1.0
1000
ANSI31
1070
     0
1070
     1
1071
        2
1071
        7
1070
     0
1070
     1
1071
        4
1040
360.7024095735577
1040
535.30117293808485
1040
360.70240957355747
1040
398.8011729380849
1040
498.20240957355742
1040
398.80117293808462
1040
498.20240957355759
1040
535.30117293808451
1071
        4
1005
747
1005
746
1005
745
1005
744
1071
        7
1070
     0
1070
     1
1071
        4
1040
498.20240957355708
1040
394.55117293808462
1040
360.70240957355719
1040
394.55117293808502
1040
360.70240957355702
1040
258.0511729380849
1040
498.20240957355679
1040
258.05117293808468
1071
        4
1005
73C
1005
73B
1005
73A
1005
739
1070
     1
1070
     1
1040
2.3561944901923439
1040
12.0
1070
     0
1070
     1
1040
3.1415926535897931
1040
0.0
1040
22.75
1040
-0.0000000000000002
1040
-1.5
1070
     0
1040
0.5806018658278668
1071
        2
1040
428.07377968930768
1040
485.98196273377653
1040
0.0
1040
445.50024200239199
1040
319.92982896004042
1040
0.0
1002
}
  0
ENDSEC
  0
EOF
