  0
SECTION
  2
HEADER
  9
$ACADVER
  1
AC1009
  9
$INSBASE
 10
0.0
 20
0.0
 30
0.0
  9
$EXTMIN
 10
-0.0261836525928629
 20
-0.0156902143862681
 30
-0.0015258207003583
  9
$EXTMAX
 10
857.98879511324139
 20
553.6949941136404
 30
0.0000000349246037
  9
$LIMMIN
 10
0.0
 20
0.0
  9
$LIMMAX
 10
12.0
 20
9.0
  9
$ORTHOMODE
 70
     1
  9
$REGENMODE
 70
     1
  9
$FILLMODE
 70
     1
  9
$QTEXTMODE
 70
     0
  9
$MIRRTEXT
 70
     0
  9
$DRAGMODE
 70
     2
  9
$LTSCALE
 40
1.0
  9
$OSMODE
 70
    37
  9
$ATTMODE
 70
     1
  9
$TEXTSIZE
 40
0.2
  9
$TRACEWID
 40
0.05
  9
$TEXTSTYLE
  7
ROMANS
  9
$CLAYER
  8
0
  9
$CELTYPE
  6
BYLAYER
  9
$CECOLOR
 62
   256
  9
$DIMSCALE
 40
1.0
  9
$DIMASZ
 40
0.09375
  9
$DIMEXO
 40
0.0625
  9
$DIMDLI
 40
0.375
  9
$DIMRND
 40
0.0
  9
$DIMDLE
 40
0.0
  9
$DIMEXE
 40
0.03125
  9
$DIMTP
 40
0.0
  9
$DIMTM
 40
0.0
  9
$DIMTXT
 40
0.09375
  9
$DIMCEN
 40
0.09375
  9
$DIMTSZ
 40
0.0
  9
$DIMTOL
 70
     0
  9
$DIMLIM
 70
     0
  9
$DIMTIH
 70
     0
  9
$DIMTOH
 70
     0
  9
$DIMSE1
 70
     0
  9
$DIMSE2
 70
     0
  9
$DIMTAD
 70
     0
  9
$DIMZIN
 70
     0
  9
$DIMBLK
  1

  9
$DIMASO
 70
     1
  9
$DIMSHO
 70
     1
  9
$DIMPOST
  1

  9
$DIMAPOST
  1

  9
$DIMALT
 70
     0
  9
$DIMALTD
 70
     2
  9
$DIMALTF
 40
25.399999999999999
  9
$DIMLFAC
 40
1.0
  9
$DIMTOFL
 70
     0
  9
$DIMTVP
 40
0.0
  9
$DIMTIX
 70
     0
  9
$DIMSOXD
 70
     0
  9
$DIMSAH
 70
     0
  9
$DIMBLK1
  1

  9
$DIMBLK2
  1

  9
$DIMSTYLE
  2
BAC
  9
$DIMCLRD
 70
     0
  9
$DIMCLRE
 70
     6
  9
$DIMCLRT
 70
     0
  9
$DIMTFAC
 40
1.0
  9
$DIMGAP
 40
0.0625
  9
$LUNITS
 70
     5
  9
$LUPREC
 70
     6
  9
$SKETCHINC
 40
0.1
  9
$FILLETRAD
 40
0.5
  9
$AUNITS
 70
     0
  9
$AUPREC
 70
     0
  9
$MENU
  1
.
  9
$ELEVATION
 40
0.0
  9
$PELEVATION
 40
0.0
  9
$THICKNESS
 40
0.0
  9
$LIMCHECK
 70
     0
  9
$BLIPMODE
 70
     0
  9
$CHAMFERA
 40
0.5
  9
$CHAMFERB
 40
0.5
  9
$SKPOLY
 70
     0
  9
$TDCREATE
 40
2456834.6439948501
  9
$TDUPDATE
 40
2456834.6454021642
  9
$TDINDWG
 40
0.0014091898
  9
$TDUSRTIMER
 40
0.0014085648
  9
$USRTIMER
 70
     1
  9
$ANGBASE
 50
0.0
  9
$ANGDIR
 70
     0
  9
$PDMODE
 70
     0
  9
$PDSIZE
 40
0.0
  9
$PLINEWID
 40
0.0
  9
$COORDS
 70
     1
  9
$SPLFRAME
 70
     0
  9
$SPLINETYPE
 70
     6
  9
$SPLINESEGS
 70
     8
  9
$ATTDIA
 70
     0
  9
$ATTREQ
 70
     1
  9
$HANDLING
 70
     1
  9
$HANDSEED
  5
11AB
  9
$SURFTAB1
 70
     6
  9
$SURFTAB2
 70
     6
  9
$SURFTYPE
 70
     6
  9
$SURFU
 70
     6
  9
$SURFV
 70
     6
  9
$UCSNAME
  2

  9
$UCSORG
 10
0.0
 20
0.0
 30
0.0
  9
$UCSXDIR
 10
1.0
 20
0.0
 30
0.0
  9
$UCSYDIR
 10
0.0
 20
1.0
 30
0.0
  9
$PUCSNAME
  2

  9
$PUCSORG
 10
0.0
 20
0.0
 30
0.0
  9
$PUCSXDIR
 10
1.0
 20
0.0
 30
0.0
  9
$PUCSYDIR
 10
0.0
 20
1.0
 30
0.0
  9
$USERI1
 70
     0
  9
$USERI2
 70
     0
  9
$USERI3
 70
     0
  9
$USERI4
 70
     0
  9
$USERI5
 70
     0
  9
$USERR1
 40
0.0
  9
$USERR2
 40
0.0
  9
$USERR3
 40
0.0
  9
$USERR4
 40
0.0
  9
$USERR5
 40
0.0
  9
$WORLDVIEW
 70
     1
  9
$SHADEDGE
 70
     3
  9
$SHADEDIF
 70
    70
  9
$TILEMODE
 70
     1
  9
$MAXACTVP
 70
    48
  9
$PLIMCHECK
 70
     0
  9
$PEXTMIN
 10
1.0000000000000000E+020
 20
1.0000000000000000E+020
 30
1.0000000000000000E+020
  9
$PEXTMAX
 10
-1.0000000000000000E+020
 20
-1.0000000000000000E+020
 30
-1.0000000000000000E+020
  9
$PLIMMIN
 10
0.0
 20
0.0
  9
$PLIMMAX
 10
12.0
 20
9.0
  9
$UNITMODE
 70
     0
  9
$VISRETAIN
 70
     1
  9
$PLINEGEN
 70
     0
  9
$PSLTSCALE
 70
     1
  0
ENDSEC
  0
SECTION
  2
TABLES
  0
TABLE
  2
VPORT
 70
     1
  0
VPORT
  2
*ACTIVE
 70
     0
 10
0.0
 20
0.0
 11
1.0
 21
1.0
 12
428.9813057303241
 22
276.83965194962701
 13
0.0
 23
0.0
 14
0.5
 24
0.5
 15
0.5
 25
0.5
 16
0.0
 26
0.0
 36
1.0
 17
0.0
 27
0.0
 37
0.0
 40
557.39390395770295
 41
1.7702552719200879
 42
50.0
 43
0.0
 44
0.0
 50
0.0
 51
0.0
 71
     0
 72
   100
 73
     1
 74
     1
 75
     0
 76
     0
 77
     0
 78
     0
  0
ENDTAB
  0
TABLE
  2
LTYPE
 70
    19
  0
LTYPE
  2
CONTINUOUS
 70
     0
  3
Solid line
 72
    65
 73
     0
 40
0.0
  0
LTYPE
  2
CENTER
 70
     0
  3
Center ____ _ ____ _ ____ _ ____ _ ____ _ ____
 72
    65
 73
     4
 40
2.0
 49
1.25
 49
-0.25
 49
0.25
 49
-0.25
  0
LTYPE
  2
CENTER2
 70
     0
  3
Center (.5x) ___ _ ___ _ ___ _ ___ _ ___ _ ___
 72
    65
 73
     4
 40
1.125
 49
0.75
 49
-0.125
 49
0.125
 49
-0.125
  0
LTYPE
  2
HIDDEN
 70
     0
  3
Hidden __ __ __ __ __ __ __ __ __ __ __ __ __ _
 72
    65
 73
     2
 40
0.375
 49
0.25
 49
-0.125
  0
LTYPE
  2
HIDDEN2
 70
     0
  3
Hidden (.5x) _ _ _ _ _ _ _ _ _ _ _ _ _ _ _ _ _
 72
    65
 73
     2
 40
0.1875
 49
0.125
 49
-0.0625
  0
LTYPE
  2
PHANTOM2
 70
     0
  3
Phantom (.5x) ___ _ _ ___ _ _ ___ _ _ ___ _ _
 72
    65
 73
     6
 40
1.25
 49
0.625
 49
-0.125
 49
0.125
 49
-0.125
 49
0.125
 49
-0.125
  0
LTYPE
  2
AMCONSTR
 70
     0
  3
_______________________
 72
    65
 73
     2
 40
9999.0
 49
9999.0
 49
0.0
  0
LTYPE
  2
AMZIGZAG2
 70
     0
  3
/\/-/\/-/\/-/\/-/\/-/\/
 72
    65
 73
     2
 40
0.4401
 49
0.0001
 49
-0.4400000000000001
  0
LTYPE
  2
ACANSTGB
 70
     0
  3
__ . . __ . .
 72
    65
 73
     6
 40
0.35433070866
 49
0.15748031496
 49
-0.03937007874
 49
0.03937007874
 49
-0.03937007874
 49
0.03937007874
 49
-0.03937007874
  0
LTYPE
  2
ACANSTGL
 70
     0
  3
_ _ _ _ _
 72
    65
 73
     2
 40
0.11811023622
 49
0.07874015748
 49
-0.03937007874
  0
ENDTAB
  0
TABLE
  2
LAYER
 70
     8
  0
LAYER
  2
0
 70
     0
 62
     7
  6
CONTINUOUS
  0
ENDTAB
  0
TABLE
  2
STYLE
 70
    11
  0
STYLE
  2
STANDARD
 70
     0
 40
0.0
 41
1.0
 50
0.0
 71
     0
 42
0.2
  3
txt
  4

  0
STYLE
  2
ROMANS
 70
     0
 40
0.0
 41
0.75
 50
0.0
 71
     0
 42
0.2
  3
romans.shx
  4

  0
STYLE
  2

 70
     1
 40
0.0
 41
1.0
 50
0.0
 71
     0
 42
0.2
  3
genltshp.shx
  4

  0
STYLE
  2
ACANSGDT
 70
     0
 40
0.0
 41
1.0
 50
0.0
 71
     0
 42
0.2
  3
amgdt.shx
  4

  0
ENDTAB
  0
TABLE
  2
VIEW
 70
     0
  0
ENDTAB
  0
TABLE
  2
UCS
 70
     0
  0
ENDTAB
  0
TABLE
  2
APPID
 70
    14
  0
APPID
  2
ACAD
 70
     0
  0
APPID
  2
ACAD_MLEADERVER
 70
     0
  0
APPID
  2
ACAD_DSTYLE_DIMJAG
 70
     0
  0
APPID
  2
ACAD_DSTYLE_DIMTALN
 70
     0
  0
APPID
  2
ACAD_PSEXT
 70
     0
  0
APPID
  2
ACADANNOPO
 70
     0
  0
APPID
  2
MCAD_NO_VIS
 70
     0
  0
APPID
  2
ACAD_TEMP_GRAPHIC
 70
     0
  0
APPID
  2
ACATTRIBSERVICES
 70
     0
  0
APPID
  2
DESIGNERASSEMBLIES
 70
     0
  0
APPID
  2
ACAD_DSTYLE_DIMBREAK
 70
     0
  0
APPID
  2
ACAD_NAV_VCDISPLAY
 70
     0
  0
APPID
  2
GRADIENTCOLOR1ACI
 70
     0
  0
APPID
  2
GRADIENTCOLOR2ACI
 70
     0
  0
ENDTAB
  0
TABLE
  2
DIMSTYLE
 70
    13
  0
DIMSTYLE
  2
BAC
 70
     0
  3

  4

  5

  6

  7

 40
1.0
 41
0.09375
 42
0.0625
 43
0.375
 44
0.03125
 45
0.0
 46
0.0
 47
0.0
 48
0.0
140
0.09375
141
0.09375
142
0.0
143
25.399999999999999
144
1.0
145
0.0
146
1.0
147
0.0625
 71
     0
 72
     0
 73
     0
 74
     0
 75
     0
 76
     0
 77
     0
 78
     0
170
     0
171
     2
172
     0
173
     0
174
     0
175
     0
176
     0
177
     6
178
     0
  0
DIMSTYLE
  2
AM_ANSI
 70
     0
  3

  4
mm
  5

  6

  7

 40
1.0
 41
0.12
 42
0.05
 43
0.5
 44
0.1
 45
0.0
 46
0.0
 47
0.1
 48
0.1
140
0.12
141
0.0
142
0.0
143
25.399999999999999
144
1.0
145
0.0
146
0.71
147
0.06
 71
     0
 72
     0
 73
     1
 74
     1
 75
     0
 76
     0
 77
     0
 78
     7
170
     0
171
     2
172
     0
173
     0
174
     0
175
     0
176
   256
177
   256
178
     2
  0
DIMSTYLE
  2
AM_ANSI$3
 70
     0
  3

  4
mm
  5

  6

  7

 40
1.0
 41
0.12
 42
0.05
 43
0.5
 44
0.1
 45
0.0
 46
0.0
 47
0.1
 48
0.1
140
0.12
141
0.0
142
0.0
143
25.399999999999999
144
1.0
145
0.0
146
0.71
147
0.06
 71
     0
 72
     0
 73
     1
 74
     1
 75
     0
 76
     0
 77
     0
 78
     7
170
     0
171
     2
172
     0
173
     0
174
     0
175
     0
176
   256
177
   256
178
     2
  0
DIMSTYLE
  2
AM_ANSI$4
 70
     0
  3

  4
mm
  5

  6

  7

 40
1.0
 41
0.12
 42
0.05
 43
0.5
 44
0.1
 45
0.0
 46
0.0
 47
0.1
 48
0.1
140
0.12
141
0.0
142
0.0
143
25.399999999999999
144
1.0
145
0.0
146
0.71
147
0.06
 71
     0
 72
     0
 73
     1
 74
     1
 75
     0
 76
     0
 77
     0
 78
     7
170
     0
171
     2
172
     0
173
     0
174
     0
175
     0
176
   256
177
   256
178
     2
  0
DIMSTYLE
  2
AM_ANSI$7
 70
     0
  3

  4
mm
  5

  6

  7

 40
1.0
 41
0.12
 42
0.05
 43
0.5
 44
0.1
 45
0.0
 46
0.0
 47
0.1
 48
0.1
140
0.12
141
0.0
142
0.0
143
25.399999999999999
144
1.0
145
0.0
146
0.71
147
0.06
 71
     0
 72
     0
 73
     1
 74
     1
 75
     0
 76
     0
 77
     0
 78
     7
170
     0
171
     2
172
     0
173
     0
174
     0
175
     0
176
   256
177
   256
178
     2
  0
DIMSTYLE
  2
AM_ANSI$SF
 70
     0
  3

  4
mm
  5

  6

  7

 40
1.0
 41
0.12
 42
0.05
 43
0.5
 44
0.1
 45
0.0
 46
0.0
 47
0.1
 48
0.1
140
0.12
141
0.0
142
0.0
143
25.399999999999999
144
1.0
145
0.0
146
0.71
147
0.06
 71
     0
 72
     0
 73
     1
 74
     1
 75
     1
 76
     1
 77
     0
 78
     7
170
     0
171
     2
172
     0
173
     0
174
     0
175
     0
176
   256
177
   256
178
     2
  0
DIMSTYLE
  2
AM_ANSI$SH
 70
     0
  3

  4
mm
  5

  6
GENAXEH
  7

 40
1.0
 41
0.12
 42
0.05
 43
0.5
 44
0.1
 45
0.0
 46
0.0
 47
0.1
 48
0.1
140
0.12
141
0.0
142
0.0
143
25.399999999999999
144
1.0
145
0.0
146
0.71
147
0.06
 71
     0
 72
     0
 73
     1
 74
     1
 75
     1
 76
     1
 77
     0
 78
     7
170
     0
171
     2
172
     0
173
     1
174
     0
175
     0
176
   256
177
   256
178
     2
  0
DIMSTYLE
  2
STANDARD
 70
     0
  3

  4

  5

  6

  7

 40
1.0
 41
0.18
 42
0.0625
 43
0.38
 44
0.18
 45
0.0
 46
0.0
 47
0.0
 48
0.0
140
0.18
141
0.09
142
0.0
143
25.399999999999999
144
1.0
145
0.0
146
1.0
147
0.09
 71
     0
 72
     0
 73
     1
 74
     1
 75
     0
 76
     0
 77
     0
 78
     0
170
     0
171
     2
172
     0
173
     0
174
     0
175
     0
176
     0
177
     0
178
     0
  0
ENDTAB
  0
ENDSEC
  0
SECTION
  2
BLOCKS
  0
BLOCK
  8
0
  2
$MODEL_SPACE
 70
     0
 10
0.0
 20
0.0
 30
0.0
  3
$MODEL_SPACE
  1

  0
ENDBLK
  5
1A
  8
0
  0
BLOCK
 67
     1
  8
0
  2
$PAPER_SPACE
 70
     0
 10
0.0
 20
0.0
 30
0.0
  3
$PAPER_SPACE
  1

  0
ENDBLK
  5
17
 67
     1
  8
0
  0
BLOCK
  8
0
  2
*U0
 70
     1
 10
0.0
 20
0.0
 30
0.0
  3
*U0
  1

  0
ENDBLK
  5
17A
  8
0
  0
BLOCK
  8
0
  2
GENAXEH
 70
     0
 10
0.0
 20
0.0
 30
0.0
  3
GENAXEH
  1

  0
LINE
  5
1AD
  8
0
 10
-1.0
 20
0.0
 30
0.0
 11
1.0
 21
0.0
 31
0.0
  0
ENDBLK
  5
1AF
  8
0
  0
BLOCK
  8
0
  2
*X3
 70
     1
 10
0.0
 20
0.0
 30
0.0
  3
*X3
  1

  0
LINE
  5
EAE
  8
0
 62
     0
 10
855.0
 20
4.0000045037580074
 30
0.0
 11
855.0
 21
98.375004503758561
 31
0.0
  0
LINE
  5
EAF
  8
0
 62
     0
 10
853.5
 20
4.0000045037579932
 30
0.0
 11
853.5
 21
98.375004503758561
 31
0.0
  0
LINE
  5
EB0
  8
0
 62
     0
 10
852.0
 20
4.000004503757979
 30
0.0
 11
852.0
 21
98.375004503758547
 31
0.0
  0
LINE
  5
EB1
  8
0
 62
     0
 10
850.5
 20
4.0000045037579639
 30
0.0
 11
850.5
 21
98.375004503758518
 31
0.0
  0
LINE
  5
EB2
  8
0
 62
     0
 10
849.0
 20
4.0000045037579488
 30
0.0
 11
849.0
 21
98.375004503758475
 31
0.0
  0
LINE
  5
EB3
  8
0
 62
     0
 10
847.49999999999989
 20
4.0000045037579346
 30
0.0
 11
847.49999999999989
 21
98.375004503758475
 31
0.0
  0
LINE
  5
EB4
  8
0
 62
     0
 10
846.0
 20
4.0000045037579213
 30
0.0
 11
846.0
 21
98.375004503758475
 31
0.0
  0
LINE
  5
EB5
  8
0
 62
     0
 10
844.5
 20
4.0000045037579062
 30
0.0
 11
844.5
 21
98.375004503758447
 31
0.0
  0
LINE
  5
EB6
  8
0
 62
     0
 10
816.0
 20
4.0000045037576122
 30
0.0
 11
816.0
 21
98.375004503758149
 31
0.0
  0
LINE
  5
EB7
  8
0
 62
     0
 10
814.49999999999989
 20
4.0000045037575971
 30
0.0
 11
814.49999999999989
 21
98.375004503758134
 31
0.0
  0
LINE
  5
EB8
  8
0
 62
     0
 10
813.0
 20
4.000004503757582
 30
0.0
 11
813.0
 21
98.375004503758134
 31
0.0
  0
LINE
  5
EB9
  8
0
 62
     0
 10
811.5
 20
4.0000045037575678
 30
0.0
 11
811.5
 21
98.375004503758106
 31
0.0
  0
LINE
  5
EBA
  8
0
 62
     0
 10
810.0
 20
4.0000045037575527
 30
0.0
 11
810.0
 21
98.375004503758092
 31
0.0
  0
LINE
  5
EBB
  8
0
 62
     0
 10
808.5
 20
4.0000045037575394
 30
0.0
 11
808.5
 21
98.375004503758078
 31
0.0
  0
LINE
  5
EBC
  8
0
 62
     0
 10
807.0
 20
4.0000045037575243
 30
0.0
 11
807.0
 21
98.375004503758063
 31
0.0
  0
LINE
  5
EBD
  8
0
 62
     0
 10
805.49999999999989
 20
4.00000450375751
 30
0.0
 11
805.49999999999989
 21
98.375004503758035
 31
0.0
  0
LINE
  5
EBE
  8
0
 62
     0
 10
804.0
 20
4.0000045037574941
 30
0.0
 11
804.0
 21
98.375004503758021
 31
0.0
  0
LINE
  5
EBF
  8
0
 62
     0
 10
802.5
 20
4.0000045037574798
 30
0.0
 11
802.5
 21
98.375004503758007
 31
0.0
  0
LINE
  5
EC0
  8
0
 62
     0
 10
774.0
 20
4.0000045037571841
 30
0.0
 11
774.0
 21
98.375004503757694
 31
0.0
  0
LINE
  5
EC1
  8
0
 62
     0
 10
772.5
 20
4.0000045037571681
 30
0.0
 11
772.5
 21
98.375004503757694
 31
0.0
  0
LINE
  5
EC2
  8
0
 62
     0
 10
771.0
 20
4.0000045037571521
 30
0.0
 11
771.0
 21
98.375004503757694
 31
0.0
  0
LINE
  5
EC3
  8
0
 62
     0
 10
769.5
 20
4.000004503757137
 30
0.0
 11
769.5
 21
98.375004503757665
 31
0.0
  0
LINE
  5
EC4
  8
0
 62
     0
 10
768.0
 20
4.000004503757121
 30
0.0
 11
768.0
 21
98.375004503757651
 31
0.0
  0
LINE
  5
EC5
  8
0
 62
     0
 10
766.5
 20
4.000004503757105
 30
0.0
 11
766.5
 21
98.375004503757637
 31
0.0
  0
LINE
  5
EC6
  8
0
 62
     0
 10
765.0
 20
4.000004503757089
 30
0.0
 11
765.0
 21
98.375004503757609
 31
0.0
  0
LINE
  5
EC7
  8
0
 62
     0
 10
763.49999999999989
 20
4.0000045037570731
 30
0.0
 11
763.49999999999989
 21
98.375004503757594
 31
0.0
  0
LINE
  5
EC8
  8
0
 62
     0
 10
762.0
 20
4.0000045037570571
 30
0.0
 11
762.0
 21
98.37500450375758
 31
0.0
  0
LINE
  5
EC9
  8
0
 62
     0
 10
760.5
 20
4.0000045037570411
 30
0.0
 11
760.5
 21
98.375004503757566
 31
0.0
  0
LINE
  5
ECA
  8
0
 62
     0
 10
732.0
 20
4.0000045037567444
 30
0.0
 11
732.0
 21
98.375004503757282
 31
0.0
  0
LINE
  5
ECB
  8
0
 62
     0
 10
730.49999999999989
 20
4.0000045037567276
 30
0.0
 11
730.49999999999989
 21
98.375004503757253
 31
0.0
  0
LINE
  5
ECC
  8
0
 62
     0
 10
729.0
 20
4.0000045037567116
 30
0.0
 11
729.0
 21
98.375004503757239
 31
0.0
  0
LINE
  5
ECD
  8
0
 62
     0
 10
727.5
 20
4.0000045037566956
 30
0.0
 11
727.5
 21
98.375004503757225
 31
0.0
  0
LINE
  5
ECE
  8
0
 62
     0
 10
726.0
 20
4.0000045037566787
 30
0.0
 11
726.0
 21
98.375004503757211
 31
0.0
  0
LINE
  5
ECF
  8
0
 62
     0
 10
724.5
 20
4.0000045037566627
 30
0.0
 11
724.5
 21
98.375004503757211
 31
0.0
  0
LINE
  5
ED0
  8
0
 62
     0
 10
723.0
 20
4.0000045037566467
 30
0.0
 11
723.0
 21
98.375004503757168
 31
0.0
  0
LINE
  5
ED1
  8
0
 62
     0
 10
721.49999999999989
 20
4.0000045037566307
 30
0.0
 11
721.49999999999989
 21
98.375004503757154
 31
0.0
  0
LINE
  5
ED2
  8
0
 62
     0
 10
720.0
 20
4.0000045037566148
 30
0.0
 11
720.0
 21
98.375004503757125
 31
0.0
  0
LINE
  5
ED3
  8
0
 62
     0
 10
715.5
 20
4.0000045037580048
 30
0.0
 11
715.5
 21
98.375004503758575
 31
0.0
  0
LINE
  5
ED4
  8
0
 62
     0
 10
714.0
 20
4.0000045037579932
 30
0.0
 11
714.0
 21
98.375004503758561
 31
0.0
  0
LINE
  5
ED5
  8
0
 62
     0
 10
712.5
 20
4.000004503757979
 30
0.0
 11
712.5
 21
98.375004503758561
 31
0.0
  0
LINE
  5
ED6
  8
0
 62
     0
 10
711.0
 20
4.0000045037579666
 30
0.0
 11
711.0
 21
98.375004503758547
 31
0.0
  0
LINE
  5
ED7
  8
0
 62
     0
 10
709.49999999999989
 20
4.0000045037579541
 30
0.0
 11
709.49999999999989
 21
98.375004503758504
 31
0.0
  0
LINE
  5
ED8
  8
0
 62
     0
 10
708.0
 20
4.0000045037579408
 30
0.0
 11
708.0
 21
98.375004503758475
 31
0.0
  0
LINE
  5
ED9
  8
0
 62
     0
 10
706.5
 20
4.0000045037579284
 30
0.0
 11
706.5
 21
98.375004503758475
 31
0.0
  0
LINE
  5
EDA
  8
0
 62
     0
 10
705.0
 20
4.0000045037579151
 30
0.0
 11
705.0
 21
98.375004503758475
 31
0.0
  0
LINE
  5
EDB
  8
0
 62
     0
 10
703.5
 20
4.0000045037579017
 30
0.0
 11
703.5
 21
98.375004503758447
 31
0.0
  0
LINE
  5
EDC
  8
0
 62
     0
 10
675.0
 20
4.0000045037575953
 30
0.0
 11
675.0
 21
98.375004503758149
 31
0.0
  0
LINE
  5
EDD
  8
0
 62
     0
 10
673.5
 20
4.0000045037575811
 30
0.0
 11
673.5
 21
98.375004503758134
 31
0.0
  0
LINE
  5
EDE
  8
0
 62
     0
 10
672.0
 20
4.0000045037575651
 30
0.0
 11
672.0
 21
98.375004503758134
 31
0.0
  0
LINE
  5
EDF
  8
0
 62
     0
 10
670.5
 20
4.0000045037575509
 30
0.0
 11
670.5
 21
98.375004503758106
 31
0.0
  0
LINE
  5
EE0
  8
0
 62
     0
 10
669.0
 20
4.0000045037575358
 30
0.0
 11
669.0
 21
98.375004503758078
 31
0.0
  0
LINE
  5
EE1
  8
0
 62
     0
 10
667.49999999999989
 20
4.0000045037575216
 30
0.0
 11
667.49999999999989
 21
98.375004503758063
 31
0.0
  0
LINE
  5
EE2
  8
0
 62
     0
 10
666.0
 20
4.0000045037575074
 30
0.0
 11
666.0
 21
98.375004503758063
 31
0.0
  0
LINE
  5
EE3
  8
0
 62
     0
 10
664.5
 20
4.0000045037574932
 30
0.0
 11
664.5
 21
98.375004503758035
 31
0.0
  0
LINE
  5
EE4
  8
0
 62
     0
 10
663.0
 20
4.0000045037574781
 30
0.0
 11
663.0
 21
98.375004503758021
 31
0.0
  0
LINE
  5
EE5
  8
0
 62
     0
 10
661.5
 20
4.000004503757463
 30
0.0
 11
661.5
 21
98.375004503758007
 31
0.0
  0
LINE
  5
EE6
  8
0
 62
     0
 10
633.0
 20
4.0000045037571681
 30
0.0
 11
633.0
 21
98.375004503757694
 31
0.0
  0
LINE
  5
EE7
  8
0
 62
     0
 10
631.5
 20
4.0000045037571539
 30
0.0
 11
631.5
 21
98.375004503757694
 31
0.0
  0
LINE
  5
EE8
  8
0
 62
     0
 10
630.0
 20
4.0000045037571388
 30
0.0
 11
630.0
 21
98.375004503757694
 31
0.0
  0
LINE
  5
EE9
  8
0
 62
     0
 10
628.5
 20
4.0000045037571246
 30
0.0
 11
628.5
 21
98.375004503757665
 31
0.0
  0
LINE
  5
EEA
  8
0
 62
     0
 10
627.0
 20
4.0000045037571104
 30
0.0
 11
627.0
 21
98.375004503757637
 31
0.0
  0
LINE
  5
EEB
  8
0
 62
     0
 10
625.49999999999989
 20
4.0000045037570962
 30
0.0
 11
625.49999999999989
 21
98.375004503757637
 31
0.0
  0
LINE
  5
EEC
  8
0
 62
     0
 10
624.0
 20
4.0000045037570811
 30
0.0
 11
624.0
 21
98.375004503757609
 31
0.0
  0
LINE
  5
EED
  8
0
 62
     0
 10
622.5
 20
4.000004503757066
 30
0.0
 11
622.5
 21
98.375004503757594
 31
0.0
  0
LINE
  5
EEE
  8
0
 62
     0
 10
621.0
 20
4.0000045037570509
 30
0.0
 11
621.0
 21
98.37500450375758
 31
0.0
  0
LINE
  5
EEF
  8
0
 62
     0
 10
619.5
 20
4.0000045037570366
 30
0.0
 11
619.5
 21
98.375004503757566
 31
0.0
  0
LINE
  5
EF0
  8
0
 62
     0
 10
591.0
 20
4.0000045037567276
 30
0.0
 11
591.0
 21
98.375004503757282
 31
0.0
  0
LINE
  5
EF1
  8
0
 62
     0
 10
589.5
 20
4.0000045037567142
 30
0.0
 11
589.5
 21
98.375004503757253
 31
0.0
  0
LINE
  5
EF2
  8
0
 62
     0
 10
588.0
 20
4.0000045037567
 30
0.0
 11
588.0
 21
98.375004503757239
 31
0.0
  0
LINE
  5
EF3
  8
0
 62
     0
 10
586.5
 20
4.0000045037566849
 30
0.0
 11
586.5
 21
98.375004503757225
 31
0.0
  0
LINE
  5
EF4
  8
0
 62
     0
 10
585.0
 20
4.0000045037566698
 30
0.0
 11
585.0
 21
98.375004503757211
 31
0.0
  0
LINE
  5
EF5
  8
0
 62
     0
 10
583.49999999999989
 20
4.0000045037566556
 30
0.0
 11
583.49999999999989
 21
98.375004503757197
 31
0.0
  0
LINE
  5
EF6
  8
0
 62
     0
 10
582.0
 20
4.0000045037566423
 30
0.0
 11
582.0
 21
98.375004503757168
 31
0.0
  0
LINE
  5
EF7
  8
0
 62
     0
 10
580.49999999999989
 20
4.0000045037566272
 30
0.0
 11
580.49999999999989
 21
98.375004503757154
 31
0.0
  0
LINE
  5
EF8
  8
0
 62
     0
 10
719.83761017454378
 20
4.5
 30
0.0
 11
733.08761017454253
 21
4.5
 31
0.0
  0
LINE
  5
EF9
  8
0
 62
     0
 10
702.32962549131264
 20
4.5
 30
0.0
 11
715.58761017454367
 21
4.5
 31
0.0
  0
LINE
  5
EFA
  8
0
 62
     0
 10
759.08761017454344
 20
4.5
 30
0.0
 11
775.08483214571675
 21
4.5
 31
0.0
  0
LINE
  5
EFB
  8
0
 62
     0
 10
660.33009577529003
 20
4.5
 30
0.0
 11
676.3466098292148
 21
4.5
 31
0.0
  0
LINE
  5
EFC
  8
0
 62
     0
 10
801.08009577528981
 20
4.5
 30
0.0
 11
817.09660982921469
 21
4.5
 31
0.0
  0
LINE
  5
EFD
  8
0
 62
     0
 10
618.33761017454356
 20
4.5
 30
0.0
 11
634.33483214571675
 21
4.5
 31
0.0
  0
LINE
  5
EFE
  8
0
 62
     0
 10
843.07962549131264
 20
4.5
 30
0.0
 11
856.33761017454356
 21
4.5
 31
0.0
  0
LINE
  5
EFF
  8
0
 62
     0
 10
579.08761017454367
 20
4.5
 30
0.0
 11
592.33761017454265
 21
4.5
 31
0.0
  0
LINE
  5
F00
  8
0
 62
     0
 10
719.83761017454378
 20
6.0
 30
0.0
 11
733.08761017454253
 21
6.0
 31
0.0
  0
LINE
  5
F01
  8
0
 62
     0
 10
702.32962549131264
 20
6.0
 30
0.0
 11
715.58761017454367
 21
6.0
 31
0.0
  0
LINE
  5
F02
  8
0
 62
     0
 10
759.08761017454344
 20
6.0
 30
0.0
 11
775.08483214571675
 21
6.0
 31
0.0
  0
LINE
  5
F03
  8
0
 62
     0
 10
660.33009577529003
 20
6.0
 30
0.0
 11
676.3466098292148
 21
6.0
 31
0.0
  0
LINE
  5
F04
  8
0
 62
     0
 10
801.08009577528981
 20
6.0
 30
0.0
 11
817.09660982921469
 21
6.0
 31
0.0
  0
LINE
  5
F05
  8
0
 62
     0
 10
618.33761017454356
 20
6.0
 30
0.0
 11
634.33483214571675
 21
6.0
 31
0.0
  0
LINE
  5
F06
  8
0
 62
     0
 10
843.07962549131264
 20
6.0
 30
0.0
 11
856.33761017454356
 21
6.0
 31
0.0
  0
LINE
  5
F07
  8
0
 62
     0
 10
579.08761017454367
 20
6.0
 30
0.0
 11
592.33761017454265
 21
6.0
 31
0.0
  0
LINE
  5
F08
  8
0
 62
     0
 10
719.83761017454378
 20
7.5
 30
0.0
 11
733.08761017454253
 21
7.5
 31
0.0
  0
LINE
  5
F09
  8
0
 62
     0
 10
702.32962549131264
 20
7.5
 30
0.0
 11
715.58761017454367
 21
7.5
 31
0.0
  0
LINE
  5
F0A
  8
0
 62
     0
 10
759.08761017454344
 20
7.5
 30
0.0
 11
775.08483214571675
 21
7.5
 31
0.0
  0
LINE
  5
F0B
  8
0
 62
     0
 10
660.33009577529003
 20
7.5
 30
0.0
 11
676.3466098292148
 21
7.5
 31
0.0
  0
LINE
  5
F0C
  8
0
 62
     0
 10
801.08009577528981
 20
7.5
 30
0.0
 11
817.09660982921469
 21
7.5
 31
0.0
  0
LINE
  5
F0D
  8
0
 62
     0
 10
618.33761017454356
 20
7.5
 30
0.0
 11
634.33483214571675
 21
7.5
 31
0.0
  0
LINE
  5
F0E
  8
0
 62
     0
 10
843.07962549131264
 20
7.5
 30
0.0
 11
856.33761017454356
 21
7.5
 31
0.0
  0
LINE
  5
F0F
  8
0
 62
     0
 10
579.08761017454367
 20
7.5
 30
0.0
 11
592.33761017454265
 21
7.5
 31
0.0
  0
LINE
  5
F10
  8
0
 62
     0
 10
719.83761017454378
 20
9.0
 30
0.0
 11
733.08761017454253
 21
9.0
 31
0.0
  0
LINE
  5
F11
  8
0
 62
     0
 10
702.32962549131264
 20
9.0
 30
0.0
 11
715.58761017454367
 21
9.0
 31
0.0
  0
LINE
  5
F12
  8
0
 62
     0
 10
759.08761017454344
 20
9.0
 30
0.0
 11
775.08483214571675
 21
9.0
 31
0.0
  0
LINE
  5
F13
  8
0
 62
     0
 10
660.33009577529003
 20
9.0
 30
0.0
 11
676.3466098292148
 21
9.0
 31
0.0
  0
LINE
  5
F14
  8
0
 62
     0
 10
801.08009577528981
 20
9.0
 30
0.0
 11
817.09660982921469
 21
9.0
 31
0.0
  0
LINE
  5
F15
  8
0
 62
     0
 10
618.33761017454356
 20
9.0
 30
0.0
 11
634.33483214571675
 21
9.0
 31
0.0
  0
LINE
  5
F16
  8
0
 62
     0
 10
843.07962549131264
 20
9.0
 30
0.0
 11
856.33761017454356
 21
9.0
 31
0.0
  0
LINE
  5
F17
  8
0
 62
     0
 10
579.08761017454367
 20
9.0
 30
0.0
 11
592.33761017454265
 21
9.0
 31
0.0
  0
LINE
  5
F18
  8
0
 62
     0
 10
719.83761017454356
 20
10.5
 30
0.0
 11
733.08761017454253
 21
10.5
 31
0.0
  0
LINE
  5
F19
  8
0
 62
     0
 10
702.32962549131264
 20
10.5
 30
0.0
 11
715.58761017454356
 21
10.5
 31
0.0
  0
LINE
  5
F1A
  8
0
 62
     0
 10
759.08761017454344
 20
10.5
 30
0.0
 11
775.08483214571675
 21
10.5
 31
0.0
  0
LINE
  5
F1B
  8
0
 62
     0
 10
660.33009577529003
 20
10.5
 30
0.0
 11
676.3466098292148
 21
10.5
 31
0.0
  0
LINE
  5
F1C
  8
0
 62
     0
 10
801.08009577528981
 20
10.5
 30
0.0
 11
817.09660982921469
 21
10.5
 31
0.0
  0
LINE
  5
F1D
  8
0
 62
     0
 10
618.33761017454356
 20
10.5
 30
0.0
 11
634.33483214571675
 21
10.5
 31
0.0
  0
LINE
  5
F1E
  8
0
 62
     0
 10
843.07962549131264
 20
10.5
 30
0.0
 11
856.33761017454356
 21
10.5
 31
0.0
  0
LINE
  5
F1F
  8
0
 62
     0
 10
579.08761017454356
 20
10.5
 30
0.0
 11
592.33761017454265
 21
10.5
 31
0.0
  0
LINE
  5
F20
  8
0
 62
     0
 10
719.83761017454356
 20
12.0
 30
0.0
 11
733.08761017454253
 21
12.0
 31
0.0
  0
LINE
  5
F21
  8
0
 62
     0
 10
702.32962549131264
 20
12.0
 30
0.0
 11
715.58761017454356
 21
12.0
 31
0.0
  0
LINE
  5
F22
  8
0
 62
     0
 10
759.08761017454344
 20
12.0
 30
0.0
 11
775.08483214571675
 21
12.0
 31
0.0
  0
LINE
  5
F23
  8
0
 62
     0
 10
660.33009577529003
 20
12.0
 30
0.0
 11
676.3466098292148
 21
12.0
 31
0.0
  0
LINE
  5
F24
  8
0
 62
     0
 10
801.08009577528981
 20
12.0
 30
0.0
 11
817.09660982921469
 21
12.0
 31
0.0
  0
LINE
  5
F25
  8
0
 62
     0
 10
618.33761017454356
 20
12.0
 30
0.0
 11
634.33483214571675
 21
12.0
 31
0.0
  0
LINE
  5
F26
  8
0
 62
     0
 10
843.07962549131264
 20
12.0
 30
0.0
 11
856.33761017454356
 21
12.0
 31
0.0
  0
LINE
  5
F27
  8
0
 62
     0
 10
579.08761017454356
 20
12.0
 30
0.0
 11
592.33761017454265
 21
12.0
 31
0.0
  0
LINE
  5
F28
  8
0
 62
     0
 10
719.83761017454356
 20
13.5
 30
0.0
 11
733.08761017454253
 21
13.5
 31
0.0
  0
LINE
  5
F29
  8
0
 62
     0
 10
702.32962549131264
 20
13.5
 30
0.0
 11
715.58761017454356
 21
13.5
 31
0.0
  0
LINE
  5
F2A
  8
0
 62
     0
 10
759.08761017454344
 20
13.5
 30
0.0
 11
775.08483214571675
 21
13.5
 31
0.0
  0
LINE
  5
F2B
  8
0
 62
     0
 10
660.33009577529003
 20
13.5
 30
0.0
 11
676.3466098292148
 21
13.5
 31
0.0
  0
LINE
  5
F2C
  8
0
 62
     0
 10
801.08009577528981
 20
13.5
 30
0.0
 11
817.09660982921469
 21
13.5
 31
0.0
  0
LINE
  5
F2D
  8
0
 62
     0
 10
618.33761017454356
 20
13.5
 30
0.0
 11
634.33483214571675
 21
13.5
 31
0.0
  0
LINE
  5
F2E
  8
0
 62
     0
 10
843.07962549131264
 20
13.5
 30
0.0
 11
856.33761017454356
 21
13.5
 31
0.0
  0
LINE
  5
F2F
  8
0
 62
     0
 10
579.08761017454356
 20
13.5
 30
0.0
 11
592.33761017454265
 21
13.5
 31
0.0
  0
LINE
  5
F30
  8
0
 62
     0
 10
719.83761017454356
 20
15.0
 30
0.0
 11
733.08761017454253
 21
15.0
 31
0.0
  0
LINE
  5
F31
  8
0
 62
     0
 10
702.32962549131264
 20
15.0
 30
0.0
 11
715.58761017454356
 21
15.0
 31
0.0
  0
LINE
  5
F32
  8
0
 62
     0
 10
759.08761017454344
 20
15.0
 30
0.0
 11
775.08483214571675
 21
15.0
 31
0.0
  0
LINE
  5
F33
  8
0
 62
     0
 10
660.33009577529003
 20
15.0
 30
0.0
 11
676.3466098292148
 21
15.0
 31
0.0
  0
LINE
  5
F34
  8
0
 62
     0
 10
801.08009577528981
 20
15.0
 30
0.0
 11
817.09660982921469
 21
15.0
 31
0.0
  0
LINE
  5
F35
  8
0
 62
     0
 10
618.33761017454356
 20
15.0
 30
0.0
 11
634.33483214571675
 21
15.0
 31
0.0
  0
LINE
  5
F36
  8
0
 62
     0
 10
843.07962549131264
 20
15.0
 30
0.0
 11
856.33761017454356
 21
15.0
 31
0.0
  0
LINE
  5
F37
  8
0
 62
     0
 10
579.08761017454356
 20
15.0
 30
0.0
 11
592.33761017454265
 21
15.0
 31
0.0
  0
LINE
  5
F38
  8
0
 62
     0
 10
719.83761017454356
 20
16.5
 30
0.0
 11
733.08761017454253
 21
16.5
 31
0.0
  0
LINE
  5
F39
  8
0
 62
     0
 10
702.32962549131264
 20
16.5
 30
0.0
 11
715.58761017454356
 21
16.5
 31
0.0
  0
LINE
  5
F3A
  8
0
 62
     0
 10
759.08761017454344
 20
16.5
 30
0.0
 11
775.08483214571675
 21
16.5
 31
0.0
  0
LINE
  5
F3B
  8
0
 62
     0
 10
660.33009577529003
 20
16.5
 30
0.0
 11
676.3466098292148
 21
16.5
 31
0.0
  0
LINE
  5
F3C
  8
0
 62
     0
 10
801.08009577528981
 20
16.5
 30
0.0
 11
817.09660982921469
 21
16.5
 31
0.0
  0
LINE
  5
F3D
  8
0
 62
     0
 10
618.33761017454356
 20
16.5
 30
0.0
 11
634.33483214571675
 21
16.5
 31
0.0
  0
LINE
  5
F3E
  8
0
 62
     0
 10
843.07962549131264
 20
16.5
 30
0.0
 11
856.33761017454356
 21
16.5
 31
0.0
  0
LINE
  5
F3F
  8
0
 62
     0
 10
579.08761017454356
 20
16.5
 30
0.0
 11
592.33761017454265
 21
16.5
 31
0.0
  0
LINE
  5
F40
  8
0
 62
     0
 10
719.83761017454356
 20
18.0
 30
0.0
 11
733.08761017454253
 21
18.0
 31
0.0
  0
LINE
  5
F41
  8
0
 62
     0
 10
702.32962549131264
 20
18.0
 30
0.0
 11
715.58761017454356
 21
18.0
 31
0.0
  0
LINE
  5
F42
  8
0
 62
     0
 10
759.08761017454344
 20
18.0
 30
0.0
 11
775.08483214571675
 21
18.0
 31
0.0
  0
LINE
  5
F43
  8
0
 62
     0
 10
660.33009577529003
 20
18.0
 30
0.0
 11
676.3466098292148
 21
18.0
 31
0.0
  0
LINE
  5
F44
  8
0
 62
     0
 10
801.08009577528981
 20
18.0
 30
0.0
 11
817.09660982921469
 21
18.0
 31
0.0
  0
LINE
  5
F45
  8
0
 62
     0
 10
618.33761017454356
 20
18.0
 30
0.0
 11
634.33483214571675
 21
18.0
 31
0.0
  0
LINE
  5
F46
  8
0
 62
     0
 10
843.07962549131264
 20
18.0
 30
0.0
 11
856.33761017454356
 21
18.0
 31
0.0
  0
LINE
  5
F47
  8
0
 62
     0
 10
579.08761017454356
 20
18.0
 30
0.0
 11
592.33761017454265
 21
18.0
 31
0.0
  0
LINE
  5
F48
  8
0
 62
     0
 10
719.83761017454356
 20
19.5
 30
0.0
 11
733.08761017454253
 21
19.5
 31
0.0
  0
LINE
  5
F49
  8
0
 62
     0
 10
702.32962549131264
 20
19.5
 30
0.0
 11
715.58761017454356
 21
19.5
 31
0.0
  0
LINE
  5
F4A
  8
0
 62
     0
 10
759.08761017454344
 20
19.5
 30
0.0
 11
775.08483214571675
 21
19.5
 31
0.0
  0
LINE
  5
F4B
  8
0
 62
     0
 10
660.33009577529003
 20
19.5
 30
0.0
 11
676.3466098292148
 21
19.5
 31
0.0
  0
LINE
  5
F4C
  8
0
 62
     0
 10
801.08009577528981
 20
19.5
 30
0.0
 11
817.09660982921469
 21
19.5
 31
0.0
  0
LINE
  5
F4D
  8
0
 62
     0
 10
618.33761017454356
 20
19.5
 30
0.0
 11
634.33483214571675
 21
19.5
 31
0.0
  0
LINE
  5
F4E
  8
0
 62
     0
 10
843.07962549131264
 20
19.5
 30
0.0
 11
856.33761017454356
 21
19.5
 31
0.0
  0
LINE
  5
F4F
  8
0
 62
     0
 10
579.08761017454356
 20
19.5
 30
0.0
 11
592.33761017454265
 21
19.5
 31
0.0
  0
LINE
  5
F50
  8
0
 62
     0
 10
719.83761017454356
 20
21.0
 30
0.0
 11
733.08761017454253
 21
21.0
 31
0.0
  0
LINE
  5
F51
  8
0
 62
     0
 10
702.32962549131264
 20
21.0
 30
0.0
 11
715.58761017454356
 21
21.0
 31
0.0
  0
LINE
  5
F52
  8
0
 62
     0
 10
759.08761017454344
 20
21.0
 30
0.0
 11
775.08483214571675
 21
21.0
 31
0.0
  0
LINE
  5
F53
  8
0
 62
     0
 10
660.33009577529003
 20
21.0
 30
0.0
 11
676.3466098292148
 21
21.0
 31
0.0
  0
LINE
  5
F54
  8
0
 62
     0
 10
801.08009577528981
 20
21.0
 30
0.0
 11
817.09660982921469
 21
21.0
 31
0.0
  0
LINE
  5
F55
  8
0
 62
     0
 10
618.33761017454356
 20
21.0
 30
0.0
 11
634.33483214571675
 21
21.0
 31
0.0
  0
LINE
  5
F56
  8
0
 62
     0
 10
843.07962549131264
 20
21.0
 30
0.0
 11
856.33761017454356
 21
21.0
 31
0.0
  0
LINE
  5
F57
  8
0
 62
     0
 10
579.08761017454356
 20
21.0
 30
0.0
 11
592.33761017454265
 21
21.0
 31
0.0
  0
LINE
  5
F58
  8
0
 62
     0
 10
719.83761017454356
 20
22.5
 30
0.0
 11
733.08761017454253
 21
22.5
 31
0.0
  0
LINE
  5
F59
  8
0
 62
     0
 10
702.32962549131264
 20
22.5
 30
0.0
 11
715.58761017454344
 21
22.5
 31
0.0
  0
LINE
  5
F5A
  8
0
 62
     0
 10
759.08761017454344
 20
22.5
 30
0.0
 11
775.08483214571675
 21
22.5
 31
0.0
  0
LINE
  5
F5B
  8
0
 62
     0
 10
660.33009577529003
 20
22.5
 30
0.0
 11
676.3466098292148
 21
22.5
 31
0.0
  0
LINE
  5
F5C
  8
0
 62
     0
 10
801.08009577528981
 20
22.5
 30
0.0
 11
817.09660982921469
 21
22.5
 31
0.0
  0
LINE
  5
F5D
  8
0
 62
     0
 10
618.33761017454356
 20
22.5
 30
0.0
 11
634.33483214571675
 21
22.5
 31
0.0
  0
LINE
  5
F5E
  8
0
 62
     0
 10
843.07962549131264
 20
22.5
 30
0.0
 11
856.33761017454356
 21
22.5
 31
0.0
  0
LINE
  5
F5F
  8
0
 62
     0
 10
579.08761017454356
 20
22.5
 30
0.0
 11
592.33761017454265
 21
22.5
 31
0.0
  0
LINE
  5
F60
  8
0
 62
     0
 10
719.83761017454356
 20
24.0
 30
0.0
 11
733.08761017454253
 21
24.0
 31
0.0
  0
LINE
  5
F61
  8
0
 62
     0
 10
702.32962549131264
 20
24.0
 30
0.0
 11
715.58761017454344
 21
24.0
 31
0.0
  0
LINE
  5
F62
  8
0
 62
     0
 10
759.08761017454344
 20
24.0
 30
0.0
 11
775.08483214571675
 21
24.0
 31
0.0
  0
LINE
  5
F63
  8
0
 62
     0
 10
660.33009577529003
 20
24.0
 30
0.0
 11
676.3466098292148
 21
24.0
 31
0.0
  0
LINE
  5
F64
  8
0
 62
     0
 10
801.08009577528981
 20
24.0
 30
0.0
 11
817.09660982921469
 21
24.0
 31
0.0
  0
LINE
  5
F65
  8
0
 62
     0
 10
618.33761017454356
 20
24.0
 30
0.0
 11
634.33483214571675
 21
24.0
 31
0.0
  0
LINE
  5
F66
  8
0
 62
     0
 10
843.07962549131264
 20
24.0
 30
0.0
 11
856.33761017454356
 21
24.0
 31
0.0
  0
LINE
  5
F67
  8
0
 62
     0
 10
579.08761017454356
 20
24.0
 30
0.0
 11
592.33761017454265
 21
24.0
 31
0.0
  0
LINE
  5
F68
  8
0
 62
     0
 10
719.83761017454356
 20
25.5
 30
0.0
 11
733.08761017454253
 21
25.5
 31
0.0
  0
LINE
  5
F69
  8
0
 62
     0
 10
702.32962549131264
 20
25.5
 30
0.0
 11
715.58761017454344
 21
25.5
 31
0.0
  0
LINE
  5
F6A
  8
0
 62
     0
 10
759.08761017454344
 20
25.5
 30
0.0
 11
775.08483214571675
 21
25.5
 31
0.0
  0
LINE
  5
F6B
  8
0
 62
     0
 10
660.33009577529003
 20
25.5
 30
0.0
 11
676.3466098292148
 21
25.5
 31
0.0
  0
LINE
  5
F6C
  8
0
 62
     0
 10
801.08009577528981
 20
25.5
 30
0.0
 11
817.09660982921469
 21
25.5
 31
0.0
  0
LINE
  5
F6D
  8
0
 62
     0
 10
618.33761017454356
 20
25.5
 30
0.0
 11
634.33483214571675
 21
25.5
 31
0.0
  0
LINE
  5
F6E
  8
0
 62
     0
 10
843.07962549131264
 20
25.5
 30
0.0
 11
856.33761017454356
 21
25.5
 31
0.0
  0
LINE
  5
F6F
  8
0
 62
     0
 10
579.08761017454356
 20
25.5
 30
0.0
 11
592.33761017454265
 21
25.5
 31
0.0
  0
LINE
  5
F70
  8
0
 62
     0
 10
719.83761017454356
 20
27.0
 30
0.0
 11
733.08761017454253
 21
27.0
 31
0.0
  0
LINE
  5
F71
  8
0
 62
     0
 10
702.32962549131264
 20
27.0
 30
0.0
 11
715.58761017454344
 21
27.0
 31
0.0
  0
LINE
  5
F72
  8
0
 62
     0
 10
759.08761017454344
 20
27.0
 30
0.0
 11
775.08483214571675
 21
27.0
 31
0.0
  0
LINE
  5
F73
  8
0
 62
     0
 10
660.33009577529003
 20
27.0
 30
0.0
 11
676.3466098292148
 21
27.0
 31
0.0
  0
LINE
  5
F74
  8
0
 62
     0
 10
801.08009577528981
 20
27.0
 30
0.0
 11
817.09660982921469
 21
27.0
 31
0.0
  0
LINE
  5
F75
  8
0
 62
     0
 10
618.33761017454356
 20
27.0
 30
0.0
 11
634.33483214571675
 21
27.0
 31
0.0
  0
LINE
  5
F76
  8
0
 62
     0
 10
843.07962549131264
 20
27.0
 30
0.0
 11
856.33761017454356
 21
27.0
 31
0.0
  0
LINE
  5
F77
  8
0
 62
     0
 10
579.08761017454356
 20
27.0
 30
0.0
 11
592.33761017454265
 21
27.0
 31
0.0
  0
LINE
  5
F78
  8
0
 62
     0
 10
719.83761017454356
 20
28.5
 30
0.0
 11
733.08761017454253
 21
28.5
 31
0.0
  0
LINE
  5
F79
  8
0
 62
     0
 10
702.32962549131264
 20
28.5
 30
0.0
 11
715.58761017454344
 21
28.5
 31
0.0
  0
LINE
  5
F7A
  8
0
 62
     0
 10
759.08761017454344
 20
28.5
 30
0.0
 11
775.08483214571675
 21
28.5
 31
0.0
  0
LINE
  5
F7B
  8
0
 62
     0
 10
660.33009577529003
 20
28.5
 30
0.0
 11
676.3466098292148
 21
28.5
 31
0.0
  0
LINE
  5
F7C
  8
0
 62
     0
 10
801.08009577528981
 20
28.5
 30
0.0
 11
817.09660982921469
 21
28.5
 31
0.0
  0
LINE
  5
F7D
  8
0
 62
     0
 10
618.33761017454356
 20
28.5
 30
0.0
 11
634.33483214571675
 21
28.5
 31
0.0
  0
LINE
  5
F7E
  8
0
 62
     0
 10
843.07962549131264
 20
28.5
 30
0.0
 11
856.33761017454356
 21
28.5
 31
0.0
  0
LINE
  5
F7F
  8
0
 62
     0
 10
579.08761017454356
 20
28.5
 30
0.0
 11
592.33761017454265
 21
28.5
 31
0.0
  0
LINE
  5
F80
  8
0
 62
     0
 10
719.83761017454356
 20
30.0
 30
0.0
 11
733.08761017454253
 21
30.0
 31
0.0
  0
LINE
  5
F81
  8
0
 62
     0
 10
702.32962549131264
 20
30.0
 30
0.0
 11
715.58761017454344
 21
30.0
 31
0.0
  0
LINE
  5
F82
  8
0
 62
     0
 10
759.08761017454344
 20
30.0
 30
0.0
 11
775.08483214571675
 21
30.0
 31
0.0
  0
LINE
  5
F83
  8
0
 62
     0
 10
660.33009577529003
 20
30.0
 30
0.0
 11
676.3466098292148
 21
30.0
 31
0.0
  0
LINE
  5
F84
  8
0
 62
     0
 10
801.08009577528981
 20
30.0
 30
0.0
 11
817.09660982921469
 21
30.0
 31
0.0
  0
LINE
  5
F85
  8
0
 62
     0
 10
618.33761017454356
 20
30.0
 30
0.0
 11
634.33483214571675
 21
30.0
 31
0.0
  0
LINE
  5
F86
  8
0
 62
     0
 10
843.07962549131264
 20
30.0
 30
0.0
 11
856.33761017454356
 21
30.0
 31
0.0
  0
LINE
  5
F87
  8
0
 62
     0
 10
579.08761017454356
 20
30.0
 30
0.0
 11
592.33761017454265
 21
30.0
 31
0.0
  0
LINE
  5
F88
  8
0
 62
     0
 10
719.83761017454344
 20
31.5
 30
0.0
 11
733.08761017454253
 21
31.5
 31
0.0
  0
LINE
  5
F89
  8
0
 62
     0
 10
702.32962549131264
 20
31.5
 30
0.0
 11
715.58761017454344
 21
31.5
 31
0.0
  0
LINE
  5
F8A
  8
0
 62
     0
 10
759.08761017454344
 20
31.5
 30
0.0
 11
775.08483214571675
 21
31.5
 31
0.0
  0
LINE
  5
F8B
  8
0
 62
     0
 10
660.33009577529003
 20
31.5
 30
0.0
 11
676.3466098292148
 21
31.5
 31
0.0
  0
LINE
  5
F8C
  8
0
 62
     0
 10
801.08009577528981
 20
31.5
 30
0.0
 11
817.09660982921469
 21
31.5
 31
0.0
  0
LINE
  5
F8D
  8
0
 62
     0
 10
618.33761017454356
 20
31.5
 30
0.0
 11
634.33483214571675
 21
31.5
 31
0.0
  0
LINE
  5
F8E
  8
0
 62
     0
 10
843.07962549131264
 20
31.5
 30
0.0
 11
856.33761017454356
 21
31.5
 31
0.0
  0
LINE
  5
F8F
  8
0
 62
     0
 10
579.08761017454344
 20
31.5
 30
0.0
 11
592.33761017454265
 21
31.5
 31
0.0
  0
LINE
  5
F90
  8
0
 62
     0
 10
719.83761017454344
 20
33.0
 30
0.0
 11
733.08761017454253
 21
33.0
 31
0.0
  0
LINE
  5
F91
  8
0
 62
     0
 10
702.32962549131264
 20
33.0
 30
0.0
 11
715.58761017454344
 21
33.0
 31
0.0
  0
LINE
  5
F92
  8
0
 62
     0
 10
759.08761017454344
 20
33.0
 30
0.0
 11
775.08483214571675
 21
33.0
 31
0.0
  0
LINE
  5
F93
  8
0
 62
     0
 10
660.33009577529003
 20
33.0
 30
0.0
 11
676.3466098292148
 21
33.0
 31
0.0
  0
LINE
  5
F94
  8
0
 62
     0
 10
801.08009577528981
 20
33.0
 30
0.0
 11
817.09660982921469
 21
33.0
 31
0.0
  0
LINE
  5
F95
  8
0
 62
     0
 10
618.33761017454356
 20
33.0
 30
0.0
 11
634.33483214571675
 21
33.0
 31
0.0
  0
LINE
  5
F96
  8
0
 62
     0
 10
843.07962549131264
 20
33.0
 30
0.0
 11
856.33761017454356
 21
33.0
 31
0.0
  0
LINE
  5
F97
  8
0
 62
     0
 10
579.08761017454344
 20
33.0
 30
0.0
 11
592.33761017454265
 21
33.0
 31
0.0
  0
LINE
  5
F98
  8
0
 62
     0
 10
719.83761017454344
 20
34.5
 30
0.0
 11
733.08761017454253
 21
34.5
 31
0.0
  0
LINE
  5
F99
  8
0
 62
     0
 10
702.32962549131264
 20
34.5
 30
0.0
 11
715.58761017454333
 21
34.5
 31
0.0
  0
LINE
  5
F9A
  8
0
 62
     0
 10
759.08761017454344
 20
34.5
 30
0.0
 11
775.08483214571675
 21
34.5
 31
0.0
  0
LINE
  5
F9B
  8
0
 62
     0
 10
660.33009577529003
 20
34.5
 30
0.0
 11
676.3466098292148
 21
34.5
 31
0.0
  0
LINE
  5
F9C
  8
0
 62
     0
 10
801.08009577528981
 20
34.5
 30
0.0
 11
817.09660982921469
 21
34.5
 31
0.0
  0
LINE
  5
F9D
  8
0
 62
     0
 10
618.33761017454356
 20
34.5
 30
0.0
 11
634.33483214571675
 21
34.5
 31
0.0
  0
LINE
  5
F9E
  8
0
 62
     0
 10
843.07962549131264
 20
34.5
 30
0.0
 11
856.33761017454333
 21
34.5
 31
0.0
  0
LINE
  5
F9F
  8
0
 62
     0
 10
579.08761017454344
 20
34.5
 30
0.0
 11
592.33761017454265
 21
34.5
 31
0.0
  0
LINE
  5
FA0
  8
0
 62
     0
 10
719.83761017454344
 20
36.0
 30
0.0
 11
733.08761017454253
 21
36.0
 31
0.0
  0
LINE
  5
FA1
  8
0
 62
     0
 10
702.32962549131264
 20
36.0
 30
0.0
 11
715.58761017454333
 21
36.0
 31
0.0
  0
LINE
  5
FA2
  8
0
 62
     0
 10
759.08761017454344
 20
36.0
 30
0.0
 11
775.08483214571675
 21
36.0
 31
0.0
  0
LINE
  5
FA3
  8
0
 62
     0
 10
660.33009577529003
 20
36.0
 30
0.0
 11
676.3466098292148
 21
36.0
 31
0.0
  0
LINE
  5
FA4
  8
0
 62
     0
 10
801.08009577528981
 20
36.0
 30
0.0
 11
817.09660982921469
 21
36.0
 31
0.0
  0
LINE
  5
FA5
  8
0
 62
     0
 10
618.33761017454356
 20
36.0
 30
0.0
 11
634.33483214571675
 21
36.0
 31
0.0
  0
LINE
  5
FA6
  8
0
 62
     0
 10
843.07962549131264
 20
36.0
 30
0.0
 11
856.33761017454333
 21
36.0
 31
0.0
  0
LINE
  5
FA7
  8
0
 62
     0
 10
579.08761017454344
 20
36.0
 30
0.0
 11
592.33761017454265
 21
36.0
 31
0.0
  0
LINE
  5
FA8
  8
0
 62
     0
 10
719.83761017454344
 20
37.5
 30
0.0
 11
733.08761017454253
 21
37.5
 31
0.0
  0
LINE
  5
FA9
  8
0
 62
     0
 10
702.32962549131264
 20
37.5
 30
0.0
 11
715.58761017454333
 21
37.5
 31
0.0
  0
LINE
  5
FAA
  8
0
 62
     0
 10
759.08761017454344
 20
37.5
 30
0.0
 11
775.08483214571675
 21
37.5
 31
0.0
  0
LINE
  5
FAB
  8
0
 62
     0
 10
660.33009577529003
 20
37.5
 30
0.0
 11
676.3466098292148
 21
37.5
 31
0.0
  0
LINE
  5
FAC
  8
0
 62
     0
 10
801.08009577528981
 20
37.5
 30
0.0
 11
817.09660982921469
 21
37.5
 31
0.0
  0
LINE
  5
FAD
  8
0
 62
     0
 10
618.33761017454356
 20
37.5
 30
0.0
 11
634.33483214571675
 21
37.5
 31
0.0
  0
LINE
  5
FAE
  8
0
 62
     0
 10
843.07962549131264
 20
37.5
 30
0.0
 11
856.33761017454333
 21
37.5
 31
0.0
  0
LINE
  5
FAF
  8
0
 62
     0
 10
579.08761017454344
 20
37.5
 30
0.0
 11
592.33761017454265
 21
37.5
 31
0.0
  0
LINE
  5
FB0
  8
0
 62
     0
 10
719.83761017454344
 20
39.0
 30
0.0
 11
733.08761017454253
 21
39.0
 31
0.0
  0
LINE
  5
FB1
  8
0
 62
     0
 10
702.32962549131264
 20
39.0
 30
0.0
 11
715.58761017454333
 21
39.0
 31
0.0
  0
LINE
  5
FB2
  8
0
 62
     0
 10
759.08761017454344
 20
39.0
 30
0.0
 11
775.08483214571675
 21
39.0
 31
0.0
  0
LINE
  5
FB3
  8
0
 62
     0
 10
660.33009577529003
 20
39.0
 30
0.0
 11
676.3466098292148
 21
39.0
 31
0.0
  0
LINE
  5
FB4
  8
0
 62
     0
 10
801.08009577528981
 20
39.0
 30
0.0
 11
817.09660982921469
 21
39.0
 31
0.0
  0
LINE
  5
FB5
  8
0
 62
     0
 10
618.33761017454356
 20
39.0
 30
0.0
 11
634.33483214571675
 21
39.0
 31
0.0
  0
LINE
  5
FB6
  8
0
 62
     0
 10
843.07962549131264
 20
39.0
 30
0.0
 11
856.33761017454333
 21
39.0
 31
0.0
  0
LINE
  5
FB7
  8
0
 62
     0
 10
579.08761017454344
 20
39.0
 30
0.0
 11
592.33761017454265
 21
39.0
 31
0.0
  0
LINE
  5
FB8
  8
0
 62
     0
 10
719.83761017454344
 20
40.499999999999993
 30
0.0
 11
733.08761017454253
 21
40.499999999999993
 31
0.0
  0
LINE
  5
FB9
  8
0
 62
     0
 10
702.32962549131264
 20
40.499999999999993
 30
0.0
 11
715.58761017454333
 21
40.499999999999993
 31
0.0
  0
LINE
  5
FBA
  8
0
 62
     0
 10
759.08761017454344
 20
40.499999999999993
 30
0.0
 11
775.08483214571675
 21
40.499999999999993
 31
0.0
  0
LINE
  5
FBB
  8
0
 62
     0
 10
660.33009577529003
 20
40.499999999999993
 30
0.0
 11
676.3466098292148
 21
40.499999999999993
 31
0.0
  0
LINE
  5
FBC
  8
0
 62
     0
 10
801.08009577528981
 20
40.499999999999993
 30
0.0
 11
817.09660982921469
 21
40.499999999999993
 31
0.0
  0
LINE
  5
FBD
  8
0
 62
     0
 10
618.33761017454356
 20
40.499999999999993
 30
0.0
 11
634.33483214571675
 21
40.499999999999993
 31
0.0
  0
LINE
  5
FBE
  8
0
 62
     0
 10
843.07962549131264
 20
40.499999999999993
 30
0.0
 11
856.33761017454333
 21
40.499999999999993
 31
0.0
  0
LINE
  5
FBF
  8
0
 62
     0
 10
579.08761017454344
 20
40.499999999999993
 30
0.0
 11
592.33761017454265
 21
40.499999999999993
 31
0.0
  0
LINE
  5
FC0
  8
0
 62
     0
 10
719.83761017454333
 20
42.0
 30
0.0
 11
733.08761017454253
 21
42.0
 31
0.0
  0
LINE
  5
FC1
  8
0
 62
     0
 10
702.32962549131264
 20
42.0
 30
0.0
 11
715.58761017454333
 21
42.0
 31
0.0
  0
LINE
  5
FC2
  8
0
 62
     0
 10
759.08761017454344
 20
42.0
 30
0.0
 11
775.08483214571675
 21
42.0
 31
0.0
  0
LINE
  5
FC3
  8
0
 62
     0
 10
660.33009577529003
 20
42.0
 30
0.0
 11
676.3466098292148
 21
42.0
 31
0.0
  0
LINE
  5
FC4
  8
0
 62
     0
 10
801.08009577528981
 20
42.0
 30
0.0
 11
817.09660982921469
 21
42.0
 31
0.0
  0
LINE
  5
FC5
  8
0
 62
     0
 10
618.33761017454356
 20
42.0
 30
0.0
 11
634.33483214571675
 21
42.0
 31
0.0
  0
LINE
  5
FC6
  8
0
 62
     0
 10
843.07962549131264
 20
42.0
 30
0.0
 11
856.33761017454333
 21
42.0
 31
0.0
  0
LINE
  5
FC7
  8
0
 62
     0
 10
579.08761017454333
 20
42.0
 30
0.0
 11
592.33761017454265
 21
42.0
 31
0.0
  0
LINE
  5
FC8
  8
0
 62
     0
 10
719.83761017454333
 20
43.5
 30
0.0
 11
733.08761017454253
 21
43.5
 31
0.0
  0
LINE
  5
FC9
  8
0
 62
     0
 10
702.32962549131264
 20
43.5
 30
0.0
 11
715.58761017454333
 21
43.5
 31
0.0
  0
LINE
  5
FCA
  8
0
 62
     0
 10
759.08761017454344
 20
43.5
 30
0.0
 11
775.08483214571675
 21
43.5
 31
0.0
  0
LINE
  5
FCB
  8
0
 62
     0
 10
660.33009577529003
 20
43.5
 30
0.0
 11
676.3466098292148
 21
43.5
 31
0.0
  0
LINE
  5
FCC
  8
0
 62
     0
 10
801.08009577528981
 20
43.5
 30
0.0
 11
817.09660982921469
 21
43.5
 31
0.0
  0
LINE
  5
FCD
  8
0
 62
     0
 10
618.33761017454356
 20
43.5
 30
0.0
 11
634.33483214571675
 21
43.5
 31
0.0
  0
LINE
  5
FCE
  8
0
 62
     0
 10
843.07962549131264
 20
43.5
 30
0.0
 11
856.33761017454333
 21
43.5
 31
0.0
  0
LINE
  5
FCF
  8
0
 62
     0
 10
579.08761017454333
 20
43.5
 30
0.0
 11
592.33761017454265
 21
43.5
 31
0.0
  0
LINE
  5
FD0
  8
0
 62
     0
 10
719.83761017454333
 20
45.0
 30
0.0
 11
733.08761017454253
 21
45.0
 31
0.0
  0
LINE
  5
FD1
  8
0
 62
     0
 10
702.32962549131264
 20
45.0
 30
0.0
 11
715.58761017454333
 21
45.0
 31
0.0
  0
LINE
  5
FD2
  8
0
 62
     0
 10
759.08761017454344
 20
45.0
 30
0.0
 11
775.08483214571675
 21
45.0
 31
0.0
  0
LINE
  5
FD3
  8
0
 62
     0
 10
660.33009577529003
 20
45.0
 30
0.0
 11
676.3466098292148
 21
45.0
 31
0.0
  0
LINE
  5
FD4
  8
0
 62
     0
 10
801.08009577528981
 20
45.0
 30
0.0
 11
817.09660982921469
 21
45.0
 31
0.0
  0
LINE
  5
FD5
  8
0
 62
     0
 10
618.33761017454356
 20
45.0
 30
0.0
 11
634.33483214571675
 21
45.0
 31
0.0
  0
LINE
  5
FD6
  8
0
 62
     0
 10
843.07962549131264
 20
45.0
 30
0.0
 11
856.33761017454333
 21
45.0
 31
0.0
  0
LINE
  5
FD7
  8
0
 62
     0
 10
579.08761017454333
 20
45.0
 30
0.0
 11
592.33761017454265
 21
45.0
 31
0.0
  0
LINE
  5
FD8
  8
0
 62
     0
 10
719.83761017454333
 20
46.5
 30
0.0
 11
733.08761017454253
 21
46.5
 31
0.0
  0
LINE
  5
FD9
  8
0
 62
     0
 10
702.32962549131264
 20
46.5
 30
0.0
 11
715.58761017454322
 21
46.5
 31
0.0
  0
LINE
  5
FDA
  8
0
 62
     0
 10
759.08761017454344
 20
46.5
 30
0.0
 11
775.08483214571675
 21
46.5
 31
0.0
  0
LINE
  5
FDB
  8
0
 62
     0
 10
660.33009577529003
 20
46.5
 30
0.0
 11
676.3466098292148
 21
46.5
 31
0.0
  0
LINE
  5
FDC
  8
0
 62
     0
 10
801.08009577528981
 20
46.5
 30
0.0
 11
817.09660982921469
 21
46.5
 31
0.0
  0
LINE
  5
FDD
  8
0
 62
     0
 10
618.33761017454356
 20
46.5
 30
0.0
 11
634.33483214571675
 21
46.5
 31
0.0
  0
LINE
  5
FDE
  8
0
 62
     0
 10
843.07962549131264
 20
46.5
 30
0.0
 11
856.3376101745431
 21
46.5
 31
0.0
  0
LINE
  5
FDF
  8
0
 62
     0
 10
579.08761017454333
 20
46.5
 30
0.0
 11
592.33761017454265
 21
46.5
 31
0.0
  0
LINE
  5
FE0
  8
0
 62
     0
 10
719.83761017454333
 20
48.0
 30
0.0
 11
733.08761017454253
 21
48.0
 31
0.0
  0
LINE
  5
FE1
  8
0
 62
     0
 10
702.32962549131264
 20
48.0
 30
0.0
 11
715.58761017454322
 21
48.0
 31
0.0
  0
LINE
  5
FE2
  8
0
 62
     0
 10
759.08761017454344
 20
48.0
 30
0.0
 11
775.08483214571675
 21
48.0
 31
0.0
  0
LINE
  5
FE3
  8
0
 62
     0
 10
660.33009577529003
 20
48.0
 30
0.0
 11
676.3466098292148
 21
48.0
 31
0.0
  0
LINE
  5
FE4
  8
0
 62
     0
 10
801.08009577528981
 20
48.0
 30
0.0
 11
817.09660982921469
 21
48.0
 31
0.0
  0
LINE
  5
FE5
  8
0
 62
     0
 10
618.33761017454356
 20
48.0
 30
0.0
 11
634.33483214571675
 21
48.0
 31
0.0
  0
LINE
  5
FE6
  8
0
 62
     0
 10
843.07962549131264
 20
48.0
 30
0.0
 11
856.3376101745431
 21
48.0
 31
0.0
  0
LINE
  5
FE7
  8
0
 62
     0
 10
579.08761017454333
 20
48.0
 30
0.0
 11
592.33761017454265
 21
48.0
 31
0.0
  0
LINE
  5
FE8
  8
0
 62
     0
 10
719.83761017454333
 20
49.5
 30
0.0
 11
733.08761017454253
 21
49.5
 31
0.0
  0
LINE
  5
FE9
  8
0
 62
     0
 10
702.32962549131264
 20
49.5
 30
0.0
 11
715.58761017454322
 21
49.5
 31
0.0
  0
LINE
  5
FEA
  8
0
 62
     0
 10
759.08761017454344
 20
49.5
 30
0.0
 11
775.08483214571675
 21
49.5
 31
0.0
  0
LINE
  5
FEB
  8
0
 62
     0
 10
660.33009577529003
 20
49.5
 30
0.0
 11
676.3466098292148
 21
49.5
 31
0.0
  0
LINE
  5
FEC
  8
0
 62
     0
 10
801.08009577528981
 20
49.5
 30
0.0
 11
817.09660982921469
 21
49.5
 31
0.0
  0
LINE
  5
FED
  8
0
 62
     0
 10
618.33761017454356
 20
49.5
 30
0.0
 11
634.33483214571675
 21
49.5
 31
0.0
  0
LINE
  5
FEE
  8
0
 62
     0
 10
843.07962549131264
 20
49.5
 30
0.0
 11
856.3376101745431
 21
49.5
 31
0.0
  0
LINE
  5
FEF
  8
0
 62
     0
 10
579.08761017454333
 20
49.5
 30
0.0
 11
592.33761017454265
 21
49.5
 31
0.0
  0
LINE
  5
FF0
  8
0
 62
     0
 10
719.83761017454333
 20
51.0
 30
0.0
 11
733.08761017454253
 21
51.0
 31
0.0
  0
LINE
  5
FF1
  8
0
 62
     0
 10
702.32962549131264
 20
51.0
 30
0.0
 11
715.58761017454322
 21
51.0
 31
0.0
  0
LINE
  5
FF2
  8
0
 62
     0
 10
759.08761017454344
 20
51.0
 30
0.0
 11
775.08483214571675
 21
51.0
 31
0.0
  0
LINE
  5
FF3
  8
0
 62
     0
 10
660.33009577529003
 20
51.0
 30
0.0
 11
676.3466098292148
 21
51.0
 31
0.0
  0
LINE
  5
FF4
  8
0
 62
     0
 10
801.08009577528981
 20
51.0
 30
0.0
 11
817.09660982921469
 21
51.0
 31
0.0
  0
LINE
  5
FF5
  8
0
 62
     0
 10
618.33761017454356
 20
51.0
 30
0.0
 11
634.33483214571675
 21
51.0
 31
0.0
  0
LINE
  5
FF6
  8
0
 62
     0
 10
843.07962549131264
 20
51.0
 30
0.0
 11
856.3376101745431
 21
51.0
 31
0.0
  0
LINE
  5
FF7
  8
0
 62
     0
 10
579.08761017454333
 20
51.0
 30
0.0
 11
592.33761017454265
 21
51.0
 31
0.0
  0
LINE
  5
FF8
  8
0
 62
     0
 10
719.83761017454322
 20
52.5
 30
0.0
 11
733.08761017454253
 21
52.5
 31
0.0
  0
LINE
  5
FF9
  8
0
 62
     0
 10
702.32962549131264
 20
52.5
 30
0.0
 11
715.58761017454322
 21
52.5
 31
0.0
  0
LINE
  5
FFA
  8
0
 62
     0
 10
759.08761017454344
 20
52.5
 30
0.0
 11
775.08483214571675
 21
52.5
 31
0.0
  0
LINE
  5
FFB
  8
0
 62
     0
 10
660.33009577529003
 20
52.5
 30
0.0
 11
676.3466098292148
 21
52.5
 31
0.0
  0
LINE
  5
FFC
  8
0
 62
     0
 10
801.08009577528981
 20
52.5
 30
0.0
 11
817.09660982921469
 21
52.5
 31
0.0
  0
LINE
  5
FFD
  8
0
 62
     0
 10
618.33761017454356
 20
52.5
 30
0.0
 11
634.33483214571675
 21
52.5
 31
0.0
  0
LINE
  5
FFE
  8
0
 62
     0
 10
843.07962549131264
 20
52.5
 30
0.0
 11
856.3376101745431
 21
52.5
 31
0.0
  0
LINE
  5
FFF
  8
0
 62
     0
 10
579.08761017454322
 20
52.5
 30
0.0
 11
592.33761017454265
 21
52.5
 31
0.0
  0
LINE
  5
1000
  8
0
 62
     0
 10
719.83761017454322
 20
54.0
 30
0.0
 11
733.08761017454253
 21
54.0
 31
0.0
  0
LINE
  5
1001
  8
0
 62
     0
 10
702.32962549131264
 20
54.0
 30
0.0
 11
715.58761017454322
 21
54.0
 31
0.0
  0
LINE
  5
1002
  8
0
 62
     0
 10
759.08761017454344
 20
54.0
 30
0.0
 11
775.08483214571675
 21
54.0
 31
0.0
  0
LINE
  5
1003
  8
0
 62
     0
 10
660.33009577529003
 20
54.0
 30
0.0
 11
676.3466098292148
 21
54.0
 31
0.0
  0
LINE
  5
1004
  8
0
 62
     0
 10
801.08009577528981
 20
54.0
 30
0.0
 11
817.09660982921469
 21
54.0
 31
0.0
  0
LINE
  5
1005
  8
0
 62
     0
 10
618.33761017454356
 20
54.0
 30
0.0
 11
634.33483214571675
 21
54.0
 31
0.0
  0
LINE
  5
1006
  8
0
 62
     0
 10
843.07962549131264
 20
54.0
 30
0.0
 11
856.3376101745431
 21
54.0
 31
0.0
  0
LINE
  5
1007
  8
0
 62
     0
 10
579.08761017454322
 20
54.0
 30
0.0
 11
592.33761017454265
 21
54.0
 31
0.0
  0
LINE
  5
1008
  8
0
 62
     0
 10
719.83761017454322
 20
55.5
 30
0.0
 11
733.08761017454253
 21
55.5
 31
0.0
  0
LINE
  5
1009
  8
0
 62
     0
 10
702.32962549131264
 20
55.5
 30
0.0
 11
715.58761017454322
 21
55.5
 31
0.0
  0
LINE
  5
100A
  8
0
 62
     0
 10
759.08761017454344
 20
55.5
 30
0.0
 11
775.08483214571675
 21
55.5
 31
0.0
  0
LINE
  5
100B
  8
0
 62
     0
 10
660.33009577529003
 20
55.5
 30
0.0
 11
676.3466098292148
 21
55.5
 31
0.0
  0
LINE
  5
100C
  8
0
 62
     0
 10
801.08009577528981
 20
55.5
 30
0.0
 11
817.09660982921469
 21
55.5
 31
0.0
  0
LINE
  5
100D
  8
0
 62
     0
 10
618.33761017454356
 20
55.5
 30
0.0
 11
634.33483214571675
 21
55.5
 31
0.0
  0
LINE
  5
100E
  8
0
 62
     0
 10
843.07962549131264
 20
55.5
 30
0.0
 11
856.3376101745431
 21
55.5
 31
0.0
  0
LINE
  5
100F
  8
0
 62
     0
 10
579.08761017454322
 20
55.5
 30
0.0
 11
592.33761017454265
 21
55.5
 31
0.0
  0
LINE
  5
1010
  8
0
 62
     0
 10
719.83761017454322
 20
57.0
 30
0.0
 11
733.08761017454253
 21
57.0
 31
0.0
  0
LINE
  5
1011
  8
0
 62
     0
 10
702.32962549131264
 20
57.0
 30
0.0
 11
715.58761017454322
 21
57.0
 31
0.0
  0
LINE
  5
1012
  8
0
 62
     0
 10
759.08761017454344
 20
57.0
 30
0.0
 11
775.08483214571675
 21
57.0
 31
0.0
  0
LINE
  5
1013
  8
0
 62
     0
 10
660.33009577529003
 20
57.0
 30
0.0
 11
676.3466098292148
 21
57.0
 31
0.0
  0
LINE
  5
1014
  8
0
 62
     0
 10
801.08009577528981
 20
57.0
 30
0.0
 11
817.09660982921469
 21
57.0
 31
0.0
  0
LINE
  5
1015
  8
0
 62
     0
 10
618.33761017454356
 20
57.0
 30
0.0
 11
634.33483214571675
 21
57.0
 31
0.0
  0
LINE
  5
1016
  8
0
 62
     0
 10
843.07962549131264
 20
57.0
 30
0.0
 11
856.3376101745431
 21
57.0
 31
0.0
  0
LINE
  5
1017
  8
0
 62
     0
 10
579.08761017454322
 20
57.0
 30
0.0
 11
592.33761017454265
 21
57.0
 31
0.0
  0
LINE
  5
1018
  8
0
 62
     0
 10
719.83761017454322
 20
58.5
 30
0.0
 11
733.08761017454253
 21
58.5
 31
0.0
  0
LINE
  5
1019
  8
0
 62
     0
 10
702.32962549131264
 20
58.5
 30
0.0
 11
715.58761017454299
 21
58.5
 31
0.0
  0
LINE
  5
101A
  8
0
 62
     0
 10
759.08761017454344
 20
58.5
 30
0.0
 11
775.08483214571675
 21
58.5
 31
0.0
  0
LINE
  5
101B
  8
0
 62
     0
 10
660.33009577529003
 20
58.5
 30
0.0
 11
676.3466098292148
 21
58.5
 31
0.0
  0
LINE
  5
101C
  8
0
 62
     0
 10
801.08009577528981
 20
58.5
 30
0.0
 11
817.09660982921469
 21
58.5
 31
0.0
  0
LINE
  5
101D
  8
0
 62
     0
 10
618.33761017454356
 20
58.5
 30
0.0
 11
634.33483214571675
 21
58.5
 31
0.0
  0
LINE
  5
101E
  8
0
 62
     0
 10
843.07962549131264
 20
58.5
 30
0.0
 11
856.3376101745431
 21
58.5
 31
0.0
  0
LINE
  5
101F
  8
0
 62
     0
 10
579.08761017454322
 20
58.5
 30
0.0
 11
592.33761017454265
 21
58.5
 31
0.0
  0
LINE
  5
1020
  8
0
 62
     0
 10
719.83761017454322
 20
60.0
 30
0.0
 11
733.08761017454253
 21
60.0
 31
0.0
  0
LINE
  5
1021
  8
0
 62
     0
 10
702.32962549131264
 20
60.0
 30
0.0
 11
715.58761017454299
 21
60.0
 31
0.0
  0
LINE
  5
1022
  8
0
 62
     0
 10
759.08761017454344
 20
60.0
 30
0.0
 11
775.08483214571675
 21
60.0
 31
0.0
  0
LINE
  5
1023
  8
0
 62
     0
 10
660.33009577529003
 20
60.0
 30
0.0
 11
676.3466098292148
 21
60.0
 31
0.0
  0
LINE
  5
1024
  8
0
 62
     0
 10
801.08009577528981
 20
60.0
 30
0.0
 11
817.09660982921469
 21
60.0
 31
0.0
  0
LINE
  5
1025
  8
0
 62
     0
 10
618.33761017454356
 20
60.0
 30
0.0
 11
634.33483214571675
 21
60.0
 31
0.0
  0
LINE
  5
1026
  8
0
 62
     0
 10
843.07962549131264
 20
60.0
 30
0.0
 11
856.3376101745431
 21
60.0
 31
0.0
  0
LINE
  5
1027
  8
0
 62
     0
 10
579.08761017454322
 20
60.0
 30
0.0
 11
592.33761017454265
 21
60.0
 31
0.0
  0
LINE
  5
1028
  8
0
 62
     0
 10
719.83761017454322
 20
61.5
 30
0.0
 11
733.08761017454253
 21
61.5
 31
0.0
  0
LINE
  5
1029
  8
0
 62
     0
 10
702.32962549131264
 20
61.5
 30
0.0
 11
715.58761017454299
 21
61.5
 31
0.0
  0
LINE
  5
102A
  8
0
 62
     0
 10
759.08761017454344
 20
61.5
 30
0.0
 11
775.08483214571675
 21
61.5
 31
0.0
  0
LINE
  5
102B
  8
0
 62
     0
 10
660.33009577529003
 20
61.5
 30
0.0
 11
676.3466098292148
 21
61.5
 31
0.0
  0
LINE
  5
102C
  8
0
 62
     0
 10
801.08009577528981
 20
61.5
 30
0.0
 11
817.09660982921469
 21
61.5
 31
0.0
  0
LINE
  5
102D
  8
0
 62
     0
 10
618.33761017454356
 20
61.5
 30
0.0
 11
634.33483214571675
 21
61.5
 31
0.0
  0
LINE
  5
102E
  8
0
 62
     0
 10
843.07962549131264
 20
61.5
 30
0.0
 11
856.3376101745431
 21
61.5
 31
0.0
  0
LINE
  5
102F
  8
0
 62
     0
 10
579.08761017454322
 20
61.5
 30
0.0
 11
592.33761017454265
 21
61.5
 31
0.0
  0
LINE
  5
1030
  8
0
 62
     0
 10
719.8376101745431
 20
63.0
 30
0.0
 11
733.08761017454253
 21
63.0
 31
0.0
  0
LINE
  5
1031
  8
0
 62
     0
 10
702.32962549131264
 20
63.0
 30
0.0
 11
715.58761017454299
 21
63.0
 31
0.0
  0
LINE
  5
1032
  8
0
 62
     0
 10
759.08761017454344
 20
63.0
 30
0.0
 11
775.08483214571675
 21
63.0
 31
0.0
  0
LINE
  5
1033
  8
0
 62
     0
 10
660.33009577529003
 20
63.0
 30
0.0
 11
676.3466098292148
 21
63.0
 31
0.0
  0
LINE
  5
1034
  8
0
 62
     0
 10
801.08009577528981
 20
63.0
 30
0.0
 11
817.09660982921469
 21
63.0
 31
0.0
  0
LINE
  5
1035
  8
0
 62
     0
 10
618.33761017454356
 20
63.0
 30
0.0
 11
634.33483214571675
 21
63.0
 31
0.0
  0
LINE
  5
1036
  8
0
 62
     0
 10
843.07962549131264
 20
63.0
 30
0.0
 11
856.3376101745431
 21
63.0
 31
0.0
  0
LINE
  5
1037
  8
0
 62
     0
 10
579.0876101745431
 20
63.0
 30
0.0
 11
592.33761017454265
 21
63.0
 31
0.0
  0
LINE
  5
1038
  8
0
 62
     0
 10
719.8376101745431
 20
64.5
 30
0.0
 11
733.08761017454253
 21
64.5
 31
0.0
  0
LINE
  5
1039
  8
0
 62
     0
 10
702.32962549131264
 20
64.5
 30
0.0
 11
715.58761017454299
 21
64.5
 31
0.0
  0
LINE
  5
103A
  8
0
 62
     0
 10
759.08761017454344
 20
64.5
 30
0.0
 11
775.08483214571675
 21
64.5
 31
0.0
  0
LINE
  5
103B
  8
0
 62
     0
 10
660.33009577529003
 20
64.5
 30
0.0
 11
676.3466098292148
 21
64.5
 31
0.0
  0
LINE
  5
103C
  8
0
 62
     0
 10
801.08009577528981
 20
64.5
 30
0.0
 11
817.09660982921469
 21
64.5
 31
0.0
  0
LINE
  5
103D
  8
0
 62
     0
 10
618.33761017454356
 20
64.5
 30
0.0
 11
634.33483214571675
 21
64.5
 31
0.0
  0
LINE
  5
103E
  8
0
 62
     0
 10
843.07962549131264
 20
64.5
 30
0.0
 11
856.3376101745431
 21
64.5
 31
0.0
  0
LINE
  5
103F
  8
0
 62
     0
 10
579.0876101745431
 20
64.5
 30
0.0
 11
592.33761017454265
 21
64.5
 31
0.0
  0
LINE
  5
1040
  8
0
 62
     0
 10
719.8376101745431
 20
66.0
 30
0.0
 11
733.08761017454253
 21
66.0
 31
0.0
  0
LINE
  5
1041
  8
0
 62
     0
 10
702.32962549131264
 20
66.0
 30
0.0
 11
715.58761017454299
 21
66.0
 31
0.0
  0
LINE
  5
1042
  8
0
 62
     0
 10
759.08761017454344
 20
66.0
 30
0.0
 11
775.08483214571675
 21
66.0
 31
0.0
  0
LINE
  5
1043
  8
0
 62
     0
 10
660.33009577529003
 20
66.0
 30
0.0
 11
676.3466098292148
 21
66.0
 31
0.0
  0
LINE
  5
1044
  8
0
 62
     0
 10
801.08009577528981
 20
66.0
 30
0.0
 11
817.09660982921469
 21
66.0
 31
0.0
  0
LINE
  5
1045
  8
0
 62
     0
 10
618.33761017454356
 20
66.0
 30
0.0
 11
634.33483214571675
 21
66.0
 31
0.0
  0
LINE
  5
1046
  8
0
 62
     0
 10
843.07962549131264
 20
66.0
 30
0.0
 11
856.3376101745431
 21
66.0
 31
0.0
  0
LINE
  5
1047
  8
0
 62
     0
 10
579.0876101745431
 20
66.0
 30
0.0
 11
592.33761017454265
 21
66.0
 31
0.0
  0
LINE
  5
1048
  8
0
 62
     0
 10
719.8376101745431
 20
67.5
 30
0.0
 11
733.08761017454253
 21
67.5
 31
0.0
  0
LINE
  5
1049
  8
0
 62
     0
 10
702.32962549131264
 20
67.5
 30
0.0
 11
715.58761017454299
 21
67.5
 31
0.0
  0
LINE
  5
104A
  8
0
 62
     0
 10
759.08761017454344
 20
67.5
 30
0.0
 11
775.08483214571675
 21
67.5
 31
0.0
  0
LINE
  5
104B
  8
0
 62
     0
 10
660.33009577529003
 20
67.5
 30
0.0
 11
676.3466098292148
 21
67.5
 31
0.0
  0
LINE
  5
104C
  8
0
 62
     0
 10
801.08009577528981
 20
67.5
 30
0.0
 11
817.09660982921469
 21
67.5
 31
0.0
  0
LINE
  5
104D
  8
0
 62
     0
 10
618.33761017454356
 20
67.5
 30
0.0
 11
634.33483214571675
 21
67.5
 31
0.0
  0
LINE
  5
104E
  8
0
 62
     0
 10
843.07962549131264
 20
67.5
 30
0.0
 11
856.3376101745431
 21
67.5
 31
0.0
  0
LINE
  5
104F
  8
0
 62
     0
 10
579.0876101745431
 20
67.5
 30
0.0
 11
592.33761017454265
 21
67.5
 31
0.0
  0
LINE
  5
1050
  8
0
 62
     0
 10
719.8376101745431
 20
69.0
 30
0.0
 11
733.08761017454253
 21
69.0
 31
0.0
  0
LINE
  5
1051
  8
0
 62
     0
 10
702.32962549131264
 20
69.0
 30
0.0
 11
715.58761017454287
 21
69.0
 31
0.0
  0
LINE
  5
1052
  8
0
 62
     0
 10
759.08761017454344
 20
69.0
 30
0.0
 11
775.08483214571675
 21
69.0
 31
0.0
  0
LINE
  5
1053
  8
0
 62
     0
 10
660.33009577529003
 20
69.0
 30
0.0
 11
676.3466098292148
 21
69.0
 31
0.0
  0
LINE
  5
1054
  8
0
 62
     0
 10
801.08009577528981
 20
69.0
 30
0.0
 11
817.09660982921469
 21
69.0
 31
0.0
  0
LINE
  5
1055
  8
0
 62
     0
 10
618.33761017454356
 20
69.0
 30
0.0
 11
634.33483214571675
 21
69.0
 31
0.0
  0
LINE
  5
1056
  8
0
 62
     0
 10
843.07962549131264
 20
69.0
 30
0.0
 11
856.33761017454287
 21
69.0
 31
0.0
  0
LINE
  5
1057
  8
0
 62
     0
 10
579.0876101745431
 20
69.0
 30
0.0
 11
592.33761017454265
 21
69.0
 31
0.0
  0
LINE
  5
1058
  8
0
 62
     0
 10
719.8376101745431
 20
70.5
 30
0.0
 11
733.08761017454253
 21
70.5
 31
0.0
  0
LINE
  5
1059
  8
0
 62
     0
 10
702.32962549131264
 20
70.5
 30
0.0
 11
715.58761017454287
 21
70.5
 31
0.0
  0
LINE
  5
105A
  8
0
 62
     0
 10
759.08761017454344
 20
70.5
 30
0.0
 11
775.08483214571675
 21
70.5
 31
0.0
  0
LINE
  5
105B
  8
0
 62
     0
 10
660.33009577529003
 20
70.5
 30
0.0
 11
676.3466098292148
 21
70.5
 31
0.0
  0
LINE
  5
105C
  8
0
 62
     0
 10
801.08009577528981
 20
70.5
 30
0.0
 11
817.09660982921469
 21
70.5
 31
0.0
  0
LINE
  5
105D
  8
0
 62
     0
 10
618.33761017454356
 20
70.5
 30
0.0
 11
634.33483214571675
 21
70.5
 31
0.0
  0
LINE
  5
105E
  8
0
 62
     0
 10
843.07962549131264
 20
70.5
 30
0.0
 11
856.33761017454287
 21
70.5
 31
0.0
  0
LINE
  5
105F
  8
0
 62
     0
 10
579.0876101745431
 20
70.5
 30
0.0
 11
592.33761017454265
 21
70.5
 31
0.0
  0
LINE
  5
1060
  8
0
 62
     0
 10
719.8376101745431
 20
72.0
 30
0.0
 11
733.08761017454253
 21
72.0
 31
0.0
  0
LINE
  5
1061
  8
0
 62
     0
 10
702.32962549131264
 20
72.0
 30
0.0
 11
715.58761017454287
 21
72.0
 31
0.0
  0
LINE
  5
1062
  8
0
 62
     0
 10
759.08761017454344
 20
72.0
 30
0.0
 11
775.08483214571675
 21
72.0
 31
0.0
  0
LINE
  5
1063
  8
0
 62
     0
 10
660.33009577529003
 20
72.0
 30
0.0
 11
676.3466098292148
 21
72.0
 31
0.0
  0
LINE
  5
1064
  8
0
 62
     0
 10
801.08009577528981
 20
72.0
 30
0.0
 11
817.09660982921469
 21
72.0
 31
0.0
  0
LINE
  5
1065
  8
0
 62
     0
 10
618.33761017454356
 20
72.0
 30
0.0
 11
634.33483214571675
 21
72.0
 31
0.0
  0
LINE
  5
1066
  8
0
 62
     0
 10
843.07962549131264
 20
72.0
 30
0.0
 11
856.33761017454287
 21
72.0
 31
0.0
  0
LINE
  5
1067
  8
0
 62
     0
 10
579.0876101745431
 20
72.0
 30
0.0
 11
592.33761017454265
 21
72.0
 31
0.0
  0
LINE
  5
1068
  8
0
 62
     0
 10
719.83761017454299
 20
73.5
 30
0.0
 11
733.08761017454253
 21
73.5
 31
0.0
  0
LINE
  5
1069
  8
0
 62
     0
 10
702.32962549131264
 20
73.5
 30
0.0
 11
715.58761017454287
 21
73.5
 31
0.0
  0
LINE
  5
106A
  8
0
 62
     0
 10
759.08761017454344
 20
73.5
 30
0.0
 11
775.08483214571675
 21
73.5
 31
0.0
  0
LINE
  5
106B
  8
0
 62
     0
 10
660.33009577529003
 20
73.5
 30
0.0
 11
676.3466098292148
 21
73.5
 31
0.0
  0
LINE
  5
106C
  8
0
 62
     0
 10
801.08009577528981
 20
73.5
 30
0.0
 11
817.09660982921469
 21
73.5
 31
0.0
  0
LINE
  5
106D
  8
0
 62
     0
 10
618.33761017454356
 20
73.5
 30
0.0
 11
634.33483214571675
 21
73.5
 31
0.0
  0
LINE
  5
106E
  8
0
 62
     0
 10
843.07962549131264
 20
73.5
 30
0.0
 11
856.33761017454287
 21
73.5
 31
0.0
  0
LINE
  5
106F
  8
0
 62
     0
 10
579.08761017454287
 20
73.5
 30
0.0
 11
592.33761017454265
 21
73.5
 31
0.0
  0
LINE
  5
1070
  8
0
 62
     0
 10
719.83761017454299
 20
75.0
 30
0.0
 11
733.08761017454253
 21
75.0
 31
0.0
  0
LINE
  5
1071
  8
0
 62
     0
 10
702.32962549131264
 20
75.0
 30
0.0
 11
715.58761017454287
 21
75.0
 31
0.0
  0
LINE
  5
1072
  8
0
 62
     0
 10
759.08761017454344
 20
75.0
 30
0.0
 11
775.08483214571675
 21
75.0
 31
0.0
  0
LINE
  5
1073
  8
0
 62
     0
 10
660.33009577529003
 20
75.0
 30
0.0
 11
676.3466098292148
 21
75.0
 31
0.0
  0
LINE
  5
1074
  8
0
 62
     0
 10
801.08009577528981
 20
75.0
 30
0.0
 11
817.09660982921469
 21
75.0
 31
0.0
  0
LINE
  5
1075
  8
0
 62
     0
 10
618.33761017454356
 20
75.0
 30
0.0
 11
634.33483214571675
 21
75.0
 31
0.0
  0
LINE
  5
1076
  8
0
 62
     0
 10
843.07962549131264
 20
75.0
 30
0.0
 11
856.33761017454287
 21
75.0
 31
0.0
  0
LINE
  5
1077
  8
0
 62
     0
 10
579.08761017454287
 20
75.0
 30
0.0
 11
592.33761017454265
 21
75.0
 31
0.0
  0
LINE
  5
1078
  8
0
 62
     0
 10
719.83761017454299
 20
76.5
 30
0.0
 11
733.08761017454253
 21
76.5
 31
0.0
  0
LINE
  5
1079
  8
0
 62
     0
 10
702.32962549131264
 20
76.5
 30
0.0
 11
715.58761017454287
 21
76.5
 31
0.0
  0
LINE
  5
107A
  8
0
 62
     0
 10
759.08761017454344
 20
76.5
 30
0.0
 11
775.08483214571675
 21
76.5
 31
0.0
  0
LINE
  5
107B
  8
0
 62
     0
 10
660.33009577529003
 20
76.5
 30
0.0
 11
676.3466098292148
 21
76.5
 31
0.0
  0
LINE
  5
107C
  8
0
 62
     0
 10
801.08009577528981
 20
76.5
 30
0.0
 11
817.09660982921469
 21
76.5
 31
0.0
  0
LINE
  5
107D
  8
0
 62
     0
 10
618.33761017454356
 20
76.5
 30
0.0
 11
634.33483214571675
 21
76.5
 31
0.0
  0
LINE
  5
107E
  8
0
 62
     0
 10
843.07962549131264
 20
76.5
 30
0.0
 11
856.33761017454287
 21
76.5
 31
0.0
  0
LINE
  5
107F
  8
0
 62
     0
 10
579.08761017454287
 20
76.5
 30
0.0
 11
592.33761017454265
 21
76.5
 31
0.0
  0
LINE
  5
1080
  8
0
 62
     0
 10
719.83761017454299
 20
78.0
 30
0.0
 11
733.08761017454253
 21
78.0
 31
0.0
  0
LINE
  5
1081
  8
0
 62
     0
 10
702.32962549131264
 20
78.0
 30
0.0
 11
715.58761017454287
 21
78.0
 31
0.0
  0
LINE
  5
1082
  8
0
 62
     0
 10
759.08761017454344
 20
78.0
 30
0.0
 11
775.08483214571675
 21
78.0
 31
0.0
  0
LINE
  5
1083
  8
0
 62
     0
 10
660.33009577529003
 20
78.0
 30
0.0
 11
676.3466098292148
 21
78.0
 31
0.0
  0
LINE
  5
1084
  8
0
 62
     0
 10
801.08009577528981
 20
78.0
 30
0.0
 11
817.09660982921469
 21
78.0
 31
0.0
  0
LINE
  5
1085
  8
0
 62
     0
 10
618.33761017454356
 20
78.0
 30
0.0
 11
634.33483214571675
 21
78.0
 31
0.0
  0
LINE
  5
1086
  8
0
 62
     0
 10
843.07962549131264
 20
78.0
 30
0.0
 11
856.33761017454287
 21
78.0
 31
0.0
  0
LINE
  5
1087
  8
0
 62
     0
 10
579.08761017454287
 20
78.0
 30
0.0
 11
592.33761017454265
 21
78.0
 31
0.0
  0
LINE
  5
1088
  8
0
 62
     0
 10
719.83761017454299
 20
79.5
 30
0.0
 11
733.08761017454253
 21
79.5
 31
0.0
  0
LINE
  5
1089
  8
0
 62
     0
 10
702.32962549131264
 20
79.5
 30
0.0
 11
715.58761017454287
 21
79.5
 31
0.0
  0
LINE
  5
108A
  8
0
 62
     0
 10
759.08761017454344
 20
79.5
 30
0.0
 11
775.08483214571675
 21
79.5
 31
0.0
  0
LINE
  5
108B
  8
0
 62
     0
 10
660.33009577529003
 20
79.5
 30
0.0
 11
676.3466098292148
 21
79.5
 31
0.0
  0
LINE
  5
108C
  8
0
 62
     0
 10
801.08009577528981
 20
79.5
 30
0.0
 11
817.09660982921469
 21
79.5
 31
0.0
  0
LINE
  5
108D
  8
0
 62
     0
 10
618.33761017454356
 20
79.5
 30
0.0
 11
634.33483214571675
 21
79.5
 31
0.0
  0
LINE
  5
108E
  8
0
 62
     0
 10
843.07962549131264
 20
79.5
 30
0.0
 11
856.33761017454287
 21
79.5
 31
0.0
  0
LINE
  5
108F
  8
0
 62
     0
 10
579.08761017454287
 20
79.5
 30
0.0
 11
592.33761017454265
 21
79.5
 31
0.0
  0
LINE
  5
1090
  8
0
 62
     0
 10
719.83761017454299
 20
81.0
 30
0.0
 11
733.08761017454253
 21
81.0
 31
0.0
  0
LINE
  5
1091
  8
0
 62
     0
 10
702.32962549131264
 20
81.0
 30
0.0
 11
715.58761017454287
 21
81.0
 31
0.0
  0
LINE
  5
1092
  8
0
 62
     0
 10
759.08761017454344
 20
81.0
 30
0.0
 11
775.08483214571675
 21
81.0
 31
0.0
  0
LINE
  5
1093
  8
0
 62
     0
 10
660.33009577529003
 20
81.0
 30
0.0
 11
676.3466098292148
 21
81.0
 31
0.0
  0
LINE
  5
1094
  8
0
 62
     0
 10
801.08009577528981
 20
81.0
 30
0.0
 11
817.09660982921469
 21
81.0
 31
0.0
  0
LINE
  5
1095
  8
0
 62
     0
 10
618.33761017454356
 20
81.0
 30
0.0
 11
634.33483214571675
 21
81.0
 31
0.0
  0
LINE
  5
1096
  8
0
 62
     0
 10
843.07962549131264
 20
81.0
 30
0.0
 11
856.33761017454287
 21
81.0
 31
0.0
  0
LINE
  5
1097
  8
0
 62
     0
 10
579.08761017454287
 20
81.0
 30
0.0
 11
592.33761017454265
 21
81.0
 31
0.0
  0
LINE
  5
1098
  8
0
 62
     0
 10
719.83761017454299
 20
82.5
 30
0.0
 11
733.08761017454253
 21
82.5
 31
0.0
  0
LINE
  5
1099
  8
0
 62
     0
 10
702.32962549131264
 20
82.5
 30
0.0
 11
715.58761017454287
 21
82.5
 31
0.0
  0
LINE
  5
109A
  8
0
 62
     0
 10
759.08761017454344
 20
82.5
 30
0.0
 11
775.08483214571675
 21
82.5
 31
0.0
  0
LINE
  5
109B
  8
0
 62
     0
 10
660.33009577529003
 20
82.5
 30
0.0
 11
676.3466098292148
 21
82.5
 31
0.0
  0
LINE
  5
109C
  8
0
 62
     0
 10
801.08009577528981
 20
82.5
 30
0.0
 11
817.09660982921469
 21
82.5
 31
0.0
  0
LINE
  5
109D
  8
0
 62
     0
 10
618.33761017454356
 20
82.5
 30
0.0
 11
634.33483214571675
 21
82.5
 31
0.0
  0
LINE
  5
109E
  8
0
 62
     0
 10
843.07962549131264
 20
82.5
 30
0.0
 11
856.33761017454287
 21
82.5
 31
0.0
  0
LINE
  5
109F
  8
0
 62
     0
 10
579.08761017454287
 20
82.5
 30
0.0
 11
592.33761017454265
 21
82.5
 31
0.0
  0
LINE
  5
10A0
  8
0
 62
     0
 10
719.83761017454276
 20
84.0
 30
0.0
 11
733.08761017454253
 21
84.0
 31
0.0
  0
LINE
  5
10A1
  8
0
 62
     0
 10
702.32962549131264
 20
84.0
 30
0.0
 11
715.58761017454287
 21
84.0
 31
0.0
  0
LINE
  5
10A2
  8
0
 62
     0
 10
759.08761017454344
 20
84.0
 30
0.0
 11
775.08483214571675
 21
84.0
 31
0.0
  0
LINE
  5
10A3
  8
0
 62
     0
 10
660.33009577529003
 20
84.0
 30
0.0
 11
676.3466098292148
 21
84.0
 31
0.0
  0
LINE
  5
10A4
  8
0
 62
     0
 10
801.08009577528981
 20
84.0
 30
0.0
 11
817.09660982921469
 21
84.0
 31
0.0
  0
LINE
  5
10A5
  8
0
 62
     0
 10
618.33761017454356
 20
84.0
 30
0.0
 11
634.33483214571675
 21
84.0
 31
0.0
  0
LINE
  5
10A6
  8
0
 62
     0
 10
843.07962549131264
 20
84.0
 30
0.0
 11
856.33761017454287
 21
84.0
 31
0.0
  0
LINE
  5
10A7
  8
0
 62
     0
 10
579.08761017454276
 20
84.0
 30
0.0
 11
592.33761017454265
 21
84.0
 31
0.0
  0
LINE
  5
10A8
  8
0
 62
     0
 10
719.83761017454276
 20
85.5
 30
0.0
 11
733.08761017454253
 21
85.5
 31
0.0
  0
LINE
  5
10A9
  8
0
 62
     0
 10
702.32962549131264
 20
85.5
 30
0.0
 11
715.58761017454287
 21
85.5
 31
0.0
  0
LINE
  5
10AA
  8
0
 62
     0
 10
759.08761017454344
 20
85.5
 30
0.0
 11
775.08483214571675
 21
85.5
 31
0.0
  0
LINE
  5
10AB
  8
0
 62
     0
 10
660.33009577529003
 20
85.5
 30
0.0
 11
676.3466098292148
 21
85.5
 31
0.0
  0
LINE
  5
10AC
  8
0
 62
     0
 10
801.08009577528981
 20
85.5
 30
0.0
 11
817.09660982921469
 21
85.5
 31
0.0
  0
LINE
  5
10AD
  8
0
 62
     0
 10
618.33761017454356
 20
85.5
 30
0.0
 11
634.33483214571675
 21
85.5
 31
0.0
  0
LINE
  5
10AE
  8
0
 62
     0
 10
843.07962549131264
 20
85.5
 30
0.0
 11
856.33761017454287
 21
85.5
 31
0.0
  0
LINE
  5
10AF
  8
0
 62
     0
 10
579.08761017454276
 20
85.5
 30
0.0
 11
592.33761017454265
 21
85.5
 31
0.0
  0
LINE
  5
10B0
  8
0
 62
     0
 10
719.83761017454276
 20
87.0
 30
0.0
 11
733.08761017454253
 21
87.0
 31
0.0
  0
LINE
  5
10B1
  8
0
 62
     0
 10
702.32962549131264
 20
87.0
 30
0.0
 11
715.58761017454287
 21
87.0
 31
0.0
  0
LINE
  5
10B2
  8
0
 62
     0
 10
759.08761017454344
 20
87.0
 30
0.0
 11
775.08483214571675
 21
87.0
 31
0.0
  0
LINE
  5
10B3
  8
0
 62
     0
 10
660.33009577529003
 20
87.0
 30
0.0
 11
676.3466098292148
 21
87.0
 31
0.0
  0
LINE
  5
10B4
  8
0
 62
     0
 10
801.08009577528981
 20
87.0
 30
0.0
 11
817.09660982921469
 21
87.0
 31
0.0
  0
LINE
  5
10B5
  8
0
 62
     0
 10
618.33761017454356
 20
87.0
 30
0.0
 11
634.33483214571675
 21
87.0
 31
0.0
  0
LINE
  5
10B6
  8
0
 62
     0
 10
843.07962549131264
 20
87.0
 30
0.0
 11
856.33761017454287
 21
87.0
 31
0.0
  0
LINE
  5
10B7
  8
0
 62
     0
 10
579.08761017454276
 20
87.0
 30
0.0
 11
592.33761017454265
 21
87.0
 31
0.0
  0
LINE
  5
10B8
  8
0
 62
     0
 10
719.83761017454276
 20
88.499999999999986
 30
0.0
 11
733.08761017454253
 21
88.499999999999986
 31
0.0
  0
LINE
  5
10B9
  8
0
 62
     0
 10
702.32962549131264
 20
88.499999999999986
 30
0.0
 11
715.58761017454287
 21
88.499999999999986
 31
0.0
  0
LINE
  5
10BA
  8
0
 62
     0
 10
759.08761017454344
 20
88.499999999999986
 30
0.0
 11
775.08483214571675
 21
88.499999999999986
 31
0.0
  0
LINE
  5
10BB
  8
0
 62
     0
 10
660.33009577529003
 20
88.499999999999986
 30
0.0
 11
676.3466098292148
 21
88.499999999999986
 31
0.0
  0
LINE
  5
10BC
  8
0
 62
     0
 10
801.08009577528981
 20
88.499999999999986
 30
0.0
 11
817.09660982921469
 21
88.499999999999986
 31
0.0
  0
LINE
  5
10BD
  8
0
 62
     0
 10
618.33761017454356
 20
88.499999999999986
 30
0.0
 11
634.33483214571675
 21
88.499999999999986
 31
0.0
  0
LINE
  5
10BE
  8
0
 62
     0
 10
843.07962549131264
 20
88.499999999999986
 30
0.0
 11
856.33761017454287
 21
88.499999999999986
 31
0.0
  0
LINE
  5
10BF
  8
0
 62
     0
 10
579.08761017454276
 20
88.499999999999986
 30
0.0
 11
592.33761017454265
 21
88.499999999999986
 31
0.0
  0
LINE
  5
10C0
  8
0
 62
     0
 10
719.83761017454276
 20
90.0
 30
0.0
 11
733.08761017454253
 21
90.0
 31
0.0
  0
LINE
  5
10C1
  8
0
 62
     0
 10
702.32962549131264
 20
90.0
 30
0.0
 11
715.58761017454287
 21
90.0
 31
0.0
  0
LINE
  5
10C2
  8
0
 62
     0
 10
759.08761017454344
 20
90.0
 30
0.0
 11
775.08483214571675
 21
90.0
 31
0.0
  0
LINE
  5
10C3
  8
0
 62
     0
 10
660.33009577529003
 20
90.0
 30
0.0
 11
676.3466098292148
 21
90.0
 31
0.0
  0
LINE
  5
10C4
  8
0
 62
     0
 10
801.08009577528981
 20
90.0
 30
0.0
 11
817.09660982921469
 21
90.0
 31
0.0
  0
LINE
  5
10C5
  8
0
 62
     0
 10
618.33761017454356
 20
90.0
 30
0.0
 11
634.33483214571675
 21
90.0
 31
0.0
  0
LINE
  5
10C6
  8
0
 62
     0
 10
843.07962549131264
 20
90.0
 30
0.0
 11
856.33761017454287
 21
90.0
 31
0.0
  0
LINE
  5
10C7
  8
0
 62
     0
 10
579.08761017454276
 20
90.0
 30
0.0
 11
592.33761017454265
 21
90.0
 31
0.0
  0
LINE
  5
10C8
  8
0
 62
     0
 10
719.83761017454276
 20
91.5
 30
0.0
 11
733.08761017454253
 21
91.5
 31
0.0
  0
LINE
  5
10C9
  8
0
 62
     0
 10
702.32962549131264
 20
91.5
 30
0.0
 11
715.58761017454287
 21
91.5
 31
0.0
  0
LINE
  5
10CA
  8
0
 62
     0
 10
759.08761017454344
 20
91.5
 30
0.0
 11
775.08483214571675
 21
91.5
 31
0.0
  0
LINE
  5
10CB
  8
0
 62
     0
 10
660.33009577529003
 20
91.5
 30
0.0
 11
676.3466098292148
 21
91.5
 31
0.0
  0
LINE
  5
10CC
  8
0
 62
     0
 10
801.08009577528981
 20
91.5
 30
0.0
 11
817.09660982921469
 21
91.5
 31
0.0
  0
LINE
  5
10CD
  8
0
 62
     0
 10
618.33761017454356
 20
91.5
 30
0.0
 11
634.33483214571675
 21
91.5
 31
0.0
  0
LINE
  5
10CE
  8
0
 62
     0
 10
843.07962549131264
 20
91.5
 30
0.0
 11
856.33761017454287
 21
91.5
 31
0.0
  0
LINE
  5
10CF
  8
0
 62
     0
 10
579.08761017454276
 20
91.5
 30
0.0
 11
592.33761017454265
 21
91.5
 31
0.0
  0
LINE
  5
10D0
  8
0
 62
     0
 10
719.83761017454276
 20
93.0
 30
0.0
 11
733.08761017454253
 21
93.0
 31
0.0
  0
LINE
  5
10D1
  8
0
 62
     0
 10
702.32962549131264
 20
93.0
 30
0.0
 11
715.58761017454265
 21
93.0
 31
0.0
  0
LINE
  5
10D2
  8
0
 62
     0
 10
759.08761017454344
 20
93.0
 30
0.0
 11
775.08483214571675
 21
93.0
 31
0.0
  0
LINE
  5
10D3
  8
0
 62
     0
 10
660.33009577529003
 20
93.0
 30
0.0
 11
676.3466098292148
 21
93.0
 31
0.0
  0
LINE
  5
10D4
  8
0
 62
     0
 10
801.08009577528981
 20
93.0
 30
0.0
 11
817.09660982921469
 21
93.0
 31
0.0
  0
LINE
  5
10D5
  8
0
 62
     0
 10
618.33761017454356
 20
93.0
 30
0.0
 11
634.33483214571675
 21
93.0
 31
0.0
  0
LINE
  5
10D6
  8
0
 62
     0
 10
843.07962549131264
 20
93.0
 30
0.0
 11
856.33761017454265
 21
93.0
 31
0.0
  0
LINE
  5
10D7
  8
0
 62
     0
 10
579.08761017454276
 20
93.0
 30
0.0
 11
592.33761017454265
 21
93.0
 31
0.0
  0
LINE
  5
10D8
  8
0
 62
     0
 10
719.83761017454265
 20
94.500000000000014
 30
0.0
 11
733.08761017454253
 21
94.500000000000014
 31
0.0
  0
LINE
  5
10D9
  8
0
 62
     0
 10
702.32962549131264
 20
94.500000000000014
 30
0.0
 11
715.58761017454265
 21
94.500000000000014
 31
0.0
  0
LINE
  5
10DA
  8
0
 62
     0
 10
759.08761017454344
 20
94.500000000000014
 30
0.0
 11
775.08483214571675
 21
94.500000000000014
 31
0.0
  0
LINE
  5
10DB
  8
0
 62
     0
 10
660.33009577529003
 20
94.500000000000014
 30
0.0
 11
676.3466098292148
 21
94.500000000000014
 31
0.0
  0
LINE
  5
10DC
  8
0
 62
     0
 10
801.08009577528981
 20
94.500000000000014
 30
0.0
 11
817.09660982921469
 21
94.500000000000014
 31
0.0
  0
LINE
  5
10DD
  8
0
 62
     0
 10
618.33761017454356
 20
94.500000000000014
 30
0.0
 11
634.33483214571675
 21
94.500000000000014
 31
0.0
  0
LINE
  5
10DE
  8
0
 62
     0
 10
843.07962549131264
 20
94.500000000000014
 30
0.0
 11
856.33761017454265
 21
94.500000000000014
 31
0.0
  0
LINE
  5
10DF
  8
0
 62
     0
 10
579.08761017454265
 20
94.500000000000014
 30
0.0
 11
592.33761017454265
 21
94.500000000000014
 31
0.0
  0
LINE
  5
10E0
  8
0
 62
     0
 10
719.83761017454265
 20
96.0
 30
0.0
 11
733.08761017454253
 21
96.0
 31
0.0
  0
LINE
  5
10E1
  8
0
 62
     0
 10
702.32962549131264
 20
96.0
 30
0.0
 11
715.58761017454265
 21
96.0
 31
0.0
  0
LINE
  5
10E2
  8
0
 62
     0
 10
759.08761017454344
 20
96.0
 30
0.0
 11
775.08483214571675
 21
96.0
 31
0.0
  0
LINE
  5
10E3
  8
0
 62
     0
 10
660.33009577529003
 20
96.0
 30
0.0
 11
676.3466098292148
 21
96.0
 31
0.0
  0
LINE
  5
10E4
  8
0
 62
     0
 10
801.08009577528981
 20
96.0
 30
0.0
 11
817.09660982921469
 21
96.0
 31
0.0
  0
LINE
  5
10E5
  8
0
 62
     0
 10
618.33761017454356
 20
96.0
 30
0.0
 11
634.33483214571675
 21
96.0
 31
0.0
  0
LINE
  5
10E6
  8
0
 62
     0
 10
843.07962549131264
 20
96.0
 30
0.0
 11
856.33761017454265
 21
96.0
 31
0.0
  0
LINE
  5
10E7
  8
0
 62
     0
 10
579.08761017454265
 20
96.0
 30
0.0
 11
592.33761017454265
 21
96.0
 31
0.0
  0
LINE
  5
10E8
  8
0
 62
     0
 10
719.83761017454265
 20
97.5
 30
0.0
 11
733.08761017454253
 21
97.5
 31
0.0
  0
LINE
  5
10E9
  8
0
 62
     0
 10
702.32962549131264
 20
97.5
 30
0.0
 11
715.58761017454265
 21
97.5
 31
0.0
  0
LINE
  5
10EA
  8
0
 62
     0
 10
759.08761017454344
 20
97.5
 30
0.0
 11
775.08483214571675
 21
97.5
 31
0.0
  0
LINE
  5
10EB
  8
0
 62
     0
 10
660.33009577529003
 20
97.5
 30
0.0
 11
676.3466098292148
 21
97.5
 31
0.0
  0
LINE
  5
10EC
  8
0
 62
     0
 10
801.08009577528981
 20
97.5
 30
0.0
 11
817.09660982921469
 21
97.5
 31
0.0
  0
LINE
  5
10ED
  8
0
 62
     0
 10
618.33761017454356
 20
97.5
 30
0.0
 11
634.33483214571675
 21
97.5
 31
0.0
  0
LINE
  5
10EE
  8
0
 62
     0
 10
843.07962549131264
 20
97.5
 30
0.0
 11
856.33761017454265
 21
97.5
 31
0.0
  0
LINE
  5
10EF
  8
0
 62
     0
 10
579.08761017454265
 20
97.5
 30
0.0
 11
592.33761017454265
 21
97.5
 31
0.0
  0
ENDBLK
  5
10F1
  8
0
  0
BLOCK
  8
0
  2
*X4
 70
     1
 10
0.0
 20
0.0
 30
0.0
  3
*X4
  1

  0
LINE
  5
10F3
  8
0
 62
     0
 10
498.20240957355759
 20
550.99999999999977
 30
0.0
 11
360.7024095735577
 21
551.0
 31
0.0
  0
LINE
  5
10F4
  8
0
 62
     0
 10
498.20240957355759
 20
549.49999999999989
 30
0.0
 11
360.7024095735577
 21
549.5
 31
0.0
  0
LINE
  5
10F5
  8
0
 62
     0
 10
498.20240957355759
 20
547.99999999999977
 30
0.0
 11
360.7024095735577
 21
548.0
 31
0.0
  0
LINE
  5
10F6
  8
0
 62
     0
 10
498.20240957355759
 20
546.49999999999977
 30
0.0
 11
360.7024095735577
 21
546.49999999999989
 31
0.0
  0
LINE
  5
10F7
  8
0
 62
     0
 10
498.20240957355759
 20
544.99999999999989
 30
0.0
 11
360.7024095735577
 21
545.0
 31
0.0
  0
LINE
  5
10F8
  8
0
 62
     0
 10
498.20240957355759
 20
543.49999999999977
 30
0.0
 11
360.7024095735577
 21
543.5
 31
0.0
  0
LINE
  5
10F9
  8
0
 62
     0
 10
498.20240957355759
 20
541.99999999999989
 30
0.0
 11
360.7024095735577
 21
542.0
 31
0.0
  0
LINE
  5
10FA
  8
0
 62
     0
 10
498.20240957355759
 20
540.49999999999989
 30
0.0
 11
360.7024095735577
 21
540.5
 31
0.0
  0
LINE
  5
10FB
  8
0
 62
     0
 10
498.20240957355759
 20
538.99999999999977
 30
0.0
 11
360.7024095735577
 21
539.0
 31
0.0
  0
LINE
  5
10FC
  8
0
 62
     0
 10
498.20240957355747
 20
537.49999999999989
 30
0.0
 11
360.7024095735577
 21
537.5
 31
0.0
  0
LINE
  5
10FD
  8
0
 62
     0
 10
498.20240957355747
 20
535.99999999999977
 30
0.0
 11
360.7024095735577
 21
536.0
 31
0.0
  0
LINE
  5
10FE
  8
0
 62
     0
 10
498.20240957355747
 20
534.49999999999977
 30
0.0
 11
360.70240957355759
 21
534.49999999999989
 31
0.0
  0
LINE
  5
10FF
  8
0
 62
     0
 10
498.20240957355747
 20
532.99999999999989
 30
0.0
 11
360.70240957355759
 21
533.0
 31
0.0
  0
LINE
  5
1100
  8
0
 62
     0
 10
498.20240957355747
 20
531.49999999999977
 30
0.0
 11
360.70240957355759
 21
531.5
 31
0.0
  0
LINE
  5
1101
  8
0
 62
     0
 10
498.20240957355747
 20
529.99999999999977
 30
0.0
 11
360.70240957355759
 21
530.0
 31
0.0
  0
LINE
  5
1102
  8
0
 62
     0
 10
498.20240957355747
 20
528.49999999999989
 30
0.0
 11
360.70240957355759
 21
528.5
 31
0.0
  0
LINE
  5
1103
  8
0
 62
     0
 10
498.20240957355747
 20
526.99999999999977
 30
0.0
 11
360.70240957355759
 21
527.0
 31
0.0
  0
LINE
  5
1104
  8
0
 62
     0
 10
498.20240957355747
 20
525.49999999999989
 30
0.0
 11
360.70240957355759
 21
525.49999999999989
 31
0.0
  0
LINE
  5
1105
  8
0
 62
     0
 10
498.20240957355747
 20
523.99999999999989
 30
0.0
 11
360.70240957355759
 21
524.0
 31
0.0
  0
LINE
  5
1106
  8
0
 62
     0
 10
498.20240957355747
 20
522.49999999999977
 30
0.0
 11
360.70240957355759
 21
522.5
 31
0.0
  0
LINE
  5
1107
  8
0
 62
     0
 10
498.20240957355747
 20
520.99999999999989
 30
0.0
 11
360.70240957355759
 21
521.0
 31
0.0
  0
LINE
  5
1108
  8
0
 62
     0
 10
498.20240957355747
 20
519.49999999999989
 30
0.0
 11
360.70240957355759
 21
519.5
 31
0.0
  0
LINE
  5
1109
  8
0
 62
     0
 10
498.20240957355747
 20
517.99999999999977
 30
0.0
 11
360.70240957355759
 21
518.0
 31
0.0
  0
LINE
  5
110A
  8
0
 62
     0
 10
498.20240957355747
 20
516.49999999999989
 30
0.0
 11
360.70240957355759
 21
516.5
 31
0.0
  0
LINE
  5
110B
  8
0
 62
     0
 10
498.20240957355747
 20
514.99999999999977
 30
0.0
 11
360.70240957355759
 21
515.0
 31
0.0
  0
LINE
  5
110C
  8
0
 62
     0
 10
498.20240957355747
 20
513.49999999999977
 30
0.0
 11
360.70240957355759
 21
513.49999999999989
 31
0.0
  0
LINE
  5
110D
  8
0
 62
     0
 10
498.20240957355747
 20
511.99999999999989
 30
0.0
 11
360.70240957355759
 21
511.99999999999989
 31
0.0
  0
LINE
  5
110E
  8
0
 62
     0
 10
498.20240957355747
 20
510.49999999999989
 30
0.0
 11
360.70240957355759
 21
510.49999999999989
 31
0.0
  0
LINE
  5
110F
  8
0
 62
     0
 10
498.20240957355747
 20
508.99999999999989
 30
0.0
 11
360.70240957355759
 21
508.99999999999989
 31
0.0
  0
LINE
  5
1110
  8
0
 62
     0
 10
498.20240957355747
 20
507.49999999999989
 30
0.0
 11
360.70240957355759
 21
507.49999999999989
 31
0.0
  0
LINE
  5
1111
  8
0
 62
     0
 10
498.20240957355747
 20
505.99999999999989
 30
0.0
 11
360.70240957355759
 21
505.99999999999989
 31
0.0
  0
LINE
  5
1112
  8
0
 62
     0
 10
498.20240957355747
 20
504.49999999999989
 30
0.0
 11
360.70240957355759
 21
504.49999999999989
 31
0.0
  0
LINE
  5
1113
  8
0
 62
     0
 10
498.20240957355747
 20
502.99999999999989
 30
0.0
 11
360.70240957355759
 21
502.99999999999989
 31
0.0
  0
LINE
  5
1114
  8
0
 62
     0
 10
498.20240957355747
 20
501.49999999999989
 30
0.0
 11
360.70240957355759
 21
501.49999999999989
 31
0.0
  0
LINE
  5
1115
  8
0
 62
     0
 10
498.20240957355747
 20
499.99999999999989
 30
0.0
 11
360.70240957355759
 21
499.99999999999989
 31
0.0
  0
LINE
  5
1116
  8
0
 62
     0
 10
498.20240957355747
 20
498.49999999999989
 30
0.0
 11
360.70240957355759
 21
498.49999999999989
 31
0.0
  0
LINE
  5
1117
  8
0
 62
     0
 10
498.20240957355747
 20
496.99999999999989
 30
0.0
 11
360.70240957355759
 21
496.99999999999989
 31
0.0
  0
LINE
  5
1118
  8
0
 62
     0
 10
498.20240957355747
 20
495.49999999999989
 30
0.0
 11
360.70240957355759
 21
495.49999999999989
 31
0.0
  0
LINE
  5
1119
  8
0
 62
     0
 10
498.20240957355747
 20
493.99999999999989
 30
0.0
 11
360.70240957355759
 21
493.99999999999989
 31
0.0
  0
LINE
  5
111A
  8
0
 62
     0
 10
498.20240957355747
 20
492.49999999999989
 30
0.0
 11
360.70240957355759
 21
492.49999999999989
 31
0.0
  0
LINE
  5
111B
  8
0
 62
     0
 10
498.20240957355747
 20
490.99999999999989
 30
0.0
 11
360.70240957355759
 21
490.99999999999989
 31
0.0
  0
LINE
  5
111C
  8
0
 62
     0
 10
498.20240957355747
 20
489.49999999999989
 30
0.0
 11
360.70240957355759
 21
489.49999999999989
 31
0.0
  0
LINE
  5
111D
  8
0
 62
     0
 10
498.20240957355747
 20
487.99999999999989
 30
0.0
 11
360.70240957355759
 21
487.99999999999989
 31
0.0
  0
LINE
  5
111E
  8
0
 62
     0
 10
498.20240957355747
 20
486.49999999999989
 30
0.0
 11
360.70240957355759
 21
486.49999999999989
 31
0.0
  0
LINE
  5
111F
  8
0
 62
     0
 10
498.20240957355747
 20
484.99999999999989
 30
0.0
 11
360.70240957355759
 21
484.99999999999989
 31
0.0
  0
LINE
  5
1120
  8
0
 62
     0
 10
498.20240957355747
 20
483.49999999999989
 30
0.0
 11
360.70240957355759
 21
483.49999999999989
 31
0.0
  0
LINE
  5
1121
  8
0
 62
     0
 10
498.20240957355747
 20
481.99999999999989
 30
0.0
 11
360.70240957355759
 21
481.99999999999989
 31
0.0
  0
LINE
  5
1122
  8
0
 62
     0
 10
498.20240957355747
 20
480.49999999999989
 30
0.0
 11
360.70240957355759
 21
480.49999999999989
 31
0.0
  0
LINE
  5
1123
  8
0
 62
     0
 10
498.20240957355747
 20
478.99999999999989
 30
0.0
 11
360.70240957355759
 21
478.99999999999989
 31
0.0
  0
LINE
  5
1124
  8
0
 62
     0
 10
498.20240957355747
 20
477.49999999999989
 30
0.0
 11
360.70240957355759
 21
477.49999999999989
 31
0.0
  0
LINE
  5
1125
  8
0
 62
     0
 10
498.20240957355747
 20
475.99999999999989
 30
0.0
 11
360.70240957355759
 21
475.99999999999989
 31
0.0
  0
LINE
  5
1126
  8
0
 62
     0
 10
498.20240957355747
 20
474.49999999999989
 30
0.0
 11
360.70240957355759
 21
474.49999999999989
 31
0.0
  0
LINE
  5
1127
  8
0
 62
     0
 10
498.20240957355747
 20
472.99999999999989
 30
0.0
 11
360.70240957355759
 21
472.99999999999989
 31
0.0
  0
LINE
  5
1128
  8
0
 62
     0
 10
498.20240957355747
 20
471.49999999999989
 30
0.0
 11
360.70240957355759
 21
471.49999999999989
 31
0.0
  0
LINE
  5
1129
  8
0
 62
     0
 10
498.20240957355747
 20
469.99999999999989
 30
0.0
 11
360.70240957355759
 21
469.99999999999989
 31
0.0
  0
LINE
  5
112A
  8
0
 62
     0
 10
498.20240957355747
 20
468.49999999999989
 30
0.0
 11
360.70240957355759
 21
468.49999999999989
 31
0.0
  0
LINE
  5
112B
  8
0
 62
     0
 10
498.20240957355747
 20
466.99999999999989
 30
0.0
 11
360.70240957355759
 21
466.99999999999989
 31
0.0
  0
LINE
  5
112C
  8
0
 62
     0
 10
498.20240957355747
 20
465.49999999999989
 30
0.0
 11
360.70240957355747
 21
465.49999999999989
 31
0.0
  0
LINE
  5
112D
  8
0
 62
     0
 10
498.20240957355747
 20
463.99999999999989
 30
0.0
 11
360.70240957355747
 21
463.99999999999989
 31
0.0
  0
LINE
  5
112E
  8
0
 62
     0
 10
498.20240957355747
 20
462.49999999999989
 30
0.0
 11
360.70240957355747
 21
462.49999999999989
 31
0.0
  0
LINE
  5
112F
  8
0
 62
     0
 10
498.20240957355747
 20
460.99999999999989
 30
0.0
 11
360.70240957355747
 21
460.99999999999989
 31
0.0
  0
LINE
  5
1130
  8
0
 62
     0
 10
498.20240957355747
 20
459.49999999999989
 30
0.0
 11
360.70240957355747
 21
459.49999999999989
 31
0.0
  0
LINE
  5
1131
  8
0
 62
     0
 10
498.20240957355747
 20
457.99999999999989
 30
0.0
 11
360.70240957355747
 21
457.99999999999989
 31
0.0
  0
LINE
  5
1132
  8
0
 62
     0
 10
498.20240957355742
 20
456.49999999999989
 30
0.0
 11
360.70240957355747
 21
456.49999999999989
 31
0.0
  0
LINE
  5
1133
  8
0
 62
     0
 10
498.20240957355742
 20
454.99999999999989
 30
0.0
 11
360.70240957355747
 21
454.99999999999989
 31
0.0
  0
LINE
  5
1134
  8
0
 62
     0
 10
498.20240957355742
 20
453.49999999999989
 30
0.0
 11
360.70240957355747
 21
453.49999999999989
 31
0.0
  0
LINE
  5
1135
  8
0
 62
     0
 10
498.20240957355742
 20
451.99999999999989
 30
0.0
 11
360.70240957355747
 21
451.99999999999989
 31
0.0
  0
LINE
  5
1136
  8
0
 62
     0
 10
498.20240957355742
 20
450.49999999999989
 30
0.0
 11
360.70240957355747
 21
450.49999999999989
 31
0.0
  0
LINE
  5
1137
  8
0
 62
     0
 10
498.20240957355742
 20
448.99999999999989
 30
0.0
 11
360.70240957355747
 21
448.99999999999989
 31
0.0
  0
LINE
  5
1138
  8
0
 62
     0
 10
498.20240957355742
 20
447.49999999999989
 30
0.0
 11
360.70240957355747
 21
447.49999999999989
 31
0.0
  0
LINE
  5
1139
  8
0
 62
     0
 10
498.20240957355742
 20
445.99999999999989
 30
0.0
 11
360.70240957355747
 21
445.99999999999989
 31
0.0
  0
LINE
  5
113A
  8
0
 62
     0
 10
498.20240957355742
 20
444.49999999999989
 30
0.0
 11
360.70240957355747
 21
444.49999999999989
 31
0.0
  0
LINE
  5
113B
  8
0
 62
     0
 10
498.20240957355742
 20
442.99999999999989
 30
0.0
 11
360.70240957355747
 21
442.99999999999989
 31
0.0
  0
LINE
  5
113C
  8
0
 62
     0
 10
498.20240957355742
 20
441.49999999999989
 30
0.0
 11
360.70240957355747
 21
441.49999999999989
 31
0.0
  0
LINE
  5
113D
  8
0
 62
     0
 10
498.20240957355742
 20
439.99999999999989
 30
0.0
 11
360.70240957355747
 21
439.99999999999989
 31
0.0
  0
LINE
  5
113E
  8
0
 62
     0
 10
498.20240957355742
 20
438.49999999999989
 30
0.0
 11
360.70240957355747
 21
438.49999999999989
 31
0.0
  0
LINE
  5
113F
  8
0
 62
     0
 10
498.20240957355742
 20
436.99999999999989
 30
0.0
 11
360.70240957355747
 21
436.99999999999989
 31
0.0
  0
LINE
  5
1140
  8
0
 62
     0
 10
498.20240957355742
 20
435.49999999999989
 30
0.0
 11
360.70240957355747
 21
435.49999999999989
 31
0.0
  0
LINE
  5
1141
  8
0
 62
     0
 10
498.20240957355742
 20
433.99999999999989
 30
0.0
 11
360.70240957355747
 21
433.99999999999989
 31
0.0
  0
LINE
  5
1142
  8
0
 62
     0
 10
498.20240957355742
 20
432.49999999999989
 30
0.0
 11
360.70240957355747
 21
432.49999999999989
 31
0.0
  0
LINE
  5
1143
  8
0
 62
     0
 10
498.20240957355742
 20
430.99999999999989
 30
0.0
 11
360.70240957355747
 21
430.99999999999989
 31
0.0
  0
LINE
  5
1144
  8
0
 62
     0
 10
498.20240957355742
 20
429.49999999999989
 30
0.0
 11
360.70240957355747
 21
429.49999999999989
 31
0.0
  0
LINE
  5
1145
  8
0
 62
     0
 10
498.20240957355742
 20
427.99999999999989
 30
0.0
 11
360.70240957355747
 21
427.99999999999989
 31
0.0
  0
LINE
  5
1146
  8
0
 62
     0
 10
498.20240957355742
 20
426.49999999999989
 30
0.0
 11
360.70240957355747
 21
426.49999999999989
 31
0.0
  0
LINE
  5
1147
  8
0
 62
     0
 10
498.20240957355742
 20
424.99999999999989
 30
0.0
 11
360.70240957355747
 21
424.99999999999989
 31
0.0
  0
LINE
  5
1148
  8
0
 62
     0
 10
498.20240957355742
 20
423.49999999999989
 30
0.0
 11
360.70240957355747
 21
423.49999999999989
 31
0.0
  0
LINE
  5
1149
  8
0
 62
     0
 10
498.20240957355742
 20
421.99999999999989
 30
0.0
 11
360.70240957355747
 21
421.99999999999989
 31
0.0
  0
LINE
  5
114A
  8
0
 62
     0
 10
498.20240957355742
 20
420.49999999999989
 30
0.0
 11
360.70240957355747
 21
420.49999999999989
 31
0.0
  0
LINE
  5
114B
  8
0
 62
     0
 10
498.20240957355742
 20
418.99999999999989
 30
0.0
 11
360.70240957355747
 21
418.99999999999989
 31
0.0
  0
LINE
  5
114C
  8
0
 62
     0
 10
498.20240957355742
 20
417.49999999999989
 30
0.0
 11
360.70240957355747
 21
417.49999999999989
 31
0.0
  0
LINE
  5
114D
  8
0
 62
     0
 10
498.20240957355742
 20
415.99999999999989
 30
0.0
 11
360.70240957355747
 21
415.99999999999989
 31
0.0
  0
LINE
  5
114E
  8
0
 62
     0
 10
498.20240957355708
 20
409.99999999999989
 30
0.0
 11
360.70240957355719
 21
409.99999999999989
 31
0.0
  0
LINE
  5
114F
  8
0
 62
     0
 10
498.20240957355708
 20
408.49999999999989
 30
0.0
 11
360.70240957355719
 21
408.49999999999989
 31
0.0
  0
LINE
  5
1150
  8
0
 62
     0
 10
498.20240957355708
 20
406.99999999999989
 30
0.0
 11
360.70240957355719
 21
406.99999999999989
 31
0.0
  0
LINE
  5
1151
  8
0
 62
     0
 10
498.20240957355708
 20
405.49999999999989
 30
0.0
 11
360.70240957355719
 21
405.49999999999989
 31
0.0
  0
LINE
  5
1152
  8
0
 62
     0
 10
498.20240957355708
 20
403.99999999999989
 30
0.0
 11
360.70240957355719
 21
403.99999999999989
 31
0.0
  0
LINE
  5
1153
  8
0
 62
     0
 10
498.20240957355708
 20
402.49999999999989
 30
0.0
 11
360.70240957355719
 21
402.49999999999989
 31
0.0
  0
LINE
  5
1154
  8
0
 62
     0
 10
498.20240957355708
 20
400.99999999999989
 30
0.0
 11
360.70240957355719
 21
400.99999999999989
 31
0.0
  0
LINE
  5
1155
  8
0
 62
     0
 10
498.20240957355708
 20
399.5
 30
0.0
 11
360.70240957355719
 21
399.5
 31
0.0
  0
LINE
  5
1156
  8
0
 62
     0
 10
498.20240957355708
 20
398.0
 30
0.0
 11
360.70240957355719
 21
398.0
 31
0.0
  0
LINE
  5
1157
  8
0
 62
     0
 10
498.20240957355708
 20
396.49999999999989
 30
0.0
 11
360.70240957355719
 21
396.49999999999989
 31
0.0
  0
LINE
  5
1158
  8
0
 62
     0
 10
498.20240957355708
 20
395.0
 30
0.0
 11
360.70240957355719
 21
395.0
 31
0.0
  0
LINE
  5
1159
  8
0
 62
     0
 10
498.20240957355702
 20
393.5
 30
0.0
 11
360.70240957355719
 21
393.5
 31
0.0
  0
LINE
  5
115A
  8
0
 62
     0
 10
498.20240957355702
 20
391.99999999999989
 30
0.0
 11
360.70240957355719
 21
391.99999999999989
 31
0.0
  0
LINE
  5
115B
  8
0
 62
     0
 10
498.20240957355702
 20
390.49999999999989
 30
0.0
 11
360.70240957355719
 21
390.49999999999989
 31
0.0
  0
LINE
  5
115C
  8
0
 62
     0
 10
498.20240957355702
 20
389.0
 30
0.0
 11
360.70240957355719
 21
389.0
 31
0.0
  0
LINE
  5
115D
  8
0
 62
     0
 10
498.20240957355702
 20
387.5
 30
0.0
 11
360.70240957355719
 21
387.5
 31
0.0
  0
LINE
  5
115E
  8
0
 62
     0
 10
498.20240957355702
 20
385.99999999999989
 30
0.0
 11
360.70240957355719
 21
385.99999999999989
 31
0.0
  0
LINE
  5
115F
  8
0
 62
     0
 10
498.20240957355702
 20
384.49999999999989
 30
0.0
 11
360.70240957355719
 21
384.49999999999989
 31
0.0
  0
LINE
  5
1160
  8
0
 62
     0
 10
498.20240957355702
 20
383.0
 30
0.0
 11
360.70240957355719
 21
383.0
 31
0.0
  0
LINE
  5
1161
  8
0
 62
     0
 10
498.20240957355702
 20
381.49999999999989
 30
0.0
 11
360.70240957355719
 21
381.49999999999989
 31
0.0
  0
LINE
  5
1162
  8
0
 62
     0
 10
498.20240957355702
 20
379.99999999999989
 30
0.0
 11
360.70240957355719
 21
379.99999999999989
 31
0.0
  0
LINE
  5
1163
  8
0
 62
     0
 10
498.20240957355702
 20
378.5
 30
0.0
 11
360.70240957355719
 21
378.5
 31
0.0
  0
LINE
  5
1164
  8
0
 62
     0
 10
498.20240957355702
 20
377.0
 30
0.0
 11
360.70240957355719
 21
377.0
 31
0.0
  0
LINE
  5
1165
  8
0
 62
     0
 10
498.20240957355702
 20
375.49999999999989
 30
0.0
 11
360.70240957355719
 21
375.49999999999989
 31
0.0
  0
LINE
  5
1166
  8
0
 62
     0
 10
498.20240957355702
 20
373.99999999999989
 30
0.0
 11
360.70240957355719
 21
373.99999999999989
 31
0.0
  0
LINE
  5
1167
  8
0
 62
     0
 10
498.20240957355702
 20
372.5
 30
0.0
 11
360.70240957355719
 21
372.5
 31
0.0
  0
LINE
  5
1168
  8
0
 62
     0
 10
498.20240957355702
 20
370.99999999999989
 30
0.0
 11
360.70240957355719
 21
370.99999999999989
 31
0.0
  0
LINE
  5
1169
  8
0
 62
     0
 10
498.20240957355702
 20
369.49999999999989
 30
0.0
 11
360.70240957355708
 21
369.49999999999989
 31
0.0
  0
LINE
  5
116A
  8
0
 62
     0
 10
498.20240957355702
 20
368.0
 30
0.0
 11
360.70240957355708
 21
368.0
 31
0.0
  0
LINE
  5
116B
  8
0
 62
     0
 10
498.20240957355702
 20
366.5
 30
0.0
 11
360.70240957355708
 21
366.5
 31
0.0
  0
LINE
  5
116C
  8
0
 62
     0
 10
498.20240957355702
 20
364.99999999999989
 30
0.0
 11
360.70240957355708
 21
364.99999999999989
 31
0.0
  0
LINE
  5
116D
  8
0
 62
     0
 10
498.20240957355702
 20
363.49999999999989
 30
0.0
 11
360.70240957355708
 21
363.49999999999989
 31
0.0
  0
LINE
  5
116E
  8
0
 62
     0
 10
498.20240957355702
 20
362.0
 30
0.0
 11
360.70240957355708
 21
362.0
 31
0.0
  0
LINE
  5
116F
  8
0
 62
     0
 10
498.20240957355702
 20
360.49999999999989
 30
0.0
 11
360.70240957355708
 21
360.49999999999989
 31
0.0
  0
LINE
  5
1170
  8
0
 62
     0
 10
498.20240957355702
 20
358.99999999999989
 30
0.0
 11
360.70240957355708
 21
358.99999999999989
 31
0.0
  0
LINE
  5
1171
  8
0
 62
     0
 10
498.20240957355702
 20
357.49999999999989
 30
0.0
 11
360.70240957355708
 21
357.49999999999989
 31
0.0
  0
LINE
  5
1172
  8
0
 62
     0
 10
498.20240957355702
 20
356.0
 30
0.0
 11
360.70240957355708
 21
356.0
 31
0.0
  0
LINE
  5
1173
  8
0
 62
     0
 10
498.20240957355702
 20
354.49999999999989
 30
0.0
 11
360.70240957355708
 21
354.49999999999989
 31
0.0
  0
LINE
  5
1174
  8
0
 62
     0
 10
498.20240957355702
 20
352.99999999999989
 30
0.0
 11
360.70240957355708
 21
352.99999999999989
 31
0.0
  0
LINE
  5
1175
  8
0
 62
     0
 10
498.20240957355702
 20
351.5
 30
0.0
 11
360.70240957355708
 21
351.5
 31
0.0
  0
LINE
  5
1176
  8
0
 62
     0
 10
498.20240957355702
 20
350.0
 30
0.0
 11
360.70240957355708
 21
350.0
 31
0.0
  0
LINE
  5
1177
  8
0
 62
     0
 10
498.20240957355702
 20
348.49999999999989
 30
0.0
 11
360.70240957355708
 21
348.49999999999989
 31
0.0
  0
LINE
  5
1178
  8
0
 62
     0
 10
498.20240957355702
 20
346.99999999999989
 30
0.0
 11
360.70240957355708
 21
346.99999999999989
 31
0.0
  0
LINE
  5
1179
  8
0
 62
     0
 10
498.20240957355702
 20
345.5
 30
0.0
 11
360.70240957355708
 21
345.5
 31
0.0
  0
LINE
  5
117A
  8
0
 62
     0
 10
498.20240957355702
 20
343.99999999999989
 30
0.0
 11
360.70240957355708
 21
343.99999999999989
 31
0.0
  0
LINE
  5
117B
  8
0
 62
     0
 10
498.20240957355702
 20
342.49999999999989
 30
0.0
 11
360.70240957355708
 21
342.49999999999989
 31
0.0
  0
LINE
  5
117C
  8
0
 62
     0
 10
498.20240957355702
 20
341.0
 30
0.0
 11
360.70240957355708
 21
341.0
 31
0.0
  0
LINE
  5
117D
  8
0
 62
     0
 10
498.20240957355702
 20
339.5
 30
0.0
 11
360.70240957355708
 21
339.5
 31
0.0
  0
LINE
  5
117E
  8
0
 62
     0
 10
498.20240957355702
 20
337.99999999999989
 30
0.0
 11
360.70240957355708
 21
337.99999999999989
 31
0.0
  0
LINE
  5
117F
  8
0
 62
     0
 10
498.20240957355702
 20
336.49999999999989
 30
0.0
 11
360.70240957355708
 21
336.49999999999989
 31
0.0
  0
LINE
  5
1180
  8
0
 62
     0
 10
498.20240957355702
 20
335.0
 30
0.0
 11
360.70240957355708
 21
335.0
 31
0.0
  0
LINE
  5
1181
  8
0
 62
     0
 10
498.20240957355702
 20
333.49999999999989
 30
0.0
 11
360.70240957355708
 21
333.49999999999989
 31
0.0
  0
LINE
  5
1182
  8
0
 62
     0
 10
498.20240957355702
 20
331.99999999999989
 30
0.0
 11
360.70240957355708
 21
331.99999999999989
 31
0.0
  0
LINE
  5
1183
  8
0
 62
     0
 10
498.20240957355702
 20
330.5
 30
0.0
 11
360.70240957355708
 21
330.5
 31
0.0
  0
LINE
  5
1184
  8
0
 62
     0
 10
498.20240957355702
 20
329.0
 30
0.0
 11
360.70240957355708
 21
329.0
 31
0.0
  0
LINE
  5
1185
  8
0
 62
     0
 10
498.20240957355702
 20
327.49999999999989
 30
0.0
 11
360.70240957355708
 21
327.49999999999989
 31
0.0
  0
LINE
  5
1186
  8
0
 62
     0
 10
498.20240957355702
 20
325.99999999999989
 30
0.0
 11
360.70240957355708
 21
325.99999999999989
 31
0.0
  0
LINE
  5
1187
  8
0
 62
     0
 10
498.20240957355691
 20
324.5
 30
0.0
 11
360.70240957355708
 21
324.5
 31
0.0
  0
LINE
  5
1188
  8
0
 62
     0
 10
498.20240957355691
 20
322.99999999999989
 30
0.0
 11
360.70240957355708
 21
322.99999999999989
 31
0.0
  0
LINE
  5
1189
  8
0
 62
     0
 10
498.20240957355691
 20
321.49999999999989
 30
0.0
 11
360.70240957355708
 21
321.49999999999989
 31
0.0
  0
LINE
  5
118A
  8
0
 62
     0
 10
498.20240957355691
 20
319.99999999999989
 30
0.0
 11
360.70240957355708
 21
319.99999999999989
 31
0.0
  0
LINE
  5
118B
  8
0
 62
     0
 10
498.20240957355691
 20
318.5
 30
0.0
 11
360.70240957355708
 21
318.5
 31
0.0
  0
LINE
  5
118C
  8
0
 62
     0
 10
498.20240957355691
 20
316.99999999999989
 30
0.0
 11
360.70240957355708
 21
316.99999999999989
 31
0.0
  0
LINE
  5
118D
  8
0
 62
     0
 10
498.20240957355691
 20
315.49999999999989
 30
0.0
 11
360.70240957355702
 21
315.49999999999989
 31
0.0
  0
LINE
  5
118E
  8
0
 62
     0
 10
498.20240957355691
 20
314.0
 30
0.0
 11
360.70240957355702
 21
314.0
 31
0.0
  0
LINE
  5
118F
  8
0
 62
     0
 10
498.20240957355691
 20
312.5
 30
0.0
 11
360.70240957355702
 21
312.5
 31
0.0
  0
LINE
  5
1190
  8
0
 62
     0
 10
498.20240957355691
 20
310.99999999999989
 30
0.0
 11
360.70240957355702
 21
310.99999999999989
 31
0.0
  0
LINE
  5
1191
  8
0
 62
     0
 10
498.20240957355691
 20
309.49999999999989
 30
0.0
 11
360.70240957355702
 21
309.49999999999989
 31
0.0
  0
LINE
  5
1192
  8
0
 62
     0
 10
498.20240957355691
 20
308.0
 30
0.0
 11
360.70240957355702
 21
308.0
 31
0.0
  0
LINE
  5
1193
  8
0
 62
     0
 10
498.20240957355691
 20
306.49999999999989
 30
0.0
 11
360.70240957355702
 21
306.49999999999989
 31
0.0
  0
LINE
  5
1194
  8
0
 62
     0
 10
498.20240957355691
 20
304.99999999999989
 30
0.0
 11
360.70240957355702
 21
304.99999999999989
 31
0.0
  0
LINE
  5
1195
  8
0
 62
     0
 10
498.20240957355691
 20
303.5
 30
0.0
 11
360.70240957355702
 21
303.5
 31
0.0
  0
LINE
  5
1196
  8
0
 62
     0
 10
498.20240957355691
 20
302.0
 30
0.0
 11
360.70240957355702
 21
302.0
 31
0.0
  0
LINE
  5
1197
  8
0
 62
     0
 10
498.20240957355691
 20
300.49999999999989
 30
0.0
 11
360.70240957355702
 21
300.49999999999989
 31
0.0
  0
LINE
  5
1198
  8
0
 62
     0
 10
498.20240957355691
 20
298.99999999999989
 30
0.0
 11
360.70240957355702
 21
298.99999999999989
 31
0.0
  0
LINE
  5
1199
  8
0
 62
     0
 10
498.20240957355691
 20
297.5
 30
0.0
 11
360.70240957355702
 21
297.5
 31
0.0
  0
LINE
  5
119A
  8
0
 62
     0
 10
498.20240957355691
 20
295.99999999999989
 30
0.0
 11
360.70240957355702
 21
295.99999999999989
 31
0.0
  0
LINE
  5
119B
  8
0
 62
     0
 10
498.20240957355691
 20
294.49999999999989
 30
0.0
 11
360.70240957355702
 21
294.49999999999989
 31
0.0
  0
LINE
  5
119C
  8
0
 62
     0
 10
498.20240957355691
 20
292.99999999999989
 30
0.0
 11
360.70240957355702
 21
292.99999999999989
 31
0.0
  0
LINE
  5
119D
  8
0
 62
     0
 10
498.20240957355679
 20
291.5
 30
0.0
 11
360.70240957355702
 21
291.5
 31
0.0
  0
LINE
  5
119E
  8
0
 62
     0
 10
498.20240957355679
 20
290.0
 30
0.0
 11
360.70240957355702
 21
290.0
 31
0.0
  0
LINE
  5
119F
  8
0
 62
     0
 10
498.20240957355679
 20
288.49999999999989
 30
0.0
 11
360.70240957355702
 21
288.49999999999989
 31
0.0
  0
LINE
  5
11A0
  8
0
 62
     0
 10
498.20240957355679
 20
287.0
 30
0.0
 11
360.70240957355702
 21
287.0
 31
0.0
  0
LINE
  5
11A1
  8
0
 62
     0
 10
498.20240957355679
 20
285.5
 30
0.0
 11
360.70240957355702
 21
285.5
 31
0.0
  0
LINE
  5
11A2
  8
0
 62
     0
 10
498.20240957355679
 20
283.99999999999989
 30
0.0
 11
360.70240957355702
 21
283.99999999999989
 31
0.0
  0
LINE
  5
11A3
  8
0
 62
     0
 10
498.20240957355679
 20
282.49999999999989
 30
0.0
 11
360.70240957355702
 21
282.49999999999989
 31
0.0
  0
LINE
  5
11A4
  8
0
 62
     0
 10
498.20240957355679
 20
281.0
 30
0.0
 11
360.70240957355702
 21
281.0
 31
0.0
  0
LINE
  5
11A5
  8
0
 62
     0
 10
498.20240957355679
 20
279.49999999999989
 30
0.0
 11
360.70240957355702
 21
279.49999999999989
 31
0.0
  0
LINE
  5
11A6
  8
0
 62
     0
 10
498.20240957355679
 20
277.99999999999989
 30
0.0
 11
360.70240957355702
 21
277.99999999999989
 31
0.0
  0
LINE
  5
11A7
  8
0
 62
     0
 10
498.20240957355679
 20
276.5
 30
0.0
 11
360.70240957355702
 21
276.5
 31
0.0
  0
LINE
  5
11A8
  8
0
 62
     0
 10
498.20240957355679
 20
275.0
 30
0.0
 11
360.70240957355702
 21
275.0
 31
0.0
  0
ENDBLK
  5
11AA
  8
0
  0
ENDSEC
  0
SECTION
  2
ENTITIES
  0
LINE
  5
4B6
  8
0
 10
358.9563158235581
 20
155.87500450376129
 30
0.0
 11
359.01740820027157
 21
155.87500450376129
 31
0.0
  0
LINE
  5
4B7
  8
0
 10
359.01740820027157
 20
172.37500450376129
 30
0.0
 11
358.9563158235581
 21
172.37500450376129
 31
0.0
  0
LINE
  5
4B8
  8
0
 10
358.95631582355662
 20
155.93515629245221
 30
0.0
 11
358.95631582355662
 21
156.411117146435
 31
0.0
  0
LINE
  5
4B9
  8
0
 10
358.95631582355662
 20
156.41112050160649
 30
0.0
 11
358.95631582355662
 21
157.33538761013841
 31
0.0
  0
LINE
  5
4BA
  8
0
 10
358.95631582355662
 20
157.3353886943101
 30
0.0
 11
358.95631582355662
 21
158.65424005035999
 31
0.0
  0
LINE
  5
4BB
  8
0
 10
358.95631582355662
 20
158.6542425732745
 30
0.0
 11
358.95631582355662
 21
160.29103833440001
 31
0.0
  0
LINE
  5
4BC
  8
0
 10
358.95631582355662
 20
160.29104277955381
 30
0.0
 11
358.95631582355662
 21
164.12500450376101
 31
0.0
  0
LINE
  5
4BD
  8
0
 10
358.95631582355662
 20
164.1250083558391
 30
0.0
 11
358.95631582355662
 21
167.95897067312231
 31
0.0
  0
LINE
  5
4BE
  8
0
 10
358.95631582355662
 20
167.95897385138949
 30
0.0
 11
358.95631582355662
 21
170.91461703737329
 31
0.0
  0
LINE
  5
4BF
  8
0
 10
358.95631582355662
 20
170.9146213973838
 30
0.0
 11
358.95631582355662
 21
172.31485271507009
 31
0.0
  0
LINE
  5
4C1
  8
0
 10
359.0174095735573
 20
155.125004503762
 30
0.0
 11
359.07740957355719
 21
155.125004503762
 31
0.0
  0
LINE
  5
4C2
  8
0
 10
359.07740957355719
 20
173.125004503762
 30
0.0
 11
359.0174095735573
 21
173.125004503762
 31
0.0
  0
LINE
  5
4C3
  8
0
 10
359.01740957355662
 20
155.1250045037618
 30
0.0
 11
359.01740957355662
 21
155.3506496739854
 31
0.0
  0
LINE
  5
4C4
  8
0
 10
359.01740957355662
 20
155.35065329412541
 30
0.0
 11
359.01740957355662
 21
157.0885161856057
 31
0.0
  0
LINE
  5
4C5
  8
0
 10
359.01740957355662
 20
157.08852116154949
 30
0.0
 11
359.01740957355662
 21
158.51359204160451
 31
0.0
  0
LINE
  5
4C6
  8
0
 10
359.01740957355662
 20
158.5135962870331
 30
0.0
 11
359.01740957355662
 21
160.22005085170369
 31
0.0
  0
LINE
  5
4C7
  8
0
 10
359.01740957355662
 20
160.22005512152751
 30
0.0
 11
359.01740957355662
 21
162.12231510866869
 31
0.0
  0
LINE
  5
4C8
  8
0
 10
359.01740957355662
 20
162.1223160981549
 30
0.0
 11
359.01740957355662
 21
164.12500450376169
 31
0.0
  0
LINE
  5
4C9
  8
0
 10
359.01740957355662
 20
164.12500835065859
 30
0.0
 11
359.01740957355662
 21
168.0299581558198
 31
0.0
  0
LINE
  5
4CA
  8
0
 10
359.01740957355662
 20
168.02996153126119
 30
0.0
 11
359.01740957355662
 21
171.16148784597411
 31
0.0
  0
LINE
  5
4CB
  8
0
 10
359.01740957355662
 20
171.161488342063
 30
0.0
 11
359.01740957355662
 21
172.89935436512221
 31
0.0
  0
LINE
  5
4CC
  8
0
 10
359.01740957355662
 20
172.89935571339819
 30
0.0
 11
359.01740957355662
 21
173.1250045037618
 31
0.0
  0
LINE
  5
4CD
  8
0
 10
499.88740903950372
 20
155.87500450375691
 30
0.0
 11
499.94850332355708
 21
155.87500450375691
 31
0.0
  0
LINE
  5
4CE
  8
0
 10
499.94850332355708
 20
172.37500450375649
 30
0.0
 11
499.88740903950372
 21
172.37500450375649
 31
0.0
  0
LINE
  5
4CF
  8
0
 10
499.94850332355691
 20
164.1250045037566
 30
0.0
 11
499.94850332355691
 21
158.65424257327001
 31
0.0
  0
LINE
  5
4D0
  8
0
 10
499.94850332355691
 20
158.65424005036061
 30
0.0
 11
499.94850332355691
 21
157.3353886943095
 31
0.0
  0
LINE
  5
4D1
  8
0
 10
499.94850332355691
 20
157.33538761013389
 30
0.0
 11
499.94850332355691
 21
156.41112050160191
 31
0.0
  0
LINE
  5
4D2
  8
0
 10
499.94850332355691
 20
156.41111714643719
 30
0.0
 11
499.94850332355691
 21
155.9351562924476
 31
0.0
  0
LINE
  5
4D4
  8
0
 10
499.94850332355691
 20
172.31485271506551
 30
0.0
 11
499.94850332355691
 21
170.91462139737919
 31
0.0
  0
LINE
  5
4D5
  8
0
 10
499.94850332355691
 20
170.91461703737261
 30
0.0
 11
499.94850332355691
 21
169.5957664342431
 31
0.0
  0
LINE
  5
4D6
  8
0
 10
499.94850332355691
 20
169.59576498913449
 30
0.0
 11
499.94850332355691
 21
167.9589738513898
 31
0.0
  0
LINE
  5
4D7
  8
0
 10
499.94850332355691
 20
167.9589706731177
 30
0.0
 11
499.94850332355691
 21
164.12500835583899
 31
0.0
  0
LINE
  5
4D8
  8
0
 10
499.82740957355799
 20
155.1250045037572
 30
0.0
 11
499.88740957355668
 21
155.1250045037572
 31
0.0
  0
LINE
  5
4D9
  8
0
 10
499.88740957355668
 20
173.1250045037572
 30
0.0
 11
499.82740957355799
 21
173.1250045037572
 31
0.0
  0
LINE
  5
4DA
  8
0
 10
499.88740957355691
 20
164.1250045037572
 30
0.0
 11
499.88740957355691
 21
162.12231609815041
 31
0.0
  0
LINE
  5
4DB
  8
0
 10
499.88740957355691
 20
162.12231510866889
 30
0.0
 11
499.88740957355691
 21
160.22005512152731
 31
0.0
  0
LINE
  5
4DC
  8
0
 10
499.88740957355691
 20
160.2200508516992
 30
0.0
 11
499.88740957355691
 21
158.51359628702861
 31
0.0
  0
LINE
  5
4DD
  8
0
 10
499.88740957355691
 20
158.51359204160539
 30
0.0
 11
499.88740957355691
 21
157.088521161545
 31
0.0
  0
LINE
  5
4DE
  8
0
 10
499.88740957355691
 20
157.08851618560649
 30
0.0
 11
499.88740957355691
 21
155.3506532941208
 31
0.0
  0
LINE
  5
4DF
  8
0
 10
499.88740957355691
 20
155.35064967398981
 30
0.0
 11
499.88740957355691
 21
155.1250045037572
 31
0.0
  0
LINE
  5
4E0
  8
0
 10
499.88740957355691
 20
173.1250045037572
 30
0.0
 11
499.88740957355691
 21
172.89935571339359
 31
0.0
  0
LINE
  5
4E1
  8
0
 10
499.88740957355691
 20
172.89935436512059
 30
0.0
 11
499.88740957355691
 21
171.16148834206419
 31
0.0
  0
LINE
  5
4E2
  8
0
 10
499.88740957355691
 20
171.1614878459695
 30
0.0
 11
499.88740957355691
 21
168.02996153126151
 31
0.0
  0
LINE
  5
4E3
  8
0
 10
499.88740957355691
 20
168.02995815581519
 30
0.0
 11
499.88740957355691
 21
166.1276929093641
 31
0.0
  0
LINE
  5
4E4
  8
0
 10
499.88740957355691
 20
166.12769009877809
 30
0.0
 11
499.88740957355691
 21
164.12500835065899
 31
0.0
  0
LINE
  5
4E5
  8
0
 10
359.07740957355691
 20
194.12500450375751
 30
0.0
 11
499.82740957355389
 21
194.12500450375751
 31
0.0
  0
LINE
  5
4E6
  8
0
 10
499.82740957355389
 20
100.00000450375769
 30
0.0
 11
359.07740957355691
 21
100.00000450375769
 31
0.0
  0
LINE
  5
4E7
  8
0
 10
359.07740957355691
 20
100.00000450375769
 30
0.0
 11
359.07740957355691
 21
194.12500450375751
 31
0.0
  0
LINE
  5
4E8
  8
0
 10
499.82740957355389
 20
100.00000450375769
 30
0.0
 11
499.82740957355389
 21
194.12500450375751
 31
0.0
  0
LINE
  5
4E9
  8
0
 10
359.07740957355719
 20
100.00000450375769
 30
0.0
 11
501.07740957355719
 21
100.00000450375769
 31
0.0
  0
LINE
  5
4EA
  8
0
 10
501.07740957355719
 20
0.0000045037577365
 30
0.0
 11
359.07740957355719
 21
0.0000045037577365
 31
0.0
  0
LINE
  5
4EB
  8
0
 10
359.07740957355719
 20
100.00000450375769
 30
0.0
 11
359.07740957355719
 21
0.0000045037577365
 31
0.0
  0
LINE
  5
4EC
  8
0
 10
501.07740957355719
 20
0.0000045037577365
 30
0.0
 11
501.07740957355719
 21
100.00000450375769
 31
0.0
  0
LINE
  5
4ED
  8
0
 10
500.07740957355719
 20
190.37500450375791
 30
0.0
 11
499.82740957355799
 21
190.37500450375791
 31
0.0
  0
LINE
  5
4EE
  8
0
 10
499.82740957355799
 20
182.37500450375759
 30
0.0
 11
500.07740957355719
 21
182.37500450375759
 31
0.0
  0
LINE
  5
4EF
  8
0
 10
500.07740957355719
 20
190.37500450375771
 30
0.0
 11
500.07740957355719
 21
190.23871054564151
 31
0.0
  0
LINE
  5
4F0
  8
0
 10
500.07740957355719
 20
190.238707808914
 30
0.0
 11
500.07740957355719
 21
189.83910611889539
 31
0.0
  0
LINE
  5
4F1
  8
0
 10
500.07740957355719
 20
189.83910469300091
 30
0.0
 11
500.07740957355708
 21
189.20343162850389
 31
0.0
  0
LINE
  5
4F2
  8
0
 10
500.07740957355708
 20
189.203430945913
 30
0.0
 11
500.07740957355708
 21
187.41028068416779
 31
0.0
  0
LINE
  5
4F3
  8
0
 10
500.07740957355708
 20
187.41027904781191
 30
0.0
 11
500.07740957355708
 21
186.37500450375771
 31
0.0
  0
LINE
  5
4F4
  8
0
 10
500.07740957355708
 20
186.3750006451335
 30
0.0
 11
500.07740957355708
 21
185.3397336868496
 31
0.0
  0
LINE
  5
4F5
  8
0
 10
500.07740957355708
 20
185.3397283233476
 30
0.0
 11
500.07740957355708
 21
184.3750080898088
 31
0.0
  0
LINE
  5
4F6
  8
0
 10
500.07740957355708
 20
184.37500450375771
 30
0.0
 11
500.07740957355708
 21
183.546581471331
 31
0.0
  0
LINE
  5
4F7
  8
0
 10
500.07740957355708
 20
183.5465773790115
 30
0.0
 11
500.07740957355708
 21
182.9109074566511
 31
0.0
  0
LINE
  5
4F8
  8
0
 10
500.07740957355708
 20
182.91090288861989
 30
0.0
 11
500.07740957355708
 21
182.51130285251921
 31
0.0
  0
LINE
  5
4F9
  8
0
 10
500.07740957355708
 20
182.51130119860139
 30
0.0
 11
500.07740957355708
 21
182.37500450375771
 31
0.0
  0
ARC
  5
4FA
  8
0
 10
424.32740957355628
 20
40.50000450375812
 30
0.0
 40
1.0000000000000131
 50
359.99999999999881
 51
179.99999999999881
  0
ARC
  5
4FB
  8
0
 10
424.32740957355628
 20
40.50000450375812
 30
0.0
 40
0.9999999999999678
 50
180.00000000000099
 51
0.0000000000006107
  0
ARC
  5
4FC
  8
0
 10
363.82740957355628
 20
29.000004503758142
 30
0.0
 40
1.499999999999998
 50
359.9999999999996
 51
179.9999999999996
  0
ARC
  5
4FD
  8
0
 10
363.82740957355628
 20
29.000004503758142
 30
0.0
 40
1.500000000000004
 50
180.0000000000002
 51
359.99999999999932
  0
ARC
  5
4FE
  8
0
 10
362.45240957355611
 20
6.62500450375813
 30
0.0
 40
0.9999999999999856
 50
359.9999999999996
 51
179.9999999999996
  0
ARC
  5
4FF
  8
0
 10
362.45240957355611
 20
6.62500450375813
 30
0.0
 40
1.0000000000000131
 50
180.00000000000011
 51
359.99999999999937
  0
ARC
  5
500
  8
0
 10
386.20240957355651
 20
12.500004503758159
 30
0.0
 40
6.0000000000000071
 50
359.99999999999932
 51
179.99999999999949
  0
ARC
  5
501
  8
0
 10
386.20240957355651
 20
12.500004503758159
 30
0.0
 40
5.9999999999999956
 50
180.0000000000004
 51
359.99999999999949
  0
CIRCLE
  5
502
  8
0
 10
381.82740957355639
 20
44.250004503757722
 30
0.0
 40
11.18749999999998
  0
ARC
  5
503
  8
0
 10
788.08761017454265
 20
164.12500450375649
 30
0.0
 40
8.2500000000000018
 50
179.9999999999998
 51
359.99999999999881
  0
ARC
  5
504
  8
0
 10
788.08761017454265
 20
164.12500450375649
 30
0.0
 40
8.2500000000000053
 50
359.9999999999996
 51
179.9999999999998
  0
ARC
  5
505
  8
0
 10
788.08761017454265
 20
164.12500450375649
 30
0.0
 40
7.6874999999999849
 50
0.0000000000009478
 51
180.0000000000002
  0
ARC
  5
506
  8
0
 10
788.08761017454265
 20
164.12500450375649
 30
0.0
 40
7.687499999999992
 50
180.00000000000011
 51
0.0000000000000509
  0
LINE
  5
507
  8
0
 10
793.21011094853054
 20
161.68314865495921
 30
0.0
 11
793.01517047233995
 21
161.23423992480039
 31
0.0
  0
LINE
  5
508
  8
0
 10
793.01517047233995
 20
161.23423992480039
 30
0.0
 11
792.56427761519717
 21
161.0769978613084
 31
0.0
  0
LINE
  5
509
  8
0
 10
792.56427761519717
 20
161.0769978613084
 30
0.0
 11
792.23974884535585
 21
161.14123397241951
 31
0.0
  0
LINE
  5
50A
  8
0
 10
792.23974884535585
 20
161.14123397241951
 30
0.0
 11
792.00425777392741
 21
161.3339423057528
 31
0.0
  0
LINE
  5
50B
  8
0
 10
792.00425777392741
 20
161.3339423057528
 30
0.0
 11
791.81328555170523
 21
162.09187881368931
 31
0.0
  0
LINE
  5
50C
  8
0
 10
791.81328555170523
 20
162.09187881368931
 30
0.0
 11
791.99731332948295
 21
162.85576770257819
 31
0.0
  0
LINE
  5
50D
  8
0
 10
791.99731332948295
 20
162.85576770257819
 30
0.0
 11
792.22710003583222
 21
163.0454998454353
 31
0.0
  0
LINE
  5
50E
  8
0
 10
792.22710003583222
 20
163.0454998454353
 30
0.0
 11
792.54840459932416
 21
163.1087438930544
 31
0.0
  0
LINE
  5
50F
  8
0
 10
792.54840459932416
 20
163.1087438930544
 30
0.0
 11
793.01665856757825
 21
162.9653907184512
 31
0.0
  0
LINE
  5
510
  8
0
 10
793.01665856757825
 20
162.9653907184512
 30
0.0
 11
793.21011094853054
 21
162.54029151210199
 31
0.0
  0
LINE
  5
511
  8
0
 10
793.21011094853054
 20
162.54029151210199
 30
0.0
 11
794.35296809138777
 21
162.54029151210199
 31
0.0
  0
LINE
  5
512
  8
0
 10
794.35296809138777
 20
162.54029151210199
 30
0.0
 11
794.19274983741946
 21
163.18798496448301
 31
0.0
  0
LINE
  5
513
  8
0
 10
794.19274983741946
 20
163.18798496448301
 30
0.0
 11
793.82519031360994
 21
163.66677960734009
 31
0.0
  0
LINE
  5
514
  8
0
 10
793.82519031360994
 20
163.66677960734009
 30
0.0
 11
793.26616253583211
 21
163.96253853591159
 31
0.0
  0
LINE
  5
515
  8
0
 10
793.26616253583211
 20
163.96253853591159
 30
0.0
 11
792.53153951995921
 21
164.06112484543539
 31
0.0
  0
LINE
  5
516
  8
0
 10
792.53153951995921
 20
164.06112484543539
 30
0.0
 11
791.73354844853054
 21
163.9291804009909
 31
0.0
  0
LINE
  5
517
  8
0
 10
791.73354844853054
 20
163.9291804009909
 30
0.0
 11
791.12330539297488
 21
163.53334706765759
 31
0.0
  0
LINE
  5
518
  8
0
 10
791.12330539297488
 20
163.53334706765759
 30
0.0
 11
790.73602860726066
 21
162.90933913114961
 31
0.0
  0
LINE
  5
519
  8
0
 10
790.73602860726066
 20
162.90933913114961
 30
0.0
 11
790.60693634535596
 21
162.09287087718141
 31
0.0
  0
LINE
  5
51A
  8
0
 10
790.60693634535596
 20
162.09287087718141
 30
0.0
 11
790.73664864694331
 21
161.27454250416551
 31
0.0
  0
LINE
  5
51B
  8
0
 10
790.73664864694331
 20
161.27454250416551
 30
0.0
 11
791.12578555170523
 21
160.65090659146711
 31
0.0
  0
LINE
  5
51C
  8
0
 10
791.12578555170523
 20
160.65090659146711
 30
0.0
 11
791.74111293265753
 21
160.25618932956229
 31
0.0
  0
LINE
  5
51D
  8
0
 10
791.74111293265753
 20
160.25618932956229
 30
0.0
 11
792.54939666281632
 21
160.12461690892741
 31
0.0
  0
LINE
  5
51E
  8
0
 10
792.54939666281632
 20
160.12461690892741
 30
0.0
 11
793.27248694059404
 21
160.22679944861
 31
0.0
  0
LINE
  5
51F
  8
0
 10
793.27248694059404
 20
160.22679944861
 30
0.0
 11
793.82866253583222
 21
160.53334706765759
 31
0.0
  0
LINE
  5
520
  8
0
 10
793.82866253583222
 20
160.53334706765759
 30
0.0
 11
794.19609805170523
 21
161.0251625438481
 31
0.0
  0
LINE
  5
521
  8
0
 10
794.19609805170523
 20
161.0251625438481
 30
0.0
 11
794.35296809138777
 21
161.68314865495921
 31
0.0
  0
LINE
  5
522
  8
0
 10
794.35296809138777
 20
161.68314865495921
 30
0.0
 11
793.21011094853054
 21
161.68314865495921
 31
0.0
  0
LINE
  5
523
  8
0
 10
785.98838357076295
 20
162.45722284388239
 30
0.0
 11
787.16596293584234
 21
162.45722284388239
 31
0.0
  0
LINE
  5
524
  8
0
 10
787.16596293584234
 20
162.45722284388239
 30
0.0
 11
787.31278833266765
 21
162.9651593518189
 31
0.0
  0
LINE
  5
525
  8
0
 10
787.31278833266765
 20
162.9651593518189
 30
0.0
 11
788.51616134854055
 21
162.9651593518189
 31
0.0
  0
LINE
  5
526
  8
0
 10
788.51616134854055
 20
162.9651593518189
 30
0.0
 11
788.65802642790584
 21
162.45722284388239
 31
0.0
  0
LINE
  5
527
  8
0
 10
788.65802642790584
 20
162.45722284388239
 30
0.0
 11
789.86139944377874
 21
162.45722284388239
 31
0.0
  0
LINE
  5
528
  8
0
 10
789.86139944377874
 20
162.45722284388239
 30
0.0
 11
788.53203436441368
 21
166.26674665340619
 31
0.0
  0
LINE
  5
529
  8
0
 10
788.53203436441368
 20
166.26674665340619
 30
0.0
 11
787.30286769774705
 21
166.26674665340619
 31
0.0
  0
LINE
  5
52A
  8
0
 10
787.30286769774705
 20
166.26674665340619
 30
0.0
 11
785.98838357076295
 21
162.45722284388239
 31
0.0
  0
LINE
  5
52B
  8
0
 10
787.53302642790584
 20
163.79055617721571
 30
0.0
 11
787.91893912631838
 21
165.09412760578709
 31
0.0
  0
LINE
  5
52C
  8
0
 10
787.91893912631838
 20
165.09412760578709
 30
0.0
 11
788.29592325330259
 21
163.79055617721571
 31
0.0
  0
LINE
  5
52D
  8
0
 10
788.29592325330259
 20
163.79055617721571
 30
0.0
 11
787.53302642790584
 21
163.79055617721571
 31
0.0
  0
LINE
  5
52E
  8
0
 10
782.22765238050135
 20
164.19761115306261
 30
0.0
 11
783.92705714240617
 21
164.19761115306261
 31
0.0
  0
LINE
  5
52F
  8
0
 10
783.92705714240617
 20
164.19761115306261
 30
0.0
 11
784.69491428526339
 21
164.23630162925309
 31
0.0
  0
LINE
  5
530
  8
0
 10
784.69491428526339
 20
164.23630162925309
 30
0.0
 11
785.10761269796183
 21
164.36824607369749
 31
0.0
  0
LINE
  5
531
  8
0
 10
785.10761269796183
 20
164.36824607369749
 30
0.0
 11
785.51584682494592
 21
164.75118258163411
 31
0.0
  0
LINE
  5
532
  8
0
 10
785.51584682494592
 20
164.75118258163411
 30
0.0
 11
785.65622380907291
 21
165.33848416893571
 31
0.0
  0
LINE
  5
533
  8
0
 10
785.65622380907291
 20
165.33848416893571
 30
0.0
 11
785.51237460272375
 21
165.9014802006817
 31
0.0
  0
LINE
  5
534
  8
0
 10
785.51237460272375
 20
165.9014802006817
 30
0.0
 11
785.06892222177134
 21
166.22638099433249
 31
0.0
  0
LINE
  5
535
  8
0
 10
785.06892222177134
 20
166.22638099433249
 30
0.0
 11
785.41416031700942
 21
166.54384131179279
 31
0.0
  0
LINE
  5
536
  8
0
 10
785.41416031700942
 20
166.54384131179279
 30
0.0
 11
785.52923968208881
 21
166.99622226417381
 31
0.0
  0
LINE
  5
537
  8
0
 10
785.52923968208881
 20
166.99622226417381
 30
0.0
 11
785.37546984081894
 21
167.5562421054436
 31
0.0
  0
LINE
  5
538
  8
0
 10
785.37546984081894
 20
167.5562421054436
 30
0.0
 11
784.93300952335869
 21
167.89602385147529
 31
0.0
  0
LINE
  5
539
  8
0
 10
784.93300952335869
 20
167.89602385147529
 30
0.0
 11
784.53767222177134
 21
167.98134131179279
 31
0.0
  0
LINE
  5
53A
  8
0
 10
784.53767222177134
 20
167.98134131179279
 30
0.0
 11
783.80404126939038
 21
168.00713496258649
 31
0.0
  0
LINE
  5
53B
  8
0
 10
783.80404126939038
 20
168.00713496258649
 30
0.0
 11
782.22765238050135
 21
168.00713496258649
 31
0.0
  0
LINE
  5
53C
  8
0
 10
782.22765238050135
 20
168.00713496258649
 30
0.0
 11
782.22765238050135
 21
164.19761115306261
 31
0.0
  0
LINE
  5
53D
  8
0
 10
783.43400158685074
 20
165.0865000419515
 30
0.0
 11
783.43400158685074
 21
165.78491274036421
 31
0.0
  0
LINE
  5
53E
  8
0
 10
783.43400158685074
 20
165.78491274036421
 30
0.0
 11
783.98261269796183
 21
165.78491274036421
 31
0.0
  0
LINE
  5
53F
  8
0
 10
783.98261269796183
 20
165.78491274036421
 30
0.0
 11
784.39183888843797
 21
165.70554766099909
 31
0.0
  0
LINE
  5
540
  8
0
 10
784.39183888843797
 20
165.70554766099909
 30
0.0
 11
784.5133666662158
 21
165.438682581634
 31
0.0
  0
LINE
  5
541
  8
0
 10
784.5133666662158
 20
165.438682581634
 30
0.0
 11
784.39431904716821
 21
165.16884131179279
 31
0.0
  0
LINE
  5
542
  8
0
 10
784.39431904716821
 20
165.16884131179279
 30
0.0
 11
783.99352539637437
 21
165.0865000419515
 31
0.0
  0
LINE
  5
543
  8
0
 10
783.99352539637437
 20
165.0865000419515
 30
0.0
 11
783.43400158685074
 21
165.0865000419515
 31
0.0
  0
LINE
  5
544
  8
0
 10
783.43400158685074
 20
166.48332543877689
 30
0.0
 11
783.43400158685074
 21
167.11824607369761
 31
0.0
  0
LINE
  5
545
  8
0
 10
783.43400158685074
 20
167.11824607369761
 30
0.0
 11
783.76832698367616
 21
167.11824607369761
 31
0.0
  0
LINE
  5
546
  8
0
 10
783.76832698367616
 20
167.11824607369761
 30
0.0
 11
784.27675952335869
 21
167.05078575623719
 31
0.0
  0
LINE
  5
547
  8
0
 10
784.27675952335869
 20
167.05078575623719
 30
0.0
 11
784.38638253923159
 21
166.80078575623719
 31
0.0
  0
LINE
  5
548
  8
0
 10
784.38638253923159
 20
166.80078575623719
 30
0.0
 11
784.28419999954906
 21
166.55574607369761
 31
0.0
  0
LINE
  5
549
  8
0
 10
784.28419999954906
 20
166.55574607369761
 30
0.0
 11
783.93201745986664
 21
166.48332543877689
 31
0.0
  0
LINE
  5
54A
  8
0
 10
783.93201745986664
 20
166.48332543877689
 30
0.0
 11
783.43400158685074
 21
166.48332543877689
 31
0.0
  0
ARC
  5
54B
  8
0
 10
788.08761017454231
 20
164.1250045037572
 30
0.0
 40
9.0000000000000213
 50
179.9999999999998
 51
359.99999999999881
  0
ARC
  5
54C
  8
0
 10
788.08761017454231
 20
164.1250045037572
 30
0.0
 40
9.0000000000000089
 50
359.9999999999996
 51
179.9999999999998
  0
LINE
  5
54D
  8
0
 10
577.46261017454935
 20
194.12500450375751
 30
0.0
 11
717.21261017454356
 21
194.12500450375751
 31
0.0
  0
LINE
  5
54E
  8
0
 10
577.46261017454935
 20
100.00000450375769
 30
0.0
 11
577.46261017454935
 21
194.12500450375751
 31
0.0
  0
LINE
  5
54F
  8
0
 10
717.21261017454356
 20
100.00000450375769
 30
0.0
 11
717.21261017454356
 21
194.12500450375751
 31
0.0
  0
LINE
  5
550
  8
0
 10
635.3376101745431
 20
6.0000045037577348
 30
0.0
 11
659.33761017454299
 21
6.0000045037584178
 31
0.0
  0
LINE
  5
551
  8
0
 10
635.33761017454287
 20
86.080200527385671
 30
0.0
 11
659.33761017454287
 21
86.080200527385912
 31
0.0
  0
LINE
  5
552
  8
0
 10
659.33761017454367
 20
4.0000045037577836
 30
0.0
 11
659.33761017454378
 21
98.375004503758362
 31
0.0
  0
LINE
  5
553
  8
0
 10
660.33009577529026
 20
98.375004503758362
 30
0.0
 11
660.33009577529015
 21
4.0000045037577836
 31
0.0
  0
LINE
  5
554
  8
0
 10
659.33761017454367
 20
4.0000045037577836
 30
0.0
 11
660.33009577529015
 21
4.0000045037577827
 31
0.0
  0
LINE
  5
555
  8
0
 10
660.33009577529026
 20
98.375004503758362
 30
0.0
 11
659.33761017454378
 21
98.375004503758362
 31
0.0
  0
LINE
  5
556
  8
0
 10
634.33483214571686
 20
4.0000045037578227
 30
0.0
 11
634.33483214571697
 21
98.375004503758404
 31
0.0
  0
LINE
  5
557
  8
0
 10
635.3376101745439
 20
98.375004503758404
 30
0.0
 11
635.33761017454356
 21
4.000004503757828
 31
0.0
  0
LINE
  5
558
  8
0
 10
634.33483214571686
 20
4.0000045037578227
 30
0.0
 11
635.33761017454356
 21
4.0000045037578218
 31
0.0
  0
LINE
  5
559
  8
0
 10
635.3376101745439
 20
98.375004503758404
 30
0.0
 11
634.33483214571697
 21
98.375004503758404
 31
0.0
  0
LINE
  5
55A
  8
0
 10
677.33761017454287
 20
6.0000045037577348
 30
0.0
 11
701.33761017454287
 21
6.0000045037577348
 31
0.0
  0
LINE
  5
55B
  8
0
 10
677.3376101745439
 20
86.080200527385514
 30
0.0
 11
701.33761017454378
 21
86.080200527385514
 31
0.0
  0
LINE
  5
55C
  8
0
 10
676.34660982921503
 20
4.0000045037577632
 30
0.0
 11
676.34660982921514
 21
98.375004503758333
 31
0.0
  0
LINE
  5
55D
  8
0
 10
677.3376101745439
 20
98.375004503758333
 30
0.0
 11
677.33761017454356
 21
4.0000045037577632
 31
0.0
  0
LINE
  5
55E
  8
0
 10
676.34660982921503
 20
4.0000045037577632
 30
0.0
 11
677.33761017454356
 21
4.0000045037577632
 31
0.0
  0
LINE
  5
55F
  8
0
 10
677.3376101745439
 20
98.375004503758333
 30
0.0
 11
676.34660982921514
 21
98.375004503758333
 31
0.0
  0
LINE
  5
560
  8
0
 10
701.33761017454367
 20
4.0000045037577223
 30
0.0
 11
701.33761017454378
 21
98.375004503758291
 31
0.0
  0
LINE
  5
561
  8
0
 10
702.32962549131287
 20
98.375004503758291
 30
0.0
 11
702.32962549131275
 21
4.0000045037577214
 31
0.0
  0
LINE
  5
562
  8
0
 10
702.32962549131275
 20
4.0000045037577214
 30
0.0
 11
701.33761017454367
 21
4.0000045037577223
 31
0.0
  0
LINE
  5
563
  8
0
 10
702.32962549131287
 20
98.375004503758291
 30
0.0
 11
701.33761017454378
 21
98.375004503758291
 31
0.0
  0
LINE
  5
564
  8
0
 10
593.33761017454174
 20
6.0000045037573919
 30
0.0
 11
617.33761017454299
 21
6.0000045037577348
 31
0.0
  0
LINE
  5
565
  8
0
 10
593.33761017454276
 20
86.080200527385244
 30
0.0
 11
617.33761017454287
 21
86.080200527385514
 31
0.0
  0
LINE
  5
566
  8
0
 10
617.33761017454367
 20
4.0000045037578484
 30
0.0
 11
617.33761017454378
 21
98.375004503758404
 31
0.0
  0
LINE
  5
567
  8
0
 10
618.33761017454367
 20
98.375004503758404
 30
0.0
 11
618.33761017454356
 21
4.0000045037578484
 31
0.0
  0
LINE
  5
568
  8
0
 10
617.33761017454367
 20
4.0000045037578484
 30
0.0
 11
618.33761017454356
 21
4.0000045037578484
 31
0.0
  0
LINE
  5
569
  8
0
 10
618.33761017454367
 20
98.375004503758404
 30
0.0
 11
617.33761017454378
 21
98.375004503758404
 31
0.0
  0
LINE
  5
56A
  8
0
 10
592.33761017454367
 20
4.0000045037578911
 30
0.0
 11
592.33761017454378
 21
98.375004503758475
 31
0.0
  0
LINE
  5
56B
  8
0
 10
593.33761017454367
 20
98.375004503758475
 30
0.0
 11
593.33761017454356
 21
4.0000045037578911
 31
0.0
  0
LINE
  5
56C
  8
0
 10
592.33761017454367
 20
4.0000045037578911
 30
0.0
 11
593.33761017454356
 21
4.0000045037578911
 31
0.0
  0
LINE
  5
56D
  8
0
 10
593.33761017454367
 20
98.375004503758475
 30
0.0
 11
592.33761017454378
 21
98.375004503758475
 31
0.0
  0
LINE
  5
56E
  8
0
 10
579.08761017454356
 20
98.375004503759627
 30
0.0
 11
579.08761017454356
 21
4.0000045037577321
 31
0.0
  0
LINE
  5
56F
  8
0
 10
579.08761017454356
 20
4.0000045037577321
 30
0.0
 11
592.33761017454265
 21
4.0000045037577321
 31
0.0
  0
LINE
  5
570
  8
0
 10
592.33761017454265
 20
4.0000045037577321
 30
0.0
 11
592.33761017454265
 21
98.375004503759627
 31
0.0
1001
ACAD
1000
ASC_BOUNDS
1002
{
1070
    19
1005
7BB
1002
}
  0
LINE
  5
571
  8
0
 10
592.33761017454265
 20
98.375004503759627
 30
0.0
 11
579.08761017454356
 21
98.375004503759627
 31
0.0
  0
LINE
  5
572
  8
0
 10
634.33483214571675
 20
98.375004503758404
 30
0.0
 11
618.33761017454356
 21
98.375004503758404
 31
0.0
  0
LINE
  5
573
  8
0
 10
618.33761017454356
 20
98.375004503758404
 30
0.0
 11
618.33761017454356
 21
4.0000045037578484
 31
0.0
1001
ACAD
1000
ASC_BOUNDS
1002
{
1070
    19
1005
7BB
1002
}
  0
LINE
  5
574
  8
0
 10
618.33761017454356
 20
4.0000045037578484
 30
0.0
 11
634.33483214571675
 21
4.0000045037578484
 31
0.0
  0
LINE
  5
575
  8
0
 10
634.33483214571675
 20
4.0000045037578484
 30
0.0
 11
634.33483214571675
 21
98.375004503758404
 31
0.0
1001
ACAD
1000
ASC_BOUNDS
1002
{
1070
    19
1005
7BB
1002
}
  0
LINE
  5
576
  8
0
 10
715.58761017454344
 20
98.375004503758404
 30
0.0
 11
702.32962549131264
 21
98.375004503758404
 31
0.0
  0
LINE
  5
577
  8
0
 10
702.32962549131264
 20
98.375004503758404
 30
0.0
 11
702.32962549131264
 21
4.0000045037578484
 31
0.0
1001
ACAD
1000
ASC_BOUNDS
1002
{
1070
    19
1005
7BB
1002
}
  0
LINE
  5
578
  8
0
 10
702.32962549131264
 20
4.0000045037578484
 30
0.0
 11
715.58761017454344
 21
4.0000045037578484
 31
0.0
  0
LINE
  5
579
  8
0
 10
715.58761017454344
 20
4.0000045037578484
 30
0.0
 11
715.58761017454344
 21
98.375004503758404
 31
0.0
  0
LINE
  5
57A
  8
0
 10
676.3466098292148
 20
98.375004503758404
 30
0.0
 11
660.33009577529003
 21
98.375004503758404
 31
0.0
  0
LINE
  5
57B
  8
0
 10
660.33009577529003
 20
98.375004503758404
 30
0.0
 11
660.33009577529003
 21
4.0000045037578484
 31
0.0
1001
ACAD
1000
ASC_BOUNDS
1002
{
1070
    19
1005
7BB
1002
}
  0
LINE
  5
57C
  8
0
 10
660.33009577529003
 20
4.0000045037578484
 30
0.0
 11
676.3466098292148
 21
4.0000045037578484
 31
0.0
  0
LINE
  5
57D
  8
0
 10
676.3466098292148
 20
4.0000045037578484
 30
0.0
 11
676.3466098292148
 21
98.375004503758404
 31
0.0
1001
ACAD
1000
ASC_BOUNDS
1002
{
1070
    19
1005
7BB
1002
}
  0
LINE
  5
57E
  8
0
 10
577.46261017454401
 20
100.00000450375769
 30
0.0
 11
717.2126101745439
 21
100.00000450375769
 31
0.0
  0
LINE
  5
57F
  8
0
 10
717.2126101745439
 20
0.0000045037577365
 30
0.0
 11
577.46261017454401
 21
0.0000045037577365
 31
0.0
  0
LINE
  5
580
  8
0
 10
577.46261017454401
 20
0.0000045037577365
 30
0.0
 11
577.46261017454401
 21
100.00000450375769
 31
0.0
  0
LINE
  5
581
  8
0
 10
579.08761017454367
 20
4.0000045037565908
 30
0.0
 11
579.08761017454265
 21
98.375004503757125
 31
0.0
1001
ACAD
1000
ASC_BOUNDS
1002
{
1070
    19
1005
7BB
1002
}
  0
LINE
  5
582
  8
0
 10
579.08761017454265
 20
98.375004503757125
 30
0.0
 11
715.58761017454265
 21
98.375004503758575
 31
0.0
1001
ACAD
1000
ASC_BOUNDS
1002
{
1070
    19
1005
7BB
1005
7BB
1005
7BB
1005
7BB
1002
}
  0
LINE
  5
583
  8
0
 10
715.58761017454265
 20
98.375004503758575
 30
0.0
 11
715.58761017454367
 21
4.0000045037579977
 31
0.0
1001
ACAD
1000
ASC_BOUNDS
1002
{
1070
    19
1005
7BB
1002
}
  0
LINE
  5
584
  8
0
 10
715.58761017454367
 20
4.000004503758019
 30
0.0
 11
579.08761017454367
 21
4.0000045037566121
 31
0.0
1001
ACAD
1000
ASC_BOUNDS
1002
{
1070
    19
1005
7BB
1005
7BB
1005
7BB
1005
7BB
1002
}
  0
LINE
  5
585
  8
0
 10
717.2126101745439
 20
0.0000045037577365
 30
0.0
 11
717.2126101745439
 21
100.00000450375769
 31
0.0
  0
LINE
  5
586
  8
0
 10
718.21261017454935
 20
194.12500450375751
 30
0.0
 11
857.96261017454356
 21
194.12500450375751
 31
0.0
  0
LINE
  5
587
  8
0
 10
718.21261017454935
 20
100.00000450375769
 30
0.0
 11
718.21261017454935
 21
194.12500450375751
 31
0.0
  0
LINE
  5
588
  8
0
 10
857.96261017454356
 20
100.00000450375769
 30
0.0
 11
857.96261017454356
 21
194.12500450375751
 31
0.0
  0
LINE
  5
589
  8
0
 10
776.0876101745439
 20
6.0000045037577348
 30
0.0
 11
800.08761017454265
 21
6.0000045037584178
 31
0.0
  0
LINE
  5
58A
  8
0
 10
776.08761017454265
 20
86.080200527385671
 30
0.0
 11
800.08761017454287
 21
86.080200527385912
 31
0.0
  0
LINE
  5
58B
  8
0
 10
800.08761017454356
 20
4.0000045037577836
 30
0.0
 11
800.08761017454378
 21
98.375004503758362
 31
0.0
  0
LINE
  5
58C
  8
0
 10
801.08009577529015
 20
98.375004503758362
 30
0.0
 11
801.08009577529003
 21
4.0000045037577836
 31
0.0
  0
LINE
  5
58D
  8
0
 10
800.08761017454356
 20
4.0000045037577836
 30
0.0
 11
801.08009577529003
 21
4.0000045037577827
 31
0.0
  0
LINE
  5
58E
  8
0
 10
801.08009577529015
 20
98.375004503758362
 30
0.0
 11
800.08761017454378
 21
98.375004503758362
 31
0.0
  0
LINE
  5
58F
  8
0
 10
775.08483214571686
 20
4.0000045037578227
 30
0.0
 11
775.08483214571686
 21
98.375004503758404
 31
0.0
  0
LINE
  5
590
  8
0
 10
776.08761017454378
 20
98.375004503758404
 30
0.0
 11
776.08761017454356
 21
4.000004503757828
 31
0.0
  0
LINE
  5
591
  8
0
 10
775.08483214571686
 20
4.0000045037578227
 30
0.0
 11
776.08761017454356
 21
4.0000045037578218
 31
0.0
  0
LINE
  5
592
  8
0
 10
776.08761017454378
 20
98.375004503758404
 30
0.0
 11
775.08483214571686
 21
98.375004503758404
 31
0.0
  0
LINE
  5
593
  8
0
 10
818.08761017454253
 20
6.0000045037577348
 30
0.0
 11
842.08761017454378
 21
6.0000045037577348
 31
0.0
  0
LINE
  5
594
  8
0
 10
818.08761017454378
 20
86.080200527385514
 30
0.0
 11
842.08761017454378
 21
86.080200527385514
 31
0.0
  0
LINE
  5
595
  8
0
 10
817.09660982921514
 20
4.0000045037577632
 30
0.0
 11
817.09660982921514
 21
98.375004503758333
 31
0.0
  0
LINE
  5
596
  8
0
 10
818.08761017454378
 20
98.375004503758333
 30
0.0
 11
818.08761017454356
 21
4.0000045037577632
 31
0.0
  0
LINE
  5
597
  8
0
 10
817.09660982921514
 20
4.0000045037577632
 30
0.0
 11
818.08761017454356
 21
4.0000045037577632
 31
0.0
  0
LINE
  5
598
  8
0
 10
818.08761017454378
 20
98.375004503758333
 30
0.0
 11
817.09660982921514
 21
98.375004503758333
 31
0.0
  0
LINE
  5
599
  8
0
 10
842.08761017454356
 20
4.0000045037577223
 30
0.0
 11
842.08761017454378
 21
98.375004503758291
 31
0.0
  0
LINE
  5
59A
  8
0
 10
843.07962549131287
 20
98.375004503758291
 30
0.0
 11
843.07962549131275
 21
4.0000045037577214
 31
0.0
  0
LINE
  5
59B
  8
0
 10
843.07962549131275
 20
4.0000045037577214
 30
0.0
 11
842.08761017454356
 21
4.0000045037577223
 31
0.0
  0
LINE
  5
59C
  8
0
 10
843.07962549131287
 20
98.375004503758291
 30
0.0
 11
842.08761017454378
 21
98.375004503758291
 31
0.0
  0
LINE
  5
59D
  8
0
 10
734.08761017454253
 20
6.0000045037573919
 30
0.0
 11
758.08761017454253
 21
6.0000045037577348
 31
0.0
  0
LINE
  5
59E
  8
0
 10
734.08761017454265
 20
86.080200527385244
 30
0.0
 11
758.08761017454276
 21
86.080200527385514
 31
0.0
  0
LINE
  5
59F
  8
0
 10
758.08761017454356
 20
4.0000045037578484
 30
0.0
 11
758.08761017454356
 21
98.375004503758404
 31
0.0
  0
LINE
  5
5A0
  8
0
 10
759.08761017454356
 20
98.375004503758404
 30
0.0
 11
759.08761017454356
 21
4.0000045037578484
 31
0.0
  0
LINE
  5
5A1
  8
0
 10
758.08761017454356
 20
4.0000045037578484
 30
0.0
 11
759.08761017454356
 21
4.0000045037578484
 31
0.0
  0
LINE
  5
5A2
  8
0
 10
759.08761017454356
 20
98.375004503758404
 30
0.0
 11
758.08761017454356
 21
98.375004503758404
 31
0.0
  0
LINE
  5
5A3
  8
0
 10
733.08761017454356
 20
4.0000045037578911
 30
0.0
 11
733.08761017454356
 21
98.375004503758475
 31
0.0
  0
LINE
  5
5A4
  8
0
 10
734.08761017454356
 20
98.375004503758475
 30
0.0
 11
734.08761017454356
 21
4.0000045037578911
 31
0.0
  0
LINE
  5
5A5
  8
0
 10
733.08761017454356
 20
4.0000045037578911
 30
0.0
 11
734.08761017454356
 21
4.0000045037578911
 31
0.0
  0
LINE
  5
5A6
  8
0
 10
734.08761017454356
 20
98.375004503758475
 30
0.0
 11
733.08761017454356
 21
98.375004503758475
 31
0.0
  0
LINE
  5
5A7
  8
0
 10
719.83761017454344
 20
98.375004503759627
 30
0.0
 11
719.83761017454344
 21
4.0000045037577321
 31
0.0
  0
LINE
  5
5A8
  8
0
 10
719.83761017454344
 20
4.0000045037577321
 30
0.0
 11
733.08761017454253
 21
4.0000045037577321
 31
0.0
  0
LINE
  5
5A9
  8
0
 10
733.08761017454253
 20
4.0000045037577321
 30
0.0
 11
733.08761017454253
 21
98.375004503759627
 31
0.0
1001
ACAD
1000
ASC_BOUNDS
1002
{
1070
    19
1005
7BB
1002
}
  0
LINE
  5
5AA
  8
0
 10
733.08761017454253
 20
98.375004503759627
 30
0.0
 11
719.83761017454344
 21
98.375004503759627
 31
0.0
  0
LINE
  5
5AB
  8
0
 10
775.08483214571675
 20
98.375004503758404
 30
0.0
 11
759.08761017454344
 21
98.375004503758404
 31
0.0
  0
LINE
  5
5AC
  8
0
 10
759.08761017454344
 20
98.375004503758404
 30
0.0
 11
759.08761017454344
 21
4.0000045037578484
 31
0.0
1001
ACAD
1000
ASC_BOUNDS
1002
{
1070
    19
1005
7BB
1002
}
  0
LINE
  5
5AD
  8
0
 10
759.08761017454344
 20
4.0000045037578484
 30
0.0
 11
775.08483214571675
 21
4.0000045037578484
 31
0.0
  0
LINE
  5
5AE
  8
0
 10
775.08483214571675
 20
4.0000045037578484
 30
0.0
 11
775.08483214571675
 21
98.375004503758404
 31
0.0
1001
ACAD
1000
ASC_BOUNDS
1002
{
1070
    19
1005
7BB
1002
}
  0
LINE
  5
5AF
  8
0
 10
856.33761017454356
 20
98.375004503758404
 30
0.0
 11
843.07962549131264
 21
98.375004503758404
 31
0.0
  0
LINE
  5
5B0
  8
0
 10
843.07962549131264
 20
98.375004503758404
 30
0.0
 11
843.07962549131264
 21
4.0000045037578484
 31
0.0
1001
ACAD
1000
ASC_BOUNDS
1002
{
1070
    19
1005
7BB
1002
}
  0
LINE
  5
5B1
  8
0
 10
843.07962549131264
 20
4.0000045037578484
 30
0.0
 11
856.33761017454356
 21
4.0000045037578484
 31
0.0
  0
LINE
  5
5B2
  8
0
 10
856.33761017454356
 20
4.0000045037578484
 30
0.0
 11
856.33761017454356
 21
98.375004503758404
 31
0.0
  0
LINE
  5
5B3
  8
0
 10
817.09660982921469
 20
98.375004503758404
 30
0.0
 11
801.08009577528981
 21
98.375004503758404
 31
0.0
  0
LINE
  5
5B4
  8
0
 10
801.08009577528981
 20
98.375004503758404
 30
0.0
 11
801.08009577528981
 21
4.0000045037578484
 31
0.0
1001
ACAD
1000
ASC_BOUNDS
1002
{
1070
    19
1005
7BB
1002
}
  0
LINE
  5
5B5
  8
0
 10
801.08009577528981
 20
4.0000045037578484
 30
0.0
 11
817.09660982921469
 21
4.0000045037578484
 31
0.0
  0
LINE
  5
5B6
  8
0
 10
817.09660982921469
 20
4.0000045037578484
 30
0.0
 11
817.09660982921469
 21
98.375004503758404
 31
0.0
1001
ACAD
1000
ASC_BOUNDS
1002
{
1070
    19
1005
7BB
1002
}
  0
LINE
  5
5B7
  8
0
 10
718.21261017454412
 20
100.00000450375769
 30
0.0
 11
857.9626101745439
 21
100.00000450375769
 31
0.0
  0
LINE
  5
5B8
  8
0
 10
857.9626101745439
 20
0.0000045037577365
 30
0.0
 11
718.21261017454412
 21
0.0000045037577365
 31
0.0
  0
LINE
  5
5B9
  8
0
 10
718.21261017454412
 20
0.0000045037577365
 30
0.0
 11
718.21261017454412
 21
100.00000450375769
 31
0.0
  0
LINE
  5
5BA
  8
0
 10
719.83761017454378
 20
4.0000045037565908
 30
0.0
 11
719.83761017454265
 21
98.375004503757125
 31
0.0
1001
ACAD
1000
ASC_BOUNDS
1002
{
1070
    19
1005
7BB
1002
}
  0
LINE
  5
5BB
  8
0
 10
719.83761017454265
 20
98.375004503757125
 30
0.0
 11
856.33761017454265
 21
98.375004503758575
 31
0.0
1001
ACAD
1000
ASC_BOUNDS
1002
{
1070
    19
1005
7BB
1005
7BB
1005
7BB
1005
7BB
1002
}
  0
LINE
  5
5BC
  8
0
 10
856.33761017454265
 20
98.375004503758575
 30
0.0
 11
856.33761017454356
 21
4.0000045037579977
 31
0.0
1001
ACAD
1000
ASC_BOUNDS
1002
{
1070
    19
1005
7BB
1002
}
  0
LINE
  5
5BD
  8
0
 10
856.33761017454356
 20
4.000004503758019
 30
0.0
 11
719.83761017454356
 21
4.0000045037566121
 31
0.0
1001
ACAD
1000
ASC_BOUNDS
1002
{
1070
    19
1005
7BB
1005
7BB
1005
7BB
1005
7BB
1002
}
  0
LINE
  5
5BE
  8
0
 10
857.9626101745439
 20
0.0000045037577365
 30
0.0
 11
857.9626101745439
 21
100.00000450375769
 31
0.0
  0
ARC
  5
5BF
  8
0
 10
647.33761017454287
 20
164.1250045037568
 30
0.0
 40
8.25
 50
179.99999999999969
 51
359.99999999999881
  0
ARC
  5
5C0
  8
0
 10
647.33761017454287
 20
164.1250045037568
 30
0.0
 40
8.2499999999999751
 50
359.9999999999996
 51
179.9999999999998
  0
ARC
  5
5C1
  8
0
 10
647.33761017454287
 20
164.1250045037568
 30
0.0
 40
7.6874999999999822
 50
0.000000000000687
 51
180.0000000000002
  0
ARC
  5
5C2
  8
0
 10
647.33761017454287
 20
164.1250045037568
 30
0.0
 40
7.6874999999999831
 50
180.00000000000031
 51
359.9999999999996
  0
LINE
  5
5C3
  8
0
 10
652.46011094853066
 20
161.68314865495941
 30
0.0
 11
652.26517047234029
 21
161.2342399248007
 31
0.0
  0
LINE
  5
5C4
  8
0
 10
652.26517047234029
 20
161.2342399248007
 30
0.0
 11
651.81427761519751
 21
161.0769978613086
 31
0.0
  0
LINE
  5
5C5
  8
0
 10
651.81427761519751
 20
161.0769978613086
 30
0.0
 11
651.48974884535619
 21
161.14123397241971
 31
0.0
  0
LINE
  5
5C6
  8
0
 10
651.48974884535619
 20
161.14123397241971
 30
0.0
 11
651.25425777392775
 21
161.33394230575311
 31
0.0
  0
LINE
  5
5C7
  8
0
 10
651.25425777392775
 20
161.33394230575311
 30
0.0
 11
651.06328555170546
 21
162.09187881368959
 31
0.0
  0
LINE
  5
5C8
  8
0
 10
651.06328555170546
 20
162.09187881368959
 30
0.0
 11
651.24731332948318
 21
162.8557677025785
 31
0.0
  0
LINE
  5
5C9
  8
0
 10
651.24731332948318
 20
162.8557677025785
 30
0.0
 11
651.47710003583245
 21
163.04549984543559
 31
0.0
  0
LINE
  5
5CA
  8
0
 10
651.47710003583245
 20
163.04549984543559
 30
0.0
 11
651.79840459932439
 21
163.10874389305459
 31
0.0
  0
LINE
  5
5CB
  8
0
 10
651.79840459932439
 20
163.10874389305459
 30
0.0
 11
652.26665856757847
 21
162.96539071845149
 31
0.0
  0
LINE
  5
5CC
  8
0
 10
652.26665856757847
 20
162.96539071845149
 30
0.0
 11
652.46011094853066
 21
162.5402915121023
 31
0.0
  0
LINE
  5
5CD
  8
0
 10
652.46011094853066
 20
162.5402915121023
 30
0.0
 11
653.60296809138799
 21
162.5402915121023
 31
0.0
  0
LINE
  5
5CE
  8
0
 10
653.60296809138799
 20
162.5402915121023
 30
0.0
 11
653.44274983741968
 21
163.18798496448321
 31
0.0
  0
LINE
  5
5CF
  8
0
 10
653.44274983741968
 20
163.18798496448321
 30
0.0
 11
653.07519031361005
 21
163.66677960734029
 31
0.0
  0
LINE
  5
5D0
  8
0
 10
653.07519031361005
 20
163.66677960734029
 30
0.0
 11
652.51616253583245
 21
163.96253853591179
 31
0.0
  0
LINE
  5
5D1
  8
0
 10
652.51616253583245
 20
163.96253853591179
 30
0.0
 11
651.78153951995944
 21
164.06112484543559
 31
0.0
  0
LINE
  5
5D2
  8
0
 10
651.78153951995944
 20
164.06112484543559
 30
0.0
 11
650.98354844853066
 21
163.92918040099121
 31
0.0
  0
LINE
  5
5D3
  8
0
 10
650.98354844853066
 20
163.92918040099121
 30
0.0
 11
650.37330539297534
 21
163.53334706765779
 31
0.0
  0
LINE
  5
5D4
  8
0
 10
650.37330539297534
 20
163.53334706765779
 30
0.0
 11
649.98602860726101
 21
162.90933913114989
 31
0.0
  0
LINE
  5
5D5
  8
0
 10
649.98602860726101
 20
162.90933913114989
 30
0.0
 11
649.8569363453563
 21
162.09287087718161
 31
0.0
  0
LINE
  5
5D6
  8
0
 10
649.8569363453563
 20
162.09287087718161
 30
0.0
 11
649.98664864694354
 21
161.27454250416579
 31
0.0
  0
LINE
  5
5D7
  8
0
 10
649.98664864694354
 20
161.27454250416579
 30
0.0
 11
650.37578555170546
 21
160.6509065914673
 31
0.0
  0
LINE
  5
5D8
  8
0
 10
650.37578555170546
 20
160.6509065914673
 30
0.0
 11
650.99111293265776
 21
160.2561893295626
 31
0.0
  0
LINE
  5
5D9
  8
0
 10
650.99111293265776
 20
160.2561893295626
 30
0.0
 11
651.79939666281655
 21
160.12461690892769
 31
0.0
  0
LINE
  5
5DA
  8
0
 10
651.79939666281655
 20
160.12461690892769
 30
0.0
 11
652.52248694059449
 21
160.22679944861019
 31
0.0
  0
LINE
  5
5DB
  8
0
 10
652.52248694059449
 20
160.22679944861019
 30
0.0
 11
653.07866253583245
 21
160.53334706765779
 31
0.0
  0
LINE
  5
5DC
  8
0
 10
653.07866253583245
 20
160.53334706765779
 30
0.0
 11
653.44609805170558
 21
161.0251625438483
 31
0.0
  0
LINE
  5
5DD
  8
0
 10
653.44609805170558
 20
161.0251625438483
 30
0.0
 11
653.60296809138799
 21
161.68314865495941
 31
0.0
  0
LINE
  5
5DE
  8
0
 10
653.60296809138799
 20
161.68314865495941
 30
0.0
 11
652.46011094853066
 21
161.68314865495941
 31
0.0
  0
LINE
  5
5DF
  8
0
 10
645.23838357076329
 20
162.45722284388259
 30
0.0
 11
646.41596293584257
 21
162.45722284388259
 31
0.0
  0
LINE
  5
5E0
  8
0
 10
646.41596293584257
 20
162.45722284388259
 30
0.0
 11
646.56278833266788
 21
162.9651593518191
 31
0.0
  0
LINE
  5
5E1
  8
0
 10
646.56278833266788
 20
162.9651593518191
 30
0.0
 11
647.766161348541
 21
162.9651593518191
 31
0.0
  0
LINE
  5
5E2
  8
0
 10
647.766161348541
 20
162.9651593518191
 30
0.0
 11
647.90802642790595
 21
162.45722284388259
 31
0.0
  0
LINE
  5
5E3
  8
0
 10
647.90802642790595
 20
162.45722284388259
 30
0.0
 11
649.11139944377919
 21
162.45722284388259
 31
0.0
  0
LINE
  5
5E4
  8
0
 10
649.11139944377919
 20
162.45722284388259
 30
0.0
 11
647.78203436441402
 21
166.26674665340639
 31
0.0
  0
LINE
  5
5E5
  8
0
 10
647.78203436441402
 20
166.26674665340639
 30
0.0
 11
646.55286769774727
 21
166.26674665340639
 31
0.0
  0
LINE
  5
5E6
  8
0
 10
646.55286769774727
 20
166.26674665340639
 30
0.0
 11
645.23838357076329
 21
162.45722284388259
 31
0.0
  0
LINE
  5
5E7
  8
0
 10
646.78302642790595
 20
163.7905561772159
 30
0.0
 11
647.16893912631872
 21
165.09412760578741
 31
0.0
  0
LINE
  5
5E8
  8
0
 10
647.16893912631872
 20
165.09412760578741
 30
0.0
 11
647.54592325330293
 21
163.7905561772159
 31
0.0
  0
LINE
  5
5E9
  8
0
 10
647.54592325330293
 20
163.7905561772159
 30
0.0
 11
646.78302642790595
 21
163.7905561772159
 31
0.0
  0
LINE
  5
5EA
  8
0
 10
641.4776523805017
 20
164.19761115306289
 30
0.0
 11
643.17705714240662
 21
164.19761115306289
 31
0.0
  0
LINE
  5
5EB
  8
0
 10
643.17705714240662
 20
164.19761115306289
 30
0.0
 11
643.94491428526374
 21
164.23630162925329
 31
0.0
  0
LINE
  5
5EC
  8
0
 10
643.94491428526374
 20
164.23630162925329
 30
0.0
 11
644.35761269796205
 21
164.3682460736978
 31
0.0
  0
LINE
  5
5ED
  8
0
 10
644.35761269796205
 20
164.3682460736978
 30
0.0
 11
644.76584682494615
 21
164.75118258163431
 31
0.0
  0
LINE
  5
5EE
  8
0
 10
644.76584682494615
 20
164.75118258163431
 30
0.0
 11
644.90622380907325
 21
165.33848416893591
 31
0.0
  0
LINE
  5
5EF
  8
0
 10
644.90622380907325
 20
165.33848416893591
 30
0.0
 11
644.76237460272398
 21
165.9014802006819
 31
0.0
  0
LINE
  5
5F0
  8
0
 10
644.76237460272398
 20
165.9014802006819
 30
0.0
 11
644.31892222177146
 21
166.22638099433269
 31
0.0
  0
LINE
  5
5F1
  8
0
 10
644.31892222177146
 20
166.22638099433269
 30
0.0
 11
644.66416031700965
 21
166.54384131179299
 31
0.0
  0
LINE
  5
5F2
  8
0
 10
644.66416031700965
 20
166.54384131179299
 30
0.0
 11
644.77923968208916
 21
166.99622226417401
 31
0.0
  0
LINE
  5
5F3
  8
0
 10
644.77923968208916
 20
166.99622226417401
 30
0.0
 11
644.62546984081928
 21
167.5562421054438
 31
0.0
  0
LINE
  5
5F4
  8
0
 10
644.62546984081928
 20
167.5562421054438
 30
0.0
 11
644.18300952335892
 21
167.8960238514756
 31
0.0
  0
LINE
  5
5F5
  8
0
 10
644.18300952335892
 20
167.8960238514756
 30
0.0
 11
643.78767222177157
 21
167.98134131179299
 31
0.0
  0
LINE
  5
5F6
  8
0
 10
643.78767222177157
 20
167.98134131179299
 30
0.0
 11
643.05404126939072
 21
168.00713496258669
 31
0.0
  0
LINE
  5
5F7
  8
0
 10
643.05404126939072
 20
168.00713496258669
 30
0.0
 11
641.4776523805017
 21
168.00713496258669
 31
0.0
  0
LINE
  5
5F8
  8
0
 10
641.4776523805017
 20
168.00713496258669
 30
0.0
 11
641.4776523805017
 21
164.19761115306289
 31
0.0
  0
LINE
  5
5F9
  8
0
 10
642.68400158685085
 20
165.08650004195181
 30
0.0
 11
642.68400158685085
 21
165.78491274036449
 31
0.0
  0
LINE
  5
5FA
  8
0
 10
642.68400158685085
 20
165.78491274036449
 30
0.0
 11
643.23261269796217
 21
165.78491274036449
 31
0.0
  0
LINE
  5
5FB
  8
0
 10
643.23261269796217
 20
165.78491274036449
 30
0.0
 11
643.64183888843831
 21
165.7055476609994
 31
0.0
  0
LINE
  5
5FC
  8
0
 10
643.64183888843831
 20
165.7055476609994
 30
0.0
 11
643.76336666621614
 21
165.43868258163431
 31
0.0
  0
LINE
  5
5FD
  8
0
 10
643.76336666621614
 20
165.43868258163431
 30
0.0
 11
643.64431904716844
 21
165.16884131179299
 31
0.0
  0
LINE
  5
5FE
  8
0
 10
643.64431904716844
 20
165.16884131179299
 30
0.0
 11
643.24352539637482
 21
165.08650004195181
 31
0.0
  0
LINE
  5
5FF
  8
0
 10
643.24352539637482
 20
165.08650004195181
 30
0.0
 11
642.68400158685085
 21
165.08650004195181
 31
0.0
  0
LINE
  5
600
  8
0
 10
642.68400158685085
 20
166.48332543877709
 30
0.0
 11
642.68400158685085
 21
167.1182460736978
 31
0.0
  0
LINE
  5
601
  8
0
 10
642.68400158685085
 20
167.1182460736978
 30
0.0
 11
643.01832698367639
 21
167.1182460736978
 31
0.0
  0
LINE
  5
602
  8
0
 10
643.01832698367639
 20
167.1182460736978
 30
0.0
 11
643.52675952335892
 21
167.0507857562375
 31
0.0
  0
LINE
  5
603
  8
0
 10
643.52675952335892
 20
167.0507857562375
 30
0.0
 11
643.63638253923205
 21
166.8007857562375
 31
0.0
  0
LINE
  5
604
  8
0
 10
643.63638253923205
 20
166.8007857562375
 30
0.0
 11
643.53419999954929
 21
166.5557460736978
 31
0.0
  0
LINE
  5
605
  8
0
 10
643.53419999954929
 20
166.5557460736978
 30
0.0
 11
643.18201745986687
 21
166.48332543877709
 31
0.0
  0
LINE
  5
606
  8
0
 10
643.18201745986687
 20
166.48332543877709
 30
0.0
 11
642.68400158685085
 21
166.48332543877709
 31
0.0
  0
ARC
  5
607
  8
0
 10
647.33761017454253
 20
164.1250045037574
 30
0.0
 40
9.0
 50
179.99999999999969
 51
359.99999999999881
  0
ARC
  5
608
  8
0
 10
647.33761017454253
 20
164.1250045037574
 30
0.0
 40
9.0000000000000231
 50
359.99999999999949
 51
179.9999999999996
  0
ARC
  5
609
  8
0
 10
788.08761017454071
 20
186.37500450375771
 30
0.0
 40
3.9999999999999929
 50
90.0
 51
270.0
  0
ARC
  5
60A
  8
0
 10
788.08761017454071
 20
186.37500450375771
 30
0.0
 40
4.0000000000000062
 50
270.0
 51
90.0
  0
ARC
  5
60B
  8
0
 10
647.33761017454356
 20
186.37500450375771
 30
0.0
 40
3.9999999999999929
 50
90.0
 51
270.0
  0
ARC
  5
60C
  8
0
 10
647.33761017454356
 20
186.37500450375771
 30
0.0
 40
4.0000000000000062
 50
270.0
 51
90.0
  0
LINE
  5
60D
  8
0
 10
577.21261017454322
 20
39.500004503757957
 30
0.0
 11
577.46261017454231
 21
39.500004503757957
 31
0.0
  0
LINE
  5
60E
  8
0
 10
577.46261017454231
 20
41.50000450375817
 30
0.0
 11
577.21261017454322
 21
41.50000450375817
 31
0.0
  0
LINE
  5
60F
  8
0
 10
577.21261017454356
 20
27.500004503757971
 30
0.0
 11
577.46261017454265
 21
27.500004503757971
 31
0.0
  0
LINE
  5
610
  8
0
 10
577.46261017454265
 20
30.50000450375796
 30
0.0
 11
577.21261017454356
 21
30.50000450375796
 31
0.0
  0
LINE
  5
611
  8
0
 10
577.21261017454356
 20
5.6250045037580758
 30
0.0
 11
577.46261017454265
 21
5.6250045037580758
 31
0.0
  0
LINE
  5
612
  8
0
 10
577.21261017454401
 20
40.50000450375812
 30
0.0
 11
577.21261017454401
 21
40.758823548860647
 31
0.0
  0
LINE
  5
613
  8
0
 10
577.21261017454401
 20
40.758824109783092
 30
0.0
 11
577.21261017454401
 21
41.00000450375812
 31
0.0
  0
LINE
  5
614
  8
0
 10
577.21261017454401
 20
41.000005547768012
 30
0.0
 11
577.21261017454401
 21
41.207111284944673
 31
0.0
  0
LINE
  5
615
  8
0
 10
577.21261017454401
 20
41.20711217346112
 30
0.0
 11
577.21261017454401
 21
41.366029907542583
 31
0.0
  0
LINE
  5
616
  8
0
 10
577.21261017454401
 20
41.366030590074878
 30
0.0
 11
577.21261017454401
 21
41.4659303300472
 31
0.0
  0
LINE
  5
617
  8
0
 10
577.21261017454401
 20
41.465932910626073
 30
0.0
 11
577.21261017454401
 21
41.500004503758127
 31
0.0
  0
LINE
  5
618
  8
0
 10
577.21261017454401
 20
39.500004503758142
 30
0.0
 11
577.21261017454401
 21
39.534076096888548
 31
0.0
  0
LINE
  5
619
  8
0
 10
577.21261017454401
 20
39.534078677469068
 30
0.0
 11
577.21261017454401
 21
39.633978417440296
 31
0.0
  0
LINE
  5
61A
  8
0
 10
577.21261017454401
 20
39.6339790999737
 30
0.0
 11
577.21261017454401
 21
39.792896834054169
 31
0.0
  0
LINE
  5
61B
  8
0
 10
577.21261017454401
 20
39.792897722571588
 30
0.0
 11
577.21261017454401
 21
40.0000034597469
 31
0.0
  0
LINE
  5
61C
  8
0
 10
577.21261017454401
 20
40.000004503758127
 30
0.0
 11
577.21261017454401
 21
40.241184897731863
 31
0.0
  0
LINE
  5
61D
  8
0
 10
577.21261017454401
 20
40.241185458655607
 30
0.0
 11
577.21261017454401
 21
40.50000450375812
 31
0.0
  0
LINE
  5
61E
  8
0
 10
577.21261017454435
 20
29.000005468413558
 30
0.0
 11
577.21261017454435
 21
29.750004503758142
 31
0.0
  0
LINE
  5
61F
  8
0
 10
577.21261017454435
 20
29.750005547768129
 30
0.0
 11
577.21261017454435
 21
30.29904168195733
 31
0.0
  0
LINE
  5
620
  8
0
 10
577.21261017454435
 20
30.299042609434789
 30
0.0
 11
577.21261017454435
 21
30.448893243191741
 31
0.0
  0
LINE
  5
621
  8
0
 10
577.21261017454435
 20
30.448893321248359
 30
0.0
 11
577.21261017454435
 21
30.500004503758142
 31
0.0
  0
LINE
  5
622
  8
0
 10
577.21261017454435
 20
27.500004503758142
 30
0.0
 11
577.21261017454435
 21
27.551113789843139
 31
0.0
  0
LINE
  5
623
  8
0
 10
577.21261017454435
 20
27.551115764324539
 30
0.0
 11
577.21261017454435
 21
27.70096639808148
 31
0.0
  0
LINE
  5
624
  8
0
 10
577.21261017454435
 20
27.70096654002537
 30
0.0
 11
577.21261017454435
 21
27.939344110111541
 31
0.0
  0
LINE
  5
625
  8
0
 10
577.21261017454435
 20
27.939344331978312
 30
0.0
 11
577.21261017454435
 21
29.000004503758131
 31
0.0
  0
LINE
  5
626
  8
0
 10
577.21261017454435
 20
5.62500450375813
 30
0.0
 11
577.21261017454435
 21
5.6590784673935657
 31
0.0
  0
LINE
  5
627
  8
0
 10
577.21261017454435
 20
5.659078677469064
 30
0.0
 11
577.21261017454435
 21
5.7589790422399183
 31
0.0
  0
LINE
  5
628
  8
0
 10
577.21261017454435
 20
5.7589790999736943
 30
0.0
 11
577.21261017454435
 21
5.917897722571583
 31
0.0
  0
LINE
  5
629
  8
0
 10
577.21261017454435
 20
5.917897786665125
 30
0.0
 11
577.21261017454435
 21
6.12500450375813
 31
0.0
  0
LINE
  5
62A
  8
0
 10
577.21261017454435
 20
6.1250047278860302
 30
0.0
 11
577.21261017454435
 21
6.3661853976965928
 31
0.0
  0
LINE
  5
62B
  8
0
 10
577.21261017454435
 20
6.3661854586556084
 30
0.0
 11
577.21261017454435
 21
6.4989019749060573
 31
0.0
  0
LINE
  5
62C
  8
0
 10
577.21261017454344
 20
6.5000045037583041
 30
0.0
 11
577.46261017454253
 21
6.5000045037583041
 31
0.0
  0
LINE
  5
62D
  8
0
 10
577.46261017454253
 20
18.50000450375796
 30
0.0
 11
577.21261017454344
 21
18.50000450375796
 31
0.0
  0
LINE
  5
62E
  8
0
 10
577.21261017454424
 20
12.50000450375815
 30
0.0
 11
577.21261017454424
 21
14.0529186493044
 31
0.0
  0
LINE
  5
62F
  8
0
 10
577.21261017454424
 20
14.052918774373261
 30
0.0
 11
577.21261017454435
 21
15.50000405550159
 31
0.0
  0
LINE
  5
630
  8
0
 10
577.21261017454435
 20
15.500004503758131
 30
0.0
 11
577.21261017454435
 21
16.742645019421602
 31
0.0
  0
LINE
  5
631
  8
0
 10
577.21261017454435
 20
16.742645190877418
 30
0.0
 11
577.21261017454435
 21
18.295559461492559
 31
0.0
  0
LINE
  5
632
  8
0
 10
577.21261017454435
 20
18.295559773719042
 30
0.0
 11
577.21261017454435
 21
18.500004503758159
 31
0.0
  0
LINE
  5
633
  8
0
 10
577.21261017454435
 20
6.5000045037581637
 30
0.0
 11
577.21261017454435
 21
6.7044495460237536
 31
0.0
  0
LINE
  5
634
  8
0
 10
577.21261017454435
 20
6.7044497629487942
 30
0.0
 11
577.21261017454435
 21
7.3038520470520281
 31
0.0
  0
LINE
  5
635
  8
0
 10
577.21261017454435
 20
7.3038520810515308
 30
0.0
 11
577.21261017454435
 21
8.2573637623557783
 31
0.0
  0
LINE
  5
636
  8
0
 10
577.21261017454435
 20
8.2573638166388754
 30
0.0
 11
577.21261017454435
 21
9.5000045037581557
 31
0.0
  0
LINE
  5
637
  8
0
 10
577.21261017454435
 20
9.5000047278860436
 30
0.0
 11
577.21261017454424
 21
10.94709011737498
 31
0.0
  0
LINE
  5
638
  8
0
 10
577.21261017454424
 20
10.947090233143021
 30
0.0
 11
577.21261017454424
 21
12.50000402142938
 31
0.0
  0
ARC
  5
639
  8
0
 10
210.62499729090609
 20
164.12500450376109
 30
0.0
 40
8.2500000000000089
 50
179.9999999999998
 51
359.99999999999881
  0
ARC
  5
63A
  8
0
 10
210.62499729090609
 20
164.12500450376109
 30
0.0
 40
8.2500000000000213
 50
359.99999999999949
 51
179.9999999999996
  0
ARC
  5
63B
  8
0
 10
210.62499729090609
 20
164.12500450376109
 30
0.0
 40
7.6874999999999831
 50
0.0000000000009669
 51
180.0000000000002
  0
ARC
  5
63C
  8
0
 10
210.62499729090609
 20
164.12500450376109
 30
0.0
 40
7.687499999999976
 50
180.00000000000031
 51
0.0000000000001527
  0
LINE
  5
63D
  8
0
 10
215.7474980648939
 20
161.68314865496379
 30
0.0
 11
215.55255758870339
 21
161.234239924805
 31
0.0
  0
LINE
  5
63E
  8
0
 10
215.55255758870339
 20
161.234239924805
 30
0.0
 11
215.10166473156059
 21
161.076997861313
 31
0.0
  0
LINE
  5
63F
  8
0
 10
215.10166473156059
 20
161.076997861313
 30
0.0
 11
214.77713596171941
 21
161.14123397242409
 31
0.0
  0
LINE
  5
640
  8
0
 10
214.77713596171941
 20
161.14123397242409
 30
0.0
 11
214.5416448902908
 21
161.3339423057574
 31
0.0
  0
LINE
  5
641
  8
0
 10
214.5416448902908
 20
161.3339423057574
 30
0.0
 11
214.35067266806851
 21
162.09187881369391
 31
0.0
  0
LINE
  5
642
  8
0
 10
214.35067266806851
 20
162.09187881369391
 30
0.0
 11
214.53470044584631
 21
162.8557677025828
 31
0.0
  0
LINE
  5
643
  8
0
 10
214.53470044584631
 20
162.8557677025828
 30
0.0
 11
214.7644871521955
 21
163.04549984543991
 31
0.0
  0
LINE
  5
644
  8
0
 10
214.7644871521955
 20
163.04549984543991
 30
0.0
 11
215.08579171568761
 21
163.108743893059
 31
0.0
  0
LINE
  5
645
  8
0
 10
215.08579171568761
 20
163.108743893059
 30
0.0
 11
215.5540456839415
 21
162.96539071845581
 31
0.0
  0
LINE
  5
646
  8
0
 10
215.5540456839415
 20
162.96539071845581
 30
0.0
 11
215.7474980648939
 21
162.54029151210659
 31
0.0
  0
LINE
  5
647
  8
0
 10
215.7474980648939
 20
162.54029151210659
 30
0.0
 11
216.8903552077511
 21
162.54029151210659
 31
0.0
  0
LINE
  5
648
  8
0
 10
216.8903552077511
 20
162.54029151210659
 30
0.0
 11
216.73013695378279
 21
163.18798496448761
 31
0.0
  0
LINE
  5
649
  8
0
 10
216.73013695378279
 20
163.18798496448761
 30
0.0
 11
216.3625774299733
 21
163.66677960734469
 31
0.0
  0
LINE
  5
64A
  8
0
 10
216.3625774299733
 20
163.66677960734469
 30
0.0
 11
215.8035496521955
 21
163.9625385359162
 31
0.0
  0
LINE
  5
64B
  8
0
 10
215.8035496521955
 20
163.9625385359162
 30
0.0
 11
215.06892663632249
 21
164.06112484543999
 31
0.0
  0
LINE
  5
64C
  8
0
 10
215.06892663632249
 20
164.06112484543999
 30
0.0
 11
214.2709355648939
 21
163.92918040099551
 31
0.0
  0
LINE
  5
64D
  8
0
 10
214.2709355648939
 20
163.92918040099551
 30
0.0
 11
213.66069250933839
 21
163.53334706766219
 31
0.0
  0
LINE
  5
64E
  8
0
 10
213.66069250933839
 20
163.53334706766219
 30
0.0
 11
213.27341572362411
 21
162.9093391311543
 31
0.0
  0
LINE
  5
64F
  8
0
 10
213.27341572362411
 20
162.9093391311543
 30
0.0
 11
213.1443234617193
 21
162.09287087718599
 31
0.0
  0
LINE
  5
650
  8
0
 10
213.1443234617193
 20
162.09287087718599
 30
0.0
 11
213.27403576330661
 21
161.27454250417011
 31
0.0
  0
LINE
  5
651
  8
0
 10
213.27403576330661
 20
161.27454250417011
 30
0.0
 11
213.66317266806851
 21
160.65090659147171
 31
0.0
  0
LINE
  5
652
  8
0
 10
213.66317266806851
 20
160.65090659147171
 30
0.0
 11
214.27850004902089
 21
160.25618932956689
 31
0.0
  0
LINE
  5
653
  8
0
 10
214.27850004902089
 20
160.25618932956689
 30
0.0
 11
215.0867837791796
 21
160.12461690893201
 31
0.0
  0
LINE
  5
654
  8
0
 10
215.0867837791796
 20
160.12461690893201
 30
0.0
 11
215.8098740569574
 21
160.22679944861451
 31
0.0
  0
LINE
  5
655
  8
0
 10
215.8098740569574
 20
160.22679944861451
 30
0.0
 11
216.3660496521955
 21
160.53334706766219
 31
0.0
  0
LINE
  5
656
  8
0
 10
216.3660496521955
 20
160.53334706766219
 30
0.0
 11
216.73348516806851
 21
161.0251625438527
 31
0.0
  0
LINE
  5
657
  8
0
 10
216.73348516806851
 20
161.0251625438527
 30
0.0
 11
216.8903552077511
 21
161.68314865496379
 31
0.0
  0
LINE
  5
658
  8
0
 10
216.8903552077511
 20
161.68314865496379
 30
0.0
 11
215.7474980648939
 21
161.68314865496379
 31
0.0
  0
LINE
  5
659
  8
0
 10
208.5257706871262
 20
162.457222843887
 30
0.0
 11
209.70335005220559
 21
162.457222843887
 31
0.0
  0
LINE
  5
65A
  8
0
 10
209.70335005220559
 20
162.457222843887
 30
0.0
 11
209.85017544903101
 21
162.9651593518235
 31
0.0
  0
LINE
  5
65B
  8
0
 10
209.85017544903101
 20
162.9651593518235
 30
0.0
 11
211.053548464904
 21
162.9651593518235
 31
0.0
  0
LINE
  5
65C
  8
0
 10
211.053548464904
 20
162.9651593518235
 30
0.0
 11
211.19541354426909
 21
162.457222843887
 31
0.0
  0
LINE
  5
65D
  8
0
 10
211.19541354426909
 20
162.457222843887
 30
0.0
 11
212.3987865601421
 21
162.457222843887
 31
0.0
  0
LINE
  5
65E
  8
0
 10
212.3987865601421
 20
162.457222843887
 30
0.0
 11
211.06942148077709
 21
166.26674665341079
 31
0.0
  0
LINE
  5
65F
  8
0
 10
211.06942148077709
 20
166.26674665341079
 30
0.0
 11
209.84025481411041
 21
166.26674665341079
 31
0.0
  0
LINE
  5
660
  8
0
 10
209.84025481411041
 20
166.26674665341079
 30
0.0
 11
208.5257706871262
 21
162.457222843887
 31
0.0
  0
LINE
  5
661
  8
0
 10
210.07041354426909
 20
163.79055617722031
 30
0.0
 11
210.4563262426818
 21
165.0941276057917
 31
0.0
  0
LINE
  5
662
  8
0
 10
210.4563262426818
 20
165.0941276057917
 30
0.0
 11
210.8333103696659
 21
163.79055617722031
 31
0.0
  0
LINE
  5
663
  8
0
 10
210.8333103696659
 20
163.79055617722031
 30
0.0
 11
210.07041354426909
 21
163.79055617722031
 31
0.0
  0
LINE
  5
664
  8
0
 10
204.7650394968648
 20
164.19761115306719
 30
0.0
 11
206.46444425876959
 21
164.19761115306719
 31
0.0
  0
LINE
  5
665
  8
0
 10
206.46444425876959
 20
164.19761115306719
 30
0.0
 11
207.2323014016267
 21
164.2363016292577
 31
0.0
  0
LINE
  5
666
  8
0
 10
207.2323014016267
 20
164.2363016292577
 30
0.0
 11
207.64499981432519
 21
164.3682460737021
 31
0.0
  0
LINE
  5
667
  8
0
 10
207.64499981432519
 20
164.3682460737021
 30
0.0
 11
208.05323394130929
 21
164.75118258163869
 31
0.0
  0
LINE
  5
668
  8
0
 10
208.05323394130929
 20
164.75118258163869
 30
0.0
 11
208.1936109254363
 21
165.33848416894031
 31
0.0
  0
LINE
  5
669
  8
0
 10
208.1936109254363
 20
165.33848416894031
 30
0.0
 11
208.04976171908709
 21
165.90148020068631
 31
0.0
  0
LINE
  5
66A
  8
0
 10
208.04976171908709
 20
165.90148020068631
 30
0.0
 11
207.60630933813471
 21
166.22638099433709
 31
0.0
  0
LINE
  5
66B
  8
0
 10
207.60630933813471
 20
166.22638099433709
 30
0.0
 11
207.95154743337281
 21
166.54384131179739
 31
0.0
  0
LINE
  5
66C
  8
0
 10
207.95154743337281
 20
166.54384131179739
 30
0.0
 11
208.06662679845221
 21
166.99622226417841
 31
0.0
  0
LINE
  5
66D
  8
0
 10
208.06662679845221
 20
166.99622226417841
 30
0.0
 11
207.9128569571823
 21
167.55624210544821
 31
0.0
  0
LINE
  5
66E
  8
0
 10
207.9128569571823
 20
167.55624210544821
 30
0.0
 11
207.470396639722
 21
167.8960238514799
 31
0.0
  0
LINE
  5
66F
  8
0
 10
207.470396639722
 20
167.8960238514799
 30
0.0
 11
207.07505933813471
 21
167.98134131179739
 31
0.0
  0
LINE
  5
670
  8
0
 10
207.07505933813471
 20
167.98134131179739
 30
0.0
 11
206.34142838575369
 21
168.0071349625911
 31
0.0
  0
LINE
  5
671
  8
0
 10
206.34142838575369
 20
168.0071349625911
 30
0.0
 11
204.7650394968648
 21
168.0071349625911
 31
0.0
  0
LINE
  5
672
  8
0
 10
204.7650394968648
 20
168.0071349625911
 30
0.0
 11
204.7650394968648
 21
164.19761115306719
 31
0.0
  0
LINE
  5
673
  8
0
 10
205.9713887032141
 20
165.0865000419561
 30
0.0
 11
205.9713887032141
 21
165.78491274036881
 31
0.0
  0
LINE
  5
674
  8
0
 10
205.9713887032141
 20
165.78491274036881
 30
0.0
 11
206.51999981432519
 21
165.78491274036881
 31
0.0
  0
LINE
  5
675
  8
0
 10
206.51999981432519
 20
165.78491274036881
 30
0.0
 11
206.92922600480139
 21
165.70554766100369
 31
0.0
  0
LINE
  5
676
  8
0
 10
206.92922600480139
 20
165.70554766100369
 30
0.0
 11
207.05075378257911
 21
165.4386825816386
 31
0.0
  0
LINE
  5
677
  8
0
 10
207.05075378257911
 20
165.4386825816386
 30
0.0
 11
206.93170616353149
 21
165.16884131179739
 31
0.0
  0
LINE
  5
678
  8
0
 10
206.93170616353149
 20
165.16884131179739
 30
0.0
 11
206.5309125127379
 21
165.0865000419561
 31
0.0
  0
LINE
  5
679
  8
0
 10
206.5309125127379
 20
165.0865000419561
 30
0.0
 11
205.9713887032141
 21
165.0865000419561
 31
0.0
  0
LINE
  5
67A
  8
0
 10
205.9713887032141
 20
166.48332543878149
 30
0.0
 11
205.9713887032141
 21
167.11824607370221
 31
0.0
  0
LINE
  5
67B
  8
0
 10
205.9713887032141
 20
167.11824607370221
 30
0.0
 11
206.30571410003949
 21
167.11824607370221
 31
0.0
  0
LINE
  5
67C
  8
0
 10
206.30571410003949
 20
167.11824607370221
 30
0.0
 11
206.814146639722
 21
167.05078575624191
 31
0.0
  0
LINE
  5
67D
  8
0
 10
206.814146639722
 20
167.05078575624191
 30
0.0
 11
206.92376965559501
 21
166.80078575624179
 31
0.0
  0
LINE
  5
67E
  8
0
 10
206.92376965559501
 20
166.80078575624179
 30
0.0
 11
206.82158711591251
 21
166.55574607370221
 31
0.0
  0
LINE
  5
67F
  8
0
 10
206.82158711591251
 20
166.55574607370221
 30
0.0
 11
206.46940457622989
 21
166.48332543878149
 31
0.0
  0
LINE
  5
680
  8
0
 10
206.46940457622989
 20
166.48332543878149
 30
0.0
 11
205.9713887032141
 21
166.48332543878149
 31
0.0
  0
ARC
  5
681
  8
0
 10
210.62499729090561
 20
164.1250045037618
 30
0.0
 40
9.0000000000000124
 50
179.9999999999998
 51
359.99999999999881
  0
ARC
  5
682
  8
0
 10
210.62499729090561
 20
164.1250045037618
 30
0.0
 40
9.0
 50
0.0
 51
179.99999999999989
  0
LINE
  5
683
  8
0
 10
140.74999729090459
 20
194.12500450375751
 30
0.0
 11
280.49999729089888
 21
194.12500450375751
 31
0.0
  0
LINE
  5
684
  8
0
 10
280.49999729089888
 20
100.00000450375769
 30
0.0
 11
140.74999729090459
 21
100.00000450375769
 31
0.0
  0
LINE
  5
685
  8
0
 10
140.74999729090459
 20
194.12500450375751
 30
0.0
 11
140.74999729090459
 21
100.00000450375769
 31
0.0
  0
LINE
  5
686
  8
0
 10
280.49999729089888
 20
100.00000450375769
 30
0.0
 11
280.49999729089888
 21
194.12500450375751
 31
0.0
  0
LINE
  5
687
  8
0
 10
140.74999729090459
 20
100.00000450375769
 30
0.0
 11
280.4999972909045
 21
100.00000450375769
 31
0.0
  0
LINE
  5
688
  8
0
 10
280.4999972909045
 20
0.0000045037577365
 30
0.0
 11
140.74999729090459
 21
0.0000045037577365
 31
0.0
  0
LINE
  5
689
  8
0
 10
280.4999972909045
 20
100.00000450375769
 30
0.0
 11
280.4999972909045
 21
0.0000045037577365
 31
0.0
  0
LINE
  5
68A
  8
0
 10
140.74999729090459
 20
0.0000045037577365
 30
0.0
 11
140.74999729090459
 21
100.00000450375769
 31
0.0
  0
LINE
  5
68B
  8
0
 10
-0.0000027090953267
 20
194.12500450375751
 30
0.0
 11
139.7499972908989
 21
194.12500450375751
 31
0.0
  0
LINE
  5
68C
  8
0
 10
139.7499972908989
 20
100.00000450375769
 30
0.0
 11
-0.0000027090953267
 21
100.00000450375769
 31
0.0
  0
LINE
  5
68D
  8
0
 10
-0.0000027090953267
 20
194.12500450375751
 30
0.0
 11
-0.0000027090953267
 21
100.00000450375769
 31
0.0
  0
LINE
  5
68E
  8
0
 10
139.7499972908989
 20
100.00000450375769
 30
0.0
 11
139.7499972908989
 21
194.12500450375751
 31
0.0
  0
LINE
  5
68F
  8
0
 10
-0.0000027090953836
 20
100.00000450375769
 30
0.0
 11
139.7499972909045
 21
100.00000450375769
 31
0.0
  0
LINE
  5
690
  8
0
 10
139.7499972909045
 20
0.0000045037577365
 30
0.0
 11
-0.0000027090953836
 21
0.0000045037577365
 31
0.0
  0
LINE
  5
691
  8
0
 10
139.7499972909045
 20
100.00000450375769
 30
0.0
 11
139.7499972909045
 21
0.0000045037577365
 31
0.0
  0
LINE
  5
692
  8
0
 10
-0.0000027090953836
 20
0.0000045037577365
 30
0.0
 11
-0.0000027090953836
 21
100.00000450375769
 31
0.0
  0
ARC
  5
693
  8
0
 10
69.87499729090618
 20
164.1250045037566
 30
0.0
 40
8.2500000000000018
 50
179.99999999999969
 51
359.99999999999881
  0
ARC
  5
694
  8
0
 10
69.87499729090618
 20
164.1250045037566
 30
0.0
 40
8.2500000000000089
 50
359.99999999999949
 51
179.9999999999996
  0
ARC
  5
695
  8
0
 10
69.87499729090618
 20
164.1250045037566
 30
0.0
 40
7.6874999999999956
 50
0.0000000000006679
 51
180.00000000000011
  0
ARC
  5
696
  8
0
 10
69.87499729090618
 20
164.1250045037566
 30
0.0
 40
7.687499999999992
 50
180.00000000000011
 51
359.9999999999996
  0
LINE
  5
697
  8
0
 10
74.997498064893989
 20
161.68314865495921
 30
0.0
 11
74.802557588703536
 21
161.23423992480051
 31
0.0
  0
LINE
  5
698
  8
0
 10
74.802557588703536
 20
161.23423992480051
 30
0.0
 11
74.351664731560675
 21
161.07699786130851
 31
0.0
  0
LINE
  5
699
  8
0
 10
74.351664731560675
 20
161.07699786130851
 30
0.0
 11
74.027135961719409
 21
161.1412339724196
 31
0.0
  0
LINE
  5
69A
  8
0
 10
74.027135961719409
 20
161.1412339724196
 30
0.0
 11
73.791644890290826
 21
161.33394230575291
 31
0.0
  0
LINE
  5
69B
  8
0
 10
73.791644890290826
 20
161.33394230575291
 30
0.0
 11
73.600672668068597
 21
162.09187881368939
 31
0.0
  0
LINE
  5
69C
  8
0
 10
73.600672668068597
 20
162.09187881368939
 30
0.0
 11
73.784700445846397
 21
162.85576770257831
 31
0.0
  0
LINE
  5
69D
  8
0
 10
73.784700445846397
 20
162.85576770257831
 30
0.0
 11
74.014487152195585
 21
163.0454998454355
 31
0.0
  0
LINE
  5
69E
  8
0
 10
74.014487152195585
 20
163.0454998454355
 30
0.0
 11
74.335791715687662
 21
163.10874389305451
 31
0.0
  0
LINE
  5
69F
  8
0
 10
74.335791715687662
 20
163.10874389305451
 30
0.0
 11
74.804045683941624
 21
162.96539071845129
 31
0.0
  0
LINE
  5
6A0
  8
0
 10
74.804045683941624
 20
162.96539071845129
 30
0.0
 11
74.997498064893989
 21
162.5402915121021
 31
0.0
  0
LINE
  5
6A1
  8
0
 10
74.997498064893989
 20
162.5402915121021
 30
0.0
 11
76.140355207751156
 21
162.5402915121021
 31
0.0
  0
LINE
  5
6A2
  8
0
 10
76.140355207751156
 20
162.5402915121021
 30
0.0
 11
75.980136953782903
 21
163.18798496448301
 31
0.0
  0
LINE
  5
6A3
  8
0
 10
75.980136953782903
 20
163.18798496448301
 30
0.0
 11
75.612577429973385
 21
163.6667796073402
 31
0.0
  0
LINE
  5
6A4
  8
0
 10
75.612577429973385
 20
163.6667796073402
 30
0.0
 11
75.053549652195585
 21
163.96253853591159
 31
0.0
  0
LINE
  5
6A5
  8
0
 10
75.053549652195585
 20
163.96253853591159
 30
0.0
 11
74.318926636322573
 21
164.06112484543539
 31
0.0
  0
LINE
  5
6A6
  8
0
 10
74.318926636322573
 20
164.06112484543539
 30
0.0
 11
73.520935564893989
 21
163.92918040099099
 31
0.0
  0
LINE
  5
6A7
  8
0
 10
73.520935564893989
 20
163.92918040099099
 30
0.0
 11
72.910692509338446
 21
163.5333470676577
 31
0.0
  0
LINE
  5
6A8
  8
0
 10
72.910692509338446
 20
163.5333470676577
 30
0.0
 11
72.523415723624169
 21
162.90933913114969
 31
0.0
  0
LINE
  5
6A9
  8
0
 10
72.523415723624169
 20
162.90933913114969
 30
0.0
 11
72.394323461719409
 21
162.0928708771815
 31
0.0
  0
LINE
  5
6AA
  8
0
 10
72.394323461719409
 20
162.0928708771815
 30
0.0
 11
72.524035763306699
 21
161.27454250416559
 31
0.0
  0
LINE
  5
6AB
  8
0
 10
72.524035763306699
 20
161.27454250416559
 30
0.0
 11
72.913172668068597
 21
160.65090659146719
 31
0.0
  0
LINE
  5
6AC
  8
0
 10
72.913172668068597
 20
160.65090659146719
 30
0.0
 11
73.528500049020977
 21
160.2561893295624
 31
0.0
  0
LINE
  5
6AD
  8
0
 10
73.528500049020977
 20
160.2561893295624
 30
0.0
 11
74.336783779179711
 21
160.12461690892749
 31
0.0
  0
LINE
  5
6AE
  8
0
 10
74.336783779179711
 20
160.12461690892749
 30
0.0
 11
75.059874056957483
 21
160.22679944861
 31
0.0
  0
LINE
  5
6AF
  8
0
 10
75.059874056957483
 20
160.22679944861
 30
0.0
 11
75.616049652195585
 21
160.53334706765759
 31
0.0
  0
LINE
  5
6B0
  8
0
 10
75.616049652195585
 20
160.53334706765759
 30
0.0
 11
75.983485168068597
 21
161.0251625438481
 31
0.0
  0
LINE
  5
6B1
  8
0
 10
75.983485168068597
 20
161.0251625438481
 30
0.0
 11
76.140355207751156
 21
161.68314865495921
 31
0.0
  0
LINE
  5
6B2
  8
0
 10
76.140355207751156
 20
161.68314865495921
 30
0.0
 11
74.997498064893989
 21
161.68314865495921
 31
0.0
  0
LINE
  5
6B3
  8
0
 10
67.775770687126339
 20
162.45722284388251
 30
0.0
 11
68.953350052205707
 21
162.45722284388251
 31
0.0
  0
LINE
  5
6B4
  8
0
 10
68.953350052205707
 20
162.45722284388251
 30
0.0
 11
69.100175449031099
 21
162.96515935181901
 31
0.0
  0
LINE
  5
6B5
  8
0
 10
69.100175449031099
 20
162.96515935181901
 30
0.0
 11
70.303548464904111
 21
162.96515935181901
 31
0.0
  0
LINE
  5
6B6
  8
0
 10
70.303548464904111
 20
162.96515935181901
 30
0.0
 11
70.445413544269201
 21
162.45722284388251
 31
0.0
  0
LINE
  5
6B7
  8
0
 10
70.445413544269201
 20
162.45722284388251
 30
0.0
 11
71.648786560142213
 21
162.45722284388251
 31
0.0
  0
LINE
  5
6B8
  8
0
 10
71.648786560142213
 20
162.45722284388251
 30
0.0
 11
70.319421480777152
 21
166.2667466534063
 31
0.0
  0
LINE
  5
6B9
  8
0
 10
70.319421480777152
 20
166.2667466534063
 30
0.0
 11
69.090254814110466
 21
166.2667466534063
 31
0.0
  0
LINE
  5
6BA
  8
0
 10
69.090254814110466
 20
166.2667466534063
 30
0.0
 11
67.775770687126339
 21
162.45722284388251
 31
0.0
  0
LINE
  5
6BB
  8
0
 10
69.320413544269201
 20
163.79055617721579
 30
0.0
 11
69.706326242681911
 21
165.09412760578721
 31
0.0
  0
LINE
  5
6BC
  8
0
 10
69.706326242681911
 20
165.09412760578721
 30
0.0
 11
70.083310369666037
 21
163.79055617721579
 31
0.0
  0
LINE
  5
6BD
  8
0
 10
70.083310369666037
 20
163.79055617721579
 30
0.0
 11
69.320413544269201
 21
163.79055617721579
 31
0.0
  0
LINE
  5
6BE
  8
0
 10
64.015039496864915
 20
164.1976111530627
 30
0.0
 11
65.714444258769703
 21
164.1976111530627
 31
0.0
  0
LINE
  5
6BF
  8
0
 10
65.714444258769703
 20
164.1976111530627
 30
0.0
 11
66.482301401626842
 21
164.23630162925321
 31
0.0
  0
LINE
  5
6C0
  8
0
 10
66.482301401626842
 20
164.23630162925321
 30
0.0
 11
66.894999814325246
 21
164.36824607369761
 31
0.0
  0
LINE
  5
6C1
  8
0
 10
66.894999814325246
 20
164.36824607369761
 30
0.0
 11
67.303233941309372
 21
164.75118258163411
 31
0.0
  0
LINE
  5
6C2
  8
0
 10
67.303233941309372
 20
164.75118258163411
 30
0.0
 11
67.44361092543636
 21
165.33848416893571
 31
0.0
  0
LINE
  5
6C3
  8
0
 10
67.44361092543636
 20
165.33848416893571
 30
0.0
 11
67.299761719087172
 21
165.90148020068179
 31
0.0
  0
LINE
  5
6C4
  8
0
 10
67.299761719087172
 20
165.90148020068179
 30
0.0
 11
66.856309338134793
 21
166.22638099433249
 31
0.0
  0
LINE
  5
6C5
  8
0
 10
66.856309338134793
 20
166.22638099433249
 30
0.0
 11
67.201547433372866
 21
166.5438413117929
 31
0.0
  0
LINE
  5
6C6
  8
0
 10
67.201547433372866
 20
166.5438413117929
 30
0.0
 11
67.316626798452234
 21
166.99622226417381
 31
0.0
  0
LINE
  5
6C7
  8
0
 10
67.316626798452234
 20
166.99622226417381
 30
0.0
 11
67.162856957182385
 21
167.55624210544369
 31
0.0
  0
LINE
  5
6C8
  8
0
 10
67.162856957182385
 20
167.55624210544369
 30
0.0
 11
66.720396639722082
 21
167.89602385147541
 31
0.0
  0
LINE
  5
6C9
  8
0
 10
66.720396639722082
 20
167.89602385147541
 30
0.0
 11
66.325059338134793
 21
167.9813413117929
 31
0.0
  0
LINE
  5
6CA
  8
0
 10
66.325059338134793
 20
167.9813413117929
 30
0.0
 11
65.591428385753815
 21
168.00713496258649
 31
0.0
  0
LINE
  5
6CB
  8
0
 10
65.591428385753815
 20
168.00713496258649
 30
0.0
 11
64.015039496864944
 21
168.00713496258649
 31
0.0
  0
LINE
  5
6CC
  8
0
 10
64.015039496864944
 20
168.00713496258649
 30
0.0
 11
64.015039496864915
 21
164.1976111530627
 31
0.0
  0
LINE
  5
6CD
  8
0
 10
65.221388703214132
 20
165.08650004195161
 30
0.0
 11
65.221388703214132
 21
165.78491274036429
 31
0.0
  0
LINE
  5
6CE
  8
0
 10
65.221388703214132
 20
165.78491274036429
 30
0.0
 11
65.769999814325246
 21
165.78491274036429
 31
0.0
  0
LINE
  5
6CF
  8
0
 10
65.769999814325246
 20
165.78491274036429
 30
0.0
 11
66.17922600480145
 21
165.7055476609992
 31
0.0
  0
LINE
  5
6D0
  8
0
 10
66.17922600480145
 20
165.7055476609992
 30
0.0
 11
66.300753782579221
 21
165.43868258163411
 31
0.0
  0
LINE
  5
6D1
  8
0
 10
66.300753782579221
 20
165.43868258163411
 30
0.0
 11
66.181706163531601
 21
165.1688413117929
 31
0.0
  0
LINE
  5
6D2
  8
0
 10
66.181706163531601
 20
165.1688413117929
 30
0.0
 11
65.780912512737956
 21
165.08650004195161
 31
0.0
  0
LINE
  5
6D3
  8
0
 10
65.780912512737956
 20
165.08650004195161
 30
0.0
 11
65.221388703214132
 21
165.08650004195161
 31
0.0
  0
LINE
  5
6D4
  8
0
 10
65.221388703214132
 20
166.483325438777
 30
0.0
 11
65.221388703214132
 21
167.11824607369761
 31
0.0
  0
LINE
  5
6D5
  8
0
 10
65.221388703214132
 20
167.11824607369761
 30
0.0
 11
65.555714100039552
 21
167.11824607369761
 31
0.0
  0
LINE
  5
6D6
  8
0
 10
65.555714100039552
 20
167.11824607369761
 30
0.0
 11
66.064146639722082
 21
167.0507857562373
 31
0.0
  0
LINE
  5
6D7
  8
0
 10
66.064146639722082
 20
167.0507857562373
 30
0.0
 11
66.173769655595095
 21
166.8007857562373
 31
0.0
  0
LINE
  5
6D8
  8
0
 10
66.173769655595095
 20
166.8007857562373
 30
0.0
 11
66.071587115912564
 21
166.55574607369761
 31
0.0
  0
LINE
  5
6D9
  8
0
 10
66.071587115912564
 20
166.55574607369761
 30
0.0
 11
65.719404576230005
 21
166.483325438777
 31
0.0
  0
LINE
  5
6DA
  8
0
 10
65.719404576230005
 20
166.483325438777
 30
0.0
 11
65.221388703214132
 21
166.483325438777
 31
0.0
  0
ARC
  5
6DB
  8
0
 10
69.874997290905696
 20
164.12500450375731
 30
0.0
 40
9.0000000000000089
 50
179.99999999999969
 51
359.99999999999881
  0
ARC
  5
6DC
  8
0
 10
69.874997290905696
 20
164.12500450375731
 30
0.0
 40
9.0000000000000089
 50
359.99999999999937
 51
179.99999999999969
  0
LINE
  5
6DD
  8
0
 10
280.4999972909053
 20
39.500004503757957
 30
0.0
 11
280.74999729090439
 21
39.500004503757957
 31
0.0
  0
LINE
  5
6DE
  8
0
 10
280.74999729090439
 20
41.50000450375817
 30
0.0
 11
280.4999972909053
 21
41.50000450375817
 31
0.0
  0
LINE
  5
6DF
  8
0
 10
280.49999729090518
 20
27.500004503757971
 30
0.0
 11
280.74999729090428
 21
27.500004503757971
 31
0.0
  0
LINE
  5
6E0
  8
0
 10
280.74999729090428
 20
30.50000450375796
 30
0.0
 11
280.49999729090518
 21
30.50000450375796
 31
0.0
  0
LINE
  5
6E1
  8
0
 10
280.49999729090518
 20
5.6250045037580758
 30
0.0
 11
280.74999729090428
 21
5.6250045037580758
 31
0.0
  0
LINE
  5
6E2
  8
0
 10
280.74999729090428
 20
7.625004503757963
 30
0.0
 11
280.49999729090518
 21
7.625004503757963
 31
0.0
  0
LINE
  5
6E3
  8
0
 10
280.74999729090501
 20
41.500004503758127
 30
0.0
 11
280.74999729090501
 21
41.465932910626073
 31
0.0
  0
LINE
  5
6E4
  8
0
 10
280.74999729090501
 20
41.4659303300472
 30
0.0
 11
280.74999729090501
 21
41.366030590074892
 31
0.0
  0
LINE
  5
6E5
  8
0
 10
280.74999729090501
 20
41.366029907542583
 30
0.0
 11
280.74999729090501
 21
41.207112173461127
 31
0.0
  0
LINE
  5
6E6
  8
0
 10
280.74999729090501
 20
41.207111284944688
 30
0.0
 11
280.74999729090501
 21
41.000005547768012
 31
0.0
  0
LINE
  5
6E7
  8
0
 10
280.74999729090501
 20
41.000004503758127
 30
0.0
 11
280.74999729090501
 21
40.758824109783099
 31
0.0
  0
LINE
  5
6E8
  8
0
 10
280.74999729090501
 20
40.758823548860647
 30
0.0
 11
280.74999729090501
 21
40.500004503758127
 31
0.0
  0
LINE
  5
6E9
  8
0
 10
280.74999729090501
 20
40.50000450375812
 30
0.0
 11
280.74999729090501
 21
40.2411854586556
 31
0.0
  0
LINE
  5
6EA
  8
0
 10
280.74999729090501
 20
40.241184897731863
 30
0.0
 11
280.74999729090501
 21
40.000004503758127
 31
0.0
  0
LINE
  5
6EB
  8
0
 10
280.74999729090501
 20
40.0000034597469
 30
0.0
 11
280.74999729090501
 21
39.792897722571588
 31
0.0
  0
LINE
  5
6EC
  8
0
 10
280.74999729090501
 20
39.792896834054169
 30
0.0
 11
280.74999729090501
 21
39.6339790999737
 31
0.0
  0
LINE
  5
6ED
  8
0
 10
280.74999729090501
 20
39.633978417440296
 30
0.0
 11
280.74999729090501
 21
39.534078677469068
 31
0.0
  0
LINE
  5
6EE
  8
0
 10
280.74999729090501
 20
39.534076096888541
 30
0.0
 11
280.74999729090501
 21
39.500004503758142
 31
0.0
  0
LINE
  5
6EF
  8
0
 10
280.74999729090479
 20
30.500004503758142
 30
0.0
 11
280.74999729090479
 21
30.44889332124837
 31
0.0
  0
LINE
  5
6F0
  8
0
 10
280.74999729090479
 20
30.448893243191751
 30
0.0
 11
280.74999729090479
 21
29.75000554776814
 31
0.0
  0
LINE
  5
6F1
  8
0
 10
280.74999729090479
 20
29.750004503758142
 30
0.0
 11
280.74999729090479
 21
29.388233071411928
 31
0.0
  0
LINE
  5
6F2
  8
0
 10
280.74999729090479
 20
29.388231991884851
 30
0.0
 11
280.74999729090479
 21
29.00000546841358
 31
0.0
  0
LINE
  5
6F3
  8
0
 10
280.74999729090479
 20
29.000004503758131
 30
0.0
 11
280.74999729090479
 21
28.611776083844109
 31
0.0
  0
LINE
  5
6F4
  8
0
 10
280.74999729090479
 20
28.611775936104351
 30
0.0
 11
280.74999729090479
 21
28.250005400270229
 31
0.0
  0
LINE
  5
6F5
  8
0
 10
280.74999729090479
 20
28.250004503758142
 30
0.0
 11
280.74999729090479
 21
27.939344331978312
 31
0.0
  0
LINE
  5
6F6
  8
0
 10
280.74999729090479
 20
27.939344110111541
 30
0.0
 11
280.74999729090479
 21
27.551115764324539
 31
0.0
  0
LINE
  5
6F7
  8
0
 10
280.74999729090479
 20
27.551113789843139
 30
0.0
 11
280.74999729090479
 21
27.500004503758142
 31
0.0
  0
LINE
  5
6F8
  8
0
 10
280.74999729090479
 20
7.62500450375813
 30
0.0
 11
280.74999729090479
 21
7.5909310142280564
 31
0.0
  0
LINE
  5
6F9
  8
0
 10
280.74999729090479
 20
7.5909303300472004
 30
0.0
 11
280.74999729090479
 21
7.4910302776755184
 31
0.0
  0
LINE
  5
6FA
  8
0
 10
280.74999729090479
 20
7.491029907542571
 30
0.0
 11
280.74999729090479
 21
7.3321112849446823
 31
0.0
  0
LINE
  5
6FB
  8
0
 10
280.74999729090479
 20
7.3321111142962181
 30
0.0
 11
280.74999729090479
 21
6.8838238598009669
 31
0.0
  0
LINE
  5
6FC
  8
0
 10
280.74999729090479
 20
6.8838235488606561
 30
0.0
 11
280.74999729090479
 21
6.6250045037581371
 31
0.0
  0
LINE
  5
6FD
  8
0
 10
280.74999729090479
 20
6.6250042625935386
 30
0.0
 11
280.74999729090479
 21
6.3661854586556057
 31
0.0
  0
LINE
  5
6FE
  8
0
 10
280.74999729090479
 20
6.3661853976970209
 30
0.0
 11
280.74999729090479
 21
6.1250047278860258
 31
0.0
  0
LINE
  5
6FF
  8
0
 10
280.74999729090479
 20
6.1250045037581273
 30
0.0
 11
280.74999729090479
 21
5.9178977866651188
 31
0.0
  0
LINE
  5
700
  8
0
 10
280.74999729090479
 20
5.9178977225715803
 30
0.0
 11
280.74999729090479
 21
5.7589790999736907
 31
0.0
  0
LINE
  5
701
  8
0
 10
280.74999729090479
 20
5.7589790422399139
 30
0.0
 11
280.74999729090479
 21
5.6590786774690622
 31
0.0
  0
LINE
  5
702
  8
0
 10
280.74999729090479
 20
5.6590784673935657
 30
0.0
 11
280.74999729090479
 21
5.62500450375813
 31
0.0
  0
LINE
  5
703
  8
0
 10
280.74999729090428
 20
18.50000450375796
 30
0.0
 11
280.49999729090518
 21
18.50000450375796
 31
0.0
  0
LINE
  5
704
  8
0
 10
280.74999729090479
 20
18.500004503758159
 30
0.0
 11
280.74999729090479
 21
18.29555977371907
 31
0.0
  0
LINE
  5
705
  8
0
 10
280.74999729090479
 20
18.295559461492569
 30
0.0
 11
280.74999729090479
 21
17.696156926464809
 31
0.0
  0
LINE
  5
706
  8
0
 10
280.74999729090479
 20
17.696156751453952
 30
0.0
 11
280.74999729090479
 21
16.742645190877461
 31
0.0
  0
LINE
  5
707
  8
0
 10
280.74999729090479
 20
16.742645019421651
 30
0.0
 11
280.74999729090479
 21
12.5000045037582
 31
0.0
  0
LINE
  5
708
  8
0
 10
280.74999729090479
 20
12.500004021429779
 30
0.0
 11
280.74999729090479
 21
10.947090233142999
 31
0.0
  0
LINE
  5
709
  8
0
 10
280.74999729090479
 20
10.947090117374961
 30
0.0
 11
280.74999729090479
 21
8.2573638166388648
 31
0.0
  0
LINE
  5
70A
  8
0
 10
280.74999729090479
 20
8.2573637623557641
 30
0.0
 11
280.74999729090479
 21
7.5882270052827456
 31
0.0
  0
LINE
  5
70B
  8
0
 10
359.01740820026993
 20
351.30117293808212
 30
0.0
 11
358.95631582355611
 21
351.30117293808212
 31
0.0
  0
LINE
  5
70C
  8
0
 10
358.95631582355611
 20
334.80117293808348
 30
0.0
 11
359.01740820026993
 21
334.80117293808348
 31
0.0
  0
LINE
  5
70D
  8
0
 10
358.95631582355662
 20
334.80117293808303
 30
0.0
 11
358.95631582355662
 21
335.74615608333528
 31
0.0
  0
LINE
  5
70E
  8
0
 10
358.95631582355662
 20
335.7461607264442
 30
0.0
 11
358.95631582355662
 21
338.36463357779638
 31
0.0
  0
LINE
  5
70F
  8
0
 10
358.95631582355662
 20
338.36463877755102
 30
0.0
 11
358.95631582355662
 21
342.05674532597658
 31
0.0
  0
LINE
  5
710
  8
0
 10
358.95631582355662
 20
342.05674982151203
 30
0.0
 11
358.95631582355662
 21
344.04559569249341
 31
0.0
  0
LINE
  5
711
  8
0
 10
358.95631582355662
 20
344.04560055018942
 30
0.0
 11
358.95631582355662
 21
347.73770709861509
 31
0.0
  0
LINE
  5
712
  8
0
 10
358.95631582355662
 20
347.73771189725329
 30
0.0
 11
358.95631582355662
 21
350.35618514972202
 31
0.0
  0
LINE
  5
713
  8
0
 10
358.95631582355662
 20
350.35618931472061
 30
0.0
 11
358.95631582355662
 21
351.30117293808303
 31
0.0
  0
LINE
  5
714
  8
0
 10
359.07740957355651
 20
352.0511729380836
 30
0.0
 11
359.01740957355622
 21
352.0511729380836
 31
0.0
  0
LINE
  5
715
  8
0
 10
359.01740957355622
 20
334.05117293808348
 30
0.0
 11
359.07740957355651
 21
334.05117293808348
 31
0.0
  0
LINE
  5
716
  8
0
 10
359.01740957355662
 20
334.05117293808348
 30
0.0
 11
359.01740957355662
 21
334.9424491017769
 31
0.0
  0
LINE
  5
717
  8
0
 10
359.01740957355662
 20
334.94245312696182
 30
0.0
 11
359.01740957355662
 21
336.0146895958714
 31
0.0
  0
LINE
  5
718
  8
0
 10
359.01740957355662
 20
336.01469243249062
 30
0.0
 11
359.01740957355662
 21
337.43976472135489
 31
0.0
  0
LINE
  5
719
  8
0
 10
359.01740957355662
 20
337.43976806707133
 30
0.0
 11
359.01740957355662
 21
341.0484794062059
 31
0.0
  0
LINE
  5
71A
  8
0
 10
359.01740957355662
 20
341.04848453247672
 30
0.0
 11
359.01740957355662
 21
343.05117275458059
 31
0.0
  0
LINE
  5
71B
  8
0
 10
359.01740957355662
 20
343.05117293808348
 30
0.0
 11
359.01740957355662
 21
345.05386134369041
 31
0.0
  0
LINE
  5
71C
  8
0
 10
359.01740957355662
 20
345.05386609326791
 30
0.0
 11
359.01740957355662
 21
348.6625774723463
 31
0.0
  0
LINE
  5
71D
  8
0
 10
359.01740957355662
 20
348.66258115481207
 30
0.0
 11
359.01740957355662
 21
350.08765312210443
 31
0.0
  0
LINE
  5
71E
  8
0
 10
359.01740957355662
 20
350.08765628029579
 30
0.0
 11
359.01740957355662
 21
351.15989274920531
 31
0.0
  0
LINE
  5
71F
  8
0
 10
359.01740957355662
 20
351.15989629529128
 30
0.0
 11
359.01740957355662
 21
351.82552414771988
 31
0.0
  0
LINE
  5
720
  8
0
 10
359.01740957355662
 20
351.825535002685
 30
0.0
 11
359.01740957355662
 21
352.0511729380836
 31
0.0
  0
LINE
  5
721
  8
0
 10
499.88740903950332
 20
475.55117293808291
 30
0.0
 11
499.94850332355679
 21
475.55117293808291
 31
0.0
  0
LINE
  5
722
  8
0
 10
499.94850332355679
 20
492.05117293808291
 30
0.0
 11
499.88740903950332
 21
492.05117293808291
 31
0.0
  0
LINE
  5
723
  8
0
 10
499.94850332355702
 20
492.05117293808331
 30
0.0
 11
499.94850332355702
 21
491.10618680897932
 31
0.0
  0
LINE
  5
724
  8
0
 10
499.94850332355702
 20
491.10618514972231
 30
0.0
 11
499.94850332355702
 21
487.82821820742089
 31
0.0
  0
LINE
  5
725
  8
0
 10
499.94850332355702
 20
479.77412636684591
 30
0.0
 11
499.94850332355702
 21
479.11463877755131
 31
0.0
  0
LINE
  5
726
  8
0
 10
499.94850332355702
 20
479.11463778225777
 30
0.0
 11
499.94850332355702
 21
477.62595926567172
 31
0.0
  0
LINE
  5
727
  8
0
 10
499.94850332355702
 20
477.6259588873092
 30
0.0
 11
499.94850332355702
 21
476.49616095639709
 31
0.0
  0
LINE
  5
728
  8
0
 10
499.94850332355702
 20
476.49616072644432
 30
0.0
 11
499.94850332355702
 21
475.55117293808343
 31
0.0
  0
LINE
  5
729
  8
0
 10
499.82740957355668
 20
474.80117293808291
 30
0.0
 11
499.88740957355702
 21
474.80117293808291
 31
0.0
  0
LINE
  5
72A
  8
0
 10
499.88740957355702
 20
492.80117293808303
 30
0.0
 11
499.82740957355668
 21
492.80117293808303
 31
0.0
  0
LINE
  5
72B
  8
0
 10
499.88740957355702
 20
492.8011729380828
 30
0.0
 11
499.88740957355702
 21
492.57552550612212
 31
0.0
  0
LINE
  5
72C
  8
0
 10
499.88740957355702
 20
492.57552414771931
 30
0.0
 11
499.88740957355702
 21
491.90989378436871
 31
0.0
  0
LINE
  5
72D
  8
0
 10
499.88740957355702
 20
491.90989274920457
 30
0.0
 11
499.88740957355702
 21
490.83765656269401
 31
0.0
  0
LINE
  5
72E
  8
0
 10
499.88740957355702
 20
490.83765628029511
 30
0.0
 11
499.88740957355702
 21
489.41258115481139
 31
0.0
  0
LINE
  5
72F
  8
0
 10
499.88740957355702
 20
489.4125810020891
 30
0.0
 11
499.88740957355702
 21
487.80716667382018
 31
0.0
  0
LINE
  5
730
  8
0
 10
499.88740957355702
 20
479.7951778059483
 30
0.0
 11
499.88740957355702
 21
478.18976497854823
 31
0.0
  0
LINE
  5
731
  8
0
 10
499.88740957355702
 20
478.18976472135432
 30
0.0
 11
499.88740957355702
 21
476.76468959587061
 31
0.0
  0
LINE
  5
732
  8
0
 10
499.88740957355702
 20
476.76468944606222
 30
0.0
 11
499.88740957355702
 21
475.69245312696108
 31
0.0
  0
LINE
  5
733
  8
0
 10
499.88740957355702
 20
475.69245224043033
 30
0.0
 11
499.88740957355702
 21
475.02682172844641
 31
0.0
  0
LINE
  5
734
  8
0
 10
499.88740957355702
 20
475.02682059490411
 30
0.0
 11
499.88740957355702
 21
474.8011729380828
 31
0.0
  0
LINE
  5
735
  8
0
 10
359.07740957355691
 20
412.92617293808462
 30
0.0
 11
359.07740957355691
 21
273.1761729380903
 31
0.0
  0
LINE
  5
736
  8
0
 10
359.07740957355691
 20
273.1761729380903
 30
0.0
 11
499.82740957355389
 21
273.17617293809002
 31
0.0
  0
LINE
  5
737
  8
0
 10
499.82740957355389
 20
273.17617293809002
 30
0.0
 11
499.82740957355418
 21
412.92617293808422
 31
0.0
  0
LINE
  5
738
  8
0
 10
499.82740957355418
 20
412.92617293808422
 30
0.0
 11
359.07740957355691
 21
412.92617293808462
 31
0.0
  0
LINE
  5
739
  8
0
 10
498.20240957355708
 20
411.30117293808462
 30
0.0
 11
498.20240957355679
 21
274.80117293808468
 31
0.0
1001
ACAD
1000
ASC_BOUNDS
1002
{
1070
    19
1005
7C9
1002
}
  0
LINE
  5
73A
  8
0
 10
498.20240957355679
 20
274.80117293808468
 30
0.0
 11
360.70240957355702
 21
274.8011729380849
 31
0.0
1001
ACAD
1000
ASC_BOUNDS
1002
{
1070
    19
1005
7C9
1002
}
  0
LINE
  5
73B
  8
0
 10
360.70240957355702
 20
274.8011729380849
 30
0.0
 11
360.70240957355719
 21
411.3011729380849
 31
0.0
1001
ACAD
1000
ASC_BOUNDS
1002
{
1070
    19
1005
7C9
1002
}
  0
LINE
  5
73C
  8
0
 10
360.70240957355719
 20
411.3011729380849
 30
0.0
 11
498.20240957355708
 21
411.30117293808462
 31
0.0
1001
ACAD
1000
ASC_BOUNDS
1002
{
1070
    19
1005
7C9
1002
}
  0
LINE
  5
73D
  8
0
 10
499.82740957355389
 20
273.17617293808468
 30
0.0
 11
501.07740957355719
 21
273.17617293808468
 31
0.0
  0
LINE
  5
73E
  8
0
 10
501.07740957355719
 20
273.17617293808468
 30
0.0
 11
501.07740957355719
 21
412.92617293808462
 31
0.0
  0
LINE
  5
73F
  8
0
 10
501.07740957355719
 20
412.92617293808462
 30
0.0
 11
499.82740957355389
 21
412.92617293808462
 31
0.0
  0
LINE
  5
740
  8
0
 10
359.07740957355747
 20
553.67617293808439
 30
0.0
 11
359.07740957355742
 21
413.92617293809019
 31
0.0
  0
LINE
  5
741
  8
0
 10
359.07740957355742
 20
413.92617293809019
 30
0.0
 11
499.82740957355452
 21
413.92617293808991
 31
0.0
  0
LINE
  5
742
  8
0
 10
499.82740957355452
 20
413.92617293808991
 30
0.0
 11
499.82740957355469
 21
553.67617293808428
 31
0.0
  0
LINE
  5
743
  8
0
 10
499.82740957355469
 20
553.67617293808428
 30
0.0
 11
359.07740957355747
 21
553.67617293808439
 31
0.0
  0
LINE
  5
744
  8
0
 10
498.20240957355759
 20
552.05117293808462
 30
0.0
 11
498.20240957355742
 21
415.55117293808468
 31
0.0
1001
ACAD
1000
ASC_BOUNDS
1002
{
1070
    19
1005
7C9
1002
}
  0
LINE
  5
745
  8
0
 10
498.20240957355742
 20
415.55117293808462
 30
0.0
 11
360.70240957355747
 21
415.55117293808479
 31
0.0
1001
ACAD
1000
ASC_BOUNDS
1002
{
1070
    19
1005
7C9
1002
}
  0
LINE
  5
746
  8
0
 10
360.70240957355747
 20
415.55117293808479
 30
0.0
 11
360.7024095735577
 21
552.05117293808485
 31
0.0
1001
ACAD
1000
ASC_BOUNDS
1002
{
1070
    19
1005
7C9
1002
}
  0
LINE
  5
747
  8
0
 10
360.7024095735577
 20
552.05117293808485
 30
0.0
 11
498.20240957355759
 21
552.05117293808462
 31
0.0
1001
ACAD
1000
ASC_BOUNDS
1002
{
1070
    19
1005
7C9
1002
}
  0
LINE
  5
748
  8
0
 10
499.82740957355458
 20
413.92617293808462
 30
0.0
 11
501.07740957355742
 21
413.92617293808462
 31
0.0
  0
LINE
  5
749
  8
0
 10
501.07740957355742
 20
413.92617293808462
 30
0.0
 11
501.07740957355747
 21
553.67617293808439
 31
0.0
  0
LINE
  5
74A
  8
0
 10
501.07740957355747
 20
553.67617293808439
 30
0.0
 11
499.82740957355509
 21
553.67617293808439
 31
0.0
  0
LINE
  5
74B
  8
0
 10
500.07740957355679
 20
487.8011729380807
 30
0.0
 11
499.82740957355668
 21
487.8011729380807
 31
0.0
  0
LINE
  5
74C
  8
0
 10
499.82740957355668
 20
479.80117293808109
 30
0.0
 11
500.07740957355679
 21
479.80117293808109
 31
0.0
  0
LINE
  5
74D
  8
0
 10
500.07740957355668
 20
347.05117293808388
 30
0.0
 11
499.82740957355662
 21
347.05117293808388
 31
0.0
  0
LINE
  5
74E
  8
0
 10
499.82740957355662
 20
339.05117293808303
 30
0.0
 11
500.07740957355668
 21
339.05117293808303
 31
0.0
  0
LINE
  5
74F
  8
0
 10
500.07740957355708
 20
483.80117293808132
 30
0.0
 11
500.07740957355708
 21
482.76589675767121
 31
0.0
  0
LINE
  5
750
  8
0
 10
500.07740957355708
 20
482.76589532311829
 30
0.0
 11
500.07740957355708
 21
481.80117293808121
 31
0.0
  0
LINE
  5
751
  8
0
 10
500.07740957355708
 20
481.8011727388805
 30
0.0
 11
500.07740957355708
 21
480.33707132294347
 31
0.0
  0
LINE
  5
752
  8
0
 10
500.07740957355708
 20
480.33706960398177
 30
0.0
 11
500.07740957355708
 21
479.80117293808132
 31
0.0
  0
LINE
  5
753
  8
0
 10
500.07740957355708
 20
487.80117293808132
 30
0.0
 11
500.07740957355708
 21
487.6648767216879
 31
0.0
  0
LINE
  5
754
  8
0
 10
500.07740957355708
 20
487.66487624323759
 30
0.0
 11
500.07740957355708
 21
486.62960118311202
 31
0.0
  0
LINE
  5
755
  8
0
 10
500.07740957355708
 20
486.62960006282748
 30
0.0
 11
500.07740957355708
 21
484.83644917153401
 31
0.0
  0
LINE
  5
756
  8
0
 10
500.07740957355708
 20
484.83644911849137
 30
0.0
 11
500.07740957355708
 21
483.80117371867749
 31
0.0
  0
LINE
  5
757
  8
0
 10
500.07740957355708
 20
343.0511727540204
 30
0.0
 11
500.07740957355708
 21
342.01589675767411
 31
0.0
  0
LINE
  5
758
  8
0
 10
500.07740957355708
 20
342.01589432318832
 30
0.0
 11
500.07740957355708
 21
341.05117293808422
 31
0.0
  0
LINE
  5
759
  8
0
 10
500.07740957355708
 20
341.05116856283769
 30
0.0
 11
500.07740957355708
 21
340.22274581333801
 31
0.0
  0
LINE
  5
75A
  8
0
 10
500.07740957355708
 20
340.2227420473003
 30
0.0
 11
500.07740957355708
 21
339.58707132294637
 31
0.0
  0
LINE
  5
75B
  8
0
 10
500.07740957355708
 20
339.5870683543821
 30
0.0
 11
500.07740957355708
 21
339.1874696329279
 31
0.0
  0
LINE
  5
75C
  8
0
 10
500.07740957355708
 20
339.18745894877031
 30
0.0
 11
500.07740957355708
 21
339.05117293808411
 31
0.0
  0
LINE
  5
75D
  8
0
 10
500.07740957355708
 20
347.05117293808422
 30
0.0
 11
500.07740957355708
 21
346.91488620371672
 31
0.0
  0
LINE
  5
75E
  8
0
 10
500.07740957355708
 20
346.91487624324049
 30
0.0
 11
500.07740957355708
 21
346.51527704492042
 31
0.0
  0
LINE
  5
75F
  8
0
 10
500.07740957355708
 20
346.5152745532219
 30
0.0
 11
500.07740957355708
 21
345.87960340493009
 31
0.0
  0
LINE
  5
760
  8
0
 10
500.07740957355708
 20
345.87960006283038
 30
0.0
 11
500.07740957355708
 21
345.051176914922
 31
0.0
  0
LINE
  5
761
  8
0
 10
500.07740957355708
 20
345.05117293808422
 30
0.0
 11
500.07740957355708
 21
344.08645117139332
 31
0.0
  0
LINE
  5
762
  8
0
 10
500.07740957355708
 20
344.08644911849427
 30
0.0
 11
500.07740957355708
 21
343.05117293808422
 31
0.0
  0
LINE
  5
763
  8
0
 10
425.32740957355611
 20
272.92617293808348
 30
0.0
 11
425.32740957355611
 21
273.17617293808388
 31
0.0
  0
LINE
  5
764
  8
0
 10
423.32740957355588
 20
273.17617293808388
 30
0.0
 11
423.32740957355588
 21
272.92617293808348
 31
0.0
  0
LINE
  5
765
  8
0
 10
365.327409573556
 20
272.92617293808348
 30
0.0
 11
365.327409573556
 21
273.17617293808388
 31
0.0
  0
LINE
  5
766
  8
0
 10
362.32740957355588
 20
273.17617293808388
 30
0.0
 11
362.32740957355588
 21
272.92617293808348
 31
0.0
  0
LINE
  5
767
  8
0
 10
361.45240957355611
 20
273.17617293808388
 30
0.0
 11
361.45240957355611
 21
272.92617293808348
 31
0.0
  0
LINE
  5
768
  8
0
 10
425.32740957355628
 20
272.92617293808428
 30
0.0
 11
425.29333539984538
 21
272.92617293808428
 31
0.0
  0
LINE
  5
769
  8
0
 10
425.2933353097909
 20
272.92617293808428
 30
0.0
 11
425.19343565987998
 21
272.92617293808428
 31
0.0
  0
LINE
  5
76A
  8
0
 10
425.1934349773407
 20
272.92617293808428
 30
0.0
 11
425.03451635474289
 21
272.92617293808428
 31
0.0
  0
LINE
  5
76B
  8
0
 10
425.0345157578837
 20
272.92617293808428
 30
0.0
 11
424.82740957355628
 21
272.92617293808428
 31
0.0
  0
LINE
  5
76C
  8
0
 10
424.82740912530471
 20
272.92617293808428
 30
0.0
 11
424.58622917958729
 21
272.92617293808428
 31
0.0
  0
LINE
  5
76D
  8
0
 10
424.58622861865882
 20
272.92617293808428
 30
0.0
 11
424.0685905284538
 21
272.92617293808428
 31
0.0
  0
LINE
  5
76E
  8
0
 10
424.06858996753601
 20
272.92617293808428
 30
0.0
 11
423.82740957355628
 21
272.92617293808428
 31
0.0
  0
LINE
  5
76F
  8
0
 10
423.82740852955141
 20
272.92617293808428
 30
0.0
 11
423.62030279236973
 21
272.92617293808428
 31
0.0
  0
LINE
  5
770
  8
0
 10
423.6203019038586
 20
272.92617293808428
 30
0.0
 11
423.46138416977192
 21
272.92617293808428
 31
0.0
  0
LINE
  5
771
  8
0
 10
423.4613834872448
 20
272.92617293808428
 30
0.0
 11
423.36148374726719
 21
272.92617293808428
 31
0.0
  0
LINE
  5
772
  8
0
 10
423.36148116669722
 20
272.92617293808428
 30
0.0
 11
423.32740957355628
 21
272.92617293808428
 31
0.0
  0
LINE
  5
773
  8
0
 10
365.32740957355639
 20
272.92617293808439
 30
0.0
 11
365.12644767923302
 21
272.92617293808439
 31
0.0
  0
LINE
  5
774
  8
0
 10
365.12644753729319
 20
272.92617293808439
 30
0.0
 11
364.57741166158257
 21
272.92617293808439
 31
0.0
  0
LINE
  5
775
  8
0
 10
364.57740957355628
 20
272.92617293808439
 30
0.0
 11
364.21564098245852
 21
272.92617293808439
 31
0.0
  0
LINE
  5
776
  8
0
 10
364.21563814121009
 20
272.92617293808439
 30
0.0
 11
363.82741150287302
 21
272.92617293808439
 31
0.0
  0
LINE
  5
777
  8
0
 10
363.82740957355628
 20
272.92617293808439
 30
0.0
 11
363.43918208543403
 21
272.92617293808439
 31
0.0
  0
LINE
  5
778
  8
0
 10
363.43918100590253
 20
272.92617293808439
 30
0.0
 11
362.52837146787971
 21
272.92617293808439
 31
0.0
  0
LINE
  5
779
  8
0
 10
362.52836919449049
 20
272.92617293808439
 30
0.0
 11
362.3785208341227
 21
272.92617293808439
 31
0.0
  0
LINE
  5
77A
  8
0
 10
362.37852075607589
 20
272.92617293808439
 30
0.0
 11
362.32740957355628
 21
272.92617293808439
 31
0.0
  0
LINE
  5
77B
  8
0
 10
362.32630871938233
 20
272.92617293808439
 30
0.0
 11
362.19359052845363
 21
272.92617293808439
 31
0.0
  0
LINE
  5
77C
  8
0
 10
362.1935899675359
 20
272.92617293808439
 30
0.0
 11
361.95241136658677
 21
272.92617293808439
 31
0.0
  0
LINE
  5
77D
  8
0
 10
361.95240957355622
 20
272.92617293808439
 30
0.0
 11
361.74530279236961
 21
272.92617293808439
 31
0.0
  0
LINE
  5
77E
  8
0
 10
361.745301903859
 20
272.92617293808439
 30
0.0
 11
361.58638416977169
 21
272.92617293808439
 31
0.0
  0
LINE
  5
77F
  8
0
 10
361.58638348724531
 20
272.92617293808439
 30
0.0
 11
361.48648374726707
 21
272.92617293808439
 31
0.0
  0
LINE
  5
780
  8
0
 10
361.48648116669801
 20
272.92617293808439
 30
0.0
 11
361.45240957355611
 21
272.92617293808439
 31
0.0
  0
LINE
  5
781
  8
0
 10
392.20240957355628
 20
272.92617293808348
 30
0.0
 11
392.20240957355628
 21
273.17617293808388
 31
0.0
  0
LINE
  5
782
  8
0
 10
380.20240957355611
 20
273.17617293808388
 30
0.0
 11
380.20240957355611
 21
272.92617293808348
 31
0.0
  0
LINE
  5
783
  8
0
 10
392.20240957355651
 20
272.92617293808439
 30
0.0
 11
391.997964843528
 21
272.92617293808439
 31
0.0
  0
LINE
  5
784
  8
0
 10
391.9979645312909
 20
272.92617293808439
 30
0.0
 11
391.39856359226923
 21
272.92617293808439
 31
0.0
  0
LINE
  5
785
  8
0
 10
391.39856199626308
 20
272.92617293808439
 30
0.0
 11
390.44505336996599
 21
272.92617293808439
 31
0.0
  0
LINE
  5
786
  8
0
 10
390.44505026067583
 20
272.92617293808439
 30
0.0
 11
387.7553252098561
 21
272.92617293808439
 31
0.0
  0
LINE
  5
787
  8
0
 10
387.75532384417158
 20
272.92617293808439
 30
0.0
 11
386.20240957355651
 21
272.92617293808439
 31
0.0
  0
LINE
  5
788
  8
0
 10
386.20240764424938
 20
272.92617293808439
 30
0.0
 11
384.64949589390773
 21
272.92617293808439
 31
0.0
  0
LINE
  5
789
  8
0
 10
384.64949530294138
 20
272.92617293808439
 30
0.0
 11
383.20240957355651
 21
272.92617293808439
 31
0.0
  0
LINE
  5
78A
  8
0
 10
383.20240748554028
 20
272.92617293808439
 30
0.0
 11
381.9597688864373
 21
272.92617293808439
 31
0.0
  0
LINE
  5
78B
  8
0
 10
381.95976799897778
 20
272.92617293808439
 30
0.0
 11
380.20240957355651
 21
272.92617293808439
 31
0.0
  0
INSERT
  5
7BB
  8
0
  6
CONTINUOUS
  2
*X3
 10
0.0
 20
0.0
 30
0.0
1001
GRADIENTCOLOR1ACI
1070
     5
1001
GRADIENTCOLOR2ACI
1070
     2
1001
ACAD
1000
HATCH
1002
{
1070
    19
1000
NET
1040
12.0
1040
0.0
1000
ASC_BOUNDS
1070
     8
1070
     1
1070
     4
1005
5BC
1005
5BD
1005
5B0
1005
5BB
1070
     1
1070
     4
1005
5B6
1005
5BD
1005
5B4
1005
5BB
1070
     1
1070
     4
1005
5AE
1005
5BD
1005
5AC
1005
5BB
1070
     1
1070
     4
1005
5A9
1005
5BD
1005
5BA
1005
5BB
1070
     1
1070
     4
1005
583
1005
584
1005
577
1005
582
1070
     1
1070
     4
1005
57D
1005
584
1005
57B
1005
582
1070
     1
1070
     4
1005
575
1005
584
1005
573
1005
582
1070
     1
1070
     4
1005
570
1005
584
1005
581
1005
582
1000
ASC_SEEDPOINT
1011
588.42577625298907
1021
0.0
1031
0.0
1021
72.048175335068208
1031
0.0
1000
R14_HATCH_DATA
1000
7BB
1011
1.0
1021
0.0
1031
0.0
1021
0.0
1031
0.0
1011
0.0
1021
0.0
1031
0.0
1021
1.0
1031
0.0
1011
0.0
1021
0.0
1031
0.0
1021
0.0
1031
1.0
1040
0.0
1010
0.0
1020
0.0
1030
1.0
1000
NET
1070
     0
1070
     1
1071
        8
1071
        7
1070
     0
1070
     1
1071
        4
1040
592.33761017454265
1040
98.375004503757282
1040
579.08761017454265
1040
98.375004503757125
1040
579.08761017454367
1040
4.000004503756613
1040
592.33761017454265
1040
4.0000045037567409
1071
        4
1005
582
1005
581
1005
584
1005
570
1071
        7
1070
     0
1070
     1
1071
        4
1040
634.33483214571675
1040
98.375004503757722
1040
618.33761017454356
1040
98.375004503757566
1040
618.33761017454356
1040
4.0000045037570251
1040
634.33483214571675
1040
4.0000045037571823
1071
        4
1005
582
1005
573
1005
584
1005
575
1071
        7
1070
     0
1070
     1
1071
        4
1040
676.3466098292148
1040
98.375004503758163
1040
660.33009577529003
1040
98.375004503757992
1040
660.33009577529003
1040
4.0000045037574523
1040
676.3466098292148
1040
4.0000045037576077
1071
        4
1005
582
1005
57B
1005
584
1005
57D
1071
        7
1070
     0
1070
     1
1071
        4
1040
715.58761017454265
1040
98.375004503758575
1040
702.32962549131264
1040
98.375004503758433
1040
702.32962549131264
1040
4.000004503757892
1040
715.58761017454367
1040
4.0000045037580056
1071
        4
1005
582
1005
577
1005
584
1005
583
1071
        7
1070
     0
1070
     1
1071
        4
1040
733.08761017454253
1040
98.375004503757282
1040
719.83761017454265
1040
98.375004503757125
1040
719.83761017454378
1040
4.000004503756613
1040
733.08761017454253
1040
4.0000045037567551
1071
        4
1005
5BB
1005
5BA
1005
5BD
1005
5A9
1071
        7
1070
     0
1070
     1
1071
        4
1040
775.08483214571675
1040
98.375004503757722
1040
759.08761017454344
1040
98.375004503757566
1040
759.08761017454344
1040
4.0000045037570251
1040
775.08483214571675
1040
4.0000045037571956
1071
        4
1005
5BB
1005
5AC
1005
5BD
1005
5AE
1071
        7
1070
     0
1070
     1
1071
        4
1040
817.09660982921469
1040
98.375004503758163
1040
801.08009577528981
1040
98.375004503757992
1040
801.08009577528981
1040
4.0000045037574656
1040
817.09660982921469
1040
4.000004503757622
1071
        4
1005
5BB
1005
5B4
1005
5BD
1005
5B6
1071
        7
1070
     0
1070
     1
1071
        4
1040
856.33761017454265
1040
98.375004503758575
1040
843.07962549131264
1040
98.375004503758433
1040
843.07962549131264
1040
4.000004503757892
1040
856.33761017454356
1040
4.0000045037580199
1071
        4
1005
5BB
1005
5B0
1005
5BD
1005
5BC
1070
     1
1070
     1
1040
0.0
1040
12.0
1070
     0
1070
     2
1040
0.0
1040
0.0
1040
0.0
1040
0.0
1040
1.5
1070
     0
1040
1.5707963267948959
1040
0.0
1040
0.0
1040
-1.5
1040
0.0000000000000001
1070
     0
1040
0.2269754501531136
1071
        8
1040
588.42577625298907
1040
72.048175335068208
1040
0.0
1040
624.53229148556829
1040
79.311390506864427
1040
0.0
1040
669.94929019486108
1040
76.587684666800442
1040
0.0
1040
710.37041857678923
1040
76.587684666800442
1040
0.0
1040
724.4496873659873
1040
77.268611729377881
1040
0.0
1040
765.5520729259315
1040
77.041635238436811
1040
0.0
1040
812.5586667393859
1040
76.360709380982371
1040
0.0
1040
854.11522019571476
1040
74.317930603495824
1040
0.0
1002
}
  0
INSERT
  5
7C9
  8
0
  6
CONTINUOUS
  2
*X4
 10
0.0
 20
0.0
 30
0.0
1001
GRADIENTCOLOR1ACI
1070
     5
1001
GRADIENTCOLOR2ACI
1070
     2
1001
ACAD
1000
HATCH
1002
{
1070
    19
1000
ANSI31
1040
12.0
1040
2.3561944901923439
1000
ASC_BOUNDS
1070
     2
1070
     1
1070
     4
1005
739
1005
73A
1005
73B
1005
73C
1070
     1
1070
     4
1005
744
1005
745
1005
746
1005
747
1000
ASC_SEEDPOINT
1011
428.07377968930768
1021
0.0
1031
0.0
1021
502.73196273377653
1031
0.0
1000
R14_HATCH_DATA
1000
7C9
1011
1.0
1021
0.0
1031
0.0
1021
0.0
1031
0.0
1011
0.0
1021
0.0
1031
0.0
1021
1.0
1031
0.0
1011
0.0
1021
0.0
1031
0.0
1021
0.0
1031
1.0
1040
0.0
1010
0.0
1020
0.0
1030
1.0
1000
ANSI31
1070
     0
1070
     1
1071
        2
1071
        7
1070
     0
1070
     1
1071
        4
1040
360.7024095735577
1040
552.05117293808485
1040
360.70240957355747
1040
415.55117293808479
1040
498.20240957355742
1040
415.55117293808462
1040
498.20240957355759
1040
552.05117293808462
1071
        4
1005
747
1005
746
1005
745
1005
744
1071
        7
1070
     0
1070
     1
1071
        4
1040
498.20240957355708
1040
411.30117293808462
1040
360.70240957355719
1040
411.3011729380849
1040
360.70240957355702
1040
274.8011729380849
1040
498.20240957355679
1040
274.80117293808468
1071
        4
1005
73C
1005
73B
1005
73A
1005
739
1070
     1
1070
     1
1040
2.3561944901923439
1040
12.0
1070
     0
1070
     1
1040
3.1415926535897931
1040
0.0
1040
39.5
1040
-0.0000000000000002
1040
-1.5
1070
     0
1040
0.5806018658278668
1071
        2
1040
428.07377968930768
1040
502.73196273377653
1040
0.0
1040
445.50024200239199
1040
336.67982896004042
1040
0.0
1002
}
  0
ENDSEC
  0
EOF
