  0
SECTION
  2
HEADER
  9
$ACADVER
  1
AC1009
  9
$INSBASE
 10
0.0
 20
0.0
 30
0.0
  9
$EXTMIN
 10
-0.0338981372997296
 20
-0.0197112221439966
 30
-0.0015258207003583
  9
$EXTMAX
 10
1110.7395972211341
 20
645.96632250567438
 30
0.0000000349246037
  9
$LIMMIN
 10
0.0
 20
0.0
  9
$LIMMAX
 10
12.0
 20
9.0
  9
$ORTHOMODE
 70
     0
  9
$REGENMODE
 70
     1
  9
$FILLMODE
 70
     1
  9
$QTEXTMODE
 70
     0
  9
$MIRRTEXT
 70
     0
  9
$DRAGMODE
 70
     2
  9
$LTSCALE
 40
1.0
  9
$OSMODE
 70
    37
  9
$ATTMODE
 70
     1
  9
$TEXTSIZE
 40
0.2
  9
$TRACEWID
 40
0.05
  9
$TEXTSTYLE
  7
ROMANS
  9
$CLAYER
  8
0
  9
$CELTYPE
  6
BYLAYER
  9
$CECOLOR
 62
   256
  9
$DIMSCALE
 40
1.0
  9
$DIMASZ
 40
0.09375
  9
$DIMEXO
 40
0.0625
  9
$DIMDLI
 40
0.375
  9
$DIMRND
 40
0.0
  9
$DIMDLE
 40
0.0
  9
$DIMEXE
 40
0.03125
  9
$DIMTP
 40
0.0
  9
$DIMTM
 40
0.0
  9
$DIMTXT
 40
0.09375
  9
$DIMCEN
 40
0.09375
  9
$DIMTSZ
 40
0.0
  9
$DIMTOL
 70
     0
  9
$DIMLIM
 70
     0
  9
$DIMTIH
 70
     0
  9
$DIMTOH
 70
     0
  9
$DIMSE1
 70
     0
  9
$DIMSE2
 70
     0
  9
$DIMTAD
 70
     0
  9
$DIMZIN
 70
     0
  9
$DIMBLK
  1

  9
$DIMASO
 70
     1
  9
$DIMSHO
 70
     1
  9
$DIMPOST
  1

  9
$DIMAPOST
  1

  9
$DIMALT
 70
     0
  9
$DIMALTD
 70
     2
  9
$DIMALTF
 40
25.399999999999999
  9
$DIMLFAC
 40
1.0
  9
$DIMTOFL
 70
     0
  9
$DIMTVP
 40
0.0
  9
$DIMTIX
 70
     0
  9
$DIMSOXD
 70
     0
  9
$DIMSAH
 70
     0
  9
$DIMBLK1
  1

  9
$DIMBLK2
  1

  9
$DIMSTYLE
  2
BAC
  9
$DIMCLRD
 70
     0
  9
$DIMCLRE
 70
     6
  9
$DIMCLRT
 70
     0
  9
$DIMTFAC
 40
1.0
  9
$DIMGAP
 40
0.0625
  9
$LUNITS
 70
     5
  9
$LUPREC
 70
     6
  9
$SKETCHINC
 40
0.1
  9
$FILLETRAD
 40
0.5
  9
$AUNITS
 70
     0
  9
$AUPREC
 70
     0
  9
$MENU
  1
.
  9
$ELEVATION
 40
0.0
  9
$PELEVATION
 40
0.0
  9
$THICKNESS
 40
0.0
  9
$LIMCHECK
 70
     0
  9
$BLIPMODE
 70
     0
  9
$CHAMFERA
 40
0.5
  9
$CHAMFERB
 40
0.5
  9
$SKPOLY
 70
     0
  9
$TDCREATE
 40
2456834.650311864
  9
$TDUPDATE
 40
2456834.6525476272
  9
$TDINDWG
 40
0.0022376157
  9
$TDUSRTIMER
 40
0.0022371528
  9
$USRTIMER
 70
     1
  9
$ANGBASE
 50
0.0
  9
$ANGDIR
 70
     0
  9
$PDMODE
 70
     0
  9
$PDSIZE
 40
0.0
  9
$PLINEWID
 40
0.0
  9
$COORDS
 70
     1
  9
$SPLFRAME
 70
     0
  9
$SPLINETYPE
 70
     6
  9
$SPLINESEGS
 70
     8
  9
$ATTDIA
 70
     0
  9
$ATTREQ
 70
     1
  9
$HANDLING
 70
     1
  9
$HANDSEED
  5
18F6
  9
$SURFTAB1
 70
     6
  9
$SURFTAB2
 70
     6
  9
$SURFTYPE
 70
     6
  9
$SURFU
 70
     6
  9
$SURFV
 70
     6
  9
$UCSNAME
  2

  9
$UCSORG
 10
0.0
 20
0.0
 30
0.0
  9
$UCSXDIR
 10
1.0
 20
0.0
 30
0.0
  9
$UCSYDIR
 10
0.0
 20
1.0
 30
0.0
  9
$PUCSNAME
  2

  9
$PUCSORG
 10
0.0
 20
0.0
 30
0.0
  9
$PUCSXDIR
 10
1.0
 20
0.0
 30
0.0
  9
$PUCSYDIR
 10
0.0
 20
1.0
 30
0.0
  9
$USERI1
 70
     0
  9
$USERI2
 70
     0
  9
$USERI3
 70
     0
  9
$USERI4
 70
     0
  9
$USERI5
 70
     0
  9
$USERR1
 40
0.0
  9
$USERR2
 40
0.0
  9
$USERR3
 40
0.0
  9
$USERR4
 40
0.0
  9
$USERR5
 40
0.0
  9
$WORLDVIEW
 70
     1
  9
$SHADEDGE
 70
     3
  9
$SHADEDIF
 70
    70
  9
$TILEMODE
 70
     1
  9
$MAXACTVP
 70
    48
  9
$PLIMCHECK
 70
     0
  9
$PEXTMIN
 10
1.0000000000000000E+020
 20
1.0000000000000000E+020
 30
1.0000000000000000E+020
  9
$PEXTMAX
 10
-1.0000000000000000E+020
 20
-1.0000000000000000E+020
 30
-1.0000000000000000E+020
  9
$PLIMMIN
 10
0.0
 20
0.0
  9
$PLIMMAX
 10
12.0
 20
9.0
  9
$UNITMODE
 70
     0
  9
$VISRETAIN
 70
     1
  9
$PLINEGEN
 70
     0
  9
$PSLTSCALE
 70
     1
  0
ENDSEC
  0
SECTION
  2
TABLES
  0
TABLE
  2
VPORT
 70
     1
  0
VPORT
  2
*ACTIVE
 70
     0
 10
0.0
 20
0.0
 11
1.0
 21
1.0
 12
555.35284954191695
 22
322.97330564176519
 13
0.0
 23
0.0
 14
0.5
 24
0.5
 15
0.5
 25
0.5
 16
0.0
 26
0.0
 36
1.0
 17
0.0
 27
0.0
 37
0.0
 40
650.28305834241587
 41
1.7702552719200879
 42
50.0
 43
0.0
 44
0.0
 50
0.0
 51
0.0
 71
     0
 72
   100
 73
     1
 74
     1
 75
     0
 76
     0
 77
     0
 78
     0
  0
ENDTAB
  0
TABLE
  2
LTYPE
 70
    20
  0
LTYPE
  2
CONTINUOUS
 70
     0
  3
Solid line
 72
    65
 73
     0
 40
0.0
  0
LTYPE
  2
CENTER
 70
     0
  3
Center ____ _ ____ _ ____ _ ____ _ ____ _ ____
 72
    65
 73
     4
 40
2.0
 49
1.25
 49
-0.25
 49
0.25
 49
-0.25
  0
LTYPE
  2
CENTER2
 70
     0
  3
Center (.5x) ___ _ ___ _ ___ _ ___ _ ___ _ ___
 72
    65
 73
     4
 40
1.125
 49
0.75
 49
-0.125
 49
0.125
 49
-0.125
  0
LTYPE
  2
HIDDEN
 70
     0
  3
Hidden __ __ __ __ __ __ __ __ __ __ __ __ __ _
 72
    65
 73
     2
 40
0.375
 49
0.25
 49
-0.125
  0
LTYPE
  2
HIDDEN2
 70
     0
  3
Hidden (.5x) _ _ _ _ _ _ _ _ _ _ _ _ _ _ _ _ _
 72
    65
 73
     2
 40
0.1875
 49
0.125
 49
-0.0625
  0
LTYPE
  2
PHANTOM2
 70
     0
  3
Phantom (.5x) ___ _ _ ___ _ _ ___ _ _ ___ _ _
 72
    65
 73
     6
 40
1.25
 49
0.625
 49
-0.125
 49
0.125
 49
-0.125
 49
0.125
 49
-0.125
  0
LTYPE
  2
AMCONSTR
 70
     0
  3
_______________________
 72
    65
 73
     2
 40
9999.0
 49
9999.0
 49
0.0
  0
LTYPE
  2
AMZIGZAG2
 70
     0
  3
/\/-/\/-/\/-/\/-/\/-/\/
 72
    65
 73
     2
 40
0.4401
 49
0.0001
 49
-0.4400000000000001
  0
LTYPE
  2
ACANSTGB
 70
     0
  3
__ . . __ . .
 72
    65
 73
     6
 40
0.35433070866
 49
0.15748031496
 49
-0.03937007874
 49
0.03937007874
 49
-0.03937007874
 49
0.03937007874
 49
-0.03937007874
  0
LTYPE
  2
ACANSTGL
 70
     0
  3
_ _ _ _ _
 72
    65
 73
     2
 40
0.11811023622
 49
0.07874015748
 49
-0.03937007874
  0
ENDTAB
  0
TABLE
  2
LAYER
 70
     8
  0
LAYER
  2
0
 70
     0
 62
     7
  6
CONTINUOUS
  0
ENDTAB
  0
TABLE
  2
STYLE
 70
    11
  0
STYLE
  2
STANDARD
 70
     0
 40
0.0
 41
1.0
 50
0.0
 71
     0
 42
0.2
  3
txt
  4

  0
STYLE
  2
ROMANS
 70
     0
 40
0.0
 41
0.75
 50
0.0
 71
     0
 42
0.2
  3
romans.shx
  4

  0
STYLE
  2

 70
     1
 40
0.0
 41
1.0
 50
0.0
 71
     0
 42
0.2
  3
genltshp.shx
  4

  0
STYLE
  2
ACANSGDT
 70
     0
 40
0.0
 41
1.0
 50
0.0
 71
     0
 42
0.2
  3
amgdt.shx
  4

  0
ENDTAB
  0
TABLE
  2
VIEW
 70
     0
  0
ENDTAB
  0
TABLE
  2
UCS
 70
     0
  0
ENDTAB
  0
TABLE
  2
APPID
 70
    15
  0
APPID
  2
ACAD
 70
     0
  0
APPID
  2
ACAD_MLEADERVER
 70
     0
  0
APPID
  2
ACAD_DSTYLE_DIMJAG
 70
     0
  0
APPID
  2
ACAD_DSTYLE_DIMTALN
 70
     0
  0
APPID
  2
ACAD_PSEXT
 70
     0
  0
APPID
  2
ACADANNOPO
 70
     0
  0
APPID
  2
MCAD_NO_VIS
 70
     0
  0
APPID
  2
ACAD_TEMP_GRAPHIC
 70
     0
  0
APPID
  2
ACATTRIBSERVICES
 70
     0
  0
APPID
  2
DESIGNERASSEMBLIES
 70
     0
  0
APPID
  2
ACAD_DSTYLE_DIMBREAK
 70
     0
  0
APPID
  2
ACAD_NAV_VCDISPLAY
 70
     0
  0
APPID
  2
GRADIENTCOLOR1ACI
 70
     0
  0
APPID
  2
GRADIENTCOLOR2ACI
 70
     0
  0
APPID
  2
ACAD_EXEMPT_FROM_CAD_STANDARDS
 70
     0
  0
ENDTAB
  0
TABLE
  2
DIMSTYLE
 70
    14
  0
DIMSTYLE
  2
BAC
 70
     0
  3

  4

  5

  6

  7

 40
1.0
 41
0.09375
 42
0.0625
 43
0.375
 44
0.03125
 45
0.0
 46
0.0
 47
0.0
 48
0.0
140
0.09375
141
0.09375
142
0.0
143
25.399999999999999
144
1.0
145
0.0
146
1.0
147
0.0625
 71
     0
 72
     0
 73
     0
 74
     0
 75
     0
 76
     0
 77
     0
 78
     0
170
     0
171
     2
172
     0
173
     0
174
     0
175
     0
176
     0
177
     6
178
     0
  0
DIMSTYLE
  2
AM_ANSI
 70
     0
  3

  4
mm
  5

  6

  7

 40
1.0
 41
0.12
 42
0.05
 43
0.5
 44
0.1
 45
0.0
 46
0.0
 47
0.1
 48
0.1
140
0.12
141
0.0
142
0.0
143
25.399999999999999
144
1.0
145
0.0
146
0.71
147
0.06
 71
     0
 72
     0
 73
     1
 74
     1
 75
     0
 76
     0
 77
     0
 78
     7
170
     0
171
     2
172
     0
173
     0
174
     0
175
     0
176
   256
177
   256
178
     2
  0
DIMSTYLE
  2
AM_ANSI$3
 70
     0
  3

  4
mm
  5

  6

  7

 40
1.0
 41
0.12
 42
0.05
 43
0.5
 44
0.1
 45
0.0
 46
0.0
 47
0.1
 48
0.1
140
0.12
141
0.0
142
0.0
143
25.399999999999999
144
1.0
145
0.0
146
0.71
147
0.06
 71
     0
 72
     0
 73
     1
 74
     1
 75
     0
 76
     0
 77
     0
 78
     7
170
     0
171
     2
172
     0
173
     0
174
     0
175
     0
176
   256
177
   256
178
     2
  0
DIMSTYLE
  2
AM_ANSI$4
 70
     0
  3

  4
mm
  5

  6

  7

 40
1.0
 41
0.12
 42
0.05
 43
0.5
 44
0.1
 45
0.0
 46
0.0
 47
0.1
 48
0.1
140
0.12
141
0.0
142
0.0
143
25.399999999999999
144
1.0
145
0.0
146
0.71
147
0.06
 71
     0
 72
     0
 73
     1
 74
     1
 75
     0
 76
     0
 77
     0
 78
     7
170
     0
171
     2
172
     0
173
     0
174
     0
175
     0
176
   256
177
   256
178
     2
  0
DIMSTYLE
  2
AM_ANSI$7
 70
     0
  3

  4
mm
  5

  6

  7

 40
1.0
 41
0.12
 42
0.05
 43
0.5
 44
0.1
 45
0.0
 46
0.0
 47
0.1
 48
0.1
140
0.12
141
0.0
142
0.0
143
25.399999999999999
144
1.0
145
0.0
146
0.71
147
0.06
 71
     0
 72
     0
 73
     1
 74
     1
 75
     0
 76
     0
 77
     0
 78
     7
170
     0
171
     2
172
     0
173
     0
174
     0
175
     0
176
   256
177
   256
178
     2
  0
DIMSTYLE
  2
AM_ANSI$SF
 70
     0
  3

  4
mm
  5

  6

  7

 40
1.0
 41
0.12
 42
0.05
 43
0.5
 44
0.1
 45
0.0
 46
0.0
 47
0.1
 48
0.1
140
0.12
141
0.0
142
0.0
143
25.399999999999999
144
1.0
145
0.0
146
0.71
147
0.06
 71
     0
 72
     0
 73
     1
 74
     1
 75
     1
 76
     1
 77
     0
 78
     7
170
     0
171
     2
172
     0
173
     0
174
     0
175
     0
176
   256
177
   256
178
     2
  0
DIMSTYLE
  2
AM_ANSI$SH
 70
     0
  3

  4
mm
  5

  6
GENAXEH
  7

 40
1.0
 41
0.12
 42
0.05
 43
0.5
 44
0.1
 45
0.0
 46
0.0
 47
0.1
 48
0.1
140
0.12
141
0.0
142
0.0
143
25.399999999999999
144
1.0
145
0.0
146
0.71
147
0.06
 71
     0
 72
     0
 73
     1
 74
     1
 75
     1
 76
     1
 77
     0
 78
     7
170
     0
171
     2
172
     0
173
     1
174
     0
175
     0
176
   256
177
   256
178
     2
  0
DIMSTYLE
  2
STANDARD
 70
     0
  3

  4

  5

  6

  7

 40
1.0
 41
0.18
 42
0.0625
 43
0.38
 44
0.18
 45
0.0
 46
0.0
 47
0.0
 48
0.0
140
0.18
141
0.09
142
0.0
143
25.399999999999999
144
1.0
145
0.0
146
1.0
147
0.09
 71
     0
 72
     0
 73
     1
 74
     1
 75
     0
 76
     0
 77
     0
 78
     0
170
     0
171
     2
172
     0
173
     0
174
     0
175
     0
176
     0
177
     0
178
     0
  0
ENDTAB
  0
ENDSEC
  0
SECTION
  2
BLOCKS
  0
BLOCK
  8
0
  2
$MODEL_SPACE
 70
     0
 10
0.0
 20
0.0
 30
0.0
  3
$MODEL_SPACE
  1

  0
ENDBLK
  5
1A
  8
0
  0
BLOCK
 67
     1
  8
0
  2
$PAPER_SPACE
 70
     0
 10
0.0
 20
0.0
 30
0.0
  3
$PAPER_SPACE
  1

  0
ENDBLK
  5
17
 67
     1
  8
0
  0
BLOCK
  8
0
  2
*U0
 70
     1
 10
0.0
 20
0.0
 30
0.0
  3
*U0
  1

  0
ENDBLK
  5
17A
  8
0
  0
BLOCK
  8
0
  2
GENAXEH
 70
     0
 10
0.0
 20
0.0
 30
0.0
  3
GENAXEH
  1

  0
LINE
  5
1AD
  8
0
 10
-1.0
 20
0.0
 30
0.0
 11
1.0
 21
0.0
 31
0.0
  0
ENDBLK
  5
1AF
  8
0
  0
BLOCK
  8
0
  2
*X4
 70
     1
 10
0.0
 20
0.0
 30
0.0
  3
*X4
  1

  0
LINE
  5
1471
  8
0
 62
     0
 10
622.85890232830775
 20
643.49999999999977
 30
0.0
 11
485.35890232830781
 21
643.49999999999977
 31
0.0
  0
LINE
  5
1472
  8
0
 62
     0
 10
622.85890232830775
 20
641.99999999999989
 30
0.0
 11
485.35890232830781
 21
641.99999999999989
 31
0.0
  0
LINE
  5
1473
  8
0
 62
     0
 10
622.85890232830775
 20
640.49999999999989
 30
0.0
 11
485.35890232830781
 21
640.49999999999989
 31
0.0
  0
LINE
  5
1474
  8
0
 62
     0
 10
622.85890232830775
 20
638.99999999999977
 30
0.0
 11
485.35890232830781
 21
638.99999999999977
 31
0.0
  0
LINE
  5
1475
  8
0
 62
     0
 10
622.85890232830775
 20
637.49999999999989
 30
0.0
 11
485.35890232830781
 21
637.49999999999989
 31
0.0
  0
LINE
  5
1476
  8
0
 62
     0
 10
622.85890232830775
 20
635.99999999999989
 30
0.0
 11
485.35890232830781
 21
635.99999999999989
 31
0.0
  0
LINE
  5
1477
  8
0
 62
     0
 10
622.85890232830775
 20
634.49999999999977
 30
0.0
 11
485.35890232830781
 21
634.49999999999977
 31
0.0
  0
LINE
  5
1478
  8
0
 62
     0
 10
622.85890232830775
 20
632.99999999999989
 30
0.0
 11
485.35890232830781
 21
632.99999999999989
 31
0.0
  0
LINE
  5
1479
  8
0
 62
     0
 10
622.85890232830775
 20
631.49999999999977
 30
0.0
 11
485.35890232830781
 21
631.49999999999977
 31
0.0
  0
LINE
  5
147A
  8
0
 62
     0
 10
622.85890232830775
 20
629.99999999999977
 30
0.0
 11
485.35890232830781
 21
629.99999999999977
 31
0.0
  0
LINE
  5
147B
  8
0
 62
     0
 10
622.85890232830775
 20
628.49999999999989
 30
0.0
 11
485.35890232830781
 21
628.49999999999989
 31
0.0
  0
LINE
  5
147C
  8
0
 62
     0
 10
622.85890232830775
 20
626.99999999999977
 30
0.0
 11
485.35890232830781
 21
626.99999999999977
 31
0.0
  0
LINE
  5
147D
  8
0
 62
     0
 10
622.85890232830775
 20
625.49999999999989
 30
0.0
 11
485.35890232830781
 21
625.49999999999989
 31
0.0
  0
LINE
  5
147E
  8
0
 62
     0
 10
622.85890232830775
 20
623.99999999999989
 30
0.0
 11
485.35890232830781
 21
623.99999999999989
 31
0.0
  0
LINE
  5
147F
  8
0
 62
     0
 10
622.85890232830775
 20
622.49999999999977
 30
0.0
 11
485.35890232830781
 21
622.49999999999977
 31
0.0
  0
LINE
  5
1480
  8
0
 62
     0
 10
622.85890232830775
 20
620.99999999999989
 30
0.0
 11
485.35890232830781
 21
620.99999999999989
 31
0.0
  0
LINE
  5
1481
  8
0
 62
     0
 10
622.85890232830775
 20
619.49999999999989
 30
0.0
 11
485.35890232830781
 21
619.49999999999989
 31
0.0
  0
LINE
  5
1482
  8
0
 62
     0
 10
622.85890232830775
 20
617.99999999999977
 30
0.0
 11
485.35890232830781
 21
617.99999999999977
 31
0.0
  0
LINE
  5
1483
  8
0
 62
     0
 10
622.85890232830775
 20
616.49999999999989
 30
0.0
 11
485.35890232830781
 21
616.49999999999989
 31
0.0
  0
LINE
  5
1484
  8
0
 62
     0
 10
622.85890232830775
 20
614.99999999999977
 30
0.0
 11
485.35890232830781
 21
614.99999999999977
 31
0.0
  0
LINE
  5
1485
  8
0
 62
     0
 10
622.85890232830775
 20
613.49999999999977
 30
0.0
 11
485.35890232830781
 21
613.49999999999977
 31
0.0
  0
LINE
  5
1486
  8
0
 62
     0
 10
622.85890232830775
 20
611.99999999999989
 30
0.0
 11
485.35890232830781
 21
611.99999999999989
 31
0.0
  0
LINE
  5
1487
  8
0
 62
     0
 10
622.85890232830775
 20
610.49999999999977
 30
0.0
 11
485.35890232830781
 21
610.49999999999977
 31
0.0
  0
LINE
  5
1488
  8
0
 62
     0
 10
622.85890232830764
 20
608.99999999999977
 30
0.0
 11
485.35890232830781
 21
608.99999999999977
 31
0.0
  0
LINE
  5
1489
  8
0
 62
     0
 10
622.85890232830764
 20
607.49999999999989
 30
0.0
 11
485.35890232830781
 21
607.49999999999989
 31
0.0
  0
LINE
  5
148A
  8
0
 62
     0
 10
622.85890232830764
 20
605.99999999999977
 30
0.0
 11
485.35890232830781
 21
605.99999999999977
 31
0.0
  0
LINE
  5
148B
  8
0
 62
     0
 10
622.85890232830764
 20
604.49999999999989
 30
0.0
 11
485.35890232830781
 21
604.49999999999989
 31
0.0
  0
LINE
  5
148C
  8
0
 62
     0
 10
622.85890232830764
 20
602.99999999999989
 30
0.0
 11
485.35890232830769
 21
602.99999999999989
 31
0.0
  0
LINE
  5
148D
  8
0
 62
     0
 10
622.85890232830764
 20
601.49999999999977
 30
0.0
 11
485.35890232830769
 21
601.49999999999977
 31
0.0
  0
LINE
  5
148E
  8
0
 62
     0
 10
622.85890232830764
 20
599.99999999999989
 30
0.0
 11
485.35890232830769
 21
599.99999999999989
 31
0.0
  0
LINE
  5
148F
  8
0
 62
     0
 10
622.85890232830764
 20
598.49999999999989
 30
0.0
 11
485.35890232830769
 21
598.49999999999989
 31
0.0
  0
LINE
  5
1490
  8
0
 62
     0
 10
622.85890232830764
 20
596.99999999999977
 30
0.0
 11
485.35890232830769
 21
596.99999999999977
 31
0.0
  0
LINE
  5
1491
  8
0
 62
     0
 10
622.85890232830764
 20
595.49999999999989
 30
0.0
 11
485.35890232830769
 21
595.49999999999989
 31
0.0
  0
LINE
  5
1492
  8
0
 62
     0
 10
622.85890232830764
 20
593.99999999999977
 30
0.0
 11
485.35890232830769
 21
593.99999999999977
 31
0.0
  0
LINE
  5
1493
  8
0
 62
     0
 10
622.85890232830764
 20
592.49999999999977
 30
0.0
 11
485.35890232830769
 21
592.49999999999977
 31
0.0
  0
LINE
  5
1494
  8
0
 62
     0
 10
622.85890232830764
 20
590.99999999999989
 30
0.0
 11
485.35890232830769
 21
590.99999999999989
 31
0.0
  0
LINE
  5
1495
  8
0
 62
     0
 10
622.85890232830764
 20
589.49999999999977
 30
0.0
 11
485.35890232830769
 21
589.49999999999977
 31
0.0
  0
LINE
  5
1496
  8
0
 62
     0
 10
622.85890232830764
 20
587.99999999999989
 30
0.0
 11
485.35890232830769
 21
587.99999999999989
 31
0.0
  0
LINE
  5
1497
  8
0
 62
     0
 10
622.85890232830764
 20
586.49999999999989
 30
0.0
 11
485.35890232830769
 21
586.49999999999989
 31
0.0
  0
LINE
  5
1498
  8
0
 62
     0
 10
622.85890232830764
 20
584.99999999999977
 30
0.0
 11
485.35890232830769
 21
584.99999999999977
 31
0.0
  0
LINE
  5
1499
  8
0
 62
     0
 10
622.85890232830764
 20
583.49999999999989
 30
0.0
 11
485.35890232830769
 21
583.49999999999989
 31
0.0
  0
LINE
  5
149A
  8
0
 62
     0
 10
622.85890232830764
 20
581.99999999999989
 30
0.0
 11
485.35890232830769
 21
581.99999999999989
 31
0.0
  0
LINE
  5
149B
  8
0
 62
     0
 10
622.85890232830764
 20
580.49999999999977
 30
0.0
 11
485.35890232830769
 21
580.49999999999977
 31
0.0
  0
LINE
  5
149C
  8
0
 62
     0
 10
622.85890232830764
 20
578.99999999999989
 30
0.0
 11
485.35890232830769
 21
578.99999999999989
 31
0.0
  0
LINE
  5
149D
  8
0
 62
     0
 10
622.85890232830764
 20
577.49999999999977
 30
0.0
 11
485.35890232830769
 21
577.49999999999977
 31
0.0
  0
LINE
  5
149E
  8
0
 62
     0
 10
622.85890232830764
 20
575.99999999999977
 30
0.0
 11
485.35890232830769
 21
575.99999999999977
 31
0.0
  0
LINE
  5
149F
  8
0
 62
     0
 10
622.85890232830764
 20
574.49999999999989
 30
0.0
 11
485.35890232830769
 21
574.49999999999989
 31
0.0
  0
LINE
  5
14A0
  8
0
 62
     0
 10
622.85890232830764
 20
572.99999999999977
 30
0.0
 11
485.35890232830769
 21
572.99999999999977
 31
0.0
  0
LINE
  5
14A1
  8
0
 62
     0
 10
622.85890232830764
 20
571.49999999999977
 30
0.0
 11
485.35890232830769
 21
571.49999999999977
 31
0.0
  0
LINE
  5
14A2
  8
0
 62
     0
 10
622.85890232830764
 20
569.99999999999989
 30
0.0
 11
485.35890232830769
 21
569.99999999999989
 31
0.0
  0
LINE
  5
14A3
  8
0
 62
     0
 10
622.85890232830764
 20
568.49999999999977
 30
0.0
 11
485.35890232830769
 21
568.49999999999977
 31
0.0
  0
LINE
  5
14A4
  8
0
 62
     0
 10
622.85890232830764
 20
566.99999999999989
 30
0.0
 11
485.35890232830769
 21
566.99999999999989
 31
0.0
  0
LINE
  5
14A5
  8
0
 62
     0
 10
622.85890232830764
 20
565.49999999999989
 30
0.0
 11
485.35890232830769
 21
565.49999999999989
 31
0.0
  0
LINE
  5
14A6
  8
0
 62
     0
 10
622.85890232830764
 20
563.99999999999977
 30
0.0
 11
485.35890232830769
 21
563.99999999999977
 31
0.0
  0
LINE
  5
14A7
  8
0
 62
     0
 10
622.85890232830764
 20
562.49999999999989
 30
0.0
 11
485.35890232830769
 21
562.49999999999989
 31
0.0
  0
LINE
  5
14A8
  8
0
 62
     0
 10
622.85890232830764
 20
560.99999999999977
 30
0.0
 11
485.35890232830769
 21
560.99999999999977
 31
0.0
  0
LINE
  5
14A9
  8
0
 62
     0
 10
622.85890232830764
 20
559.49999999999977
 30
0.0
 11
485.35890232830769
 21
559.49999999999977
 31
0.0
  0
LINE
  5
14AA
  8
0
 62
     0
 10
622.85890232830764
 20
557.99999999999989
 30
0.0
 11
485.35890232830769
 21
557.99999999999989
 31
0.0
  0
LINE
  5
14AB
  8
0
 62
     0
 10
622.85890232830764
 20
556.49999999999977
 30
0.0
 11
485.35890232830769
 21
556.49999999999977
 31
0.0
  0
LINE
  5
14AC
  8
0
 62
     0
 10
622.85890232830764
 20
554.99999999999977
 30
0.0
 11
485.35890232830769
 21
554.99999999999977
 31
0.0
  0
LINE
  5
14AD
  8
0
 62
     0
 10
622.85890232830764
 20
553.49999999999989
 30
0.0
 11
485.35890232830769
 21
553.49999999999989
 31
0.0
  0
LINE
  5
14AE
  8
0
 62
     0
 10
622.85890232830764
 20
551.99999999999977
 30
0.0
 11
485.35890232830769
 21
551.99999999999977
 31
0.0
  0
LINE
  5
14AF
  8
0
 62
     0
 10
622.85890232830764
 20
550.49999999999989
 30
0.0
 11
485.35890232830769
 21
550.49999999999989
 31
0.0
  0
LINE
  5
14B0
  8
0
 62
     0
 10
622.85890232830764
 20
548.99999999999989
 30
0.0
 11
485.35890232830769
 21
548.99999999999989
 31
0.0
  0
LINE
  5
14B1
  8
0
 62
     0
 10
622.85890232830764
 20
547.49999999999977
 30
0.0
 11
485.35890232830758
 21
547.49999999999977
 31
0.0
  0
LINE
  5
14B2
  8
0
 62
     0
 10
622.85890232830764
 20
545.99999999999989
 30
0.0
 11
485.35890232830758
 21
545.99999999999989
 31
0.0
  0
LINE
  5
14B3
  8
0
 62
     0
 10
622.85890232830764
 20
544.49999999999989
 30
0.0
 11
485.35890232830758
 21
544.49999999999989
 31
0.0
  0
LINE
  5
14B4
  8
0
 62
     0
 10
622.85890232830764
 20
542.99999999999977
 30
0.0
 11
485.35890232830758
 21
542.99999999999977
 31
0.0
  0
LINE
  5
14B5
  8
0
 62
     0
 10
622.85890232830752
 20
541.49999999999989
 30
0.0
 11
485.35890232830758
 21
541.49999999999989
 31
0.0
  0
LINE
  5
14B6
  8
0
 62
     0
 10
622.85890232830752
 20
539.99999999999977
 30
0.0
 11
485.35890232830758
 21
539.99999999999977
 31
0.0
  0
LINE
  5
14B7
  8
0
 62
     0
 10
622.85890232830752
 20
538.49999999999977
 30
0.0
 11
485.35890232830758
 21
538.49999999999977
 31
0.0
  0
LINE
  5
14B8
  8
0
 62
     0
 10
622.85890232830752
 20
536.99999999999989
 30
0.0
 11
485.35890232830758
 21
536.99999999999989
 31
0.0
  0
LINE
  5
14B9
  8
0
 62
     0
 10
622.85890232830752
 20
535.49999999999977
 30
0.0
 11
485.35890232830758
 21
535.49999999999977
 31
0.0
  0
LINE
  5
14BA
  8
0
 62
     0
 10
622.85890232830752
 20
533.99999999999977
 30
0.0
 11
485.35890232830758
 21
533.99999999999977
 31
0.0
  0
LINE
  5
14BB
  8
0
 62
     0
 10
622.85890232830752
 20
532.49999999999989
 30
0.0
 11
485.35890232830758
 21
532.49999999999989
 31
0.0
  0
LINE
  5
14BC
  8
0
 62
     0
 10
622.85890232830752
 20
530.99999999999977
 30
0.0
 11
485.35890232830758
 21
530.99999999999977
 31
0.0
  0
LINE
  5
14BD
  8
0
 62
     0
 10
622.85890232830752
 20
529.49999999999989
 30
0.0
 11
485.35890232830758
 21
529.49999999999989
 31
0.0
  0
LINE
  5
14BE
  8
0
 62
     0
 10
622.85890232830752
 20
527.99999999999989
 30
0.0
 11
485.35890232830758
 21
527.99999999999989
 31
0.0
  0
LINE
  5
14BF
  8
0
 62
     0
 10
622.85890232830752
 20
526.49999999999977
 30
0.0
 11
485.35890232830758
 21
526.49999999999977
 31
0.0
  0
LINE
  5
14C0
  8
0
 62
     0
 10
622.85890232830752
 20
524.99999999999989
 30
0.0
 11
485.35890232830758
 21
524.99999999999989
 31
0.0
  0
LINE
  5
14C1
  8
0
 62
     0
 10
622.85890232830752
 20
523.49999999999977
 30
0.0
 11
485.35890232830758
 21
523.49999999999977
 31
0.0
  0
LINE
  5
14C2
  8
0
 62
     0
 10
622.85890232830752
 20
521.99999999999977
 30
0.0
 11
485.35890232830758
 21
521.99999999999977
 31
0.0
  0
LINE
  5
14C3
  8
0
 62
     0
 10
622.85890232830752
 20
520.49999999999989
 30
0.0
 11
485.35890232830758
 21
520.49999999999989
 31
0.0
  0
LINE
  5
14C4
  8
0
 62
     0
 10
622.85890232830752
 20
518.99999999999977
 30
0.0
 11
485.35890232830758
 21
518.99999999999977
 31
0.0
  0
LINE
  5
14C5
  8
0
 62
     0
 10
622.85890232830752
 20
517.49999999999977
 30
0.0
 11
485.35890232830758
 21
517.49999999999977
 31
0.0
  0
LINE
  5
14C6
  8
0
 62
     0
 10
622.85890232830752
 20
515.99999999999989
 30
0.0
 11
485.35890232830758
 21
515.99999999999989
 31
0.0
  0
LINE
  5
14C7
  8
0
 62
     0
 10
622.85890232830752
 20
514.49999999999977
 30
0.0
 11
485.35890232830758
 21
514.49999999999977
 31
0.0
  0
LINE
  5
14C8
  8
0
 62
     0
 10
622.85890232830752
 20
512.99999999999989
 30
0.0
 11
485.35890232830758
 21
512.99999999999989
 31
0.0
  0
LINE
  5
14C9
  8
0
 62
     0
 10
622.85890232830752
 20
511.49999999999989
 30
0.0
 11
485.35890232830758
 21
511.49999999999989
 31
0.0
  0
LINE
  5
14CA
  8
0
 62
     0
 10
622.85890232830752
 20
509.99999999999989
 30
0.0
 11
485.35890232830758
 21
509.99999999999989
 31
0.0
  0
LINE
  5
14CB
  8
0
 62
     0
 10
622.85890232830752
 20
508.49999999999989
 30
0.0
 11
485.35890232830758
 21
508.49999999999989
 31
0.0
  0
LINE
  5
14CC
  8
0
 62
     0
 10
622.85890232830695
 20
502.49999999999989
 30
0.0
 11
485.35890232830712
 21
502.49999999999989
 31
0.0
  0
LINE
  5
14CD
  8
0
 62
     0
 10
622.85890232830695
 20
500.99999999999989
 30
0.0
 11
485.35890232830712
 21
500.99999999999989
 31
0.0
  0
LINE
  5
14CE
  8
0
 62
     0
 10
622.85890232830695
 20
499.49999999999989
 30
0.0
 11
485.35890232830712
 21
499.49999999999989
 31
0.0
  0
LINE
  5
14CF
  8
0
 62
     0
 10
622.85890232830695
 20
497.99999999999989
 30
0.0
 11
485.35890232830712
 21
497.99999999999989
 31
0.0
  0
LINE
  5
14D0
  8
0
 62
     0
 10
622.85890232830695
 20
496.49999999999989
 30
0.0
 11
485.35890232830712
 21
496.49999999999989
 31
0.0
  0
LINE
  5
14D1
  8
0
 62
     0
 10
622.85890232830695
 20
494.99999999999989
 30
0.0
 11
485.35890232830712
 21
494.99999999999989
 31
0.0
  0
LINE
  5
14D2
  8
0
 62
     0
 10
622.85890232830695
 20
493.49999999999989
 30
0.0
 11
485.35890232830712
 21
493.49999999999989
 31
0.0
  0
LINE
  5
14D3
  8
0
 62
     0
 10
622.85890232830695
 20
491.99999999999989
 30
0.0
 11
485.35890232830712
 21
491.99999999999989
 31
0.0
  0
LINE
  5
14D4
  8
0
 62
     0
 10
622.85890232830695
 20
490.49999999999989
 30
0.0
 11
485.35890232830712
 21
490.49999999999989
 31
0.0
  0
LINE
  5
14D5
  8
0
 62
     0
 10
622.85890232830695
 20
488.99999999999989
 30
0.0
 11
485.35890232830701
 21
488.99999999999989
 31
0.0
  0
LINE
  5
14D6
  8
0
 62
     0
 10
622.85890232830695
 20
487.49999999999989
 30
0.0
 11
485.35890232830701
 21
487.49999999999989
 31
0.0
  0
LINE
  5
14D7
  8
0
 62
     0
 10
622.85890232830695
 20
485.99999999999989
 30
0.0
 11
485.35890232830701
 21
485.99999999999989
 31
0.0
  0
LINE
  5
14D8
  8
0
 62
     0
 10
622.85890232830695
 20
484.49999999999989
 30
0.0
 11
485.35890232830701
 21
484.49999999999989
 31
0.0
  0
LINE
  5
14D9
  8
0
 62
     0
 10
622.85890232830695
 20
482.99999999999989
 30
0.0
 11
485.35890232830701
 21
482.99999999999989
 31
0.0
  0
LINE
  5
14DA
  8
0
 62
     0
 10
622.85890232830695
 20
481.49999999999989
 30
0.0
 11
485.35890232830701
 21
481.49999999999989
 31
0.0
  0
LINE
  5
14DB
  8
0
 62
     0
 10
622.85890232830695
 20
479.99999999999989
 30
0.0
 11
485.35890232830701
 21
479.99999999999989
 31
0.0
  0
LINE
  5
14DC
  8
0
 62
     0
 10
622.85890232830695
 20
478.49999999999989
 30
0.0
 11
485.35890232830701
 21
478.49999999999989
 31
0.0
  0
LINE
  5
14DD
  8
0
 62
     0
 10
622.85890232830695
 20
476.99999999999989
 30
0.0
 11
485.35890232830701
 21
476.99999999999989
 31
0.0
  0
LINE
  5
14DE
  8
0
 62
     0
 10
622.85890232830695
 20
475.49999999999989
 30
0.0
 11
485.35890232830701
 21
475.49999999999989
 31
0.0
  0
LINE
  5
14DF
  8
0
 62
     0
 10
622.85890232830695
 20
473.99999999999989
 30
0.0
 11
485.35890232830701
 21
473.99999999999989
 31
0.0
  0
LINE
  5
14E0
  8
0
 62
     0
 10
622.85890232830695
 20
472.49999999999989
 30
0.0
 11
485.35890232830701
 21
472.49999999999989
 31
0.0
  0
LINE
  5
14E1
  8
0
 62
     0
 10
622.85890232830695
 20
470.99999999999989
 30
0.0
 11
485.35890232830701
 21
470.99999999999989
 31
0.0
  0
LINE
  5
14E2
  8
0
 62
     0
 10
622.85890232830695
 20
469.49999999999989
 30
0.0
 11
485.35890232830701
 21
469.49999999999989
 31
0.0
  0
LINE
  5
14E3
  8
0
 62
     0
 10
622.85890232830695
 20
467.99999999999989
 30
0.0
 11
485.35890232830701
 21
467.99999999999989
 31
0.0
  0
LINE
  5
14E4
  8
0
 62
     0
 10
622.85890232830695
 20
466.49999999999989
 30
0.0
 11
485.35890232830701
 21
466.49999999999989
 31
0.0
  0
LINE
  5
14E5
  8
0
 62
     0
 10
622.85890232830695
 20
464.99999999999989
 30
0.0
 11
485.35890232830701
 21
464.99999999999989
 31
0.0
  0
LINE
  5
14E6
  8
0
 62
     0
 10
622.85890232830695
 20
463.49999999999989
 30
0.0
 11
485.35890232830701
 21
463.49999999999989
 31
0.0
  0
LINE
  5
14E7
  8
0
 62
     0
 10
622.85890232830695
 20
461.99999999999989
 30
0.0
 11
485.35890232830701
 21
461.99999999999989
 31
0.0
  0
LINE
  5
14E8
  8
0
 62
     0
 10
622.85890232830695
 20
460.49999999999989
 30
0.0
 11
485.35890232830701
 21
460.49999999999989
 31
0.0
  0
LINE
  5
14E9
  8
0
 62
     0
 10
622.85890232830695
 20
458.99999999999989
 30
0.0
 11
485.35890232830701
 21
458.99999999999989
 31
0.0
  0
LINE
  5
14EA
  8
0
 62
     0
 10
622.85890232830695
 20
457.49999999999989
 30
0.0
 11
485.35890232830701
 21
457.49999999999989
 31
0.0
  0
LINE
  5
14EB
  8
0
 62
     0
 10
622.85890232830695
 20
455.99999999999989
 30
0.0
 11
485.35890232830701
 21
455.99999999999989
 31
0.0
  0
LINE
  5
14EC
  8
0
 62
     0
 10
622.85890232830695
 20
454.49999999999989
 30
0.0
 11
485.35890232830701
 21
454.49999999999989
 31
0.0
  0
LINE
  5
14ED
  8
0
 62
     0
 10
622.85890232830695
 20
452.99999999999989
 30
0.0
 11
485.35890232830701
 21
452.99999999999989
 31
0.0
  0
LINE
  5
14EE
  8
0
 62
     0
 10
622.85890232830695
 20
451.49999999999989
 30
0.0
 11
485.35890232830701
 21
451.49999999999989
 31
0.0
  0
LINE
  5
14EF
  8
0
 62
     0
 10
622.85890232830695
 20
449.99999999999989
 30
0.0
 11
485.35890232830701
 21
449.99999999999989
 31
0.0
  0
LINE
  5
14F0
  8
0
 62
     0
 10
622.85890232830695
 20
448.49999999999989
 30
0.0
 11
485.35890232830701
 21
448.49999999999989
 31
0.0
  0
LINE
  5
14F1
  8
0
 62
     0
 10
622.85890232830695
 20
446.99999999999989
 30
0.0
 11
485.35890232830701
 21
446.99999999999989
 31
0.0
  0
LINE
  5
14F2
  8
0
 62
     0
 10
622.85890232830695
 20
445.49999999999989
 30
0.0
 11
485.35890232830701
 21
445.49999999999989
 31
0.0
  0
LINE
  5
14F3
  8
0
 62
     0
 10
622.85890232830695
 20
443.99999999999989
 30
0.0
 11
485.35890232830701
 21
443.99999999999989
 31
0.0
  0
LINE
  5
14F4
  8
0
 62
     0
 10
622.85890232830695
 20
442.49999999999989
 30
0.0
 11
485.35890232830701
 21
442.49999999999989
 31
0.0
  0
LINE
  5
14F5
  8
0
 62
     0
 10
622.85890232830695
 20
440.99999999999989
 30
0.0
 11
485.35890232830701
 21
440.99999999999989
 31
0.0
  0
LINE
  5
14F6
  8
0
 62
     0
 10
622.85890232830695
 20
439.49999999999989
 30
0.0
 11
485.35890232830701
 21
439.49999999999989
 31
0.0
  0
LINE
  5
14F7
  8
0
 62
     0
 10
622.85890232830695
 20
437.99999999999989
 30
0.0
 11
485.35890232830701
 21
437.99999999999989
 31
0.0
  0
LINE
  5
14F8
  8
0
 62
     0
 10
622.85890232830695
 20
436.49999999999989
 30
0.0
 11
485.35890232830701
 21
436.49999999999989
 31
0.0
  0
LINE
  5
14F9
  8
0
 62
     0
 10
622.85890232830695
 20
434.99999999999989
 30
0.0
 11
485.35890232830701
 21
434.99999999999989
 31
0.0
  0
LINE
  5
14FA
  8
0
 62
     0
 10
622.85890232830695
 20
433.49999999999989
 30
0.0
 11
485.35890232830701
 21
433.49999999999989
 31
0.0
  0
LINE
  5
14FB
  8
0
 62
     0
 10
622.85890232830695
 20
431.99999999999989
 30
0.0
 11
485.35890232830701
 21
431.99999999999989
 31
0.0
  0
LINE
  5
14FC
  8
0
 62
     0
 10
622.85890232830695
 20
430.49999999999989
 30
0.0
 11
485.35890232830701
 21
430.49999999999989
 31
0.0
  0
LINE
  5
14FD
  8
0
 62
     0
 10
622.85890232830695
 20
428.99999999999989
 30
0.0
 11
485.35890232830701
 21
428.99999999999989
 31
0.0
  0
LINE
  5
14FE
  8
0
 62
     0
 10
622.85890232830695
 20
427.49999999999989
 30
0.0
 11
485.35890232830701
 21
427.49999999999989
 31
0.0
  0
LINE
  5
14FF
  8
0
 62
     0
 10
622.85890232830695
 20
425.99999999999989
 30
0.0
 11
485.35890232830701
 21
425.99999999999989
 31
0.0
  0
LINE
  5
1500
  8
0
 62
     0
 10
622.85890232830695
 20
424.49999999999989
 30
0.0
 11
485.35890232830701
 21
424.49999999999989
 31
0.0
  0
LINE
  5
1501
  8
0
 62
     0
 10
622.85890232830695
 20
422.99999999999989
 30
0.0
 11
485.35890232830701
 21
422.99999999999989
 31
0.0
  0
LINE
  5
1502
  8
0
 62
     0
 10
622.85890232830695
 20
421.49999999999989
 30
0.0
 11
485.35890232830701
 21
421.49999999999989
 31
0.0
  0
LINE
  5
1503
  8
0
 62
     0
 10
622.85890232830695
 20
419.99999999999989
 30
0.0
 11
485.35890232830701
 21
419.99999999999989
 31
0.0
  0
LINE
  5
1504
  8
0
 62
     0
 10
622.85890232830695
 20
418.49999999999989
 30
0.0
 11
485.35890232830701
 21
418.49999999999989
 31
0.0
  0
LINE
  5
1505
  8
0
 62
     0
 10
622.85890232830695
 20
416.99999999999989
 30
0.0
 11
485.35890232830701
 21
416.99999999999989
 31
0.0
  0
LINE
  5
1506
  8
0
 62
     0
 10
622.85890232830695
 20
415.49999999999989
 30
0.0
 11
485.35890232830701
 21
415.49999999999989
 31
0.0
  0
LINE
  5
1507
  8
0
 62
     0
 10
622.85890232830695
 20
413.99999999999989
 30
0.0
 11
485.35890232830701
 21
413.99999999999989
 31
0.0
  0
LINE
  5
1508
  8
0
 62
     0
 10
622.85890232830695
 20
412.49999999999989
 30
0.0
 11
485.35890232830701
 21
412.49999999999989
 31
0.0
  0
LINE
  5
1509
  8
0
 62
     0
 10
622.85890232830695
 20
410.99999999999989
 30
0.0
 11
485.35890232830701
 21
410.99999999999989
 31
0.0
  0
LINE
  5
150A
  8
0
 62
     0
 10
622.85890232830695
 20
409.49999999999989
 30
0.0
 11
485.35890232830701
 21
409.49999999999989
 31
0.0
  0
LINE
  5
150B
  8
0
 62
     0
 10
622.85890232830695
 20
407.99999999999989
 30
0.0
 11
485.35890232830701
 21
407.99999999999989
 31
0.0
  0
LINE
  5
150C
  8
0
 62
     0
 10
622.85890232830695
 20
406.49999999999989
 30
0.0
 11
485.35890232830701
 21
406.49999999999989
 31
0.0
  0
LINE
  5
150D
  8
0
 62
     0
 10
622.85890232830695
 20
404.99999999999989
 30
0.0
 11
485.35890232830701
 21
404.99999999999989
 31
0.0
  0
LINE
  5
150E
  8
0
 62
     0
 10
622.85890232830695
 20
403.49999999999989
 30
0.0
 11
485.35890232830701
 21
403.49999999999989
 31
0.0
  0
LINE
  5
150F
  8
0
 62
     0
 10
622.85890232830695
 20
401.99999999999989
 30
0.0
 11
485.35890232830701
 21
401.99999999999989
 31
0.0
  0
LINE
  5
1510
  8
0
 62
     0
 10
622.85890232830684
 20
400.49999999999989
 30
0.0
 11
485.35890232830701
 21
400.49999999999989
 31
0.0
  0
LINE
  5
1511
  8
0
 62
     0
 10
622.85890232830684
 20
398.99999999999989
 30
0.0
 11
485.35890232830701
 21
398.99999999999989
 31
0.0
  0
LINE
  5
1512
  8
0
 62
     0
 10
622.85890232830684
 20
397.5
 30
0.0
 11
485.35890232830701
 21
397.5
 31
0.0
  0
LINE
  5
1513
  8
0
 62
     0
 10
622.85890232830684
 20
395.99999999999989
 30
0.0
 11
485.35890232830701
 21
395.99999999999989
 31
0.0
  0
LINE
  5
1514
  8
0
 62
     0
 10
622.85890232830684
 20
394.49999999999989
 30
0.0
 11
485.35890232830701
 21
394.49999999999989
 31
0.0
  0
LINE
  5
1515
  8
0
 62
     0
 10
622.85890232830684
 20
393.0
 30
0.0
 11
485.35890232830701
 21
393.0
 31
0.0
  0
LINE
  5
1516
  8
0
 62
     0
 10
622.85890232830684
 20
391.5
 30
0.0
 11
485.35890232830701
 21
391.5
 31
0.0
  0
LINE
  5
1517
  8
0
 62
     0
 10
622.85890232830684
 20
390.0
 30
0.0
 11
485.35890232830701
 21
390.0
 31
0.0
  0
LINE
  5
1518
  8
0
 62
     0
 10
622.85890232830684
 20
388.49999999999989
 30
0.0
 11
485.35890232830701
 21
388.49999999999989
 31
0.0
  0
LINE
  5
1519
  8
0
 62
     0
 10
622.85890232830684
 20
387.0
 30
0.0
 11
485.35890232830701
 21
387.0
 31
0.0
  0
LINE
  5
151A
  8
0
 62
     0
 10
622.85890232830684
 20
385.5
 30
0.0
 11
485.35890232830701
 21
385.5
 31
0.0
  0
LINE
  5
151B
  8
0
 62
     0
 10
622.85890232830684
 20
383.99999999999989
 30
0.0
 11
485.35890232830701
 21
383.99999999999989
 31
0.0
  0
LINE
  5
151C
  8
0
 62
     0
 10
622.85890232830684
 20
382.49999999999989
 30
0.0
 11
485.35890232830701
 21
382.49999999999989
 31
0.0
  0
LINE
  5
151D
  8
0
 62
     0
 10
622.85890232830684
 20
381.0
 30
0.0
 11
485.35890232830701
 21
381.0
 31
0.0
  0
LINE
  5
151E
  8
0
 62
     0
 10
622.85890232830684
 20
379.49999999999989
 30
0.0
 11
485.3589023283069
 21
379.49999999999989
 31
0.0
  0
LINE
  5
151F
  8
0
 62
     0
 10
622.85890232830684
 20
377.99999999999989
 30
0.0
 11
485.3589023283069
 21
377.99999999999989
 31
0.0
  0
LINE
  5
1520
  8
0
 62
     0
 10
622.85890232830684
 20
376.5
 30
0.0
 11
485.3589023283069
 21
376.5
 31
0.0
  0
LINE
  5
1521
  8
0
 62
     0
 10
622.85890232830684
 20
375.0
 30
0.0
 11
485.3589023283069
 21
375.0
 31
0.0
  0
LINE
  5
1522
  8
0
 62
     0
 10
622.85890232830684
 20
373.49999999999989
 30
0.0
 11
485.3589023283069
 21
373.49999999999989
 31
0.0
  0
LINE
  5
1523
  8
0
 62
     0
 10
622.85890232830684
 20
371.99999999999989
 30
0.0
 11
485.3589023283069
 21
371.99999999999989
 31
0.0
  0
LINE
  5
1524
  8
0
 62
     0
 10
622.85890232830684
 20
370.5
 30
0.0
 11
485.3589023283069
 21
370.5
 31
0.0
  0
LINE
  5
1525
  8
0
 62
     0
 10
622.85890232830684
 20
368.99999999999989
 30
0.0
 11
485.3589023283069
 21
368.99999999999989
 31
0.0
  0
LINE
  5
1526
  8
0
 62
     0
 10
622.85890232830684
 20
367.49999999999989
 30
0.0
 11
485.3589023283069
 21
367.49999999999989
 31
0.0
  0
LINE
  5
1527
  8
0
 62
     0
 10
622.85890232830695
 20
361.49999999999989
 30
0.0
 11
485.35890232830701
 21
361.49999999999989
 31
0.0
  0
LINE
  5
1528
  8
0
 62
     0
 10
622.85890232830695
 20
360.0
 30
0.0
 11
485.35890232830701
 21
360.0
 31
0.0
  0
LINE
  5
1529
  8
0
 62
     0
 10
622.85890232830695
 20
358.49999999999989
 30
0.0
 11
485.35890232830701
 21
358.49999999999989
 31
0.0
  0
LINE
  5
152A
  8
0
 62
     0
 10
622.85890232830695
 20
356.99999999999989
 30
0.0
 11
485.35890232830701
 21
356.99999999999989
 31
0.0
  0
LINE
  5
152B
  8
0
 62
     0
 10
622.85890232830695
 20
355.5
 30
0.0
 11
485.35890232830701
 21
355.5
 31
0.0
  0
LINE
  5
152C
  8
0
 62
     0
 10
622.85890232830695
 20
354.0
 30
0.0
 11
485.35890232830701
 21
354.0
 31
0.0
  0
LINE
  5
152D
  8
0
 62
     0
 10
622.85890232830695
 20
352.49999999999989
 30
0.0
 11
485.35890232830701
 21
352.49999999999989
 31
0.0
  0
LINE
  5
152E
  8
0
 62
     0
 10
622.85890232830695
 20
350.99999999999989
 30
0.0
 11
485.35890232830701
 21
350.99999999999989
 31
0.0
  0
LINE
  5
152F
  8
0
 62
     0
 10
622.85890232830695
 20
349.5
 30
0.0
 11
485.35890232830701
 21
349.5
 31
0.0
  0
LINE
  5
1530
  8
0
 62
     0
 10
622.85890232830695
 20
347.99999999999989
 30
0.0
 11
485.35890232830701
 21
347.99999999999989
 31
0.0
  0
LINE
  5
1531
  8
0
 62
     0
 10
622.85890232830695
 20
346.49999999999989
 30
0.0
 11
485.35890232830701
 21
346.49999999999989
 31
0.0
  0
LINE
  5
1532
  8
0
 62
     0
 10
622.85890232830695
 20
344.99999999999989
 30
0.0
 11
485.35890232830701
 21
344.99999999999989
 31
0.0
  0
LINE
  5
1533
  8
0
 62
     0
 10
622.85890232830695
 20
343.5
 30
0.0
 11
485.35890232830701
 21
343.5
 31
0.0
  0
LINE
  5
1534
  8
0
 62
     0
 10
622.85890232830695
 20
341.99999999999989
 30
0.0
 11
485.35890232830701
 21
341.99999999999989
 31
0.0
  0
LINE
  5
1535
  8
0
 62
     0
 10
622.85890232830695
 20
340.49999999999989
 30
0.0
 11
485.35890232830701
 21
340.49999999999989
 31
0.0
  0
LINE
  5
1536
  8
0
 62
     0
 10
622.85890232830695
 20
339.0
 30
0.0
 11
485.35890232830701
 21
339.0
 31
0.0
  0
LINE
  5
1537
  8
0
 62
     0
 10
622.85890232830695
 20
337.5
 30
0.0
 11
485.35890232830701
 21
337.5
 31
0.0
  0
LINE
  5
1538
  8
0
 62
     0
 10
622.85890232830695
 20
335.99999999999989
 30
0.0
 11
485.35890232830701
 21
335.99999999999989
 31
0.0
  0
LINE
  5
1539
  8
0
 62
     0
 10
622.85890232830695
 20
334.49999999999989
 30
0.0
 11
485.35890232830701
 21
334.49999999999989
 31
0.0
  0
LINE
  5
153A
  8
0
 62
     0
 10
622.85890232830695
 20
333.0
 30
0.0
 11
485.35890232830701
 21
333.0
 31
0.0
  0
LINE
  5
153B
  8
0
 62
     0
 10
622.85890232830695
 20
331.49999999999989
 30
0.0
 11
485.35890232830701
 21
331.49999999999989
 31
0.0
  0
LINE
  5
153C
  8
0
 62
     0
 10
622.85890232830695
 20
329.99999999999989
 30
0.0
 11
485.35890232830701
 21
329.99999999999989
 31
0.0
  0
LINE
  5
153D
  8
0
 62
     0
 10
622.85890232830695
 20
328.5
 30
0.0
 11
485.35890232830701
 21
328.5
 31
0.0
  0
LINE
  5
153E
  8
0
 62
     0
 10
622.85890232830695
 20
327.0
 30
0.0
 11
485.35890232830701
 21
327.0
 31
0.0
  0
LINE
  5
153F
  8
0
 62
     0
 10
622.85890232830695
 20
325.49999999999989
 30
0.0
 11
485.35890232830701
 21
325.49999999999989
 31
0.0
  0
LINE
  5
1540
  8
0
 62
     0
 10
622.85890232830695
 20
323.99999999999989
 30
0.0
 11
485.35890232830701
 21
323.99999999999989
 31
0.0
  0
LINE
  5
1541
  8
0
 62
     0
 10
622.85890232830695
 20
322.5
 30
0.0
 11
485.35890232830701
 21
322.5
 31
0.0
  0
LINE
  5
1542
  8
0
 62
     0
 10
622.85890232830695
 20
320.99999999999989
 30
0.0
 11
485.35890232830701
 21
320.99999999999989
 31
0.0
  0
LINE
  5
1543
  8
0
 62
     0
 10
622.85890232830695
 20
319.49999999999989
 30
0.0
 11
485.35890232830701
 21
319.49999999999989
 31
0.0
  0
LINE
  5
1544
  8
0
 62
     0
 10
622.85890232830695
 20
318.0
 30
0.0
 11
485.35890232830701
 21
318.0
 31
0.0
  0
LINE
  5
1545
  8
0
 62
     0
 10
622.85890232830695
 20
316.5
 30
0.0
 11
485.35890232830701
 21
316.5
 31
0.0
  0
LINE
  5
1546
  8
0
 62
     0
 10
622.85890232830695
 20
314.99999999999989
 30
0.0
 11
485.35890232830701
 21
314.99999999999989
 31
0.0
  0
LINE
  5
1547
  8
0
 62
     0
 10
622.85890232830695
 20
313.49999999999989
 30
0.0
 11
485.35890232830701
 21
313.49999999999989
 31
0.0
  0
LINE
  5
1548
  8
0
 62
     0
 10
622.85890232830695
 20
312.0
 30
0.0
 11
485.35890232830701
 21
312.0
 31
0.0
  0
LINE
  5
1549
  8
0
 62
     0
 10
622.85890232830695
 20
310.49999999999989
 30
0.0
 11
485.35890232830701
 21
310.49999999999989
 31
0.0
  0
LINE
  5
154A
  8
0
 62
     0
 10
622.85890232830695
 20
308.99999999999989
 30
0.0
 11
485.35890232830701
 21
308.99999999999989
 31
0.0
  0
LINE
  5
154B
  8
0
 62
     0
 10
622.85890232830695
 20
307.49999999999989
 30
0.0
 11
485.35890232830701
 21
307.49999999999989
 31
0.0
  0
LINE
  5
154C
  8
0
 62
     0
 10
622.85890232830695
 20
306.0
 30
0.0
 11
485.35890232830701
 21
306.0
 31
0.0
  0
LINE
  5
154D
  8
0
 62
     0
 10
622.85890232830695
 20
304.49999999999989
 30
0.0
 11
485.35890232830701
 21
304.49999999999989
 31
0.0
  0
LINE
  5
154E
  8
0
 62
     0
 10
622.85890232830695
 20
302.99999999999989
 30
0.0
 11
485.35890232830701
 21
302.99999999999989
 31
0.0
  0
LINE
  5
154F
  8
0
 62
     0
 10
622.85890232830695
 20
301.5
 30
0.0
 11
485.35890232830701
 21
301.5
 31
0.0
  0
LINE
  5
1550
  8
0
 62
     0
 10
622.85890232830695
 20
300.0
 30
0.0
 11
485.35890232830701
 21
300.0
 31
0.0
  0
LINE
  5
1551
  8
0
 62
     0
 10
622.85890232830695
 20
298.49999999999989
 30
0.0
 11
485.35890232830701
 21
298.49999999999989
 31
0.0
  0
LINE
  5
1552
  8
0
 62
     0
 10
622.85890232830695
 20
296.99999999999989
 30
0.0
 11
485.35890232830701
 21
296.99999999999989
 31
0.0
  0
LINE
  5
1553
  8
0
 62
     0
 10
622.85890232830695
 20
295.5
 30
0.0
 11
485.35890232830701
 21
295.5
 31
0.0
  0
LINE
  5
1554
  8
0
 62
     0
 10
622.85890232830684
 20
293.99999999999989
 30
0.0
 11
485.35890232830701
 21
293.99999999999989
 31
0.0
  0
LINE
  5
1555
  8
0
 62
     0
 10
622.85890232830684
 20
292.49999999999989
 30
0.0
 11
485.35890232830701
 21
292.49999999999989
 31
0.0
  0
LINE
  5
1556
  8
0
 62
     0
 10
622.85890232830684
 20
291.0
 30
0.0
 11
485.35890232830701
 21
291.0
 31
0.0
  0
LINE
  5
1557
  8
0
 62
     0
 10
622.85890232830684
 20
289.49999999999989
 30
0.0
 11
485.35890232830701
 21
289.49999999999989
 31
0.0
  0
LINE
  5
1558
  8
0
 62
     0
 10
622.85890232830684
 20
287.99999999999989
 30
0.0
 11
485.35890232830701
 21
287.99999999999989
 31
0.0
  0
LINE
  5
1559
  8
0
 62
     0
 10
622.85890232830684
 20
286.49999999999989
 30
0.0
 11
485.35890232830701
 21
286.49999999999989
 31
0.0
  0
LINE
  5
155A
  8
0
 62
     0
 10
622.85890232830684
 20
285.0
 30
0.0
 11
485.35890232830701
 21
285.0
 31
0.0
  0
LINE
  5
155B
  8
0
 62
     0
 10
622.85890232830684
 20
283.49999999999989
 30
0.0
 11
485.35890232830701
 21
283.49999999999989
 31
0.0
  0
LINE
  5
155C
  8
0
 62
     0
 10
622.85890232830684
 20
281.99999999999989
 30
0.0
 11
485.35890232830701
 21
281.99999999999989
 31
0.0
  0
LINE
  5
155D
  8
0
 62
     0
 10
622.85890232830684
 20
280.49999999999989
 30
0.0
 11
485.35890232830701
 21
280.49999999999989
 31
0.0
  0
LINE
  5
155E
  8
0
 62
     0
 10
622.85890232830684
 20
279.0
 30
0.0
 11
485.35890232830701
 21
279.0
 31
0.0
  0
LINE
  5
155F
  8
0
 62
     0
 10
622.85890232830684
 20
277.49999999999989
 30
0.0
 11
485.35890232830701
 21
277.49999999999989
 31
0.0
  0
LINE
  5
1560
  8
0
 62
     0
 10
622.85890232830684
 20
275.99999999999989
 30
0.0
 11
485.3589023283069
 21
275.99999999999989
 31
0.0
  0
LINE
  5
1561
  8
0
 62
     0
 10
622.85890232830684
 20
274.5
 30
0.0
 11
485.3589023283069
 21
274.5
 31
0.0
  0
LINE
  5
1562
  8
0
 62
     0
 10
622.85890232830684
 20
272.99999999999989
 30
0.0
 11
485.3589023283069
 21
272.99999999999989
 31
0.0
  0
LINE
  5
1563
  8
0
 62
     0
 10
622.85890232830684
 20
271.49999999999989
 30
0.0
 11
485.3589023283069
 21
271.49999999999989
 31
0.0
  0
LINE
  5
1564
  8
0
 62
     0
 10
622.85890232830684
 20
269.99999999999989
 30
0.0
 11
485.3589023283069
 21
269.99999999999989
 31
0.0
  0
LINE
  5
1565
  8
0
 62
     0
 10
622.85890232830684
 20
268.5
 30
0.0
 11
485.3589023283069
 21
268.5
 31
0.0
  0
LINE
  5
1566
  8
0
 62
     0
 10
622.85890232830684
 20
266.99999999999989
 30
0.0
 11
485.3589023283069
 21
266.99999999999989
 31
0.0
  0
LINE
  5
1567
  8
0
 62
     0
 10
622.85890232830684
 20
265.49999999999989
 30
0.0
 11
485.3589023283069
 21
265.49999999999989
 31
0.0
  0
LINE
  5
1568
  8
0
 62
     0
 10
622.85890232830684
 20
264.0
 30
0.0
 11
485.3589023283069
 21
264.0
 31
0.0
  0
LINE
  5
1569
  8
0
 62
     0
 10
622.85890232830684
 20
262.5
 30
0.0
 11
485.3589023283069
 21
262.5
 31
0.0
  0
LINE
  5
156A
  8
0
 62
     0
 10
622.85890232830684
 20
260.99999999999989
 30
0.0
 11
485.3589023283069
 21
260.99999999999989
 31
0.0
  0
LINE
  5
156B
  8
0
 62
     0
 10
622.85890232830684
 20
259.49999999999989
 30
0.0
 11
485.3589023283069
 21
259.49999999999989
 31
0.0
  0
LINE
  5
156C
  8
0
 62
     0
 10
622.85890232830684
 20
258.0
 30
0.0
 11
485.3589023283069
 21
258.0
 31
0.0
  0
LINE
  5
156D
  8
0
 62
     0
 10
622.85890232830684
 20
256.49999999999989
 30
0.0
 11
485.3589023283069
 21
256.49999999999989
 31
0.0
  0
LINE
  5
156E
  8
0
 62
     0
 10
622.85890232830684
 20
254.99999999999989
 30
0.0
 11
485.3589023283069
 21
254.99999999999989
 31
0.0
  0
LINE
  5
156F
  8
0
 62
     0
 10
622.85890232830684
 20
253.49999999999989
 30
0.0
 11
485.3589023283069
 21
253.5
 31
0.0
  0
LINE
  5
1570
  8
0
 62
     0
 10
622.85890232830684
 20
251.99999999999989
 30
0.0
 11
485.3589023283069
 21
252.0
 31
0.0
  0
LINE
  5
1571
  8
0
 62
     0
 10
622.85890232830684
 20
250.49999999999989
 30
0.0
 11
485.3589023283069
 21
250.49999999999989
 31
0.0
  0
LINE
  5
1572
  8
0
 62
     0
 10
622.85890232830684
 20
248.99999999999989
 30
0.0
 11
485.3589023283069
 21
248.99999999999989
 31
0.0
  0
LINE
  5
1573
  8
0
 62
     0
 10
622.85890232830673
 20
247.49999999999989
 30
0.0
 11
485.3589023283069
 21
247.5
 31
0.0
  0
LINE
  5
1574
  8
0
 62
     0
 10
622.85890232830673
 20
245.99999999999989
 30
0.0
 11
485.3589023283069
 21
245.99999999999989
 31
0.0
  0
LINE
  5
1575
  8
0
 62
     0
 10
622.85890232830673
 20
244.49999999999989
 30
0.0
 11
485.3589023283069
 21
244.49999999999989
 31
0.0
  0
LINE
  5
1576
  8
0
 62
     0
 10
622.85890232830673
 20
242.99999999999989
 30
0.0
 11
485.35890232830678
 21
242.99999999999989
 31
0.0
  0
LINE
  5
1577
  8
0
 62
     0
 10
622.85890232830673
 20
241.49999999999989
 30
0.0
 11
485.35890232830678
 21
241.5
 31
0.0
  0
LINE
  5
1578
  8
0
 62
     0
 10
622.85890232830673
 20
239.99999999999989
 30
0.0
 11
485.35890232830678
 21
239.99999999999989
 31
0.0
  0
LINE
  5
1579
  8
0
 62
     0
 10
622.85890232830673
 20
238.49999999999989
 30
0.0
 11
485.35890232830678
 21
238.49999999999989
 31
0.0
  0
LINE
  5
157A
  8
0
 62
     0
 10
622.85890232830673
 20
236.99999999999989
 30
0.0
 11
485.35890232830678
 21
237.0
 31
0.0
  0
LINE
  5
157B
  8
0
 62
     0
 10
622.85890232830673
 20
235.49999999999989
 30
0.0
 11
485.35890232830678
 21
235.49999999999989
 31
0.0
  0
LINE
  5
157C
  8
0
 62
     0
 10
622.85890232830673
 20
233.99999999999989
 30
0.0
 11
485.35890232830678
 21
233.99999999999989
 31
0.0
  0
LINE
  5
157D
  8
0
 62
     0
 10
622.85890232830673
 20
232.49999999999989
 30
0.0
 11
485.35890232830678
 21
232.49999999999989
 31
0.0
  0
LINE
  5
157E
  8
0
 62
     0
 10
622.85890232830673
 20
230.99999999999989
 30
0.0
 11
485.35890232830678
 21
231.0
 31
0.0
  0
LINE
  5
157F
  8
0
 62
     0
 10
622.85890232830673
 20
229.49999999999989
 30
0.0
 11
485.35890232830678
 21
229.49999999999989
 31
0.0
  0
LINE
  5
1580
  8
0
 62
     0
 10
622.85890232830673
 20
227.99999999999989
 30
0.0
 11
485.35890232830678
 21
227.99999999999989
 31
0.0
  0
LINE
  5
1581
  8
0
 62
     0
 10
622.85890232830673
 20
226.49999999999989
 30
0.0
 11
485.35890232830678
 21
226.5
 31
0.0
  0
ENDBLK
  5
1583
  8
0
  0
BLOCK
  8
0
  2
*X5
 70
     1
 10
0.0
 20
0.0
 30
0.0
  3
*X5
  1

  0
LINE
  5
1585
  8
0
 62
     0
 10
1108.5
 20
4.0000045037580172
 30
0.0
 11
1108.5
 21
98.375004503758575
 31
0.0
  0
LINE
  5
1586
  8
0
 62
     0
 10
1107.0
 20
4.0000045037580012
 30
0.0
 11
1107.0
 21
98.375004503758561
 31
0.0
  0
LINE
  5
1587
  8
0
 62
     0
 10
1105.5
 20
4.0000045037579852
 30
0.0
 11
1105.5
 21
98.375004503758547
 31
0.0
  0
LINE
  5
1588
  8
0
 62
     0
 10
1104.0
 20
4.0000045037579692
 30
0.0
 11
1104.0
 21
98.375004503758518
 31
0.0
  0
LINE
  5
1589
  8
0
 62
     0
 10
1102.5
 20
4.0000045037579532
 30
0.0
 11
1102.5
 21
98.375004503758504
 31
0.0
  0
LINE
  5
158A
  8
0
 62
     0
 10
1101.0
 20
4.0000045037579364
 30
0.0
 11
1101.0
 21
98.375004503758475
 31
0.0
  0
LINE
  5
158B
  8
0
 62
     0
 10
1099.5
 20
4.0000045037579204
 30
0.0
 11
1099.5
 21
98.375004503758475
 31
0.0
  0
LINE
  5
158C
  8
0
 62
     0
 10
1098.0
 20
4.0000045037579044
 30
0.0
 11
1098.0
 21
98.375004503758475
 31
0.0
  0
LINE
  5
158D
  8
0
 62
     0
 10
1096.5
 20
4.0000045037578884
 30
0.0
 11
1096.5
 21
98.375004503758447
 31
0.0
  0
LINE
  5
158E
  8
0
 62
     0
 10
1069.5
 20
4.0000045037576069
 30
0.0
 11
1069.5
 21
98.375004503758163
 31
0.0
  0
LINE
  5
158F
  8
0
 62
     0
 10
1068.0
 20
4.0000045037575926
 30
0.0
 11
1068.0
 21
98.375004503758149
 31
0.0
  0
LINE
  5
1590
  8
0
 62
     0
 10
1066.5
 20
4.0000045037575784
 30
0.0
 11
1066.5
 21
98.375004503758134
 31
0.0
  0
LINE
  5
1591
  8
0
 62
     0
 10
1065.0
 20
4.0000045037575642
 30
0.0
 11
1065.0
 21
98.375004503758134
 31
0.0
  0
LINE
  5
1592
  8
0
 62
     0
 10
1063.5
 20
4.0000045037575491
 30
0.0
 11
1063.5
 21
98.375004503758092
 31
0.0
  0
LINE
  5
1593
  8
0
 62
     0
 10
1062.0
 20
4.000004503757534
 30
0.0
 11
1062.0
 21
98.375004503758078
 31
0.0
  0
LINE
  5
1594
  8
0
 62
     0
 10
1060.5
 20
4.0000045037575189
 30
0.0
 11
1060.5
 21
98.375004503758063
 31
0.0
  0
LINE
  5
1595
  8
0
 62
     0
 10
1059.0
 20
4.0000045037575047
 30
0.0
 11
1059.0
 21
98.375004503758063
 31
0.0
  0
LINE
  5
1596
  8
0
 62
     0
 10
1057.5
 20
4.0000045037574896
 30
0.0
 11
1057.5
 21
98.375004503758035
 31
0.0
  0
LINE
  5
1597
  8
0
 62
     0
 10
1056.0
 20
4.0000045037574763
 30
0.0
 11
1056.0
 21
98.375004503758021
 31
0.0
  0
LINE
  5
1598
  8
0
 62
     0
 10
1054.5
 20
4.0000045037574612
 30
0.0
 11
1054.5
 21
98.375004503758007
 31
0.0
  0
LINE
  5
1599
  8
0
 62
     0
 10
1027.5
 20
4.0000045037571672
 30
0.0
 11
1027.5
 21
98.375004503757722
 31
0.0
  0
LINE
  5
159A
  8
0
 62
     0
 10
1026.0
 20
4.0000045037571521
 30
0.0
 11
1026.0
 21
98.375004503757694
 31
0.0
  0
LINE
  5
159B
  8
0
 62
     0
 10
1024.5
 20
4.000004503757137
 30
0.0
 11
1024.5
 21
98.375004503757694
 31
0.0
  0
LINE
  5
159C
  8
0
 62
     0
 10
1023.0
 20
4.0000045037571228
 30
0.0
 11
1023.0
 21
98.375004503757694
 31
0.0
  0
LINE
  5
159D
  8
0
 62
     0
 10
1021.5
 20
4.0000045037571077
 30
0.0
 11
1021.5
 21
98.375004503757651
 31
0.0
  0
LINE
  5
159E
  8
0
 62
     0
 10
1020.0
 20
4.0000045037570944
 30
0.0
 11
1020.0
 21
98.375004503757637
 31
0.0
  0
LINE
  5
159F
  8
0
 62
     0
 10
1018.5
 20
4.0000045037570793
 30
0.0
 11
1018.5
 21
98.375004503757637
 31
0.0
  0
LINE
  5
15A0
  8
0
 62
     0
 10
1017.0
 20
4.0000045037570651
 30
0.0
 11
1017.0
 21
98.375004503757609
 31
0.0
  0
LINE
  5
15A1
  8
0
 62
     0
 10
1015.5
 20
4.0000045037570491
 30
0.0
 11
1015.5
 21
98.375004503757594
 31
0.0
  0
LINE
  5
15A2
  8
0
 62
     0
 10
1014.0
 20
4.0000045037570349
 30
0.0
 11
1014.0
 21
98.37500450375758
 31
0.0
  0
LINE
  5
15A3
  8
0
 62
     0
 10
1012.5
 20
4.0000045037570198
 30
0.0
 11
1012.5
 21
98.375004503757566
 31
0.0
  0
LINE
  5
15A4
  8
0
 62
     0
 10
985.5
 20
4.0000045037567551
 30
0.0
 11
985.5
 21
98.375004503757282
 31
0.0
  0
LINE
  5
15A5
  8
0
 62
     0
 10
984.0
 20
4.0000045037567391
 30
0.0
 11
984.0
 21
98.375004503757282
 31
0.0
  0
LINE
  5
15A6
  8
0
 62
     0
 10
982.50000000000011
 20
4.0000045037567231
 30
0.0
 11
982.50000000000011
 21
98.375004503757253
 31
0.0
  0
LINE
  5
15A7
  8
0
 62
     0
 10
981.0
 20
4.0000045037567071
 30
0.0
 11
981.0
 21
98.375004503757239
 31
0.0
  0
LINE
  5
15A8
  8
0
 62
     0
 10
979.49999999999989
 20
4.0000045037566911
 30
0.0
 11
979.49999999999989
 21
98.375004503757211
 31
0.0
  0
LINE
  5
15A9
  8
0
 62
     0
 10
978.0
 20
4.0000045037566743
 30
0.0
 11
978.0
 21
98.375004503757211
 31
0.0
  0
LINE
  5
15AA
  8
0
 62
     0
 10
976.5
 20
4.0000045037566583
 30
0.0
 11
976.5
 21
98.375004503757197
 31
0.0
  0
LINE
  5
15AB
  8
0
 62
     0
 10
975.0
 20
4.0000045037566423
 30
0.0
 11
975.0
 21
98.375004503757168
 31
0.0
  0
LINE
  5
15AC
  8
0
 62
     0
 10
973.49999999999989
 20
4.0000045037566263
 30
0.0
 11
973.49999999999989
 21
98.375004503757154
 31
0.0
  0
LINE
  5
15AD
  8
0
 62
     0
 10
967.5
 20
4.0000045037580136
 30
0.0
 11
967.5
 21
98.375004503758575
 31
0.0
  0
LINE
  5
15AE
  8
0
 62
     0
 10
966.0
 20
4.0000045037579977
 30
0.0
 11
966.0
 21
98.375004503758561
 31
0.0
  0
LINE
  5
15AF
  8
0
 62
     0
 10
964.49999999999989
 20
4.0000045037579817
 30
0.0
 11
964.49999999999989
 21
98.375004503758547
 31
0.0
  0
LINE
  5
15B0
  8
0
 62
     0
 10
963.0
 20
4.0000045037579657
 30
0.0
 11
963.0
 21
98.375004503758518
 31
0.0
  0
LINE
  5
15B1
  8
0
 62
     0
 10
961.5
 20
4.0000045037579497
 30
0.0
 11
961.5
 21
98.375004503758504
 31
0.0
  0
LINE
  5
15B2
  8
0
 62
     0
 10
960.0
 20
4.0000045037579328
 30
0.0
 11
960.0
 21
98.375004503758475
 31
0.0
  0
LINE
  5
15B3
  8
0
 62
     0
 10
958.5
 20
4.0000045037579168
 30
0.0
 11
958.5
 21
98.375004503758475
 31
0.0
  0
LINE
  5
15B4
  8
0
 62
     0
 10
957.0
 20
4.0000045037579008
 30
0.0
 11
957.0
 21
98.375004503758475
 31
0.0
  0
LINE
  5
15B5
  8
0
 62
     0
 10
955.49999999999989
 20
4.0000045037578849
 30
0.0
 11
955.49999999999989
 21
98.375004503758447
 31
0.0
  0
LINE
  5
15B6
  8
0
 62
     0
 10
928.5
 20
4.0000045037576051
 30
0.0
 11
928.5
 21
98.375004503758163
 31
0.0
  0
LINE
  5
15B7
  8
0
 62
     0
 10
927.0
 20
4.00000450375759
 30
0.0
 11
927.0
 21
98.375004503758149
 31
0.0
  0
LINE
  5
15B8
  8
0
 62
     0
 10
925.5
 20
4.0000045037575749
 30
0.0
 11
925.5
 21
98.375004503758134
 31
0.0
  0
LINE
  5
15B9
  8
0
 62
     0
 10
924.0
 20
4.0000045037575607
 30
0.0
 11
924.0
 21
98.375004503758106
 31
0.0
  0
LINE
  5
15BA
  8
0
 62
     0
 10
922.49999999999989
 20
4.0000045037575456
 30
0.0
 11
922.49999999999989
 21
98.375004503758092
 31
0.0
  0
LINE
  5
15BB
  8
0
 62
     0
 10
921.0
 20
4.0000045037575322
 30
0.0
 11
921.0
 21
98.375004503758078
 31
0.0
  0
LINE
  5
15BC
  8
0
 62
     0
 10
919.5
 20
4.0000045037575171
 30
0.0
 11
919.5
 21
98.375004503758063
 31
0.0
  0
LINE
  5
15BD
  8
0
 62
     0
 10
918.0
 20
4.0000045037575021
 30
0.0
 11
918.0
 21
98.375004503758063
 31
0.0
  0
LINE
  5
15BE
  8
0
 62
     0
 10
916.5
 20
4.000004503757487
 30
0.0
 11
916.5
 21
98.375004503758035
 31
0.0
  0
LINE
  5
15BF
  8
0
 62
     0
 10
915.0
 20
4.0000045037574727
 30
0.0
 11
915.0
 21
98.375004503758021
 31
0.0
  0
LINE
  5
15C0
  8
0
 62
     0
 10
913.49999999999989
 20
4.0000045037574576
 30
0.0
 11
913.49999999999989
 21
98.375004503758007
 31
0.0
  0
LINE
  5
15C1
  8
0
 62
     0
 10
886.5
 20
4.0000045037571637
 30
0.0
 11
886.5
 21
98.375004503757722
 31
0.0
  0
LINE
  5
15C2
  8
0
 62
     0
 10
885.0
 20
4.0000045037571503
 30
0.0
 11
885.0
 21
98.375004503757694
 31
0.0
  0
LINE
  5
15C3
  8
0
 62
     0
 10
883.5
 20
4.0000045037571352
 30
0.0
 11
883.5
 21
98.375004503757694
 31
0.0
  0
LINE
  5
15C4
  8
0
 62
     0
 10
882.0
 20
4.000004503757121
 30
0.0
 11
882.0
 21
98.375004503757665
 31
0.0
  0
LINE
  5
15C5
  8
0
 62
     0
 10
880.49999999999989
 20
4.000004503757105
 30
0.0
 11
880.49999999999989
 21
98.375004503757651
 31
0.0
  0
LINE
  5
15C6
  8
0
 62
     0
 10
879.0
 20
4.0000045037570908
 30
0.0
 11
879.0
 21
98.375004503757637
 31
0.0
  0
LINE
  5
15C7
  8
0
 62
     0
 10
877.5
 20
4.0000045037570757
 30
0.0
 11
877.5
 21
98.375004503757637
 31
0.0
  0
LINE
  5
15C8
  8
0
 62
     0
 10
876.0
 20
4.0000045037570624
 30
0.0
 11
876.0
 21
98.375004503757609
 31
0.0
  0
LINE
  5
15C9
  8
0
 62
     0
 10
874.5
 20
4.0000045037570473
 30
0.0
 11
874.5
 21
98.375004503757594
 31
0.0
  0
LINE
  5
15CA
  8
0
 62
     0
 10
873.0
 20
4.0000045037570331
 30
0.0
 11
873.0
 21
98.37500450375758
 31
0.0
  0
LINE
  5
15CB
  8
0
 62
     0
 10
871.49999999999989
 20
4.0000045037570171
 30
0.0
 11
871.49999999999989
 21
98.375004503757566
 31
0.0
  0
LINE
  5
15CC
  8
0
 62
     0
 10
844.5
 20
4.0000045037567524
 30
0.0
 11
844.5
 21
98.375004503757282
 31
0.0
  0
LINE
  5
15CD
  8
0
 62
     0
 10
843.0
 20
4.0000045037567364
 30
0.0
 11
843.0
 21
98.375004503757282
 31
0.0
  0
LINE
  5
15CE
  8
0
 62
     0
 10
841.5
 20
4.0000045037567196
 30
0.0
 11
841.5
 21
98.375004503757239
 31
0.0
  0
LINE
  5
15CF
  8
0
 62
     0
 10
840.0
 20
4.0000045037567036
 30
0.0
 11
840.0
 21
98.375004503757225
 31
0.0
  0
LINE
  5
15D0
  8
0
 62
     0
 10
838.49999999999989
 20
4.0000045037566876
 30
0.0
 11
838.49999999999989
 21
98.375004503757211
 31
0.0
  0
LINE
  5
15D1
  8
0
 62
     0
 10
837.0
 20
4.0000045037566707
 30
0.0
 11
837.0
 21
98.375004503757211
 31
0.0
  0
LINE
  5
15D2
  8
0
 62
     0
 10
835.5
 20
4.0000045037566547
 30
0.0
 11
835.5
 21
98.375004503757197
 31
0.0
  0
LINE
  5
15D3
  8
0
 62
     0
 10
834.0
 20
4.0000045037566387
 30
0.0
 11
834.0
 21
98.375004503757168
 31
0.0
  0
LINE
  5
15D4
  8
0
 62
     0
 10
832.49999999999989
 20
4.0000045037566228
 30
0.0
 11
832.49999999999989
 21
98.375004503757154
 31
0.0
  0
LINE
  5
15D5
  8
0
 62
     0
 10
826.5
 20
4.000004503758011
 30
0.0
 11
826.5
 21
98.375004503758561
 31
0.0
  0
LINE
  5
15D6
  8
0
 62
     0
 10
825.0
 20
4.000004503757995
 30
0.0
 11
825.0
 21
98.375004503758561
 31
0.0
  0
LINE
  5
15D7
  8
0
 62
     0
 10
823.49999999999989
 20
4.000004503757979
 30
0.0
 11
823.49999999999989
 21
98.375004503758547
 31
0.0
  0
LINE
  5
15D8
  8
0
 62
     0
 10
822.0
 20
4.000004503757963
 30
0.0
 11
822.0
 21
98.375004503758518
 31
0.0
  0
LINE
  5
15D9
  8
0
 62
     0
 10
820.5
 20
4.000004503757947
 30
0.0
 11
820.5
 21
98.375004503758504
 31
0.0
  0
LINE
  5
15DA
  8
0
 62
     0
 10
819.0
 20
4.000004503757931
 30
0.0
 11
819.0
 21
98.375004503758475
 31
0.0
  0
LINE
  5
15DB
  8
0
 62
     0
 10
817.5
 20
4.0000045037579151
 30
0.0
 11
817.5
 21
98.375004503758475
 31
0.0
  0
LINE
  5
15DC
  8
0
 62
     0
 10
816.0
 20
4.0000045037578991
 30
0.0
 11
816.0
 21
98.375004503758447
 31
0.0
  0
LINE
  5
15DD
  8
0
 62
     0
 10
814.49999999999989
 20
4.0000045037578831
 30
0.0
 11
814.49999999999989
 21
98.375004503758433
 31
0.0
  0
LINE
  5
15DE
  8
0
 62
     0
 10
787.5
 20
4.0000045037576033
 30
0.0
 11
787.5
 21
98.375004503758163
 31
0.0
  0
LINE
  5
15DF
  8
0
 62
     0
 10
786.0
 20
4.0000045037575882
 30
0.0
 11
786.0
 21
98.375004503758134
 31
0.0
  0
LINE
  5
15E0
  8
0
 62
     0
 10
784.49999999999989
 20
4.0000045037575731
 30
0.0
 11
784.49999999999989
 21
98.375004503758134
 31
0.0
  0
LINE
  5
15E1
  8
0
 62
     0
 10
783.0
 20
4.000004503757558
 30
0.0
 11
783.0
 21
98.375004503758106
 31
0.0
  0
LINE
  5
15E2
  8
0
 62
     0
 10
781.5
 20
4.0000045037575438
 30
0.0
 11
781.5
 21
98.375004503758092
 31
0.0
  0
LINE
  5
15E3
  8
0
 62
     0
 10
780.0
 20
4.0000045037575287
 30
0.0
 11
780.0
 21
98.375004503758078
 31
0.0
  0
LINE
  5
15E4
  8
0
 62
     0
 10
778.5
 20
4.0000045037575154
 30
0.0
 11
778.5
 21
98.375004503758063
 31
0.0
  0
LINE
  5
15E5
  8
0
 62
     0
 10
777.0
 20
4.0000045037575003
 30
0.0
 11
777.0
 21
98.375004503758063
 31
0.0
  0
LINE
  5
15E6
  8
0
 62
     0
 10
775.49999999999989
 20
4.0000045037574861
 30
0.0
 11
775.49999999999989
 21
98.375004503758035
 31
0.0
  0
LINE
  5
15E7
  8
0
 62
     0
 10
774.0
 20
4.0000045037574701
 30
0.0
 11
774.0
 21
98.375004503758007
 31
0.0
  0
LINE
  5
15E8
  8
0
 62
     0
 10
772.5
 20
4.0000045037574559
 30
0.0
 11
772.5
 21
98.375004503757992
 31
0.0
  0
LINE
  5
15E9
  8
0
 62
     0
 10
745.5
 20
4.0000045037571761
 30
0.0
 11
745.5
 21
98.375004503757694
 31
0.0
  0
LINE
  5
15EA
  8
0
 62
     0
 10
744.0
 20
4.0000045037571601
 30
0.0
 11
744.0
 21
98.375004503757694
 31
0.0
  0
LINE
  5
15EB
  8
0
 62
     0
 10
742.49999999999989
 20
4.0000045037571441
 30
0.0
 11
742.49999999999989
 21
98.375004503757694
 31
0.0
  0
LINE
  5
15EC
  8
0
 62
     0
 10
741.0
 20
4.0000045037571281
 30
0.0
 11
741.0
 21
98.375004503757665
 31
0.0
  0
LINE
  5
15ED
  8
0
 62
     0
 10
739.5
 20
4.0000045037571121
 30
0.0
 11
739.5
 21
98.375004503757637
 31
0.0
  0
LINE
  5
15EE
  8
0
 62
     0
 10
738.0
 20
4.0000045037570962
 30
0.0
 11
738.0
 21
98.375004503757637
 31
0.0
  0
LINE
  5
15EF
  8
0
 62
     0
 10
736.5
 20
4.0000045037570802
 30
0.0
 11
736.5
 21
98.375004503757609
 31
0.0
  0
LINE
  5
15F0
  8
0
 62
     0
 10
735.0
 20
4.0000045037570642
 30
0.0
 11
735.0
 21
98.375004503757594
 31
0.0
  0
LINE
  5
15F1
  8
0
 62
     0
 10
733.49999999999989
 20
4.0000045037570482
 30
0.0
 11
733.49999999999989
 21
98.37500450375758
 31
0.0
  0
LINE
  5
15F2
  8
0
 62
     0
 10
732.0
 20
4.0000045037570322
 30
0.0
 11
732.0
 21
98.375004503757566
 31
0.0
  0
LINE
  5
15F3
  8
0
 62
     0
 10
730.49999999999989
 20
4.0000045037570162
 30
0.0
 11
730.49999999999989
 21
98.375004503757566
 31
0.0
  0
LINE
  5
15F4
  8
0
 62
     0
 10
703.5
 20
4.0000045037567489
 30
0.0
 11
703.5
 21
98.375004503757282
 31
0.0
  0
LINE
  5
15F5
  8
0
 62
     0
 10
702.0
 20
4.0000045037567329
 30
0.0
 11
702.0
 21
98.375004503757253
 31
0.0
  0
LINE
  5
15F6
  8
0
 62
     0
 10
700.49999999999989
 20
4.0000045037567169
 30
0.0
 11
700.49999999999989
 21
98.375004503757239
 31
0.0
  0
LINE
  5
15F7
  8
0
 62
     0
 10
699.0
 20
4.0000045037567009
 30
0.0
 11
699.0
 21
98.375004503757225
 31
0.0
  0
LINE
  5
15F8
  8
0
 62
     0
 10
697.5
 20
4.0000045037566849
 30
0.0
 11
697.5
 21
98.375004503757211
 31
0.0
  0
LINE
  5
15F9
  8
0
 62
     0
 10
696.0
 20
4.0000045037566681
 30
0.0
 11
696.0
 21
98.375004503757211
 31
0.0
  0
LINE
  5
15FA
  8
0
 62
     0
 10
694.5
 20
4.0000045037566521
 30
0.0
 11
694.5
 21
98.375004503757197
 31
0.0
  0
LINE
  5
15FB
  8
0
 62
     0
 10
693.0
 20
4.0000045037566361
 30
0.0
 11
693.0
 21
98.375004503757168
 31
0.0
  0
LINE
  5
15FC
  8
0
 62
     0
 10
691.5
 20
4.0000045037566201
 30
0.0
 11
691.5
 21
98.375004503757154
 31
0.0
  0
LINE
  5
15FD
  8
0
 62
     0
 10
912.82318418770285
 20
4.5
 30
0.0
 11
928.83969824162762
 21
4.5
 31
0.0
  0
LINE
  5
15FE
  8
0
 62
     0
 10
870.83069858695637
 20
4.5
 30
0.0
 11
886.82792055812945
 21
4.5
 31
0.0
  0
LINE
  5
15FF
  8
0
 62
     0
 10
954.82271390372546
 20
4.5
 30
0.0
 11
968.08069858695694
 21
4.5
 31
0.0
  0
LINE
  5
1600
  8
0
 62
     0
 10
831.58069858695694
 20
4.5
 30
0.0
 11
844.83069858695546
 21
4.5
 31
0.0
  0
LINE
  5
1601
  8
0
 62
     0
 10
972.33069858695387
 20
4.5
 30
0.0
 11
985.58069858695274
 21
4.5
 31
0.0
  0
LINE
  5
1602
  8
0
 62
     0
 10
814.07271390372273
 20
4.5
 30
0.0
 11
827.33069858695399
 21
4.5
 31
0.0
  0
LINE
  5
1603
  8
0
 62
     0
 10
1011.580698586953
 20
4.5
 30
0.0
 11
1027.5779205581271
 21
4.5
 31
0.0
  0
LINE
  5
1604
  8
0
 62
     0
 10
772.07318418770012
 20
4.5
 30
0.0
 11
788.089698241625
 21
4.5
 31
0.0
  0
LINE
  5
1605
  8
0
 62
     0
 10
1053.5731841877
 20
4.5
 30
0.0
 11
1069.589698241625
 21
4.5
 31
0.0
  0
LINE
  5
1606
  8
0
 62
     0
 10
730.08069858695364
 20
4.5
 30
0.0
 11
746.07792055812695
 21
4.5
 31
0.0
  0
LINE
  5
1607
  8
0
 62
     0
 10
1095.5727139037219
 20
4.5
 30
0.0
 11
1108.830698586954
 21
4.5
 31
0.0
  0
LINE
  5
1608
  8
0
 62
     0
 10
690.83069858695399
 20
4.5
 30
0.0
 11
704.08069858695274
 21
4.5
 31
0.0
  0
LINE
  5
1609
  8
0
 62
     0
 10
912.82318418770285
 20
6.0
 30
0.0
 11
928.83969824162762
 21
6.0
 31
0.0
  0
LINE
  5
160A
  8
0
 62
     0
 10
870.83069858695637
 20
6.0
 30
0.0
 11
886.82792055812945
 21
6.0
 31
0.0
  0
LINE
  5
160B
  8
0
 62
     0
 10
954.82271390372546
 20
6.0
 30
0.0
 11
968.08069858695694
 21
6.0
 31
0.0
  0
LINE
  5
160C
  8
0
 62
     0
 10
831.58069858695694
 20
6.0
 30
0.0
 11
844.83069858695546
 21
6.0
 31
0.0
  0
LINE
  5
160D
  8
0
 62
     0
 10
972.33069858695387
 20
6.0
 30
0.0
 11
985.58069858695274
 21
6.0
 31
0.0
  0
LINE
  5
160E
  8
0
 62
     0
 10
814.07271390372273
 20
6.0
 30
0.0
 11
827.33069858695399
 21
6.0
 31
0.0
  0
LINE
  5
160F
  8
0
 62
     0
 10
1011.580698586953
 20
6.0
 30
0.0
 11
1027.5779205581271
 21
6.0
 31
0.0
  0
LINE
  5
1610
  8
0
 62
     0
 10
772.07318418770012
 20
6.0
 30
0.0
 11
788.089698241625
 21
6.0
 31
0.0
  0
LINE
  5
1611
  8
0
 62
     0
 10
1053.5731841877
 20
6.0
 30
0.0
 11
1069.589698241625
 21
6.0
 31
0.0
  0
LINE
  5
1612
  8
0
 62
     0
 10
730.08069858695364
 20
6.0
 30
0.0
 11
746.07792055812695
 21
6.0
 31
0.0
  0
LINE
  5
1613
  8
0
 62
     0
 10
1095.5727139037219
 20
6.0
 30
0.0
 11
1108.830698586954
 21
6.0
 31
0.0
  0
LINE
  5
1614
  8
0
 62
     0
 10
690.83069858695399
 20
6.0
 30
0.0
 11
704.08069858695274
 21
6.0
 31
0.0
  0
LINE
  5
1615
  8
0
 62
     0
 10
912.82318418770285
 20
7.5
 30
0.0
 11
928.83969824162762
 21
7.5
 31
0.0
  0
LINE
  5
1616
  8
0
 62
     0
 10
870.83069858695637
 20
7.5
 30
0.0
 11
886.82792055812945
 21
7.5
 31
0.0
  0
LINE
  5
1617
  8
0
 62
     0
 10
954.82271390372546
 20
7.5
 30
0.0
 11
968.08069858695694
 21
7.5
 31
0.0
  0
LINE
  5
1618
  8
0
 62
     0
 10
831.58069858695694
 20
7.5
 30
0.0
 11
844.83069858695546
 21
7.5
 31
0.0
  0
LINE
  5
1619
  8
0
 62
     0
 10
972.33069858695387
 20
7.5
 30
0.0
 11
985.58069858695274
 21
7.5
 31
0.0
  0
LINE
  5
161A
  8
0
 62
     0
 10
814.07271390372273
 20
7.5
 30
0.0
 11
827.33069858695399
 21
7.5
 31
0.0
  0
LINE
  5
161B
  8
0
 62
     0
 10
1011.580698586953
 20
7.5
 30
0.0
 11
1027.5779205581271
 21
7.5
 31
0.0
  0
LINE
  5
161C
  8
0
 62
     0
 10
772.07318418770012
 20
7.5
 30
0.0
 11
788.089698241625
 21
7.5
 31
0.0
  0
LINE
  5
161D
  8
0
 62
     0
 10
1053.5731841877
 20
7.5
 30
0.0
 11
1069.589698241625
 21
7.5
 31
0.0
  0
LINE
  5
161E
  8
0
 62
     0
 10
730.08069858695364
 20
7.5
 30
0.0
 11
746.07792055812695
 21
7.5
 31
0.0
  0
LINE
  5
161F
  8
0
 62
     0
 10
1095.5727139037219
 20
7.5
 30
0.0
 11
1108.830698586954
 21
7.5
 31
0.0
  0
LINE
  5
1620
  8
0
 62
     0
 10
690.83069858695399
 20
7.5
 30
0.0
 11
704.08069858695274
 21
7.5
 31
0.0
  0
LINE
  5
1621
  8
0
 62
     0
 10
912.82318418770285
 20
9.0
 30
0.0
 11
928.83969824162762
 21
9.0
 31
0.0
  0
LINE
  5
1622
  8
0
 62
     0
 10
870.83069858695637
 20
9.0
 30
0.0
 11
886.82792055812945
 21
9.0
 31
0.0
  0
LINE
  5
1623
  8
0
 62
     0
 10
954.82271390372546
 20
9.0
 30
0.0
 11
968.08069858695694
 21
9.0
 31
0.0
  0
LINE
  5
1624
  8
0
 62
     0
 10
831.58069858695694
 20
9.0
 30
0.0
 11
844.83069858695546
 21
9.0
 31
0.0
  0
LINE
  5
1625
  8
0
 62
     0
 10
972.33069858695387
 20
9.0
 30
0.0
 11
985.58069858695274
 21
9.0
 31
0.0
  0
LINE
  5
1626
  8
0
 62
     0
 10
814.07271390372273
 20
9.0
 30
0.0
 11
827.33069858695399
 21
9.0
 31
0.0
  0
LINE
  5
1627
  8
0
 62
     0
 10
1011.580698586953
 20
9.0
 30
0.0
 11
1027.5779205581271
 21
9.0
 31
0.0
  0
LINE
  5
1628
  8
0
 62
     0
 10
772.07318418770012
 20
9.0
 30
0.0
 11
788.089698241625
 21
9.0
 31
0.0
  0
LINE
  5
1629
  8
0
 62
     0
 10
1053.5731841877
 20
9.0
 30
0.0
 11
1069.589698241625
 21
9.0
 31
0.0
  0
LINE
  5
162A
  8
0
 62
     0
 10
730.08069858695364
 20
9.0
 30
0.0
 11
746.07792055812695
 21
9.0
 31
0.0
  0
LINE
  5
162B
  8
0
 62
     0
 10
1095.5727139037219
 20
9.0
 30
0.0
 11
1108.830698586954
 21
9.0
 31
0.0
  0
LINE
  5
162C
  8
0
 62
     0
 10
690.83069858695399
 20
9.0
 30
0.0
 11
704.08069858695274
 21
9.0
 31
0.0
  0
LINE
  5
162D
  8
0
 62
     0
 10
912.82318418770285
 20
10.5
 30
0.0
 11
928.83969824162762
 21
10.5
 31
0.0
  0
LINE
  5
162E
  8
0
 62
     0
 10
870.83069858695637
 20
10.5
 30
0.0
 11
886.82792055812945
 21
10.5
 31
0.0
  0
LINE
  5
162F
  8
0
 62
     0
 10
954.82271390372546
 20
10.5
 30
0.0
 11
968.08069858695671
 21
10.5
 31
0.0
  0
LINE
  5
1630
  8
0
 62
     0
 10
831.58069858695671
 20
10.5
 30
0.0
 11
844.83069858695546
 21
10.5
 31
0.0
  0
LINE
  5
1631
  8
0
 62
     0
 10
972.33069858695387
 20
10.5
 30
0.0
 11
985.58069858695274
 21
10.5
 31
0.0
  0
LINE
  5
1632
  8
0
 62
     0
 10
814.07271390372273
 20
10.5
 30
0.0
 11
827.33069858695376
 21
10.5
 31
0.0
  0
LINE
  5
1633
  8
0
 62
     0
 10
1011.580698586953
 20
10.5
 30
0.0
 11
1027.5779205581271
 21
10.5
 31
0.0
  0
LINE
  5
1634
  8
0
 62
     0
 10
772.07318418770012
 20
10.5
 30
0.0
 11
788.089698241625
 21
10.5
 31
0.0
  0
LINE
  5
1635
  8
0
 62
     0
 10
1053.5731841877
 20
10.5
 30
0.0
 11
1069.589698241625
 21
10.5
 31
0.0
  0
LINE
  5
1636
  8
0
 62
     0
 10
730.08069858695364
 20
10.5
 30
0.0
 11
746.07792055812695
 21
10.5
 31
0.0
  0
LINE
  5
1637
  8
0
 62
     0
 10
1095.5727139037219
 20
10.5
 30
0.0
 11
1108.830698586954
 21
10.5
 31
0.0
  0
LINE
  5
1638
  8
0
 62
     0
 10
690.83069858695376
 20
10.5
 30
0.0
 11
704.08069858695274
 21
10.5
 31
0.0
  0
LINE
  5
1639
  8
0
 62
     0
 10
912.82318418770285
 20
12.0
 30
0.0
 11
928.83969824162762
 21
12.0
 31
0.0
  0
LINE
  5
163A
  8
0
 62
     0
 10
870.83069858695637
 20
12.0
 30
0.0
 11
886.82792055812945
 21
12.0
 31
0.0
  0
LINE
  5
163B
  8
0
 62
     0
 10
954.82271390372546
 20
12.0
 30
0.0
 11
968.08069858695671
 21
12.0
 31
0.0
  0
LINE
  5
163C
  8
0
 62
     0
 10
831.58069858695671
 20
12.0
 30
0.0
 11
844.83069858695546
 21
12.0
 31
0.0
  0
LINE
  5
163D
  8
0
 62
     0
 10
972.33069858695387
 20
12.0
 30
0.0
 11
985.58069858695274
 21
12.0
 31
0.0
  0
LINE
  5
163E
  8
0
 62
     0
 10
814.07271390372273
 20
12.0
 30
0.0
 11
827.33069858695376
 21
12.0
 31
0.0
  0
LINE
  5
163F
  8
0
 62
     0
 10
1011.580698586953
 20
12.0
 30
0.0
 11
1027.5779205581271
 21
12.0
 31
0.0
  0
LINE
  5
1640
  8
0
 62
     0
 10
772.07318418770012
 20
12.0
 30
0.0
 11
788.089698241625
 21
12.0
 31
0.0
  0
LINE
  5
1641
  8
0
 62
     0
 10
1053.5731841877
 20
12.0
 30
0.0
 11
1069.589698241625
 21
12.0
 31
0.0
  0
LINE
  5
1642
  8
0
 62
     0
 10
730.08069858695364
 20
12.0
 30
0.0
 11
746.07792055812695
 21
12.0
 31
0.0
  0
LINE
  5
1643
  8
0
 62
     0
 10
1095.5727139037219
 20
12.0
 30
0.0
 11
1108.830698586954
 21
12.0
 31
0.0
  0
LINE
  5
1644
  8
0
 62
     0
 10
690.83069858695376
 20
12.0
 30
0.0
 11
704.08069858695274
 21
12.0
 31
0.0
  0
LINE
  5
1645
  8
0
 62
     0
 10
912.82318418770285
 20
13.5
 30
0.0
 11
928.83969824162762
 21
13.5
 31
0.0
  0
LINE
  5
1646
  8
0
 62
     0
 10
870.83069858695637
 20
13.5
 30
0.0
 11
886.82792055812945
 21
13.5
 31
0.0
  0
LINE
  5
1647
  8
0
 62
     0
 10
954.82271390372546
 20
13.5
 30
0.0
 11
968.08069858695671
 21
13.5
 31
0.0
  0
LINE
  5
1648
  8
0
 62
     0
 10
831.58069858695671
 20
13.5
 30
0.0
 11
844.83069858695546
 21
13.5
 31
0.0
  0
LINE
  5
1649
  8
0
 62
     0
 10
972.33069858695387
 20
13.5
 30
0.0
 11
985.58069858695274
 21
13.5
 31
0.0
  0
LINE
  5
164A
  8
0
 62
     0
 10
814.07271390372273
 20
13.5
 30
0.0
 11
827.33069858695376
 21
13.5
 31
0.0
  0
LINE
  5
164B
  8
0
 62
     0
 10
1011.580698586953
 20
13.5
 30
0.0
 11
1027.5779205581271
 21
13.5
 31
0.0
  0
LINE
  5
164C
  8
0
 62
     0
 10
772.07318418770012
 20
13.5
 30
0.0
 11
788.089698241625
 21
13.5
 31
0.0
  0
LINE
  5
164D
  8
0
 62
     0
 10
1053.5731841877
 20
13.5
 30
0.0
 11
1069.589698241625
 21
13.5
 31
0.0
  0
LINE
  5
164E
  8
0
 62
     0
 10
730.08069858695364
 20
13.5
 30
0.0
 11
746.07792055812695
 21
13.5
 31
0.0
  0
LINE
  5
164F
  8
0
 62
     0
 10
1095.5727139037219
 20
13.5
 30
0.0
 11
1108.830698586954
 21
13.5
 31
0.0
  0
LINE
  5
1650
  8
0
 62
     0
 10
690.83069858695376
 20
13.5
 30
0.0
 11
704.08069858695274
 21
13.5
 31
0.0
  0
LINE
  5
1651
  8
0
 62
     0
 10
912.82318418770285
 20
15.0
 30
0.0
 11
928.83969824162762
 21
15.0
 31
0.0
  0
LINE
  5
1652
  8
0
 62
     0
 10
870.83069858695637
 20
15.0
 30
0.0
 11
886.82792055812945
 21
15.0
 31
0.0
  0
LINE
  5
1653
  8
0
 62
     0
 10
954.82271390372546
 20
15.0
 30
0.0
 11
968.08069858695671
 21
15.0
 31
0.0
  0
LINE
  5
1654
  8
0
 62
     0
 10
831.58069858695671
 20
15.0
 30
0.0
 11
844.83069858695546
 21
15.0
 31
0.0
  0
LINE
  5
1655
  8
0
 62
     0
 10
972.33069858695387
 20
15.0
 30
0.0
 11
985.58069858695274
 21
15.0
 31
0.0
  0
LINE
  5
1656
  8
0
 62
     0
 10
814.07271390372273
 20
15.0
 30
0.0
 11
827.33069858695376
 21
15.0
 31
0.0
  0
LINE
  5
1657
  8
0
 62
     0
 10
1011.580698586953
 20
15.0
 30
0.0
 11
1027.5779205581271
 21
15.0
 31
0.0
  0
LINE
  5
1658
  8
0
 62
     0
 10
772.07318418770012
 20
15.0
 30
0.0
 11
788.089698241625
 21
15.0
 31
0.0
  0
LINE
  5
1659
  8
0
 62
     0
 10
1053.5731841877
 20
15.0
 30
0.0
 11
1069.589698241625
 21
15.0
 31
0.0
  0
LINE
  5
165A
  8
0
 62
     0
 10
730.08069858695364
 20
15.0
 30
0.0
 11
746.07792055812695
 21
15.0
 31
0.0
  0
LINE
  5
165B
  8
0
 62
     0
 10
1095.5727139037219
 20
15.0
 30
0.0
 11
1108.830698586954
 21
15.0
 31
0.0
  0
LINE
  5
165C
  8
0
 62
     0
 10
690.83069858695376
 20
15.0
 30
0.0
 11
704.08069858695274
 21
15.0
 31
0.0
  0
LINE
  5
165D
  8
0
 62
     0
 10
912.82318418770285
 20
16.5
 30
0.0
 11
928.83969824162762
 21
16.5
 31
0.0
  0
LINE
  5
165E
  8
0
 62
     0
 10
870.83069858695637
 20
16.5
 30
0.0
 11
886.82792055812945
 21
16.5
 31
0.0
  0
LINE
  5
165F
  8
0
 62
     0
 10
954.82271390372546
 20
16.5
 30
0.0
 11
968.08069858695671
 21
16.5
 31
0.0
  0
LINE
  5
1660
  8
0
 62
     0
 10
831.58069858695671
 20
16.5
 30
0.0
 11
844.83069858695546
 21
16.5
 31
0.0
  0
LINE
  5
1661
  8
0
 62
     0
 10
972.33069858695387
 20
16.5
 30
0.0
 11
985.58069858695274
 21
16.5
 31
0.0
  0
LINE
  5
1662
  8
0
 62
     0
 10
814.07271390372273
 20
16.5
 30
0.0
 11
827.33069858695376
 21
16.5
 31
0.0
  0
LINE
  5
1663
  8
0
 62
     0
 10
1011.580698586953
 20
16.5
 30
0.0
 11
1027.5779205581271
 21
16.5
 31
0.0
  0
LINE
  5
1664
  8
0
 62
     0
 10
772.07318418770012
 20
16.5
 30
0.0
 11
788.089698241625
 21
16.5
 31
0.0
  0
LINE
  5
1665
  8
0
 62
     0
 10
1053.5731841877
 20
16.5
 30
0.0
 11
1069.589698241625
 21
16.5
 31
0.0
  0
LINE
  5
1666
  8
0
 62
     0
 10
730.08069858695364
 20
16.5
 30
0.0
 11
746.07792055812695
 21
16.5
 31
0.0
  0
LINE
  5
1667
  8
0
 62
     0
 10
1095.5727139037219
 20
16.5
 30
0.0
 11
1108.830698586954
 21
16.5
 31
0.0
  0
LINE
  5
1668
  8
0
 62
     0
 10
690.83069858695376
 20
16.5
 30
0.0
 11
704.08069858695274
 21
16.5
 31
0.0
  0
LINE
  5
1669
  8
0
 62
     0
 10
912.82318418770285
 20
18.0
 30
0.0
 11
928.83969824162762
 21
18.0
 31
0.0
  0
LINE
  5
166A
  8
0
 62
     0
 10
870.83069858695637
 20
18.0
 30
0.0
 11
886.82792055812945
 21
18.0
 31
0.0
  0
LINE
  5
166B
  8
0
 62
     0
 10
954.82271390372546
 20
18.0
 30
0.0
 11
968.08069858695671
 21
18.0
 31
0.0
  0
LINE
  5
166C
  8
0
 62
     0
 10
831.58069858695671
 20
18.0
 30
0.0
 11
844.83069858695546
 21
18.0
 31
0.0
  0
LINE
  5
166D
  8
0
 62
     0
 10
972.33069858695387
 20
18.0
 30
0.0
 11
985.58069858695274
 21
18.0
 31
0.0
  0
LINE
  5
166E
  8
0
 62
     0
 10
814.07271390372273
 20
18.0
 30
0.0
 11
827.33069858695376
 21
18.0
 31
0.0
  0
LINE
  5
166F
  8
0
 62
     0
 10
1011.580698586953
 20
18.0
 30
0.0
 11
1027.5779205581271
 21
18.0
 31
0.0
  0
LINE
  5
1670
  8
0
 62
     0
 10
772.07318418770012
 20
18.0
 30
0.0
 11
788.089698241625
 21
18.0
 31
0.0
  0
LINE
  5
1671
  8
0
 62
     0
 10
1053.5731841877
 20
18.0
 30
0.0
 11
1069.589698241625
 21
18.0
 31
0.0
  0
LINE
  5
1672
  8
0
 62
     0
 10
730.08069858695364
 20
18.0
 30
0.0
 11
746.07792055812695
 21
18.0
 31
0.0
  0
LINE
  5
1673
  8
0
 62
     0
 10
1095.5727139037219
 20
18.0
 30
0.0
 11
1108.830698586954
 21
18.0
 31
0.0
  0
LINE
  5
1674
  8
0
 62
     0
 10
690.83069858695376
 20
18.0
 30
0.0
 11
704.08069858695274
 21
18.0
 31
0.0
  0
LINE
  5
1675
  8
0
 62
     0
 10
912.82318418770285
 20
19.5
 30
0.0
 11
928.83969824162762
 21
19.5
 31
0.0
  0
LINE
  5
1676
  8
0
 62
     0
 10
870.83069858695637
 20
19.5
 30
0.0
 11
886.82792055812945
 21
19.5
 31
0.0
  0
LINE
  5
1677
  8
0
 62
     0
 10
954.82271390372546
 20
19.5
 30
0.0
 11
968.08069858695671
 21
19.5
 31
0.0
  0
LINE
  5
1678
  8
0
 62
     0
 10
831.58069858695671
 20
19.5
 30
0.0
 11
844.83069858695546
 21
19.5
 31
0.0
  0
LINE
  5
1679
  8
0
 62
     0
 10
972.33069858695387
 20
19.5
 30
0.0
 11
985.58069858695274
 21
19.5
 31
0.0
  0
LINE
  5
167A
  8
0
 62
     0
 10
814.07271390372273
 20
19.5
 30
0.0
 11
827.33069858695376
 21
19.5
 31
0.0
  0
LINE
  5
167B
  8
0
 62
     0
 10
1011.580698586953
 20
19.5
 30
0.0
 11
1027.5779205581271
 21
19.5
 31
0.0
  0
LINE
  5
167C
  8
0
 62
     0
 10
772.07318418770012
 20
19.5
 30
0.0
 11
788.089698241625
 21
19.5
 31
0.0
  0
LINE
  5
167D
  8
0
 62
     0
 10
1053.5731841877
 20
19.5
 30
0.0
 11
1069.589698241625
 21
19.5
 31
0.0
  0
LINE
  5
167E
  8
0
 62
     0
 10
730.08069858695364
 20
19.5
 30
0.0
 11
746.07792055812695
 21
19.5
 31
0.0
  0
LINE
  5
167F
  8
0
 62
     0
 10
1095.5727139037219
 20
19.5
 30
0.0
 11
1108.830698586954
 21
19.5
 31
0.0
  0
LINE
  5
1680
  8
0
 62
     0
 10
690.83069858695376
 20
19.5
 30
0.0
 11
704.08069858695274
 21
19.5
 31
0.0
  0
LINE
  5
1681
  8
0
 62
     0
 10
912.82318418770285
 20
21.0
 30
0.0
 11
928.83969824162762
 21
21.0
 31
0.0
  0
LINE
  5
1682
  8
0
 62
     0
 10
870.83069858695637
 20
21.0
 30
0.0
 11
886.82792055812945
 21
21.0
 31
0.0
  0
LINE
  5
1683
  8
0
 62
     0
 10
954.82271390372546
 20
21.0
 30
0.0
 11
968.08069858695671
 21
21.0
 31
0.0
  0
LINE
  5
1684
  8
0
 62
     0
 10
831.58069858695671
 20
21.0
 30
0.0
 11
844.83069858695546
 21
21.0
 31
0.0
  0
LINE
  5
1685
  8
0
 62
     0
 10
972.33069858695376
 20
21.0
 30
0.0
 11
985.58069858695274
 21
21.0
 31
0.0
  0
LINE
  5
1686
  8
0
 62
     0
 10
814.07271390372273
 20
21.0
 30
0.0
 11
827.33069858695364
 21
21.0
 31
0.0
  0
LINE
  5
1687
  8
0
 62
     0
 10
1011.580698586953
 20
21.0
 30
0.0
 11
1027.5779205581271
 21
21.0
 31
0.0
  0
LINE
  5
1688
  8
0
 62
     0
 10
772.07318418770012
 20
21.0
 30
0.0
 11
788.089698241625
 21
21.0
 31
0.0
  0
LINE
  5
1689
  8
0
 62
     0
 10
1053.5731841877
 20
21.0
 30
0.0
 11
1069.589698241625
 21
21.0
 31
0.0
  0
LINE
  5
168A
  8
0
 62
     0
 10
730.08069858695364
 20
21.0
 30
0.0
 11
746.07792055812695
 21
21.0
 31
0.0
  0
LINE
  5
168B
  8
0
 62
     0
 10
1095.5727139037219
 20
21.0
 30
0.0
 11
1108.830698586954
 21
21.0
 31
0.0
  0
LINE
  5
168C
  8
0
 62
     0
 10
690.83069858695364
 20
21.0
 30
0.0
 11
704.08069858695274
 21
21.0
 31
0.0
  0
LINE
  5
168D
  8
0
 62
     0
 10
912.82318418770285
 20
22.5
 30
0.0
 11
928.83969824162762
 21
22.5
 31
0.0
  0
LINE
  5
168E
  8
0
 62
     0
 10
870.83069858695637
 20
22.5
 30
0.0
 11
886.82792055812945
 21
22.5
 31
0.0
  0
LINE
  5
168F
  8
0
 62
     0
 10
954.82271390372546
 20
22.5
 30
0.0
 11
968.08069858695671
 21
22.5
 31
0.0
  0
LINE
  5
1690
  8
0
 62
     0
 10
831.58069858695671
 20
22.5
 30
0.0
 11
844.83069858695546
 21
22.5
 31
0.0
  0
LINE
  5
1691
  8
0
 62
     0
 10
972.33069858695376
 20
22.5
 30
0.0
 11
985.58069858695274
 21
22.5
 31
0.0
  0
LINE
  5
1692
  8
0
 62
     0
 10
814.07271390372273
 20
22.5
 30
0.0
 11
827.33069858695364
 21
22.5
 31
0.0
  0
LINE
  5
1693
  8
0
 62
     0
 10
1011.580698586953
 20
22.5
 30
0.0
 11
1027.5779205581271
 21
22.5
 31
0.0
  0
LINE
  5
1694
  8
0
 62
     0
 10
772.07318418770012
 20
22.5
 30
0.0
 11
788.089698241625
 21
22.5
 31
0.0
  0
LINE
  5
1695
  8
0
 62
     0
 10
1053.5731841877
 20
22.5
 30
0.0
 11
1069.589698241625
 21
22.5
 31
0.0
  0
LINE
  5
1696
  8
0
 62
     0
 10
730.08069858695364
 20
22.5
 30
0.0
 11
746.07792055812695
 21
22.5
 31
0.0
  0
LINE
  5
1697
  8
0
 62
     0
 10
1095.5727139037219
 20
22.5
 30
0.0
 11
1108.830698586954
 21
22.5
 31
0.0
  0
LINE
  5
1698
  8
0
 62
     0
 10
690.83069858695364
 20
22.5
 30
0.0
 11
704.08069858695274
 21
22.5
 31
0.0
  0
LINE
  5
1699
  8
0
 62
     0
 10
912.82318418770285
 20
24.0
 30
0.0
 11
928.83969824162762
 21
24.0
 31
0.0
  0
LINE
  5
169A
  8
0
 62
     0
 10
870.83069858695637
 20
24.0
 30
0.0
 11
886.82792055812945
 21
24.0
 31
0.0
  0
LINE
  5
169B
  8
0
 62
     0
 10
954.82271390372546
 20
24.0
 30
0.0
 11
968.08069858695671
 21
24.0
 31
0.0
  0
LINE
  5
169C
  8
0
 62
     0
 10
831.58069858695671
 20
24.0
 30
0.0
 11
844.83069858695546
 21
24.0
 31
0.0
  0
LINE
  5
169D
  8
0
 62
     0
 10
972.33069858695376
 20
24.0
 30
0.0
 11
985.58069858695274
 21
24.0
 31
0.0
  0
LINE
  5
169E
  8
0
 62
     0
 10
814.07271390372273
 20
24.0
 30
0.0
 11
827.33069858695364
 21
24.0
 31
0.0
  0
LINE
  5
169F
  8
0
 62
     0
 10
1011.580698586953
 20
24.0
 30
0.0
 11
1027.5779205581271
 21
24.0
 31
0.0
  0
LINE
  5
16A0
  8
0
 62
     0
 10
772.07318418770012
 20
24.0
 30
0.0
 11
788.089698241625
 21
24.0
 31
0.0
  0
LINE
  5
16A1
  8
0
 62
     0
 10
1053.5731841877
 20
24.0
 30
0.0
 11
1069.589698241625
 21
24.0
 31
0.0
  0
LINE
  5
16A2
  8
0
 62
     0
 10
730.08069858695364
 20
24.0
 30
0.0
 11
746.07792055812695
 21
24.0
 31
0.0
  0
LINE
  5
16A3
  8
0
 62
     0
 10
1095.5727139037219
 20
24.0
 30
0.0
 11
1108.830698586954
 21
24.0
 31
0.0
  0
LINE
  5
16A4
  8
0
 62
     0
 10
690.83069858695364
 20
24.0
 30
0.0
 11
704.08069858695274
 21
24.0
 31
0.0
  0
LINE
  5
16A5
  8
0
 62
     0
 10
912.82318418770285
 20
25.5
 30
0.0
 11
928.83969824162762
 21
25.5
 31
0.0
  0
LINE
  5
16A6
  8
0
 62
     0
 10
870.83069858695637
 20
25.5
 30
0.0
 11
886.82792055812945
 21
25.5
 31
0.0
  0
LINE
  5
16A7
  8
0
 62
     0
 10
954.82271390372546
 20
25.5
 30
0.0
 11
968.08069858695671
 21
25.5
 31
0.0
  0
LINE
  5
16A8
  8
0
 62
     0
 10
831.58069858695671
 20
25.5
 30
0.0
 11
844.83069858695546
 21
25.5
 31
0.0
  0
LINE
  5
16A9
  8
0
 62
     0
 10
972.33069858695376
 20
25.5
 30
0.0
 11
985.58069858695274
 21
25.5
 31
0.0
  0
LINE
  5
16AA
  8
0
 62
     0
 10
814.07271390372273
 20
25.5
 30
0.0
 11
827.33069858695364
 21
25.5
 31
0.0
  0
LINE
  5
16AB
  8
0
 62
     0
 10
1011.580698586953
 20
25.5
 30
0.0
 11
1027.5779205581271
 21
25.5
 31
0.0
  0
LINE
  5
16AC
  8
0
 62
     0
 10
772.07318418770012
 20
25.5
 30
0.0
 11
788.089698241625
 21
25.5
 31
0.0
  0
LINE
  5
16AD
  8
0
 62
     0
 10
1053.5731841877
 20
25.5
 30
0.0
 11
1069.589698241625
 21
25.5
 31
0.0
  0
LINE
  5
16AE
  8
0
 62
     0
 10
730.08069858695364
 20
25.5
 30
0.0
 11
746.07792055812695
 21
25.5
 31
0.0
  0
LINE
  5
16AF
  8
0
 62
     0
 10
1095.5727139037219
 20
25.5
 30
0.0
 11
1108.830698586954
 21
25.5
 31
0.0
  0
LINE
  5
16B0
  8
0
 62
     0
 10
690.83069858695364
 20
25.5
 30
0.0
 11
704.08069858695274
 21
25.5
 31
0.0
  0
LINE
  5
16B1
  8
0
 62
     0
 10
912.82318418770285
 20
27.0
 30
0.0
 11
928.83969824162762
 21
27.0
 31
0.0
  0
LINE
  5
16B2
  8
0
 62
     0
 10
870.83069858695637
 20
27.0
 30
0.0
 11
886.82792055812945
 21
27.0
 31
0.0
  0
LINE
  5
16B3
  8
0
 62
     0
 10
954.82271390372546
 20
27.0
 30
0.0
 11
968.08069858695671
 21
27.0
 31
0.0
  0
LINE
  5
16B4
  8
0
 62
     0
 10
831.58069858695671
 20
27.0
 30
0.0
 11
844.83069858695546
 21
27.0
 31
0.0
  0
LINE
  5
16B5
  8
0
 62
     0
 10
972.33069858695376
 20
27.0
 30
0.0
 11
985.58069858695274
 21
27.0
 31
0.0
  0
LINE
  5
16B6
  8
0
 62
     0
 10
814.07271390372273
 20
27.0
 30
0.0
 11
827.33069858695364
 21
27.0
 31
0.0
  0
LINE
  5
16B7
  8
0
 62
     0
 10
1011.580698586953
 20
27.0
 30
0.0
 11
1027.5779205581271
 21
27.0
 31
0.0
  0
LINE
  5
16B8
  8
0
 62
     0
 10
772.07318418770012
 20
27.0
 30
0.0
 11
788.089698241625
 21
27.0
 31
0.0
  0
LINE
  5
16B9
  8
0
 62
     0
 10
1053.5731841877
 20
27.0
 30
0.0
 11
1069.589698241625
 21
27.0
 31
0.0
  0
LINE
  5
16BA
  8
0
 62
     0
 10
730.08069858695364
 20
27.0
 30
0.0
 11
746.07792055812695
 21
27.0
 31
0.0
  0
LINE
  5
16BB
  8
0
 62
     0
 10
1095.5727139037219
 20
27.0
 30
0.0
 11
1108.830698586954
 21
27.0
 31
0.0
  0
LINE
  5
16BC
  8
0
 62
     0
 10
690.83069858695364
 20
27.0
 30
0.0
 11
704.08069858695274
 21
27.0
 31
0.0
  0
LINE
  5
16BD
  8
0
 62
     0
 10
912.82318418770285
 20
28.5
 30
0.0
 11
928.83969824162762
 21
28.5
 31
0.0
  0
LINE
  5
16BE
  8
0
 62
     0
 10
870.83069858695637
 20
28.5
 30
0.0
 11
886.82792055812945
 21
28.5
 31
0.0
  0
LINE
  5
16BF
  8
0
 62
     0
 10
954.82271390372546
 20
28.5
 30
0.0
 11
968.08069858695671
 21
28.5
 31
0.0
  0
LINE
  5
16C0
  8
0
 62
     0
 10
831.58069858695671
 20
28.5
 30
0.0
 11
844.83069858695546
 21
28.5
 31
0.0
  0
LINE
  5
16C1
  8
0
 62
     0
 10
972.33069858695376
 20
28.5
 30
0.0
 11
985.58069858695274
 21
28.5
 31
0.0
  0
LINE
  5
16C2
  8
0
 62
     0
 10
814.07271390372273
 20
28.5
 30
0.0
 11
827.33069858695364
 21
28.5
 31
0.0
  0
LINE
  5
16C3
  8
0
 62
     0
 10
1011.580698586953
 20
28.5
 30
0.0
 11
1027.5779205581271
 21
28.5
 31
0.0
  0
LINE
  5
16C4
  8
0
 62
     0
 10
772.07318418770012
 20
28.5
 30
0.0
 11
788.089698241625
 21
28.5
 31
0.0
  0
LINE
  5
16C5
  8
0
 62
     0
 10
1053.5731841877
 20
28.5
 30
0.0
 11
1069.589698241625
 21
28.5
 31
0.0
  0
LINE
  5
16C6
  8
0
 62
     0
 10
730.08069858695364
 20
28.5
 30
0.0
 11
746.07792055812695
 21
28.5
 31
0.0
  0
LINE
  5
16C7
  8
0
 62
     0
 10
1095.5727139037219
 20
28.5
 30
0.0
 11
1108.830698586954
 21
28.5
 31
0.0
  0
LINE
  5
16C8
  8
0
 62
     0
 10
690.83069858695364
 20
28.5
 30
0.0
 11
704.08069858695274
 21
28.5
 31
0.0
  0
LINE
  5
16C9
  8
0
 62
     0
 10
912.82318418770285
 20
30.0
 30
0.0
 11
928.83969824162762
 21
30.0
 31
0.0
  0
LINE
  5
16CA
  8
0
 62
     0
 10
870.83069858695637
 20
30.0
 30
0.0
 11
886.82792055812945
 21
30.0
 31
0.0
  0
LINE
  5
16CB
  8
0
 62
     0
 10
954.82271390372546
 20
30.0
 30
0.0
 11
968.08069858695671
 21
30.0
 31
0.0
  0
LINE
  5
16CC
  8
0
 62
     0
 10
831.58069858695671
 20
30.0
 30
0.0
 11
844.83069858695546
 21
30.0
 31
0.0
  0
LINE
  5
16CD
  8
0
 62
     0
 10
972.33069858695376
 20
30.0
 30
0.0
 11
985.58069858695274
 21
30.0
 31
0.0
  0
LINE
  5
16CE
  8
0
 62
     0
 10
814.07271390372273
 20
30.0
 30
0.0
 11
827.33069858695364
 21
30.0
 31
0.0
  0
LINE
  5
16CF
  8
0
 62
     0
 10
1011.580698586953
 20
30.0
 30
0.0
 11
1027.5779205581271
 21
30.0
 31
0.0
  0
LINE
  5
16D0
  8
0
 62
     0
 10
772.07318418770012
 20
30.0
 30
0.0
 11
788.089698241625
 21
30.0
 31
0.0
  0
LINE
  5
16D1
  8
0
 62
     0
 10
1053.5731841877
 20
30.0
 30
0.0
 11
1069.589698241625
 21
30.0
 31
0.0
  0
LINE
  5
16D2
  8
0
 62
     0
 10
730.08069858695364
 20
30.0
 30
0.0
 11
746.07792055812695
 21
30.0
 31
0.0
  0
LINE
  5
16D3
  8
0
 62
     0
 10
1095.5727139037219
 20
30.0
 30
0.0
 11
1108.830698586954
 21
30.0
 31
0.0
  0
LINE
  5
16D4
  8
0
 62
     0
 10
690.83069858695364
 20
30.0
 30
0.0
 11
704.08069858695274
 21
30.0
 31
0.0
  0
LINE
  5
16D5
  8
0
 62
     0
 10
912.82318418770285
 20
31.5
 30
0.0
 11
928.83969824162762
 21
31.5
 31
0.0
  0
LINE
  5
16D6
  8
0
 62
     0
 10
870.83069858695637
 20
31.5
 30
0.0
 11
886.82792055812945
 21
31.5
 31
0.0
  0
LINE
  5
16D7
  8
0
 62
     0
 10
954.82271390372546
 20
31.5
 30
0.0
 11
968.08069858695671
 21
31.5
 31
0.0
  0
LINE
  5
16D8
  8
0
 62
     0
 10
831.58069858695671
 20
31.5
 30
0.0
 11
844.83069858695546
 21
31.5
 31
0.0
  0
LINE
  5
16D9
  8
0
 62
     0
 10
972.33069858695364
 20
31.5
 30
0.0
 11
985.58069858695274
 21
31.5
 31
0.0
  0
LINE
  5
16DA
  8
0
 62
     0
 10
814.07271390372273
 20
31.5
 30
0.0
 11
827.33069858695364
 21
31.5
 31
0.0
  0
LINE
  5
16DB
  8
0
 62
     0
 10
1011.580698586953
 20
31.5
 30
0.0
 11
1027.5779205581271
 21
31.5
 31
0.0
  0
LINE
  5
16DC
  8
0
 62
     0
 10
772.07318418770012
 20
31.5
 30
0.0
 11
788.089698241625
 21
31.5
 31
0.0
  0
LINE
  5
16DD
  8
0
 62
     0
 10
1053.5731841877
 20
31.5
 30
0.0
 11
1069.589698241625
 21
31.5
 31
0.0
  0
LINE
  5
16DE
  8
0
 62
     0
 10
730.08069858695364
 20
31.5
 30
0.0
 11
746.07792055812695
 21
31.5
 31
0.0
  0
LINE
  5
16DF
  8
0
 62
     0
 10
1095.5727139037219
 20
31.5
 30
0.0
 11
1108.830698586954
 21
31.5
 31
0.0
  0
LINE
  5
16E0
  8
0
 62
     0
 10
690.83069858695364
 20
31.5
 30
0.0
 11
704.08069858695274
 21
31.5
 31
0.0
  0
LINE
  5
16E1
  8
0
 62
     0
 10
912.82318418770285
 20
33.0
 30
0.0
 11
928.83969824162762
 21
33.0
 31
0.0
  0
LINE
  5
16E2
  8
0
 62
     0
 10
870.83069858695637
 20
33.0
 30
0.0
 11
886.82792055812945
 21
33.0
 31
0.0
  0
LINE
  5
16E3
  8
0
 62
     0
 10
954.82271390372546
 20
33.0
 30
0.0
 11
968.08069858695671
 21
33.0
 31
0.0
  0
LINE
  5
16E4
  8
0
 62
     0
 10
831.58069858695671
 20
33.0
 30
0.0
 11
844.83069858695546
 21
33.0
 31
0.0
  0
LINE
  5
16E5
  8
0
 62
     0
 10
972.33069858695364
 20
33.0
 30
0.0
 11
985.58069858695274
 21
33.0
 31
0.0
  0
LINE
  5
16E6
  8
0
 62
     0
 10
814.07271390372273
 20
33.0
 30
0.0
 11
827.33069858695364
 21
33.0
 31
0.0
  0
LINE
  5
16E7
  8
0
 62
     0
 10
1011.580698586953
 20
33.0
 30
0.0
 11
1027.5779205581271
 21
33.0
 31
0.0
  0
LINE
  5
16E8
  8
0
 62
     0
 10
772.07318418770012
 20
33.0
 30
0.0
 11
788.089698241625
 21
33.0
 31
0.0
  0
LINE
  5
16E9
  8
0
 62
     0
 10
1053.5731841877
 20
33.0
 30
0.0
 11
1069.589698241625
 21
33.0
 31
0.0
  0
LINE
  5
16EA
  8
0
 62
     0
 10
730.08069858695364
 20
33.0
 30
0.0
 11
746.07792055812695
 21
33.0
 31
0.0
  0
LINE
  5
16EB
  8
0
 62
     0
 10
1095.5727139037219
 20
33.0
 30
0.0
 11
1108.830698586954
 21
33.0
 31
0.0
  0
LINE
  5
16EC
  8
0
 62
     0
 10
690.83069858695364
 20
33.0
 30
0.0
 11
704.08069858695274
 21
33.0
 31
0.0
  0
LINE
  5
16ED
  8
0
 62
     0
 10
912.82318418770285
 20
34.5
 30
0.0
 11
928.83969824162762
 21
34.5
 31
0.0
  0
LINE
  5
16EE
  8
0
 62
     0
 10
870.83069858695637
 20
34.5
 30
0.0
 11
886.82792055812945
 21
34.5
 31
0.0
  0
LINE
  5
16EF
  8
0
 62
     0
 10
954.82271390372546
 20
34.5
 30
0.0
 11
968.0806985869566
 21
34.5
 31
0.0
  0
LINE
  5
16F0
  8
0
 62
     0
 10
831.58069858695649
 20
34.5
 30
0.0
 11
844.83069858695546
 21
34.5
 31
0.0
  0
LINE
  5
16F1
  8
0
 62
     0
 10
972.33069858695364
 20
34.5
 30
0.0
 11
985.58069858695274
 21
34.5
 31
0.0
  0
LINE
  5
16F2
  8
0
 62
     0
 10
814.07271390372273
 20
34.5
 30
0.0
 11
827.33069858695364
 21
34.5
 31
0.0
  0
LINE
  5
16F3
  8
0
 62
     0
 10
1011.580698586953
 20
34.5
 30
0.0
 11
1027.5779205581271
 21
34.5
 31
0.0
  0
LINE
  5
16F4
  8
0
 62
     0
 10
772.07318418770012
 20
34.5
 30
0.0
 11
788.089698241625
 21
34.5
 31
0.0
  0
LINE
  5
16F5
  8
0
 62
     0
 10
1053.5731841877
 20
34.5
 30
0.0
 11
1069.589698241625
 21
34.5
 31
0.0
  0
LINE
  5
16F6
  8
0
 62
     0
 10
730.08069858695364
 20
34.5
 30
0.0
 11
746.07792055812695
 21
34.5
 31
0.0
  0
LINE
  5
16F7
  8
0
 62
     0
 10
1095.5727139037219
 20
34.5
 30
0.0
 11
1108.830698586954
 21
34.5
 31
0.0
  0
LINE
  5
16F8
  8
0
 62
     0
 10
690.83069858695364
 20
34.5
 30
0.0
 11
704.08069858695274
 21
34.5
 31
0.0
  0
LINE
  5
16F9
  8
0
 62
     0
 10
912.82318418770285
 20
36.0
 30
0.0
 11
928.83969824162762
 21
36.0
 31
0.0
  0
LINE
  5
16FA
  8
0
 62
     0
 10
870.83069858695637
 20
36.0
 30
0.0
 11
886.82792055812945
 21
36.0
 31
0.0
  0
LINE
  5
16FB
  8
0
 62
     0
 10
954.82271390372546
 20
36.0
 30
0.0
 11
968.0806985869566
 21
36.0
 31
0.0
  0
LINE
  5
16FC
  8
0
 62
     0
 10
831.58069858695649
 20
36.0
 30
0.0
 11
844.83069858695546
 21
36.0
 31
0.0
  0
LINE
  5
16FD
  8
0
 62
     0
 10
972.33069858695364
 20
36.0
 30
0.0
 11
985.58069858695274
 21
36.0
 31
0.0
  0
LINE
  5
16FE
  8
0
 62
     0
 10
814.07271390372273
 20
36.0
 30
0.0
 11
827.33069858695364
 21
36.0
 31
0.0
  0
LINE
  5
16FF
  8
0
 62
     0
 10
1011.580698586953
 20
36.0
 30
0.0
 11
1027.5779205581271
 21
36.0
 31
0.0
  0
LINE
  5
1700
  8
0
 62
     0
 10
772.07318418770012
 20
36.0
 30
0.0
 11
788.089698241625
 21
36.0
 31
0.0
  0
LINE
  5
1701
  8
0
 62
     0
 10
1053.5731841877
 20
36.0
 30
0.0
 11
1069.589698241625
 21
36.0
 31
0.0
  0
LINE
  5
1702
  8
0
 62
     0
 10
730.08069858695364
 20
36.0
 30
0.0
 11
746.07792055812695
 21
36.0
 31
0.0
  0
LINE
  5
1703
  8
0
 62
     0
 10
1095.5727139037219
 20
36.0
 30
0.0
 11
1108.830698586954
 21
36.0
 31
0.0
  0
LINE
  5
1704
  8
0
 62
     0
 10
690.83069858695364
 20
36.0
 30
0.0
 11
704.08069858695274
 21
36.0
 31
0.0
  0
LINE
  5
1705
  8
0
 62
     0
 10
912.82318418770285
 20
37.5
 30
0.0
 11
928.83969824162762
 21
37.5
 31
0.0
  0
LINE
  5
1706
  8
0
 62
     0
 10
870.83069858695637
 20
37.5
 30
0.0
 11
886.82792055812945
 21
37.5
 31
0.0
  0
LINE
  5
1707
  8
0
 62
     0
 10
954.82271390372546
 20
37.5
 30
0.0
 11
968.0806985869566
 21
37.5
 31
0.0
  0
LINE
  5
1708
  8
0
 62
     0
 10
831.58069858695649
 20
37.5
 30
0.0
 11
844.83069858695546
 21
37.5
 31
0.0
  0
LINE
  5
1709
  8
0
 62
     0
 10
972.33069858695364
 20
37.5
 30
0.0
 11
985.58069858695274
 21
37.5
 31
0.0
  0
LINE
  5
170A
  8
0
 62
     0
 10
814.07271390372273
 20
37.5
 30
0.0
 11
827.33069858695364
 21
37.5
 31
0.0
  0
LINE
  5
170B
  8
0
 62
     0
 10
1011.580698586953
 20
37.5
 30
0.0
 11
1027.5779205581271
 21
37.5
 31
0.0
  0
LINE
  5
170C
  8
0
 62
     0
 10
772.07318418770012
 20
37.5
 30
0.0
 11
788.089698241625
 21
37.5
 31
0.0
  0
LINE
  5
170D
  8
0
 62
     0
 10
1053.5731841877
 20
37.5
 30
0.0
 11
1069.589698241625
 21
37.5
 31
0.0
  0
LINE
  5
170E
  8
0
 62
     0
 10
730.08069858695364
 20
37.5
 30
0.0
 11
746.07792055812695
 21
37.5
 31
0.0
  0
LINE
  5
170F
  8
0
 62
     0
 10
1095.5727139037219
 20
37.5
 30
0.0
 11
1108.830698586954
 21
37.5
 31
0.0
  0
LINE
  5
1710
  8
0
 62
     0
 10
690.83069858695364
 20
37.5
 30
0.0
 11
704.08069858695274
 21
37.5
 31
0.0
  0
LINE
  5
1711
  8
0
 62
     0
 10
912.82318418770285
 20
39.0
 30
0.0
 11
928.83969824162762
 21
39.0
 31
0.0
  0
LINE
  5
1712
  8
0
 62
     0
 10
870.83069858695637
 20
39.0
 30
0.0
 11
886.82792055812945
 21
39.0
 31
0.0
  0
LINE
  5
1713
  8
0
 62
     0
 10
954.82271390372546
 20
39.0
 30
0.0
 11
968.0806985869566
 21
39.0
 31
0.0
  0
LINE
  5
1714
  8
0
 62
     0
 10
831.58069858695649
 20
39.0
 30
0.0
 11
844.83069858695546
 21
39.0
 31
0.0
  0
LINE
  5
1715
  8
0
 62
     0
 10
972.33069858695364
 20
39.0
 30
0.0
 11
985.58069858695274
 21
39.0
 31
0.0
  0
LINE
  5
1716
  8
0
 62
     0
 10
814.07271390372273
 20
39.0
 30
0.0
 11
827.33069858695364
 21
39.0
 31
0.0
  0
LINE
  5
1717
  8
0
 62
     0
 10
1011.580698586953
 20
39.0
 30
0.0
 11
1027.5779205581271
 21
39.0
 31
0.0
  0
LINE
  5
1718
  8
0
 62
     0
 10
772.07318418770012
 20
39.0
 30
0.0
 11
788.089698241625
 21
39.0
 31
0.0
  0
LINE
  5
1719
  8
0
 62
     0
 10
1053.5731841877
 20
39.0
 30
0.0
 11
1069.589698241625
 21
39.0
 31
0.0
  0
LINE
  5
171A
  8
0
 62
     0
 10
730.08069858695364
 20
39.0
 30
0.0
 11
746.07792055812695
 21
39.0
 31
0.0
  0
LINE
  5
171B
  8
0
 62
     0
 10
1095.5727139037219
 20
39.0
 30
0.0
 11
1108.830698586954
 21
39.0
 31
0.0
  0
LINE
  5
171C
  8
0
 62
     0
 10
690.83069858695364
 20
39.0
 30
0.0
 11
704.08069858695274
 21
39.0
 31
0.0
  0
LINE
  5
171D
  8
0
 62
     0
 10
912.82318418770285
 20
40.499999999999993
 30
0.0
 11
928.83969824162762
 21
40.499999999999993
 31
0.0
  0
LINE
  5
171E
  8
0
 62
     0
 10
870.83069858695637
 20
40.499999999999993
 30
0.0
 11
886.82792055812945
 21
40.499999999999993
 31
0.0
  0
LINE
  5
171F
  8
0
 62
     0
 10
954.82271390372546
 20
40.499999999999993
 30
0.0
 11
968.0806985869566
 21
40.499999999999993
 31
0.0
  0
LINE
  5
1720
  8
0
 62
     0
 10
831.58069858695649
 20
40.499999999999993
 30
0.0
 11
844.83069858695546
 21
40.499999999999993
 31
0.0
  0
LINE
  5
1721
  8
0
 62
     0
 10
972.33069858695364
 20
40.499999999999993
 30
0.0
 11
985.58069858695274
 21
40.499999999999993
 31
0.0
  0
LINE
  5
1722
  8
0
 62
     0
 10
814.07271390372273
 20
40.499999999999993
 30
0.0
 11
827.33069858695364
 21
40.499999999999993
 31
0.0
  0
LINE
  5
1723
  8
0
 62
     0
 10
1011.580698586953
 20
40.499999999999993
 30
0.0
 11
1027.5779205581271
 21
40.499999999999993
 31
0.0
  0
LINE
  5
1724
  8
0
 62
     0
 10
772.07318418770012
 20
40.499999999999993
 30
0.0
 11
788.089698241625
 21
40.499999999999993
 31
0.0
  0
LINE
  5
1725
  8
0
 62
     0
 10
1053.5731841877
 20
40.499999999999993
 30
0.0
 11
1069.589698241625
 21
40.499999999999993
 31
0.0
  0
LINE
  5
1726
  8
0
 62
     0
 10
730.08069858695364
 20
40.499999999999993
 30
0.0
 11
746.07792055812695
 21
40.499999999999993
 31
0.0
  0
LINE
  5
1727
  8
0
 62
     0
 10
1095.5727139037219
 20
40.499999999999993
 30
0.0
 11
1108.8306985869531
 21
40.499999999999993
 31
0.0
  0
LINE
  5
1728
  8
0
 62
     0
 10
690.83069858695364
 20
40.499999999999993
 30
0.0
 11
704.08069858695274
 21
40.499999999999993
 31
0.0
  0
LINE
  5
1729
  8
0
 62
     0
 10
912.82318418770285
 20
42.0
 30
0.0
 11
928.83969824162762
 21
42.0
 31
0.0
  0
LINE
  5
172A
  8
0
 62
     0
 10
870.83069858695637
 20
42.0
 30
0.0
 11
886.82792055812945
 21
42.0
 31
0.0
  0
LINE
  5
172B
  8
0
 62
     0
 10
954.82271390372546
 20
42.0
 30
0.0
 11
968.0806985869566
 21
42.0
 31
0.0
  0
LINE
  5
172C
  8
0
 62
     0
 10
831.58069858695649
 20
42.0
 30
0.0
 11
844.83069858695546
 21
42.0
 31
0.0
  0
LINE
  5
172D
  8
0
 62
     0
 10
972.33069858695364
 20
42.0
 30
0.0
 11
985.58069858695274
 21
42.0
 31
0.0
  0
LINE
  5
172E
  8
0
 62
     0
 10
814.07271390372273
 20
42.0
 30
0.0
 11
827.33069858695353
 21
42.0
 31
0.0
  0
LINE
  5
172F
  8
0
 62
     0
 10
1011.580698586953
 20
42.0
 30
0.0
 11
1027.5779205581271
 21
42.0
 31
0.0
  0
LINE
  5
1730
  8
0
 62
     0
 10
772.07318418770012
 20
42.0
 30
0.0
 11
788.089698241625
 21
42.0
 31
0.0
  0
LINE
  5
1731
  8
0
 62
     0
 10
1053.5731841877
 20
42.0
 30
0.0
 11
1069.589698241625
 21
42.0
 31
0.0
  0
LINE
  5
1732
  8
0
 62
     0
 10
730.08069858695364
 20
42.0
 30
0.0
 11
746.07792055812695
 21
42.0
 31
0.0
  0
LINE
  5
1733
  8
0
 62
     0
 10
1095.5727139037219
 20
42.0
 30
0.0
 11
1108.8306985869531
 21
42.0
 31
0.0
  0
LINE
  5
1734
  8
0
 62
     0
 10
690.83069858695353
 20
42.0
 30
0.0
 11
704.08069858695274
 21
42.0
 31
0.0
  0
LINE
  5
1735
  8
0
 62
     0
 10
912.82318418770285
 20
43.5
 30
0.0
 11
928.83969824162762
 21
43.5
 31
0.0
  0
LINE
  5
1736
  8
0
 62
     0
 10
870.83069858695637
 20
43.5
 30
0.0
 11
886.82792055812945
 21
43.5
 31
0.0
  0
LINE
  5
1737
  8
0
 62
     0
 10
954.82271390372546
 20
43.5
 30
0.0
 11
968.0806985869566
 21
43.5
 31
0.0
  0
LINE
  5
1738
  8
0
 62
     0
 10
831.58069858695649
 20
43.5
 30
0.0
 11
844.83069858695546
 21
43.5
 31
0.0
  0
LINE
  5
1739
  8
0
 62
     0
 10
972.33069858695364
 20
43.5
 30
0.0
 11
985.58069858695274
 21
43.5
 31
0.0
  0
LINE
  5
173A
  8
0
 62
     0
 10
814.07271390372273
 20
43.5
 30
0.0
 11
827.33069858695353
 21
43.5
 31
0.0
  0
LINE
  5
173B
  8
0
 62
     0
 10
1011.580698586953
 20
43.5
 30
0.0
 11
1027.5779205581271
 21
43.5
 31
0.0
  0
LINE
  5
173C
  8
0
 62
     0
 10
772.07318418770012
 20
43.5
 30
0.0
 11
788.089698241625
 21
43.5
 31
0.0
  0
LINE
  5
173D
  8
0
 62
     0
 10
1053.5731841877
 20
43.5
 30
0.0
 11
1069.589698241625
 21
43.5
 31
0.0
  0
LINE
  5
173E
  8
0
 62
     0
 10
730.08069858695364
 20
43.5
 30
0.0
 11
746.07792055812695
 21
43.5
 31
0.0
  0
LINE
  5
173F
  8
0
 62
     0
 10
1095.5727139037219
 20
43.5
 30
0.0
 11
1108.8306985869531
 21
43.5
 31
0.0
  0
LINE
  5
1740
  8
0
 62
     0
 10
690.83069858695353
 20
43.5
 30
0.0
 11
704.08069858695274
 21
43.5
 31
0.0
  0
LINE
  5
1741
  8
0
 62
     0
 10
912.82318418770285
 20
45.0
 30
0.0
 11
928.83969824162762
 21
45.0
 31
0.0
  0
LINE
  5
1742
  8
0
 62
     0
 10
870.83069858695637
 20
45.0
 30
0.0
 11
886.82792055812945
 21
45.0
 31
0.0
  0
LINE
  5
1743
  8
0
 62
     0
 10
954.82271390372546
 20
45.0
 30
0.0
 11
968.0806985869566
 21
45.0
 31
0.0
  0
LINE
  5
1744
  8
0
 62
     0
 10
831.58069858695649
 20
45.0
 30
0.0
 11
844.83069858695546
 21
45.0
 31
0.0
  0
LINE
  5
1745
  8
0
 62
     0
 10
972.33069858695364
 20
45.0
 30
0.0
 11
985.58069858695274
 21
45.0
 31
0.0
  0
LINE
  5
1746
  8
0
 62
     0
 10
814.07271390372273
 20
45.0
 30
0.0
 11
827.33069858695353
 21
45.0
 31
0.0
  0
LINE
  5
1747
  8
0
 62
     0
 10
1011.580698586953
 20
45.0
 30
0.0
 11
1027.5779205581271
 21
45.0
 31
0.0
  0
LINE
  5
1748
  8
0
 62
     0
 10
772.07318418770012
 20
45.0
 30
0.0
 11
788.089698241625
 21
45.0
 31
0.0
  0
LINE
  5
1749
  8
0
 62
     0
 10
1053.5731841877
 20
45.0
 30
0.0
 11
1069.589698241625
 21
45.0
 31
0.0
  0
LINE
  5
174A
  8
0
 62
     0
 10
730.08069858695364
 20
45.0
 30
0.0
 11
746.07792055812695
 21
45.0
 31
0.0
  0
LINE
  5
174B
  8
0
 62
     0
 10
1095.5727139037219
 20
45.0
 30
0.0
 11
1108.8306985869531
 21
45.0
 31
0.0
  0
LINE
  5
174C
  8
0
 62
     0
 10
690.83069858695353
 20
45.0
 30
0.0
 11
704.08069858695274
 21
45.0
 31
0.0
  0
LINE
  5
174D
  8
0
 62
     0
 10
912.82318418770285
 20
46.5
 30
0.0
 11
928.83969824162762
 21
46.5
 31
0.0
  0
LINE
  5
174E
  8
0
 62
     0
 10
870.83069858695637
 20
46.5
 30
0.0
 11
886.82792055812945
 21
46.5
 31
0.0
  0
LINE
  5
174F
  8
0
 62
     0
 10
954.82271390372546
 20
46.5
 30
0.0
 11
968.08069858695637
 21
46.5
 31
0.0
  0
LINE
  5
1750
  8
0
 62
     0
 10
831.58069858695649
 20
46.5
 30
0.0
 11
844.83069858695546
 21
46.5
 31
0.0
  0
LINE
  5
1751
  8
0
 62
     0
 10
972.33069858695364
 20
46.5
 30
0.0
 11
985.58069858695274
 21
46.5
 31
0.0
  0
LINE
  5
1752
  8
0
 62
     0
 10
814.07271390372273
 20
46.5
 30
0.0
 11
827.33069858695353
 21
46.5
 31
0.0
  0
LINE
  5
1753
  8
0
 62
     0
 10
1011.580698586953
 20
46.5
 30
0.0
 11
1027.5779205581271
 21
46.5
 31
0.0
  0
LINE
  5
1754
  8
0
 62
     0
 10
772.07318418770012
 20
46.5
 30
0.0
 11
788.089698241625
 21
46.5
 31
0.0
  0
LINE
  5
1755
  8
0
 62
     0
 10
1053.5731841877
 20
46.5
 30
0.0
 11
1069.589698241625
 21
46.5
 31
0.0
  0
LINE
  5
1756
  8
0
 62
     0
 10
730.08069858695364
 20
46.5
 30
0.0
 11
746.07792055812695
 21
46.5
 31
0.0
  0
LINE
  5
1757
  8
0
 62
     0
 10
1095.5727139037219
 20
46.5
 30
0.0
 11
1108.8306985869531
 21
46.5
 31
0.0
  0
LINE
  5
1758
  8
0
 62
     0
 10
690.83069858695353
 20
46.5
 30
0.0
 11
704.08069858695274
 21
46.5
 31
0.0
  0
LINE
  5
1759
  8
0
 62
     0
 10
912.82318418770285
 20
48.0
 30
0.0
 11
928.83969824162762
 21
48.0
 31
0.0
  0
LINE
  5
175A
  8
0
 62
     0
 10
870.83069858695637
 20
48.0
 30
0.0
 11
886.82792055812945
 21
48.0
 31
0.0
  0
LINE
  5
175B
  8
0
 62
     0
 10
954.82271390372546
 20
48.0
 30
0.0
 11
968.08069858695637
 21
48.0
 31
0.0
  0
LINE
  5
175C
  8
0
 62
     0
 10
831.58069858695649
 20
48.0
 30
0.0
 11
844.83069858695546
 21
48.0
 31
0.0
  0
LINE
  5
175D
  8
0
 62
     0
 10
972.33069858695364
 20
48.0
 30
0.0
 11
985.58069858695274
 21
48.0
 31
0.0
  0
LINE
  5
175E
  8
0
 62
     0
 10
814.07271390372273
 20
48.0
 30
0.0
 11
827.33069858695353
 21
48.0
 31
0.0
  0
LINE
  5
175F
  8
0
 62
     0
 10
1011.580698586953
 20
48.0
 30
0.0
 11
1027.5779205581271
 21
48.0
 31
0.0
  0
LINE
  5
1760
  8
0
 62
     0
 10
772.07318418770012
 20
48.0
 30
0.0
 11
788.089698241625
 21
48.0
 31
0.0
  0
LINE
  5
1761
  8
0
 62
     0
 10
1053.5731841877
 20
48.0
 30
0.0
 11
1069.589698241625
 21
48.0
 31
0.0
  0
LINE
  5
1762
  8
0
 62
     0
 10
730.08069858695364
 20
48.0
 30
0.0
 11
746.07792055812695
 21
48.0
 31
0.0
  0
LINE
  5
1763
  8
0
 62
     0
 10
1095.5727139037219
 20
48.0
 30
0.0
 11
1108.8306985869531
 21
48.0
 31
0.0
  0
LINE
  5
1764
  8
0
 62
     0
 10
690.83069858695353
 20
48.0
 30
0.0
 11
704.08069858695274
 21
48.0
 31
0.0
  0
LINE
  5
1765
  8
0
 62
     0
 10
912.82318418770285
 20
49.5
 30
0.0
 11
928.83969824162762
 21
49.5
 31
0.0
  0
LINE
  5
1766
  8
0
 62
     0
 10
870.83069858695637
 20
49.5
 30
0.0
 11
886.82792055812945
 21
49.5
 31
0.0
  0
LINE
  5
1767
  8
0
 62
     0
 10
954.82271390372546
 20
49.5
 30
0.0
 11
968.08069858695637
 21
49.5
 31
0.0
  0
LINE
  5
1768
  8
0
 62
     0
 10
831.58069858695649
 20
49.5
 30
0.0
 11
844.83069858695546
 21
49.5
 31
0.0
  0
LINE
  5
1769
  8
0
 62
     0
 10
972.33069858695364
 20
49.5
 30
0.0
 11
985.58069858695274
 21
49.5
 31
0.0
  0
LINE
  5
176A
  8
0
 62
     0
 10
814.07271390372273
 20
49.5
 30
0.0
 11
827.33069858695353
 21
49.5
 31
0.0
  0
LINE
  5
176B
  8
0
 62
     0
 10
1011.580698586953
 20
49.5
 30
0.0
 11
1027.5779205581271
 21
49.5
 31
0.0
  0
LINE
  5
176C
  8
0
 62
     0
 10
772.07318418770012
 20
49.5
 30
0.0
 11
788.089698241625
 21
49.5
 31
0.0
  0
LINE
  5
176D
  8
0
 62
     0
 10
1053.5731841877
 20
49.5
 30
0.0
 11
1069.589698241625
 21
49.5
 31
0.0
  0
LINE
  5
176E
  8
0
 62
     0
 10
730.08069858695364
 20
49.5
 30
0.0
 11
746.07792055812695
 21
49.5
 31
0.0
  0
LINE
  5
176F
  8
0
 62
     0
 10
1095.5727139037219
 20
49.5
 30
0.0
 11
1108.8306985869531
 21
49.5
 31
0.0
  0
LINE
  5
1770
  8
0
 62
     0
 10
690.83069858695353
 20
49.5
 30
0.0
 11
704.08069858695274
 21
49.5
 31
0.0
  0
LINE
  5
1771
  8
0
 62
     0
 10
912.82318418770285
 20
51.0
 30
0.0
 11
928.83969824162762
 21
51.0
 31
0.0
  0
LINE
  5
1772
  8
0
 62
     0
 10
870.83069858695637
 20
51.0
 30
0.0
 11
886.82792055812945
 21
51.0
 31
0.0
  0
LINE
  5
1773
  8
0
 62
     0
 10
954.82271390372546
 20
51.0
 30
0.0
 11
968.08069858695637
 21
51.0
 31
0.0
  0
LINE
  5
1774
  8
0
 62
     0
 10
831.58069858695649
 20
51.0
 30
0.0
 11
844.83069858695546
 21
51.0
 31
0.0
  0
LINE
  5
1775
  8
0
 62
     0
 10
972.33069858695364
 20
51.0
 30
0.0
 11
985.58069858695274
 21
51.0
 31
0.0
  0
LINE
  5
1776
  8
0
 62
     0
 10
814.07271390372273
 20
51.0
 30
0.0
 11
827.33069858695353
 21
51.0
 31
0.0
  0
LINE
  5
1777
  8
0
 62
     0
 10
1011.580698586953
 20
51.0
 30
0.0
 11
1027.5779205581271
 21
51.0
 31
0.0
  0
LINE
  5
1778
  8
0
 62
     0
 10
772.07318418770012
 20
51.0
 30
0.0
 11
788.089698241625
 21
51.0
 31
0.0
  0
LINE
  5
1779
  8
0
 62
     0
 10
1053.5731841877
 20
51.0
 30
0.0
 11
1069.589698241625
 21
51.0
 31
0.0
  0
LINE
  5
177A
  8
0
 62
     0
 10
730.08069858695364
 20
51.0
 30
0.0
 11
746.07792055812695
 21
51.0
 31
0.0
  0
LINE
  5
177B
  8
0
 62
     0
 10
1095.5727139037219
 20
51.0
 30
0.0
 11
1108.8306985869531
 21
51.0
 31
0.0
  0
LINE
  5
177C
  8
0
 62
     0
 10
690.83069858695353
 20
51.0
 30
0.0
 11
704.08069858695274
 21
51.0
 31
0.0
  0
LINE
  5
177D
  8
0
 62
     0
 10
912.82318418770285
 20
52.5
 30
0.0
 11
928.83969824162762
 21
52.5
 31
0.0
  0
LINE
  5
177E
  8
0
 62
     0
 10
870.83069858695637
 20
52.5
 30
0.0
 11
886.82792055812945
 21
52.5
 31
0.0
  0
LINE
  5
177F
  8
0
 62
     0
 10
954.82271390372546
 20
52.5
 30
0.0
 11
968.08069858695637
 21
52.5
 31
0.0
  0
LINE
  5
1780
  8
0
 62
     0
 10
831.58069858695649
 20
52.5
 30
0.0
 11
844.83069858695546
 21
52.5
 31
0.0
  0
LINE
  5
1781
  8
0
 62
     0
 10
972.33069858695342
 20
52.5
 30
0.0
 11
985.58069858695274
 21
52.5
 31
0.0
  0
LINE
  5
1782
  8
0
 62
     0
 10
814.07271390372273
 20
52.5
 30
0.0
 11
827.33069858695353
 21
52.5
 31
0.0
  0
LINE
  5
1783
  8
0
 62
     0
 10
1011.580698586953
 20
52.5
 30
0.0
 11
1027.5779205581271
 21
52.5
 31
0.0
  0
LINE
  5
1784
  8
0
 62
     0
 10
772.07318418770012
 20
52.5
 30
0.0
 11
788.089698241625
 21
52.5
 31
0.0
  0
LINE
  5
1785
  8
0
 62
     0
 10
1053.5731841877
 20
52.5
 30
0.0
 11
1069.589698241625
 21
52.5
 31
0.0
  0
LINE
  5
1786
  8
0
 62
     0
 10
730.08069858695364
 20
52.5
 30
0.0
 11
746.07792055812695
 21
52.5
 31
0.0
  0
LINE
  5
1787
  8
0
 62
     0
 10
1095.5727139037219
 20
52.5
 30
0.0
 11
1108.8306985869531
 21
52.5
 31
0.0
  0
LINE
  5
1788
  8
0
 62
     0
 10
690.83069858695342
 20
52.5
 30
0.0
 11
704.08069858695274
 21
52.5
 31
0.0
  0
LINE
  5
1789
  8
0
 62
     0
 10
912.82318418770285
 20
54.0
 30
0.0
 11
928.83969824162762
 21
54.0
 31
0.0
  0
LINE
  5
178A
  8
0
 62
     0
 10
870.83069858695637
 20
54.0
 30
0.0
 11
886.82792055812945
 21
54.0
 31
0.0
  0
LINE
  5
178B
  8
0
 62
     0
 10
954.82271390372546
 20
54.0
 30
0.0
 11
968.08069858695637
 21
54.0
 31
0.0
  0
LINE
  5
178C
  8
0
 62
     0
 10
831.58069858695649
 20
54.0
 30
0.0
 11
844.83069858695546
 21
54.0
 31
0.0
  0
LINE
  5
178D
  8
0
 62
     0
 10
972.33069858695342
 20
54.0
 30
0.0
 11
985.58069858695274
 21
54.0
 31
0.0
  0
LINE
  5
178E
  8
0
 62
     0
 10
814.07271390372273
 20
54.0
 30
0.0
 11
827.33069858695353
 21
54.0
 31
0.0
  0
LINE
  5
178F
  8
0
 62
     0
 10
1011.580698586953
 20
54.0
 30
0.0
 11
1027.5779205581271
 21
54.0
 31
0.0
  0
LINE
  5
1790
  8
0
 62
     0
 10
772.07318418770012
 20
54.0
 30
0.0
 11
788.089698241625
 21
54.0
 31
0.0
  0
LINE
  5
1791
  8
0
 62
     0
 10
1053.5731841877
 20
54.0
 30
0.0
 11
1069.589698241625
 21
54.0
 31
0.0
  0
LINE
  5
1792
  8
0
 62
     0
 10
730.08069858695364
 20
54.0
 30
0.0
 11
746.07792055812695
 21
54.0
 31
0.0
  0
LINE
  5
1793
  8
0
 62
     0
 10
1095.5727139037219
 20
54.0
 30
0.0
 11
1108.8306985869531
 21
54.0
 31
0.0
  0
LINE
  5
1794
  8
0
 62
     0
 10
690.83069858695342
 20
54.0
 30
0.0
 11
704.08069858695274
 21
54.0
 31
0.0
  0
LINE
  5
1795
  8
0
 62
     0
 10
912.82318418770285
 20
55.5
 30
0.0
 11
928.83969824162762
 21
55.5
 31
0.0
  0
LINE
  5
1796
  8
0
 62
     0
 10
870.83069858695637
 20
55.5
 30
0.0
 11
886.82792055812945
 21
55.5
 31
0.0
  0
LINE
  5
1797
  8
0
 62
     0
 10
954.82271390372546
 20
55.5
 30
0.0
 11
968.08069858695637
 21
55.5
 31
0.0
  0
LINE
  5
1798
  8
0
 62
     0
 10
831.58069858695649
 20
55.5
 30
0.0
 11
844.83069858695546
 21
55.5
 31
0.0
  0
LINE
  5
1799
  8
0
 62
     0
 10
972.33069858695342
 20
55.5
 30
0.0
 11
985.58069858695274
 21
55.5
 31
0.0
  0
LINE
  5
179A
  8
0
 62
     0
 10
814.07271390372273
 20
55.5
 30
0.0
 11
827.33069858695353
 21
55.5
 31
0.0
  0
LINE
  5
179B
  8
0
 62
     0
 10
1011.580698586953
 20
55.5
 30
0.0
 11
1027.5779205581271
 21
55.5
 31
0.0
  0
LINE
  5
179C
  8
0
 62
     0
 10
772.07318418770012
 20
55.5
 30
0.0
 11
788.089698241625
 21
55.5
 31
0.0
  0
LINE
  5
179D
  8
0
 62
     0
 10
1053.5731841877
 20
55.5
 30
0.0
 11
1069.589698241625
 21
55.5
 31
0.0
  0
LINE
  5
179E
  8
0
 62
     0
 10
730.08069858695364
 20
55.5
 30
0.0
 11
746.07792055812695
 21
55.5
 31
0.0
  0
LINE
  5
179F
  8
0
 62
     0
 10
1095.5727139037219
 20
55.5
 30
0.0
 11
1108.8306985869531
 21
55.5
 31
0.0
  0
LINE
  5
17A0
  8
0
 62
     0
 10
690.83069858695342
 20
55.5
 30
0.0
 11
704.08069858695274
 21
55.5
 31
0.0
  0
LINE
  5
17A1
  8
0
 62
     0
 10
912.82318418770285
 20
57.0
 30
0.0
 11
928.83969824162762
 21
57.0
 31
0.0
  0
LINE
  5
17A2
  8
0
 62
     0
 10
870.83069858695637
 20
57.0
 30
0.0
 11
886.82792055812945
 21
57.0
 31
0.0
  0
LINE
  5
17A3
  8
0
 62
     0
 10
954.82271390372546
 20
57.0
 30
0.0
 11
968.08069858695637
 21
57.0
 31
0.0
  0
LINE
  5
17A4
  8
0
 62
     0
 10
831.58069858695649
 20
57.0
 30
0.0
 11
844.83069858695546
 21
57.0
 31
0.0
  0
LINE
  5
17A5
  8
0
 62
     0
 10
972.33069858695342
 20
57.0
 30
0.0
 11
985.58069858695274
 21
57.0
 31
0.0
  0
LINE
  5
17A6
  8
0
 62
     0
 10
814.07271390372273
 20
57.0
 30
0.0
 11
827.33069858695353
 21
57.0
 31
0.0
  0
LINE
  5
17A7
  8
0
 62
     0
 10
1011.580698586953
 20
57.0
 30
0.0
 11
1027.5779205581271
 21
57.0
 31
0.0
  0
LINE
  5
17A8
  8
0
 62
     0
 10
772.07318418770012
 20
57.0
 30
0.0
 11
788.089698241625
 21
57.0
 31
0.0
  0
LINE
  5
17A9
  8
0
 62
     0
 10
1053.5731841877
 20
57.0
 30
0.0
 11
1069.589698241625
 21
57.0
 31
0.0
  0
LINE
  5
17AA
  8
0
 62
     0
 10
730.08069858695364
 20
57.0
 30
0.0
 11
746.07792055812695
 21
57.0
 31
0.0
  0
LINE
  5
17AB
  8
0
 62
     0
 10
1095.5727139037219
 20
57.0
 30
0.0
 11
1108.8306985869531
 21
57.0
 31
0.0
  0
LINE
  5
17AC
  8
0
 62
     0
 10
690.83069858695342
 20
57.0
 30
0.0
 11
704.08069858695274
 21
57.0
 31
0.0
  0
LINE
  5
17AD
  8
0
 62
     0
 10
912.82318418770285
 20
58.5
 30
0.0
 11
928.83969824162762
 21
58.5
 31
0.0
  0
LINE
  5
17AE
  8
0
 62
     0
 10
870.83069858695637
 20
58.5
 30
0.0
 11
886.82792055812945
 21
58.5
 31
0.0
  0
LINE
  5
17AF
  8
0
 62
     0
 10
954.82271390372546
 20
58.5
 30
0.0
 11
968.08069858695637
 21
58.5
 31
0.0
  0
LINE
  5
17B0
  8
0
 62
     0
 10
831.58069858695637
 20
58.5
 30
0.0
 11
844.83069858695546
 21
58.5
 31
0.0
  0
LINE
  5
17B1
  8
0
 62
     0
 10
972.33069858695342
 20
58.5
 30
0.0
 11
985.58069858695274
 21
58.5
 31
0.0
  0
LINE
  5
17B2
  8
0
 62
     0
 10
814.07271390372273
 20
58.5
 30
0.0
 11
827.33069858695353
 21
58.5
 31
0.0
  0
LINE
  5
17B3
  8
0
 62
     0
 10
1011.580698586953
 20
58.5
 30
0.0
 11
1027.5779205581271
 21
58.5
 31
0.0
  0
LINE
  5
17B4
  8
0
 62
     0
 10
772.07318418770012
 20
58.5
 30
0.0
 11
788.089698241625
 21
58.5
 31
0.0
  0
LINE
  5
17B5
  8
0
 62
     0
 10
1053.5731841877
 20
58.5
 30
0.0
 11
1069.589698241625
 21
58.5
 31
0.0
  0
LINE
  5
17B6
  8
0
 62
     0
 10
730.08069858695364
 20
58.5
 30
0.0
 11
746.07792055812695
 21
58.5
 31
0.0
  0
LINE
  5
17B7
  8
0
 62
     0
 10
1095.5727139037219
 20
58.5
 30
0.0
 11
1108.8306985869531
 21
58.5
 31
0.0
  0
LINE
  5
17B8
  8
0
 62
     0
 10
690.83069858695342
 20
58.5
 30
0.0
 11
704.08069858695274
 21
58.5
 31
0.0
  0
LINE
  5
17B9
  8
0
 62
     0
 10
912.82318418770285
 20
60.0
 30
0.0
 11
928.83969824162762
 21
60.0
 31
0.0
  0
LINE
  5
17BA
  8
0
 62
     0
 10
870.83069858695637
 20
60.0
 30
0.0
 11
886.82792055812945
 21
60.0
 31
0.0
  0
LINE
  5
17BB
  8
0
 62
     0
 10
954.82271390372546
 20
60.0
 30
0.0
 11
968.08069858695637
 21
60.0
 31
0.0
  0
LINE
  5
17BC
  8
0
 62
     0
 10
831.58069858695637
 20
60.0
 30
0.0
 11
844.83069858695546
 21
60.0
 31
0.0
  0
LINE
  5
17BD
  8
0
 62
     0
 10
972.33069858695342
 20
60.0
 30
0.0
 11
985.58069858695274
 21
60.0
 31
0.0
  0
LINE
  5
17BE
  8
0
 62
     0
 10
814.07271390372273
 20
60.0
 30
0.0
 11
827.33069858695353
 21
60.0
 31
0.0
  0
LINE
  5
17BF
  8
0
 62
     0
 10
1011.580698586953
 20
60.0
 30
0.0
 11
1027.5779205581271
 21
60.0
 31
0.0
  0
LINE
  5
17C0
  8
0
 62
     0
 10
772.07318418770012
 20
60.0
 30
0.0
 11
788.089698241625
 21
60.0
 31
0.0
  0
LINE
  5
17C1
  8
0
 62
     0
 10
1053.5731841877
 20
60.0
 30
0.0
 11
1069.589698241625
 21
60.0
 31
0.0
  0
LINE
  5
17C2
  8
0
 62
     0
 10
730.08069858695364
 20
60.0
 30
0.0
 11
746.07792055812695
 21
60.0
 31
0.0
  0
LINE
  5
17C3
  8
0
 62
     0
 10
1095.5727139037219
 20
60.0
 30
0.0
 11
1108.8306985869531
 21
60.0
 31
0.0
  0
LINE
  5
17C4
  8
0
 62
     0
 10
690.83069858695342
 20
60.0
 30
0.0
 11
704.08069858695274
 21
60.0
 31
0.0
  0
LINE
  5
17C5
  8
0
 62
     0
 10
912.82318418770285
 20
61.5
 30
0.0
 11
928.83969824162762
 21
61.5
 31
0.0
  0
LINE
  5
17C6
  8
0
 62
     0
 10
870.83069858695637
 20
61.5
 30
0.0
 11
886.82792055812945
 21
61.5
 31
0.0
  0
LINE
  5
17C7
  8
0
 62
     0
 10
954.82271390372546
 20
61.5
 30
0.0
 11
968.08069858695637
 21
61.5
 31
0.0
  0
LINE
  5
17C8
  8
0
 62
     0
 10
831.58069858695637
 20
61.5
 30
0.0
 11
844.83069858695546
 21
61.5
 31
0.0
  0
LINE
  5
17C9
  8
0
 62
     0
 10
972.33069858695342
 20
61.5
 30
0.0
 11
985.58069858695274
 21
61.5
 31
0.0
  0
LINE
  5
17CA
  8
0
 62
     0
 10
814.07271390372273
 20
61.5
 30
0.0
 11
827.33069858695353
 21
61.5
 31
0.0
  0
LINE
  5
17CB
  8
0
 62
     0
 10
1011.580698586953
 20
61.5
 30
0.0
 11
1027.5779205581271
 21
61.5
 31
0.0
  0
LINE
  5
17CC
  8
0
 62
     0
 10
772.07318418770012
 20
61.5
 30
0.0
 11
788.089698241625
 21
61.5
 31
0.0
  0
LINE
  5
17CD
  8
0
 62
     0
 10
1053.5731841877
 20
61.5
 30
0.0
 11
1069.589698241625
 21
61.5
 31
0.0
  0
LINE
  5
17CE
  8
0
 62
     0
 10
730.08069858695364
 20
61.5
 30
0.0
 11
746.07792055812695
 21
61.5
 31
0.0
  0
LINE
  5
17CF
  8
0
 62
     0
 10
1095.5727139037219
 20
61.5
 30
0.0
 11
1108.8306985869531
 21
61.5
 31
0.0
  0
LINE
  5
17D0
  8
0
 62
     0
 10
690.83069858695342
 20
61.5
 30
0.0
 11
704.08069858695274
 21
61.5
 31
0.0
  0
LINE
  5
17D1
  8
0
 62
     0
 10
912.82318418770285
 20
63.0
 30
0.0
 11
928.83969824162762
 21
63.0
 31
0.0
  0
LINE
  5
17D2
  8
0
 62
     0
 10
870.83069858695637
 20
63.0
 30
0.0
 11
886.82792055812945
 21
63.0
 31
0.0
  0
LINE
  5
17D3
  8
0
 62
     0
 10
954.82271390372546
 20
63.0
 30
0.0
 11
968.08069858695637
 21
63.0
 31
0.0
  0
LINE
  5
17D4
  8
0
 62
     0
 10
831.58069858695637
 20
63.0
 30
0.0
 11
844.83069858695546
 21
63.0
 31
0.0
  0
LINE
  5
17D5
  8
0
 62
     0
 10
972.33069858695319
 20
63.0
 30
0.0
 11
985.58069858695274
 21
63.0
 31
0.0
  0
LINE
  5
17D6
  8
0
 62
     0
 10
814.07271390372273
 20
63.0
 30
0.0
 11
827.3306985869533
 21
63.0
 31
0.0
  0
LINE
  5
17D7
  8
0
 62
     0
 10
1011.580698586953
 20
63.0
 30
0.0
 11
1027.5779205581271
 21
63.0
 31
0.0
  0
LINE
  5
17D8
  8
0
 62
     0
 10
772.07318418770012
 20
63.0
 30
0.0
 11
788.089698241625
 21
63.0
 31
0.0
  0
LINE
  5
17D9
  8
0
 62
     0
 10
1053.5731841877
 20
63.0
 30
0.0
 11
1069.589698241625
 21
63.0
 31
0.0
  0
LINE
  5
17DA
  8
0
 62
     0
 10
730.08069858695364
 20
63.0
 30
0.0
 11
746.07792055812695
 21
63.0
 31
0.0
  0
LINE
  5
17DB
  8
0
 62
     0
 10
1095.5727139037219
 20
63.0
 30
0.0
 11
1108.8306985869531
 21
63.0
 31
0.0
  0
LINE
  5
17DC
  8
0
 62
     0
 10
690.8306985869533
 20
63.0
 30
0.0
 11
704.08069858695274
 21
63.0
 31
0.0
  0
LINE
  5
17DD
  8
0
 62
     0
 10
912.82318418770285
 20
64.5
 30
0.0
 11
928.83969824162762
 21
64.5
 31
0.0
  0
LINE
  5
17DE
  8
0
 62
     0
 10
870.83069858695637
 20
64.5
 30
0.0
 11
886.82792055812945
 21
64.5
 31
0.0
  0
LINE
  5
17DF
  8
0
 62
     0
 10
954.82271390372546
 20
64.5
 30
0.0
 11
968.08069858695637
 21
64.5
 31
0.0
  0
LINE
  5
17E0
  8
0
 62
     0
 10
831.58069858695637
 20
64.5
 30
0.0
 11
844.83069858695546
 21
64.5
 31
0.0
  0
LINE
  5
17E1
  8
0
 62
     0
 10
972.33069858695319
 20
64.5
 30
0.0
 11
985.58069858695274
 21
64.5
 31
0.0
  0
LINE
  5
17E2
  8
0
 62
     0
 10
814.07271390372273
 20
64.5
 30
0.0
 11
827.3306985869533
 21
64.5
 31
0.0
  0
LINE
  5
17E3
  8
0
 62
     0
 10
1011.580698586953
 20
64.5
 30
0.0
 11
1027.5779205581271
 21
64.5
 31
0.0
  0
LINE
  5
17E4
  8
0
 62
     0
 10
772.07318418770012
 20
64.5
 30
0.0
 11
788.089698241625
 21
64.5
 31
0.0
  0
LINE
  5
17E5
  8
0
 62
     0
 10
1053.5731841877
 20
64.5
 30
0.0
 11
1069.589698241625
 21
64.5
 31
0.0
  0
LINE
  5
17E6
  8
0
 62
     0
 10
730.08069858695364
 20
64.5
 30
0.0
 11
746.07792055812695
 21
64.5
 31
0.0
  0
LINE
  5
17E7
  8
0
 62
     0
 10
1095.5727139037219
 20
64.5
 30
0.0
 11
1108.8306985869531
 21
64.5
 31
0.0
  0
LINE
  5
17E8
  8
0
 62
     0
 10
690.8306985869533
 20
64.5
 30
0.0
 11
704.08069858695274
 21
64.5
 31
0.0
  0
LINE
  5
17E9
  8
0
 62
     0
 10
912.82318418770285
 20
66.0
 30
0.0
 11
928.83969824162762
 21
66.0
 31
0.0
  0
LINE
  5
17EA
  8
0
 62
     0
 10
870.83069858695637
 20
66.0
 30
0.0
 11
886.82792055812945
 21
66.0
 31
0.0
  0
LINE
  5
17EB
  8
0
 62
     0
 10
954.82271390372546
 20
66.0
 30
0.0
 11
968.08069858695637
 21
66.0
 31
0.0
  0
LINE
  5
17EC
  8
0
 62
     0
 10
831.58069858695637
 20
66.0
 30
0.0
 11
844.83069858695546
 21
66.0
 31
0.0
  0
LINE
  5
17ED
  8
0
 62
     0
 10
972.33069858695319
 20
66.0
 30
0.0
 11
985.58069858695274
 21
66.0
 31
0.0
  0
LINE
  5
17EE
  8
0
 62
     0
 10
814.07271390372273
 20
66.0
 30
0.0
 11
827.3306985869533
 21
66.0
 31
0.0
  0
LINE
  5
17EF
  8
0
 62
     0
 10
1011.580698586953
 20
66.0
 30
0.0
 11
1027.5779205581271
 21
66.0
 31
0.0
  0
LINE
  5
17F0
  8
0
 62
     0
 10
772.07318418770012
 20
66.0
 30
0.0
 11
788.089698241625
 21
66.0
 31
0.0
  0
LINE
  5
17F1
  8
0
 62
     0
 10
1053.5731841877
 20
66.0
 30
0.0
 11
1069.589698241625
 21
66.0
 31
0.0
  0
LINE
  5
17F2
  8
0
 62
     0
 10
730.08069858695364
 20
66.0
 30
0.0
 11
746.07792055812695
 21
66.0
 31
0.0
  0
LINE
  5
17F3
  8
0
 62
     0
 10
1095.5727139037219
 20
66.0
 30
0.0
 11
1108.8306985869531
 21
66.0
 31
0.0
  0
LINE
  5
17F4
  8
0
 62
     0
 10
690.8306985869533
 20
66.0
 30
0.0
 11
704.08069858695274
 21
66.0
 31
0.0
  0
LINE
  5
17F5
  8
0
 62
     0
 10
912.82318418770285
 20
67.5
 30
0.0
 11
928.83969824162762
 21
67.5
 31
0.0
  0
LINE
  5
17F6
  8
0
 62
     0
 10
870.83069858695637
 20
67.5
 30
0.0
 11
886.82792055812945
 21
67.5
 31
0.0
  0
LINE
  5
17F7
  8
0
 62
     0
 10
954.82271390372546
 20
67.5
 30
0.0
 11
968.08069858695637
 21
67.5
 31
0.0
  0
LINE
  5
17F8
  8
0
 62
     0
 10
831.58069858695637
 20
67.5
 30
0.0
 11
844.83069858695546
 21
67.5
 31
0.0
  0
LINE
  5
17F9
  8
0
 62
     0
 10
972.33069858695319
 20
67.5
 30
0.0
 11
985.58069858695274
 21
67.5
 31
0.0
  0
LINE
  5
17FA
  8
0
 62
     0
 10
814.07271390372273
 20
67.5
 30
0.0
 11
827.3306985869533
 21
67.5
 31
0.0
  0
LINE
  5
17FB
  8
0
 62
     0
 10
1011.580698586953
 20
67.5
 30
0.0
 11
1027.5779205581271
 21
67.5
 31
0.0
  0
LINE
  5
17FC
  8
0
 62
     0
 10
772.07318418770012
 20
67.5
 30
0.0
 11
788.089698241625
 21
67.5
 31
0.0
  0
LINE
  5
17FD
  8
0
 62
     0
 10
1053.5731841877
 20
67.5
 30
0.0
 11
1069.589698241625
 21
67.5
 31
0.0
  0
LINE
  5
17FE
  8
0
 62
     0
 10
730.08069858695364
 20
67.5
 30
0.0
 11
746.07792055812695
 21
67.5
 31
0.0
  0
LINE
  5
17FF
  8
0
 62
     0
 10
1095.5727139037219
 20
67.5
 30
0.0
 11
1108.8306985869531
 21
67.5
 31
0.0
  0
LINE
  5
1800
  8
0
 62
     0
 10
690.8306985869533
 20
67.5
 30
0.0
 11
704.08069858695274
 21
67.5
 31
0.0
  0
LINE
  5
1801
  8
0
 62
     0
 10
912.82318418770285
 20
69.0
 30
0.0
 11
928.83969824162762
 21
69.0
 31
0.0
  0
LINE
  5
1802
  8
0
 62
     0
 10
870.83069858695637
 20
69.0
 30
0.0
 11
886.82792055812945
 21
69.0
 31
0.0
  0
LINE
  5
1803
  8
0
 62
     0
 10
954.82271390372546
 20
69.0
 30
0.0
 11
968.08069858695615
 21
69.0
 31
0.0
  0
LINE
  5
1804
  8
0
 62
     0
 10
831.58069858695615
 20
69.0
 30
0.0
 11
844.83069858695546
 21
69.0
 31
0.0
  0
LINE
  5
1805
  8
0
 62
     0
 10
972.33069858695319
 20
69.0
 30
0.0
 11
985.58069858695274
 21
69.0
 31
0.0
  0
LINE
  5
1806
  8
0
 62
     0
 10
814.07271390372273
 20
69.0
 30
0.0
 11
827.3306985869533
 21
69.0
 31
0.0
  0
LINE
  5
1807
  8
0
 62
     0
 10
1011.580698586953
 20
69.0
 30
0.0
 11
1027.5779205581271
 21
69.0
 31
0.0
  0
LINE
  5
1808
  8
0
 62
     0
 10
772.07318418770012
 20
69.0
 30
0.0
 11
788.089698241625
 21
69.0
 31
0.0
  0
LINE
  5
1809
  8
0
 62
     0
 10
1053.5731841877
 20
69.0
 30
0.0
 11
1069.589698241625
 21
69.0
 31
0.0
  0
LINE
  5
180A
  8
0
 62
     0
 10
730.08069858695364
 20
69.0
 30
0.0
 11
746.07792055812695
 21
69.0
 31
0.0
  0
LINE
  5
180B
  8
0
 62
     0
 10
1095.5727139037219
 20
69.0
 30
0.0
 11
1108.8306985869531
 21
69.0
 31
0.0
  0
LINE
  5
180C
  8
0
 62
     0
 10
690.8306985869533
 20
69.0
 30
0.0
 11
704.08069858695274
 21
69.0
 31
0.0
  0
LINE
  5
180D
  8
0
 62
     0
 10
912.82318418770285
 20
70.5
 30
0.0
 11
928.83969824162762
 21
70.5
 31
0.0
  0
LINE
  5
180E
  8
0
 62
     0
 10
870.83069858695637
 20
70.5
 30
0.0
 11
886.82792055812945
 21
70.5
 31
0.0
  0
LINE
  5
180F
  8
0
 62
     0
 10
954.82271390372546
 20
70.5
 30
0.0
 11
968.08069858695615
 21
70.5
 31
0.0
  0
LINE
  5
1810
  8
0
 62
     0
 10
831.58069858695615
 20
70.5
 30
0.0
 11
844.83069858695546
 21
70.5
 31
0.0
  0
LINE
  5
1811
  8
0
 62
     0
 10
972.33069858695319
 20
70.5
 30
0.0
 11
985.58069858695274
 21
70.5
 31
0.0
  0
LINE
  5
1812
  8
0
 62
     0
 10
814.07271390372273
 20
70.5
 30
0.0
 11
827.3306985869533
 21
70.5
 31
0.0
  0
LINE
  5
1813
  8
0
 62
     0
 10
1011.580698586953
 20
70.5
 30
0.0
 11
1027.5779205581271
 21
70.5
 31
0.0
  0
LINE
  5
1814
  8
0
 62
     0
 10
772.07318418770012
 20
70.5
 30
0.0
 11
788.089698241625
 21
70.5
 31
0.0
  0
LINE
  5
1815
  8
0
 62
     0
 10
1053.5731841877
 20
70.5
 30
0.0
 11
1069.589698241625
 21
70.5
 31
0.0
  0
LINE
  5
1816
  8
0
 62
     0
 10
730.08069858695364
 20
70.5
 30
0.0
 11
746.07792055812695
 21
70.5
 31
0.0
  0
LINE
  5
1817
  8
0
 62
     0
 10
1095.5727139037219
 20
70.5
 30
0.0
 11
1108.8306985869531
 21
70.5
 31
0.0
  0
LINE
  5
1818
  8
0
 62
     0
 10
690.8306985869533
 20
70.5
 30
0.0
 11
704.08069858695274
 21
70.5
 31
0.0
  0
LINE
  5
1819
  8
0
 62
     0
 10
912.82318418770285
 20
72.0
 30
0.0
 11
928.83969824162762
 21
72.0
 31
0.0
  0
LINE
  5
181A
  8
0
 62
     0
 10
870.83069858695637
 20
72.0
 30
0.0
 11
886.82792055812945
 21
72.0
 31
0.0
  0
LINE
  5
181B
  8
0
 62
     0
 10
954.82271390372546
 20
72.0
 30
0.0
 11
968.08069858695615
 21
72.0
 31
0.0
  0
LINE
  5
181C
  8
0
 62
     0
 10
831.58069858695615
 20
72.0
 30
0.0
 11
844.83069858695546
 21
72.0
 31
0.0
  0
LINE
  5
181D
  8
0
 62
     0
 10
972.33069858695319
 20
72.0
 30
0.0
 11
985.58069858695274
 21
72.0
 31
0.0
  0
LINE
  5
181E
  8
0
 62
     0
 10
814.07271390372273
 20
72.0
 30
0.0
 11
827.3306985869533
 21
72.0
 31
0.0
  0
LINE
  5
181F
  8
0
 62
     0
 10
1011.580698586953
 20
72.0
 30
0.0
 11
1027.5779205581271
 21
72.0
 31
0.0
  0
LINE
  5
1820
  8
0
 62
     0
 10
772.07318418770012
 20
72.0
 30
0.0
 11
788.089698241625
 21
72.0
 31
0.0
  0
LINE
  5
1821
  8
0
 62
     0
 10
1053.5731841877
 20
72.0
 30
0.0
 11
1069.589698241625
 21
72.0
 31
0.0
  0
LINE
  5
1822
  8
0
 62
     0
 10
730.08069858695364
 20
72.0
 30
0.0
 11
746.07792055812695
 21
72.0
 31
0.0
  0
LINE
  5
1823
  8
0
 62
     0
 10
1095.5727139037219
 20
72.0
 30
0.0
 11
1108.8306985869531
 21
72.0
 31
0.0
  0
LINE
  5
1824
  8
0
 62
     0
 10
690.8306985869533
 20
72.0
 30
0.0
 11
704.08069858695274
 21
72.0
 31
0.0
  0
LINE
  5
1825
  8
0
 62
     0
 10
912.82318418770285
 20
73.5
 30
0.0
 11
928.83969824162762
 21
73.5
 31
0.0
  0
LINE
  5
1826
  8
0
 62
     0
 10
870.83069858695637
 20
73.5
 30
0.0
 11
886.82792055812945
 21
73.5
 31
0.0
  0
LINE
  5
1827
  8
0
 62
     0
 10
954.82271390372546
 20
73.5
 30
0.0
 11
968.08069858695615
 21
73.5
 31
0.0
  0
LINE
  5
1828
  8
0
 62
     0
 10
831.58069858695615
 20
73.5
 30
0.0
 11
844.83069858695546
 21
73.5
 31
0.0
  0
LINE
  5
1829
  8
0
 62
     0
 10
972.33069858695319
 20
73.5
 30
0.0
 11
985.58069858695274
 21
73.5
 31
0.0
  0
LINE
  5
182A
  8
0
 62
     0
 10
814.07271390372273
 20
73.5
 30
0.0
 11
827.33069858695308
 21
73.5
 31
0.0
  0
LINE
  5
182B
  8
0
 62
     0
 10
1011.580698586953
 20
73.5
 30
0.0
 11
1027.5779205581271
 21
73.5
 31
0.0
  0
LINE
  5
182C
  8
0
 62
     0
 10
772.07318418770012
 20
73.5
 30
0.0
 11
788.089698241625
 21
73.5
 31
0.0
  0
LINE
  5
182D
  8
0
 62
     0
 10
1053.5731841877
 20
73.5
 30
0.0
 11
1069.589698241625
 21
73.5
 31
0.0
  0
LINE
  5
182E
  8
0
 62
     0
 10
730.08069858695364
 20
73.5
 30
0.0
 11
746.07792055812695
 21
73.5
 31
0.0
  0
LINE
  5
182F
  8
0
 62
     0
 10
1095.5727139037219
 20
73.5
 30
0.0
 11
1108.8306985869531
 21
73.5
 31
0.0
  0
LINE
  5
1830
  8
0
 62
     0
 10
690.83069858695319
 20
73.5
 30
0.0
 11
704.08069858695274
 21
73.5
 31
0.0
  0
LINE
  5
1831
  8
0
 62
     0
 10
912.82318418770285
 20
75.0
 30
0.0
 11
928.83969824162762
 21
75.0
 31
0.0
  0
LINE
  5
1832
  8
0
 62
     0
 10
870.83069858695637
 20
75.0
 30
0.0
 11
886.82792055812945
 21
75.0
 31
0.0
  0
LINE
  5
1833
  8
0
 62
     0
 10
954.82271390372546
 20
75.0
 30
0.0
 11
968.08069858695615
 21
75.0
 31
0.0
  0
LINE
  5
1834
  8
0
 62
     0
 10
831.58069858695615
 20
75.0
 30
0.0
 11
844.83069858695546
 21
75.0
 31
0.0
  0
LINE
  5
1835
  8
0
 62
     0
 10
972.33069858695319
 20
75.0
 30
0.0
 11
985.58069858695274
 21
75.0
 31
0.0
  0
LINE
  5
1836
  8
0
 62
     0
 10
814.07271390372273
 20
75.0
 30
0.0
 11
827.33069858695308
 21
75.0
 31
0.0
  0
LINE
  5
1837
  8
0
 62
     0
 10
1011.580698586953
 20
75.0
 30
0.0
 11
1027.5779205581271
 21
75.0
 31
0.0
  0
LINE
  5
1838
  8
0
 62
     0
 10
772.07318418770012
 20
75.0
 30
0.0
 11
788.089698241625
 21
75.0
 31
0.0
  0
LINE
  5
1839
  8
0
 62
     0
 10
1053.5731841877
 20
75.0
 30
0.0
 11
1069.589698241625
 21
75.0
 31
0.0
  0
LINE
  5
183A
  8
0
 62
     0
 10
730.08069858695364
 20
75.0
 30
0.0
 11
746.07792055812695
 21
75.0
 31
0.0
  0
LINE
  5
183B
  8
0
 62
     0
 10
1095.5727139037219
 20
75.0
 30
0.0
 11
1108.8306985869531
 21
75.0
 31
0.0
  0
LINE
  5
183C
  8
0
 62
     0
 10
690.83069858695319
 20
75.0
 30
0.0
 11
704.08069858695274
 21
75.0
 31
0.0
  0
LINE
  5
183D
  8
0
 62
     0
 10
912.82318418770285
 20
76.5
 30
0.0
 11
928.83969824162762
 21
76.5
 31
0.0
  0
LINE
  5
183E
  8
0
 62
     0
 10
870.83069858695637
 20
76.5
 30
0.0
 11
886.82792055812945
 21
76.5
 31
0.0
  0
LINE
  5
183F
  8
0
 62
     0
 10
954.82271390372546
 20
76.5
 30
0.0
 11
968.08069858695615
 21
76.5
 31
0.0
  0
LINE
  5
1840
  8
0
 62
     0
 10
831.58069858695615
 20
76.5
 30
0.0
 11
844.83069858695546
 21
76.5
 31
0.0
  0
LINE
  5
1841
  8
0
 62
     0
 10
972.33069858695319
 20
76.5
 30
0.0
 11
985.58069858695274
 21
76.5
 31
0.0
  0
LINE
  5
1842
  8
0
 62
     0
 10
814.07271390372273
 20
76.5
 30
0.0
 11
827.33069858695308
 21
76.5
 31
0.0
  0
LINE
  5
1843
  8
0
 62
     0
 10
1011.580698586953
 20
76.5
 30
0.0
 11
1027.5779205581271
 21
76.5
 31
0.0
  0
LINE
  5
1844
  8
0
 62
     0
 10
772.07318418770012
 20
76.5
 30
0.0
 11
788.089698241625
 21
76.5
 31
0.0
  0
LINE
  5
1845
  8
0
 62
     0
 10
1053.5731841877
 20
76.5
 30
0.0
 11
1069.589698241625
 21
76.5
 31
0.0
  0
LINE
  5
1846
  8
0
 62
     0
 10
730.08069858695364
 20
76.5
 30
0.0
 11
746.07792055812695
 21
76.5
 31
0.0
  0
LINE
  5
1847
  8
0
 62
     0
 10
1095.5727139037219
 20
76.5
 30
0.0
 11
1108.8306985869531
 21
76.5
 31
0.0
  0
LINE
  5
1848
  8
0
 62
     0
 10
690.83069858695319
 20
76.5
 30
0.0
 11
704.08069858695274
 21
76.5
 31
0.0
  0
LINE
  5
1849
  8
0
 62
     0
 10
912.82318418770285
 20
78.0
 30
0.0
 11
928.83969824162762
 21
78.0
 31
0.0
  0
LINE
  5
184A
  8
0
 62
     0
 10
870.83069858695637
 20
78.0
 30
0.0
 11
886.82792055812945
 21
78.0
 31
0.0
  0
LINE
  5
184B
  8
0
 62
     0
 10
954.82271390372546
 20
78.0
 30
0.0
 11
968.08069858695615
 21
78.0
 31
0.0
  0
LINE
  5
184C
  8
0
 62
     0
 10
831.58069858695615
 20
78.0
 30
0.0
 11
844.83069858695546
 21
78.0
 31
0.0
  0
LINE
  5
184D
  8
0
 62
     0
 10
972.33069858695319
 20
78.0
 30
0.0
 11
985.58069858695274
 21
78.0
 31
0.0
  0
LINE
  5
184E
  8
0
 62
     0
 10
814.07271390372273
 20
78.0
 30
0.0
 11
827.33069858695308
 21
78.0
 31
0.0
  0
LINE
  5
184F
  8
0
 62
     0
 10
1011.580698586953
 20
78.0
 30
0.0
 11
1027.5779205581271
 21
78.0
 31
0.0
  0
LINE
  5
1850
  8
0
 62
     0
 10
772.07318418770012
 20
78.0
 30
0.0
 11
788.089698241625
 21
78.0
 31
0.0
  0
LINE
  5
1851
  8
0
 62
     0
 10
1053.5731841877
 20
78.0
 30
0.0
 11
1069.589698241625
 21
78.0
 31
0.0
  0
LINE
  5
1852
  8
0
 62
     0
 10
730.08069858695364
 20
78.0
 30
0.0
 11
746.07792055812695
 21
78.0
 31
0.0
  0
LINE
  5
1853
  8
0
 62
     0
 10
1095.5727139037219
 20
78.0
 30
0.0
 11
1108.8306985869531
 21
78.0
 31
0.0
  0
LINE
  5
1854
  8
0
 62
     0
 10
690.83069858695319
 20
78.0
 30
0.0
 11
704.08069858695274
 21
78.0
 31
0.0
  0
LINE
  5
1855
  8
0
 62
     0
 10
912.82318418770285
 20
79.5
 30
0.0
 11
928.83969824162762
 21
79.5
 31
0.0
  0
LINE
  5
1856
  8
0
 62
     0
 10
870.83069858695637
 20
79.5
 30
0.0
 11
886.82792055812945
 21
79.5
 31
0.0
  0
LINE
  5
1857
  8
0
 62
     0
 10
954.82271390372546
 20
79.5
 30
0.0
 11
968.08069858695615
 21
79.5
 31
0.0
  0
LINE
  5
1858
  8
0
 62
     0
 10
831.58069858695615
 20
79.5
 30
0.0
 11
844.83069858695546
 21
79.5
 31
0.0
  0
LINE
  5
1859
  8
0
 62
     0
 10
972.33069858695319
 20
79.5
 30
0.0
 11
985.58069858695274
 21
79.5
 31
0.0
  0
LINE
  5
185A
  8
0
 62
     0
 10
814.07271390372273
 20
79.5
 30
0.0
 11
827.33069858695308
 21
79.5
 31
0.0
  0
LINE
  5
185B
  8
0
 62
     0
 10
1011.580698586953
 20
79.5
 30
0.0
 11
1027.5779205581271
 21
79.5
 31
0.0
  0
LINE
  5
185C
  8
0
 62
     0
 10
772.07318418770012
 20
79.5
 30
0.0
 11
788.089698241625
 21
79.5
 31
0.0
  0
LINE
  5
185D
  8
0
 62
     0
 10
1053.5731841877
 20
79.5
 30
0.0
 11
1069.589698241625
 21
79.5
 31
0.0
  0
LINE
  5
185E
  8
0
 62
     0
 10
730.08069858695364
 20
79.5
 30
0.0
 11
746.07792055812695
 21
79.5
 31
0.0
  0
LINE
  5
185F
  8
0
 62
     0
 10
1095.5727139037219
 20
79.5
 30
0.0
 11
1108.8306985869531
 21
79.5
 31
0.0
  0
LINE
  5
1860
  8
0
 62
     0
 10
690.83069858695319
 20
79.5
 30
0.0
 11
704.08069858695274
 21
79.5
 31
0.0
  0
LINE
  5
1861
  8
0
 62
     0
 10
912.82318418770285
 20
81.0
 30
0.0
 11
928.83969824162762
 21
81.0
 31
0.0
  0
LINE
  5
1862
  8
0
 62
     0
 10
870.83069858695637
 20
81.0
 30
0.0
 11
886.82792055812945
 21
81.0
 31
0.0
  0
LINE
  5
1863
  8
0
 62
     0
 10
954.82271390372546
 20
81.0
 30
0.0
 11
968.08069858695615
 21
81.0
 31
0.0
  0
LINE
  5
1864
  8
0
 62
     0
 10
831.58069858695615
 20
81.0
 30
0.0
 11
844.83069858695546
 21
81.0
 31
0.0
  0
LINE
  5
1865
  8
0
 62
     0
 10
972.33069858695319
 20
81.0
 30
0.0
 11
985.58069858695274
 21
81.0
 31
0.0
  0
LINE
  5
1866
  8
0
 62
     0
 10
814.07271390372273
 20
81.0
 30
0.0
 11
827.33069858695308
 21
81.0
 31
0.0
  0
LINE
  5
1867
  8
0
 62
     0
 10
1011.580698586953
 20
81.0
 30
0.0
 11
1027.5779205581271
 21
81.0
 31
0.0
  0
LINE
  5
1868
  8
0
 62
     0
 10
772.07318418770012
 20
81.0
 30
0.0
 11
788.089698241625
 21
81.0
 31
0.0
  0
LINE
  5
1869
  8
0
 62
     0
 10
1053.5731841877
 20
81.0
 30
0.0
 11
1069.589698241625
 21
81.0
 31
0.0
  0
LINE
  5
186A
  8
0
 62
     0
 10
730.08069858695364
 20
81.0
 30
0.0
 11
746.07792055812695
 21
81.0
 31
0.0
  0
LINE
  5
186B
  8
0
 62
     0
 10
1095.5727139037219
 20
81.0
 30
0.0
 11
1108.8306985869531
 21
81.0
 31
0.0
  0
LINE
  5
186C
  8
0
 62
     0
 10
690.83069858695319
 20
81.0
 30
0.0
 11
704.08069858695274
 21
81.0
 31
0.0
  0
LINE
  5
186D
  8
0
 62
     0
 10
912.82318418770285
 20
82.5
 30
0.0
 11
928.83969824162762
 21
82.5
 31
0.0
  0
LINE
  5
186E
  8
0
 62
     0
 10
870.83069858695637
 20
82.5
 30
0.0
 11
886.82792055812945
 21
82.5
 31
0.0
  0
LINE
  5
186F
  8
0
 62
     0
 10
954.82271390372546
 20
82.5
 30
0.0
 11
968.08069858695615
 21
82.5
 31
0.0
  0
LINE
  5
1870
  8
0
 62
     0
 10
831.58069858695615
 20
82.5
 30
0.0
 11
844.83069858695546
 21
82.5
 31
0.0
  0
LINE
  5
1871
  8
0
 62
     0
 10
972.33069858695319
 20
82.5
 30
0.0
 11
985.58069858695274
 21
82.5
 31
0.0
  0
LINE
  5
1872
  8
0
 62
     0
 10
814.07271390372273
 20
82.5
 30
0.0
 11
827.33069858695308
 21
82.5
 31
0.0
  0
LINE
  5
1873
  8
0
 62
     0
 10
1011.580698586953
 20
82.5
 30
0.0
 11
1027.5779205581271
 21
82.5
 31
0.0
  0
LINE
  5
1874
  8
0
 62
     0
 10
772.07318418770012
 20
82.5
 30
0.0
 11
788.089698241625
 21
82.5
 31
0.0
  0
LINE
  5
1875
  8
0
 62
     0
 10
1053.5731841877
 20
82.5
 30
0.0
 11
1069.589698241625
 21
82.5
 31
0.0
  0
LINE
  5
1876
  8
0
 62
     0
 10
730.08069858695364
 20
82.5
 30
0.0
 11
746.07792055812695
 21
82.5
 31
0.0
  0
LINE
  5
1877
  8
0
 62
     0
 10
1095.5727139037219
 20
82.5
 30
0.0
 11
1108.8306985869531
 21
82.5
 31
0.0
  0
LINE
  5
1878
  8
0
 62
     0
 10
690.83069858695319
 20
82.5
 30
0.0
 11
704.08069858695274
 21
82.5
 31
0.0
  0
LINE
  5
1879
  8
0
 62
     0
 10
912.82318418770285
 20
84.0
 30
0.0
 11
928.83969824162762
 21
84.0
 31
0.0
  0
LINE
  5
187A
  8
0
 62
     0
 10
870.83069858695637
 20
84.0
 30
0.0
 11
886.82792055812945
 21
84.0
 31
0.0
  0
LINE
  5
187B
  8
0
 62
     0
 10
954.82271390372546
 20
84.0
 30
0.0
 11
968.08069858695615
 21
84.0
 31
0.0
  0
LINE
  5
187C
  8
0
 62
     0
 10
831.58069858695615
 20
84.0
 30
0.0
 11
844.83069858695546
 21
84.0
 31
0.0
  0
LINE
  5
187D
  8
0
 62
     0
 10
972.33069858695296
 20
84.0
 30
0.0
 11
985.58069858695274
 21
84.0
 31
0.0
  0
LINE
  5
187E
  8
0
 62
     0
 10
814.07271390372273
 20
84.0
 30
0.0
 11
827.33069858695308
 21
84.0
 31
0.0
  0
LINE
  5
187F
  8
0
 62
     0
 10
1011.580698586953
 20
84.0
 30
0.0
 11
1027.5779205581271
 21
84.0
 31
0.0
  0
LINE
  5
1880
  8
0
 62
     0
 10
772.07318418770012
 20
84.0
 30
0.0
 11
788.089698241625
 21
84.0
 31
0.0
  0
LINE
  5
1881
  8
0
 62
     0
 10
1053.5731841877
 20
84.0
 30
0.0
 11
1069.589698241625
 21
84.0
 31
0.0
  0
LINE
  5
1882
  8
0
 62
     0
 10
730.08069858695364
 20
84.0
 30
0.0
 11
746.07792055812695
 21
84.0
 31
0.0
  0
LINE
  5
1883
  8
0
 62
     0
 10
1095.5727139037219
 20
84.0
 30
0.0
 11
1108.8306985869531
 21
84.0
 31
0.0
  0
LINE
  5
1884
  8
0
 62
     0
 10
690.83069858695296
 20
84.0
 30
0.0
 11
704.08069858695274
 21
84.0
 31
0.0
  0
LINE
  5
1885
  8
0
 62
     0
 10
912.82318418770285
 20
85.5
 30
0.0
 11
928.83969824162762
 21
85.5
 31
0.0
  0
LINE
  5
1886
  8
0
 62
     0
 10
870.83069858695637
 20
85.5
 30
0.0
 11
886.82792055812945
 21
85.5
 31
0.0
  0
LINE
  5
1887
  8
0
 62
     0
 10
954.82271390372546
 20
85.5
 30
0.0
 11
968.08069858695615
 21
85.5
 31
0.0
  0
LINE
  5
1888
  8
0
 62
     0
 10
831.58069858695615
 20
85.5
 30
0.0
 11
844.83069858695546
 21
85.5
 31
0.0
  0
LINE
  5
1889
  8
0
 62
     0
 10
972.33069858695296
 20
85.5
 30
0.0
 11
985.58069858695274
 21
85.5
 31
0.0
  0
LINE
  5
188A
  8
0
 62
     0
 10
814.07271390372273
 20
85.5
 30
0.0
 11
827.33069858695308
 21
85.5
 31
0.0
  0
LINE
  5
188B
  8
0
 62
     0
 10
1011.580698586953
 20
85.5
 30
0.0
 11
1027.5779205581271
 21
85.5
 31
0.0
  0
LINE
  5
188C
  8
0
 62
     0
 10
772.07318418770012
 20
85.5
 30
0.0
 11
788.089698241625
 21
85.5
 31
0.0
  0
LINE
  5
188D
  8
0
 62
     0
 10
1053.5731841877
 20
85.5
 30
0.0
 11
1069.589698241625
 21
85.5
 31
0.0
  0
LINE
  5
188E
  8
0
 62
     0
 10
730.08069858695364
 20
85.5
 30
0.0
 11
746.07792055812695
 21
85.5
 31
0.0
  0
LINE
  5
188F
  8
0
 62
     0
 10
1095.5727139037219
 20
85.5
 30
0.0
 11
1108.8306985869531
 21
85.5
 31
0.0
  0
LINE
  5
1890
  8
0
 62
     0
 10
690.83069858695296
 20
85.5
 30
0.0
 11
704.08069858695274
 21
85.5
 31
0.0
  0
LINE
  5
1891
  8
0
 62
     0
 10
912.82318418770285
 20
87.0
 30
0.0
 11
928.83969824162762
 21
87.0
 31
0.0
  0
LINE
  5
1892
  8
0
 62
     0
 10
870.83069858695637
 20
87.0
 30
0.0
 11
886.82792055812945
 21
87.0
 31
0.0
  0
LINE
  5
1893
  8
0
 62
     0
 10
954.82271390372546
 20
87.0
 30
0.0
 11
968.08069858695615
 21
87.0
 31
0.0
  0
LINE
  5
1894
  8
0
 62
     0
 10
831.58069858695615
 20
87.0
 30
0.0
 11
844.83069858695546
 21
87.0
 31
0.0
  0
LINE
  5
1895
  8
0
 62
     0
 10
972.33069858695296
 20
87.0
 30
0.0
 11
985.58069858695274
 21
87.0
 31
0.0
  0
LINE
  5
1896
  8
0
 62
     0
 10
814.07271390372273
 20
87.0
 30
0.0
 11
827.33069858695308
 21
87.0
 31
0.0
  0
LINE
  5
1897
  8
0
 62
     0
 10
1011.580698586953
 20
87.0
 30
0.0
 11
1027.5779205581271
 21
87.0
 31
0.0
  0
LINE
  5
1898
  8
0
 62
     0
 10
772.07318418770012
 20
87.0
 30
0.0
 11
788.089698241625
 21
87.0
 31
0.0
  0
LINE
  5
1899
  8
0
 62
     0
 10
1053.5731841877
 20
87.0
 30
0.0
 11
1069.589698241625
 21
87.0
 31
0.0
  0
LINE
  5
189A
  8
0
 62
     0
 10
730.08069858695364
 20
87.0
 30
0.0
 11
746.07792055812695
 21
87.0
 31
0.0
  0
LINE
  5
189B
  8
0
 62
     0
 10
1095.5727139037219
 20
87.0
 30
0.0
 11
1108.8306985869531
 21
87.0
 31
0.0
  0
LINE
  5
189C
  8
0
 62
     0
 10
690.83069858695296
 20
87.0
 30
0.0
 11
704.08069858695274
 21
87.0
 31
0.0
  0
LINE
  5
189D
  8
0
 62
     0
 10
912.82318418770285
 20
88.499999999999986
 30
0.0
 11
928.83969824162762
 21
88.499999999999986
 31
0.0
  0
LINE
  5
189E
  8
0
 62
     0
 10
870.83069858695637
 20
88.499999999999986
 30
0.0
 11
886.82792055812945
 21
88.499999999999986
 31
0.0
  0
LINE
  5
189F
  8
0
 62
     0
 10
954.82271390372546
 20
88.499999999999986
 30
0.0
 11
968.08069858695615
 21
88.499999999999986
 31
0.0
  0
LINE
  5
18A0
  8
0
 62
     0
 10
831.58069858695615
 20
88.499999999999986
 30
0.0
 11
844.83069858695546
 21
88.499999999999986
 31
0.0
  0
LINE
  5
18A1
  8
0
 62
     0
 10
972.33069858695296
 20
88.499999999999986
 30
0.0
 11
985.58069858695274
 21
88.499999999999986
 31
0.0
  0
LINE
  5
18A2
  8
0
 62
     0
 10
814.07271390372273
 20
88.499999999999986
 30
0.0
 11
827.33069858695308
 21
88.499999999999986
 31
0.0
  0
LINE
  5
18A3
  8
0
 62
     0
 10
1011.580698586953
 20
88.499999999999986
 30
0.0
 11
1027.5779205581271
 21
88.499999999999986
 31
0.0
  0
LINE
  5
18A4
  8
0
 62
     0
 10
772.07318418770012
 20
88.499999999999986
 30
0.0
 11
788.089698241625
 21
88.499999999999986
 31
0.0
  0
LINE
  5
18A5
  8
0
 62
     0
 10
1053.5731841877
 20
88.499999999999986
 30
0.0
 11
1069.589698241625
 21
88.499999999999986
 31
0.0
  0
LINE
  5
18A6
  8
0
 62
     0
 10
730.08069858695364
 20
88.499999999999986
 30
0.0
 11
746.07792055812695
 21
88.499999999999986
 31
0.0
  0
LINE
  5
18A7
  8
0
 62
     0
 10
1095.5727139037219
 20
88.499999999999986
 30
0.0
 11
1108.8306985869531
 21
88.499999999999986
 31
0.0
  0
LINE
  5
18A8
  8
0
 62
     0
 10
690.83069858695296
 20
88.499999999999986
 30
0.0
 11
704.08069858695274
 21
88.499999999999986
 31
0.0
  0
LINE
  5
18A9
  8
0
 62
     0
 10
912.82318418770285
 20
90.0
 30
0.0
 11
928.83969824162762
 21
90.0
 31
0.0
  0
LINE
  5
18AA
  8
0
 62
     0
 10
870.83069858695637
 20
90.0
 30
0.0
 11
886.82792055812945
 21
90.0
 31
0.0
  0
LINE
  5
18AB
  8
0
 62
     0
 10
954.82271390372546
 20
90.0
 30
0.0
 11
968.08069858695615
 21
90.0
 31
0.0
  0
LINE
  5
18AC
  8
0
 62
     0
 10
831.58069858695615
 20
90.0
 30
0.0
 11
844.83069858695546
 21
90.0
 31
0.0
  0
LINE
  5
18AD
  8
0
 62
     0
 10
972.33069858695296
 20
90.0
 30
0.0
 11
985.58069858695274
 21
90.0
 31
0.0
  0
LINE
  5
18AE
  8
0
 62
     0
 10
814.07271390372273
 20
90.0
 30
0.0
 11
827.33069858695308
 21
90.0
 31
0.0
  0
LINE
  5
18AF
  8
0
 62
     0
 10
1011.580698586953
 20
90.0
 30
0.0
 11
1027.5779205581271
 21
90.0
 31
0.0
  0
LINE
  5
18B0
  8
0
 62
     0
 10
772.07318418770012
 20
90.0
 30
0.0
 11
788.089698241625
 21
90.0
 31
0.0
  0
LINE
  5
18B1
  8
0
 62
     0
 10
1053.5731841877
 20
90.0
 30
0.0
 11
1069.589698241625
 21
90.0
 31
0.0
  0
LINE
  5
18B2
  8
0
 62
     0
 10
730.08069858695364
 20
90.0
 30
0.0
 11
746.07792055812695
 21
90.0
 31
0.0
  0
LINE
  5
18B3
  8
0
 62
     0
 10
1095.5727139037219
 20
90.0
 30
0.0
 11
1108.8306985869531
 21
90.0
 31
0.0
  0
LINE
  5
18B4
  8
0
 62
     0
 10
690.83069858695296
 20
90.0
 30
0.0
 11
704.08069858695274
 21
90.0
 31
0.0
  0
LINE
  5
18B5
  8
0
 62
     0
 10
912.82318418770285
 20
91.5
 30
0.0
 11
928.83969824162762
 21
91.5
 31
0.0
  0
LINE
  5
18B6
  8
0
 62
     0
 10
870.83069858695637
 20
91.5
 30
0.0
 11
886.82792055812945
 21
91.5
 31
0.0
  0
LINE
  5
18B7
  8
0
 62
     0
 10
954.82271390372546
 20
91.5
 30
0.0
 11
968.08069858695615
 21
91.5
 31
0.0
  0
LINE
  5
18B8
  8
0
 62
     0
 10
831.58069858695615
 20
91.5
 30
0.0
 11
844.83069858695546
 21
91.5
 31
0.0
  0
LINE
  5
18B9
  8
0
 62
     0
 10
972.33069858695296
 20
91.5
 30
0.0
 11
985.58069858695274
 21
91.5
 31
0.0
  0
LINE
  5
18BA
  8
0
 62
     0
 10
814.07271390372273
 20
91.5
 30
0.0
 11
827.33069858695308
 21
91.5
 31
0.0
  0
LINE
  5
18BB
  8
0
 62
     0
 10
1011.580698586953
 20
91.5
 30
0.0
 11
1027.5779205581271
 21
91.5
 31
0.0
  0
LINE
  5
18BC
  8
0
 62
     0
 10
772.07318418770012
 20
91.5
 30
0.0
 11
788.089698241625
 21
91.5
 31
0.0
  0
LINE
  5
18BD
  8
0
 62
     0
 10
1053.5731841877
 20
91.5
 30
0.0
 11
1069.589698241625
 21
91.5
 31
0.0
  0
LINE
  5
18BE
  8
0
 62
     0
 10
730.08069858695364
 20
91.5
 30
0.0
 11
746.07792055812695
 21
91.5
 31
0.0
  0
LINE
  5
18BF
  8
0
 62
     0
 10
1095.5727139037219
 20
91.5
 30
0.0
 11
1108.8306985869531
 21
91.5
 31
0.0
  0
LINE
  5
18C0
  8
0
 62
     0
 10
690.83069858695296
 20
91.5
 30
0.0
 11
704.08069858695274
 21
91.5
 31
0.0
  0
LINE
  5
18C1
  8
0
 62
     0
 10
912.82318418770285
 20
93.0
 30
0.0
 11
928.83969824162762
 21
93.0
 31
0.0
  0
LINE
  5
18C2
  8
0
 62
     0
 10
870.83069858695637
 20
93.0
 30
0.0
 11
886.82792055812945
 21
93.0
 31
0.0
  0
LINE
  5
18C3
  8
0
 62
     0
 10
954.82271390372546
 20
93.0
 30
0.0
 11
968.08069858695603
 21
93.0
 31
0.0
  0
LINE
  5
18C4
  8
0
 62
     0
 10
831.58069858695603
 20
93.0
 30
0.0
 11
844.83069858695546
 21
93.0
 31
0.0
  0
LINE
  5
18C5
  8
0
 62
     0
 10
972.33069858695296
 20
93.0
 30
0.0
 11
985.58069858695274
 21
93.0
 31
0.0
  0
LINE
  5
18C6
  8
0
 62
     0
 10
814.07271390372273
 20
93.0
 30
0.0
 11
827.33069858695308
 21
93.0
 31
0.0
  0
LINE
  5
18C7
  8
0
 62
     0
 10
1011.580698586953
 20
93.0
 30
0.0
 11
1027.5779205581271
 21
93.0
 31
0.0
  0
LINE
  5
18C8
  8
0
 62
     0
 10
772.07318418770012
 20
93.0
 30
0.0
 11
788.089698241625
 21
93.0
 31
0.0
  0
LINE
  5
18C9
  8
0
 62
     0
 10
1053.5731841877
 20
93.0
 30
0.0
 11
1069.589698241625
 21
93.0
 31
0.0
  0
LINE
  5
18CA
  8
0
 62
     0
 10
730.08069858695364
 20
93.0
 30
0.0
 11
746.07792055812695
 21
93.0
 31
0.0
  0
LINE
  5
18CB
  8
0
 62
     0
 10
1095.5727139037219
 20
93.0
 30
0.0
 11
1108.8306985869531
 21
93.0
 31
0.0
  0
LINE
  5
18CC
  8
0
 62
     0
 10
690.83069858695296
 20
93.0
 30
0.0
 11
704.08069858695274
 21
93.0
 31
0.0
  0
LINE
  5
18CD
  8
0
 62
     0
 10
912.82318418770285
 20
94.500000000000014
 30
0.0
 11
928.83969824162762
 21
94.500000000000014
 31
0.0
  0
LINE
  5
18CE
  8
0
 62
     0
 10
870.83069858695637
 20
94.500000000000014
 30
0.0
 11
886.82792055812945
 21
94.500000000000014
 31
0.0
  0
LINE
  5
18CF
  8
0
 62
     0
 10
954.82271390372546
 20
94.500000000000014
 30
0.0
 11
968.08069858695603
 21
94.500000000000014
 31
0.0
  0
LINE
  5
18D0
  8
0
 62
     0
 10
831.58069858695603
 20
94.500000000000014
 30
0.0
 11
844.83069858695546
 21
94.500000000000014
 31
0.0
  0
LINE
  5
18D1
  8
0
 62
     0
 10
972.33069858695285
 20
94.500000000000014
 30
0.0
 11
985.58069858695274
 21
94.500000000000014
 31
0.0
  0
LINE
  5
18D2
  8
0
 62
     0
 10
814.07271390372273
 20
94.500000000000014
 30
0.0
 11
827.33069858695285
 21
94.500000000000014
 31
0.0
  0
LINE
  5
18D3
  8
0
 62
     0
 10
1011.580698586953
 20
94.500000000000014
 30
0.0
 11
1027.5779205581271
 21
94.500000000000014
 31
0.0
  0
LINE
  5
18D4
  8
0
 62
     0
 10
772.07318418770012
 20
94.500000000000014
 30
0.0
 11
788.089698241625
 21
94.500000000000014
 31
0.0
  0
LINE
  5
18D5
  8
0
 62
     0
 10
1053.5731841877
 20
94.500000000000014
 30
0.0
 11
1069.589698241625
 21
94.500000000000014
 31
0.0
  0
LINE
  5
18D6
  8
0
 62
     0
 10
730.08069858695364
 20
94.500000000000014
 30
0.0
 11
746.07792055812695
 21
94.500000000000014
 31
0.0
  0
LINE
  5
18D7
  8
0
 62
     0
 10
1095.5727139037219
 20
94.500000000000014
 30
0.0
 11
1108.8306985869531
 21
94.500000000000014
 31
0.0
  0
LINE
  5
18D8
  8
0
 62
     0
 10
690.83069858695285
 20
94.500000000000014
 30
0.0
 11
704.08069858695274
 21
94.500000000000014
 31
0.0
  0
LINE
  5
18D9
  8
0
 62
     0
 10
912.82318418770285
 20
96.0
 30
0.0
 11
928.83969824162762
 21
96.0
 31
0.0
  0
LINE
  5
18DA
  8
0
 62
     0
 10
870.83069858695637
 20
96.0
 30
0.0
 11
886.82792055812945
 21
96.0
 31
0.0
  0
LINE
  5
18DB
  8
0
 62
     0
 10
954.82271390372546
 20
96.0
 30
0.0
 11
968.08069858695603
 21
96.0
 31
0.0
  0
LINE
  5
18DC
  8
0
 62
     0
 10
831.58069858695603
 20
96.0
 30
0.0
 11
844.83069858695546
 21
96.0
 31
0.0
  0
LINE
  5
18DD
  8
0
 62
     0
 10
972.33069858695285
 20
96.0
 30
0.0
 11
985.58069858695274
 21
96.0
 31
0.0
  0
LINE
  5
18DE
  8
0
 62
     0
 10
814.07271390372273
 20
96.0
 30
0.0
 11
827.33069858695285
 21
96.0
 31
0.0
  0
LINE
  5
18DF
  8
0
 62
     0
 10
1011.580698586953
 20
96.0
 30
0.0
 11
1027.5779205581271
 21
96.0
 31
0.0
  0
LINE
  5
18E0
  8
0
 62
     0
 10
772.07318418770012
 20
96.0
 30
0.0
 11
788.089698241625
 21
96.0
 31
0.0
  0
LINE
  5
18E1
  8
0
 62
     0
 10
1053.5731841877
 20
96.0
 30
0.0
 11
1069.589698241625
 21
96.0
 31
0.0
  0
LINE
  5
18E2
  8
0
 62
     0
 10
730.08069858695364
 20
96.0
 30
0.0
 11
746.07792055812695
 21
96.0
 31
0.0
  0
LINE
  5
18E3
  8
0
 62
     0
 10
1095.5727139037219
 20
96.0
 30
0.0
 11
1108.8306985869531
 21
96.0
 31
0.0
  0
LINE
  5
18E4
  8
0
 62
     0
 10
690.83069858695285
 20
96.0
 30
0.0
 11
704.08069858695274
 21
96.0
 31
0.0
  0
LINE
  5
18E5
  8
0
 62
     0
 10
912.82318418770285
 20
97.5
 30
0.0
 11
928.83969824162762
 21
97.5
 31
0.0
  0
LINE
  5
18E6
  8
0
 62
     0
 10
870.83069858695637
 20
97.5
 30
0.0
 11
886.82792055812945
 21
97.5
 31
0.0
  0
LINE
  5
18E7
  8
0
 62
     0
 10
954.82271390372546
 20
97.5
 30
0.0
 11
968.08069858695603
 21
97.5
 31
0.0
  0
LINE
  5
18E8
  8
0
 62
     0
 10
831.58069858695603
 20
97.5
 30
0.0
 11
844.83069858695546
 21
97.5
 31
0.0
  0
LINE
  5
18E9
  8
0
 62
     0
 10
972.33069858695285
 20
97.5
 30
0.0
 11
985.58069858695274
 21
97.5
 31
0.0
  0
LINE
  5
18EA
  8
0
 62
     0
 10
814.07271390372273
 20
97.5
 30
0.0
 11
827.33069858695285
 21
97.5
 31
0.0
  0
LINE
  5
18EB
  8
0
 62
     0
 10
1011.580698586953
 20
97.5
 30
0.0
 11
1027.5779205581271
 21
97.5
 31
0.0
  0
LINE
  5
18EC
  8
0
 62
     0
 10
772.07318418770012
 20
97.5
 30
0.0
 11
788.089698241625
 21
97.5
 31
0.0
  0
LINE
  5
18ED
  8
0
 62
     0
 10
1053.5731841877
 20
97.5
 30
0.0
 11
1069.589698241625
 21
97.5
 31
0.0
  0
LINE
  5
18EE
  8
0
 62
     0
 10
730.08069858695364
 20
97.5
 30
0.0
 11
746.07792055812695
 21
97.5
 31
0.0
  0
LINE
  5
18EF
  8
0
 62
     0
 10
1095.5727139037219
 20
97.5
 30
0.0
 11
1108.8306985869531
 21
97.5
 31
0.0
  0
LINE
  5
18F0
  8
0
 62
     0
 10
690.83069858695285
 20
97.5
 30
0.0
 11
704.08069858695274
 21
97.5
 31
0.0
  0
ENDBLK
  5
18F2
  8
0
  0
ENDSEC
  0
SECTION
  2
ENTITIES
  0
LINE
  5
5FF
  8
0
 10
483.61280857830798
 20
116.3750045037569
 30
0.0
 11
483.67390095502151
 21
116.3750045037569
 31
0.0
  0
LINE
  5
600
  8
0
 10
483.67390095502151
 20
132.87500450375649
 30
0.0
 11
483.61280857830798
 21
132.87500450375649
 31
0.0
  0
LINE
  5
603
  8
0
 10
624.54390179425366
 20
116.3750045037569
 30
0.0
 11
624.60499607830707
 21
116.3750045037569
 31
0.0
  0
LINE
  5
604
  8
0
 10
624.60499607830707
 20
132.87500450375649
 30
0.0
 11
624.54390179425366
 21
132.87500450375649
 31
0.0
  0
LINE
  5
605
  8
0
 10
624.60499607830707
 20
124.6250045037567
 30
0.0
 11
624.60499607830707
 21
120.79104277955371
 31
0.0
  0
LINE
  5
606
  8
0
 10
624.60499607830707
 20
120.79103833439559
 30
0.0
 11
624.60499607830707
 21
119.1542425732701
 31
0.0
  0
LINE
  5
607
  8
0
 10
624.60499607830707
 20
119.1542400503607
 30
0.0
 11
624.60499607830707
 21
116.911120501602
 31
0.0
  0
LINE
  5
608
  8
0
 10
624.60499607830707
 20
116.91111714643731
 30
0.0
 11
624.60499607830707
 21
116.4351562924477
 31
0.0
  0
LINE
  5
60A
  8
0
 10
624.60499607830707
 20
132.8148527150656
 30
0.0
 11
624.60499607830707
 21
132.33888850591131
 31
0.0
  0
LINE
  5
60B
  8
0
 10
624.60499607830707
 20
132.33888731582149
 30
0.0
 11
624.60499607830707
 21
128.45897385138991
 31
0.0
  0
LINE
  5
60C
  8
0
 10
624.60499607830707
 20
128.4589706731177
 30
0.0
 11
624.60499607830707
 21
124.6250083558391
 31
0.0
  0
LINE
  5
60D
  8
0
 10
624.48390232830798
 20
115.62500450375749
 30
0.0
 11
624.54390232830667
 21
115.62500450375749
 31
0.0
  0
LINE
  5
60E
  8
0
 10
624.54390232830667
 20
133.62500450375751
 30
0.0
 11
624.48390232830798
 21
133.62500450375751
 31
0.0
  0
LINE
  5
60F
  8
0
 10
624.5439023283069
 20
124.6250045037573
 30
0.0
 11
624.5439023283069
 21
122.62231609815051
 31
0.0
  0
LINE
  5
610
  8
0
 10
624.5439023283069
 20
122.6223151086685
 30
0.0
 11
624.5439023283069
 21
120.72005512152739
 31
0.0
  0
LINE
  5
611
  8
0
 10
624.5439023283069
 20
120.7200508516993
 30
0.0
 11
624.5439023283069
 21
119.0135962870287
 31
0.0
  0
LINE
  5
612
  8
0
 10
624.5439023283069
 20
119.01359204160509
 30
0.0
 11
624.5439023283069
 21
117.5885211615451
 31
0.0
  0
LINE
  5
613
  8
0
 10
624.5439023283069
 20
117.58851618560659
 30
0.0
 11
624.5439023283069
 21
116.51628546006199
 31
0.0
  0
LINE
  5
614
  8
0
 10
624.5439023283069
 20
116.51628469263549
 30
0.0
 11
624.5439023283069
 21
115.8506532941209
 31
0.0
  0
LINE
  5
615
  8
0
 10
624.5439023283069
 20
115.85064967398991
 30
0.0
 11
624.5439023283069
 21
115.6250045037573
 31
0.0
  0
LINE
  5
616
  8
0
 10
624.5439023283069
 20
133.62500450375731
 30
0.0
 11
624.5439023283069
 21
133.3993557133937
 31
0.0
  0
LINE
  5
617
  8
0
 10
624.5439023283069
 20
133.3993543651207
 30
0.0
 11
624.5439023283069
 21
132.73372431487911
 31
0.0
  0
LINE
  5
618
  8
0
 10
624.5439023283069
 20
132.7337204299435
 30
0.0
 11
624.5439023283069
 21
131.6614883420639
 31
0.0
  0
LINE
  5
619
  8
0
 10
624.5439023283069
 20
131.66148784596959
 30
0.0
 11
624.5439023283069
 21
128.52996153126151
 31
0.0
  0
LINE
  5
61A
  8
0
 10
624.5439023283069
 20
128.52995815581531
 30
0.0
 11
624.5439023283069
 21
124.6250083506587
 31
0.0
  0
LINE
  5
61B
  8
0
 10
483.61280857830798
 20
116.3750045037613
 30
0.0
 11
483.67390095502151
 21
116.3750045037613
 31
0.0
  0
LINE
  5
61C
  8
0
 10
483.67390095502151
 20
132.87500450376129
 30
0.0
 11
483.61280857830798
 21
132.87500450376129
 31
0.0
  0
LINE
  5
61D
  8
0
 10
483.6128085783065
 20
116.43515629245221
 30
0.0
 11
483.6128085783065
 21
116.911117146435
 31
0.0
  0
LINE
  5
61E
  8
0
 10
483.6128085783065
 20
116.9111205016065
 30
0.0
 11
483.6128085783065
 21
117.8353876101384
 31
0.0
  0
LINE
  5
61F
  8
0
 10
483.6128085783065
 20
117.8353886943101
 30
0.0
 11
483.6128085783065
 21
119.15424005036
 31
0.0
  0
LINE
  5
620
  8
0
 10
483.6128085783065
 20
119.1542425732745
 30
0.0
 11
483.6128085783065
 21
124.62500450376101
 31
0.0
  0
LINE
  5
621
  8
0
 10
483.6128085783065
 20
124.6250083558391
 30
0.0
 11
483.6128085783065
 21
128.45897067312231
 31
0.0
  0
LINE
  5
622
  8
0
 10
483.6128085783065
 20
128.45897385138949
 30
0.0
 11
483.6128085783065
 21
130.09576498913449
 31
0.0
  0
LINE
  5
623
  8
0
 10
483.6128085783065
 20
130.09576643424771
 30
0.0
 11
483.6128085783065
 21
131.41461703737329
 31
0.0
  0
LINE
  5
624
  8
0
 10
483.6128085783065
 20
131.4146213973838
 30
0.0
 11
483.6128085783065
 21
132.3388873158226
 31
0.0
  0
LINE
  5
625
  8
0
 10
483.6128085783065
 20
132.3388885059158
 30
0.0
 11
483.6128085783065
 21
132.81485271507009
 31
0.0
  0
LINE
  5
627
  8
0
 10
483.67390232830718
 20
115.625004503762
 30
0.0
 11
483.73390232830712
 21
115.625004503762
 31
0.0
  0
LINE
  5
628
  8
0
 10
483.73390232830712
 20
133.625004503762
 30
0.0
 11
483.67390232830718
 21
133.625004503762
 31
0.0
  0
LINE
  5
629
  8
0
 10
483.6739023283065
 20
115.6250045037618
 30
0.0
 11
483.6739023283065
 21
115.8506496739854
 31
0.0
  0
LINE
  5
62A
  8
0
 10
483.6739023283065
 20
115.85065329412539
 30
0.0
 11
483.67390232830638
 21
117.5885161856057
 31
0.0
  0
LINE
  5
62B
  8
0
 10
483.67390232830638
 20
117.58852116154949
 30
0.0
 11
483.67390232830638
 21
119.0135920416045
 31
0.0
  0
LINE
  5
62C
  8
0
 10
483.67390232830638
 20
119.0135962870331
 30
0.0
 11
483.67390232830638
 21
122.6223151086687
 31
0.0
  0
LINE
  5
62D
  8
0
 10
483.67390232830638
 20
122.6223160981549
 30
0.0
 11
483.67390232830638
 21
124.6250045037617
 31
0.0
  0
LINE
  5
62E
  8
0
 10
483.67390232830638
 20
124.6250083506586
 30
0.0
 11
483.67390232830638
 21
126.6276900987781
 31
0.0
  0
LINE
  5
62F
  8
0
 10
483.67390232830638
 20
126.62769290936861
 30
0.0
 11
483.67390232830638
 21
128.5299581558198
 31
0.0
  0
LINE
  5
630
  8
0
 10
483.67390232830638
 20
128.52996153126119
 30
0.0
 11
483.67390232830638
 21
131.66148784597411
 31
0.0
  0
LINE
  5
631
  8
0
 10
483.67390232830638
 20
131.661488342063
 30
0.0
 11
483.6739023283065
 21
133.39935436512221
 31
0.0
  0
LINE
  5
632
  8
0
 10
483.6739023283065
 20
133.39935571339819
 30
0.0
 11
483.6739023283065
 21
133.6250045037618
 31
0.0
  0
LINE
  5
633
  8
0
 10
624.54390179425366
 20
116.3750045037569
 30
0.0
 11
624.60499607830707
 21
116.3750045037569
 31
0.0
  0
LINE
  5
634
  8
0
 10
624.60499607830707
 20
132.87500450375649
 30
0.0
 11
624.54390179425366
 21
132.87500450375649
 31
0.0
  0
LINE
  5
637
  8
0
 10
483.73390232830673
 20
154.62500450375751
 30
0.0
 11
624.48390232830388
 21
154.62500450375751
 31
0.0
  0
LINE
  5
638
  8
0
 10
624.48390232830388
 20
100.00000450375769
 30
0.0
 11
483.73390232830673
 21
100.00000450375769
 31
0.0
  0
LINE
  5
639
  8
0
 10
483.73390232830673
 20
100.00000450375769
 30
0.0
 11
483.73390232830673
 21
154.62500450375751
 31
0.0
  0
LINE
  5
63A
  8
0
 10
624.48390232830388
 20
100.00000450375769
 30
0.0
 11
624.48390232830388
 21
154.62500450375751
 31
0.0
  0
LINE
  5
63B
  8
0
 10
483.73390232830712
 20
100.00000450375769
 30
0.0
 11
625.73390232830695
 21
100.00000450375769
 31
0.0
  0
LINE
  5
63C
  8
0
 10
625.73390232830695
 20
0.0000045037577365
 30
0.0
 11
483.73390232830712
 21
0.0000045037577365
 31
0.0
  0
LINE
  5
63D
  8
0
 10
483.73390232830712
 20
100.00000450375769
 30
0.0
 11
483.73390232830712
 21
0.0000045037577365
 31
0.0
  0
LINE
  5
63E
  8
0
 10
625.73390232830695
 20
0.0000045037577365
 30
0.0
 11
625.73390232830695
 21
100.00000450375769
 31
0.0
  0
LINE
  5
648
  8
0
 10
624.73390232830695
 20
150.87500450375819
 30
0.0
 11
624.48390232830798
 21
150.87500450375819
 31
0.0
  0
LINE
  5
649
  8
0
 10
624.48390232830798
 20
142.87500450375799
 30
0.0
 11
624.73390232830695
 21
142.87500450375799
 31
0.0
  0
LINE
  5
64A
  8
0
 10
624.73390232830695
 20
150.87500450375811
 30
0.0
 11
624.73390232830695
 21
150.738710545641
 31
0.0
  0
LINE
  5
64B
  8
0
 10
624.73390232830695
 20
150.73870780891431
 30
0.0
 11
624.73390232830695
 21
150.33910611889581
 31
0.0
  0
LINE
  5
64C
  8
0
 10
624.73390232830695
 20
150.33910469300091
 30
0.0
 11
624.73390232830695
 21
147.9102806841681
 31
0.0
  0
LINE
  5
64D
  8
0
 10
624.73390232830695
 20
147.9102790478118
 30
0.0
 11
624.73390232830695
 21
146.87500450375799
 31
0.0
  0
LINE
  5
64E
  8
0
 10
624.73390232830695
 20
146.87500064513341
 30
0.0
 11
624.73390232830695
 21
145.83973368684951
 31
0.0
  0
LINE
  5
64F
  8
0
 10
624.73390232830695
 20
145.83972832334791
 30
0.0
 11
624.73390232830695
 21
143.4109074566511
 31
0.0
  0
LINE
  5
650
  8
0
 10
624.73390232830695
 20
143.41090288862031
 30
0.0
 11
624.73390232830695
 21
142.87500450375799
 31
0.0
  0
ARC
  5
651
  8
0
 10
548.98390232830604
 20
40.50000450375812
 30
0.0
 40
1.50000000000001
 50
359.99999999999898
 51
179.99999999999901
  0
ARC
  5
652
  8
0
 10
548.98390232830604
 20
40.50000450375812
 30
0.0
 40
1.499999999999988
 50
180.00000000000071
 51
0.0000000000001527
  0
ARC
  5
653
  8
0
 10
488.48390232830621
 20
29.000004503758142
 30
0.0
 40
1.4999999999999849
 50
359.9999999999996
 51
179.9999999999996
  0
ARC
  5
654
  8
0
 10
488.48390232830621
 20
29.000004503758142
 30
0.0
 40
1.500000000000004
 50
180.0000000000002
 51
359.9999999999992
  0
ARC
  5
655
  8
0
 10
487.10890232830599
 20
6.62500450375813
 30
0.0
 40
0.9999999999999992
 50
359.9999999999996
 51
179.99999999999969
  0
ARC
  5
656
  8
0
 10
487.10890232830599
 20
6.62500450375813
 30
0.0
 40
1.0000000000000011
 50
180.00000000000011
 51
359.99999999999937
  0
ARC
  5
657
  8
0
 10
510.85890232830633
 20
13.500004503758159
 30
0.0
 40
5.0000000000000151
 50
359.99999999999932
 51
179.9999999999996
  0
ARC
  5
658
  8
0
 10
510.85890232830633
 20
13.500004503758159
 30
0.0
 40
4.9999999999999991
 50
180.00000000000031
 51
359.99999999999949
  0
CIRCLE
  5
659
  8
0
 10
506.48390232830633
 20
44.250004503757722
 30
0.0
 40
11.18749999999998
  0
ARC
  5
65A
  8
0
 10
899.8306985869566
 20
124.6250045037566
 30
0.0
 40
8.2500000000000089
 50
179.99999999999969
 51
359.99999999999881
  0
ARC
  5
65B
  8
0
 10
899.8306985869566
 20
124.6250045037566
 30
0.0
 40
8.2500000000000053
 50
359.9999999999996
 51
179.9999999999998
  0
ARC
  5
65C
  8
0
 10
899.8306985869566
 20
124.6250045037566
 30
0.0
 40
7.687499999999992
 50
0.0000000000009414
 51
180.0000000000002
  0
ARC
  5
65D
  8
0
 10
899.8306985869566
 20
124.6250045037566
 30
0.0
 40
7.687499999999992
 50
180.00000000000011
 51
0.0000000000000509
  0
LINE
  5
65E
  8
0
 10
904.95319936094472
 20
122.1831486549592
 30
0.0
 11
904.75825888475413
 21
121.73423992480051
 31
0.0
  0
LINE
  5
65F
  8
0
 10
904.75825888475413
 20
121.73423992480051
 30
0.0
 11
904.30736602761124
 21
121.5769978613085
 31
0.0
  0
LINE
  5
660
  8
0
 10
904.30736602761124
 20
121.5769978613085
 30
0.0
 11
903.98283725777003
 21
121.6412339724196
 31
0.0
  0
LINE
  5
661
  8
0
 10
903.98283725777003
 20
121.6412339724196
 30
0.0
 11
903.74734618634147
 21
121.8339423057529
 31
0.0
  0
LINE
  5
662
  8
0
 10
903.74734618634147
 20
121.8339423057529
 30
0.0
 11
903.55637396411919
 21
122.59187881368941
 31
0.0
  0
LINE
  5
663
  8
0
 10
903.55637396411919
 20
122.59187881368941
 30
0.0
 11
903.7404017418969
 21
123.35576770257831
 31
0.0
  0
LINE
  5
664
  8
0
 10
903.7404017418969
 20
123.35576770257831
 30
0.0
 11
903.97018844824606
 21
123.5454998454354
 31
0.0
  0
LINE
  5
665
  8
0
 10
903.97018844824606
 20
123.5454998454354
 30
0.0
 11
904.29149301173811
 21
123.60874389305449
 31
0.0
  0
LINE
  5
666
  8
0
 10
904.29149301173811
 20
123.60874389305449
 30
0.0
 11
904.75974697999231
 21
123.4653907184513
 31
0.0
  0
LINE
  5
667
  8
0
 10
904.75974697999231
 20
123.4653907184513
 30
0.0
 11
904.95319936094472
 21
123.0402915121021
 31
0.0
  0
LINE
  5
668
  8
0
 10
904.95319936094472
 20
123.0402915121021
 30
0.0
 11
906.09605650380172
 21
123.0402915121021
 31
0.0
  0
LINE
  5
669
  8
0
 10
906.09605650380172
 20
123.0402915121021
 30
0.0
 11
905.93583824983341
 21
123.68798496448299
 31
0.0
  0
LINE
  5
66A
  8
0
 10
905.93583824983341
 20
123.68798496448299
 30
0.0
 11
905.568278726024
 21
124.1667796073402
 31
0.0
  0
LINE
  5
66B
  8
0
 10
905.568278726024
 20
124.1667796073402
 30
0.0
 11
905.00925094824618
 21
124.46253853591161
 31
0.0
  0
LINE
  5
66C
  8
0
 10
905.00925094824618
 20
124.46253853591161
 30
0.0
 11
904.27462793237305
 21
124.5611248454354
 31
0.0
  0
LINE
  5
66D
  8
0
 10
904.27462793237305
 20
124.5611248454354
 30
0.0
 11
903.47663686094461
 21
124.429180400991
 31
0.0
  0
LINE
  5
66E
  8
0
 10
903.47663686094461
 20
124.429180400991
 30
0.0
 11
902.86639380538895
 21
124.0333470676577
 31
0.0
  0
LINE
  5
66F
  8
0
 10
902.86639380538895
 20
124.0333470676577
 30
0.0
 11
902.47911701967473
 21
123.40933913114969
 31
0.0
  0
LINE
  5
670
  8
0
 10
902.47911701967473
 20
123.40933913114969
 30
0.0
 11
902.35002475777003
 21
122.5928708771815
 31
0.0
  0
LINE
  5
671
  8
0
 10
902.35002475777003
 20
122.5928708771815
 30
0.0
 11
902.47973705935726
 21
121.77454250416559
 31
0.0
  0
LINE
  5
672
  8
0
 10
902.47973705935726
 20
121.77454250416559
 30
0.0
 11
902.86887396411908
 21
121.1509065914672
 31
0.0
  0
LINE
  5
673
  8
0
 10
902.86887396411908
 20
121.1509065914672
 30
0.0
 11
903.48420134507148
 21
120.7561893295624
 31
0.0
  0
LINE
  5
674
  8
0
 10
903.48420134507148
 20
120.7561893295624
 30
0.0
 11
904.29248507523027
 21
120.62461690892751
 31
0.0
  0
LINE
  5
675
  8
0
 10
904.29248507523027
 20
120.62461690892751
 30
0.0
 11
905.0155753530081
 21
120.72679944861
 31
0.0
  0
LINE
  5
676
  8
0
 10
905.0155753530081
 20
120.72679944861
 30
0.0
 11
905.57175094824606
 21
121.0333470676577
 31
0.0
  0
LINE
  5
677
  8
0
 10
905.57175094824606
 20
121.0333470676577
 30
0.0
 11
905.93918646411919
 21
121.5251625438481
 31
0.0
  0
LINE
  5
678
  8
0
 10
905.93918646411919
 20
121.5251625438481
 30
0.0
 11
906.09605650380172
 21
122.1831486549592
 31
0.0
  0
LINE
  5
679
  8
0
 10
906.09605650380172
 20
122.1831486549592
 30
0.0
 11
904.95319936094472
 21
122.1831486549592
 31
0.0
  0
LINE
  5
67A
  8
0
 10
897.7314719831769
 20
122.95722284388251
 30
0.0
 11
898.90905134825641
 21
122.95722284388251
 31
0.0
  0
LINE
  5
67B
  8
0
 10
898.90905134825641
 20
122.95722284388251
 30
0.0
 11
899.05587674508172
 21
123.465159351819
 31
0.0
  0
LINE
  5
67C
  8
0
 10
899.05587674508172
 20
123.465159351819
 30
0.0
 11
900.25924976095484
 21
123.465159351819
 31
0.0
  0
LINE
  5
67D
  8
0
 10
900.25924976095484
 20
123.465159351819
 30
0.0
 11
900.40111484031968
 21
122.95722284388251
 31
0.0
  0
LINE
  5
67E
  8
0
 10
900.40111484031968
 20
122.95722284388251
 30
0.0
 11
901.6044878561928
 21
122.95722284388251
 31
0.0
  0
LINE
  5
67F
  8
0
 10
901.6044878561928
 20
122.95722284388251
 30
0.0
 11
900.27512277682774
 21
126.7667466534063
 31
0.0
  0
LINE
  5
680
  8
0
 10
900.27512277682774
 20
126.7667466534063
 30
0.0
 11
899.045956110161
 21
126.7667466534063
 31
0.0
  0
LINE
  5
681
  8
0
 10
899.045956110161
 20
126.7667466534063
 30
0.0
 11
897.7314719831769
 21
122.95722284388251
 31
0.0
  0
LINE
  5
682
  8
0
 10
899.27611484031979
 20
124.29055617721581
 30
0.0
 11
899.66202753873245
 21
125.59412760578719
 31
0.0
  0
LINE
  5
683
  8
0
 10
899.66202753873245
 20
125.59412760578719
 30
0.0
 11
900.03901166571654
 21
124.29055617721581
 31
0.0
  0
LINE
  5
684
  8
0
 10
900.03901166571654
 20
124.29055617721581
 30
0.0
 11
899.27611484031979
 21
124.29055617721581
 31
0.0
  0
LINE
  5
685
  8
0
 10
893.97074079291554
 20
124.6976111530627
 30
0.0
 11
895.67014555482024
 21
124.6976111530627
 31
0.0
  0
LINE
  5
686
  8
0
 10
895.67014555482024
 20
124.6976111530627
 30
0.0
 11
896.43800269767735
 21
124.73630162925321
 31
0.0
  0
LINE
  5
687
  8
0
 10
896.43800269767735
 20
124.73630162925321
 30
0.0
 11
896.85070111037578
 21
124.86824607369761
 31
0.0
  0
LINE
  5
688
  8
0
 10
896.85070111037578
 20
124.86824607369761
 30
0.0
 11
897.25893523735988
 21
125.2511825816341
 31
0.0
  0
LINE
  5
689
  8
0
 10
897.25893523735988
 20
125.2511825816341
 30
0.0
 11
897.39931222148687
 21
125.83848416893569
 31
0.0
  0
LINE
  5
68A
  8
0
 10
897.39931222148687
 20
125.83848416893569
 30
0.0
 11
897.25546301513782
 21
126.4014802006818
 31
0.0
  0
LINE
  5
68B
  8
0
 10
897.25546301513782
 20
126.4014802006818
 30
0.0
 11
896.8120106341853
 21
126.7263809943325
 31
0.0
  0
LINE
  5
68C
  8
0
 10
896.8120106341853
 20
126.7263809943325
 30
0.0
 11
897.15724872942349
 21
127.0438413117929
 31
0.0
  0
LINE
  5
68D
  8
0
 10
897.15724872942349
 20
127.0438413117929
 30
0.0
 11
897.27232809450288
 21
127.4962222641738
 31
0.0
  0
LINE
  5
68E
  8
0
 10
897.27232809450288
 20
127.4962222641738
 30
0.0
 11
897.118558253233
 21
128.05624210544369
 31
0.0
  0
LINE
  5
68F
  8
0
 10
897.118558253233
 20
128.05624210544369
 30
0.0
 11
896.67609793577265
 21
128.39602385147541
 31
0.0
  0
LINE
  5
690
  8
0
 10
896.67609793577265
 20
128.39602385147541
 30
0.0
 11
896.28076063418519
 21
128.4813413117929
 31
0.0
  0
LINE
  5
691
  8
0
 10
896.28076063418519
 20
128.4813413117929
 30
0.0
 11
895.54712968180434
 21
128.50713496258649
 31
0.0
  0
LINE
  5
692
  8
0
 10
895.54712968180434
 20
128.50713496258649
 30
0.0
 11
893.97074079291554
 21
128.50713496258649
 31
0.0
  0
LINE
  5
693
  8
0
 10
893.97074079291554
 20
128.50713496258649
 30
0.0
 11
893.97074079291554
 21
124.6976111530627
 31
0.0
  0
LINE
  5
694
  8
0
 10
895.17708999926492
 20
125.5865000419516
 30
0.0
 11
895.17708999926492
 21
126.28491274036431
 31
0.0
  0
LINE
  5
695
  8
0
 10
895.17708999926492
 20
126.28491274036431
 30
0.0
 11
895.72570111037589
 21
126.28491274036431
 31
0.0
  0
LINE
  5
696
  8
0
 10
895.72570111037589
 20
126.28491274036431
 30
0.0
 11
896.13492730085204
 21
126.2055476609992
 31
0.0
  0
LINE
  5
697
  8
0
 10
896.13492730085204
 20
126.2055476609992
 30
0.0
 11
896.25645507862976
 21
125.9386825816341
 31
0.0
  0
LINE
  5
698
  8
0
 10
896.25645507862976
 20
125.9386825816341
 30
0.0
 11
896.13740745958216
 21
125.6688413117929
 31
0.0
  0
LINE
  5
699
  8
0
 10
896.13740745958216
 20
125.6688413117929
 30
0.0
 11
895.73661380878855
 21
125.5865000419516
 31
0.0
  0
LINE
  5
69A
  8
0
 10
895.73661380878855
 20
125.5865000419516
 30
0.0
 11
895.17708999926492
 21
125.5865000419516
 31
0.0
  0
LINE
  5
69B
  8
0
 10
895.17708999926492
 20
126.983325438777
 30
0.0
 11
895.17708999926492
 21
127.61824607369761
 31
0.0
  0
LINE
  5
69C
  8
0
 10
895.17708999926492
 20
127.61824607369761
 30
0.0
 11
895.51141539609
 21
127.61824607369761
 31
0.0
  0
LINE
  5
69D
  8
0
 10
895.51141539609
 20
127.61824607369761
 30
0.0
 11
896.01984793577265
 21
127.5507857562373
 31
0.0
  0
LINE
  5
69E
  8
0
 10
896.01984793577265
 20
127.5507857562373
 30
0.0
 11
896.12947095164554
 21
127.3007857562373
 31
0.0
  0
LINE
  5
69F
  8
0
 10
896.12947095164554
 20
127.3007857562373
 30
0.0
 11
896.02728841196301
 21
127.05574607369761
 31
0.0
  0
LINE
  5
6A0
  8
0
 10
896.02728841196301
 20
127.05574607369761
 30
0.0
 11
895.6751058722806
 21
126.983325438777
 31
0.0
  0
LINE
  5
6A1
  8
0
 10
895.6751058722806
 20
126.983325438777
 30
0.0
 11
895.17708999926492
 21
126.983325438777
 31
0.0
  0
ARC
  5
6A2
  8
0
 10
899.83069858695626
 20
124.6250045037573
 30
0.0
 40
9.0000000000000213
 50
179.9999999999998
 51
359.99999999999881
  0
ARC
  5
6A3
  8
0
 10
899.83069858695626
 20
124.6250045037573
 30
0.0
 40
9.0000000000000053
 50
359.9999999999996
 51
179.9999999999998
  0
LINE
  5
6A4
  8
0
 10
829.9556985869624
 20
154.62500450375751
 30
0.0
 11
969.70569858695683
 21
154.62500450375751
 31
0.0
  0
LINE
  5
6A5
  8
0
 10
829.9556985869624
 20
100.00000450375769
 30
0.0
 11
829.9556985869624
 21
154.62500450375751
 31
0.0
  0
LINE
  5
6A6
  8
0
 10
969.70569858695683
 20
100.00000450375769
 30
0.0
 11
969.70569858695683
 21
154.62500450375751
 31
0.0
  0
LINE
  5
6A7
  8
0
 10
887.83069858695808
 20
6.0000045037577348
 30
0.0
 11
911.83069858695808
 21
6.0000045037584178
 31
0.0
  0
LINE
  5
6A8
  8
0
 10
887.8306985869558
 20
86.080200527385671
 30
0.0
 11
911.8306985869558
 21
86.080200527385912
 31
0.0
  0
LINE
  5
6A9
  8
0
 10
911.8306985869566
 20
4.0000045037577836
 30
0.0
 11
911.83069858695671
 21
98.375004503758362
 31
0.0
  0
LINE
  5
6AA
  8
0
 10
912.82318418770308
 20
98.375004503758362
 30
0.0
 11
912.82318418770285
 21
4.0000045037577836
 31
0.0
  0
LINE
  5
6AB
  8
0
 10
911.8306985869566
 20
4.0000045037577836
 30
0.0
 11
912.82318418770285
 21
4.0000045037577827
 31
0.0
  0
LINE
  5
6AC
  8
0
 10
912.82318418770308
 20
98.375004503758362
 30
0.0
 11
911.83069858695671
 21
98.375004503758362
 31
0.0
  0
LINE
  5
6AD
  8
0
 10
886.82792055812979
 20
4.0000045037578227
 30
0.0
 11
886.82792055813002
 21
98.375004503758404
 31
0.0
  0
LINE
  5
6AE
  8
0
 10
887.83069858695671
 20
98.375004503758404
 30
0.0
 11
887.83069858695649
 21
4.000004503757828
 31
0.0
  0
LINE
  5
6AF
  8
0
 10
886.82792055812979
 20
4.0000045037578227
 30
0.0
 11
887.83069858695649
 21
4.0000045037578218
 31
0.0
  0
LINE
  5
6B0
  8
0
 10
887.83069858695671
 20
98.375004503758404
 30
0.0
 11
886.82792055813002
 21
98.375004503758404
 31
0.0
  0
LINE
  5
6B1
  8
0
 10
929.83069858695808
 20
6.0000045037577348
 30
0.0
 11
953.83069858695808
 21
6.0000045037577348
 31
0.0
  0
LINE
  5
6B2
  8
0
 10
929.83069858695694
 20
86.080200527385514
 30
0.0
 11
953.83069858695671
 21
86.080200527385514
 31
0.0
  0
LINE
  5
6B3
  8
0
 10
928.83969824162796
 20
4.0000045037577632
 30
0.0
 11
928.83969824162796
 21
98.375004503758333
 31
0.0
  0
LINE
  5
6B4
  8
0
 10
929.83069858695671
 20
98.375004503758333
 30
0.0
 11
929.83069858695649
 21
4.0000045037577632
 31
0.0
  0
LINE
  5
6B5
  8
0
 10
928.83969824162796
 20
4.0000045037577632
 30
0.0
 11
929.83069858695649
 21
4.0000045037577632
 31
0.0
  0
LINE
  5
6B6
  8
0
 10
929.83069858695671
 20
98.375004503758333
 30
0.0
 11
928.83969824162796
 21
98.375004503758333
 31
0.0
  0
LINE
  5
6B7
  8
0
 10
953.83069858695649
 20
4.0000045037577223
 30
0.0
 11
953.83069858695671
 21
98.375004503758291
 31
0.0
  0
LINE
  5
6B8
  8
0
 10
954.8227139037258
 20
98.375004503758291
 30
0.0
 11
954.82271390372568
 21
4.0000045037577214
 31
0.0
  0
LINE
  5
6B9
  8
0
 10
954.82271390372568
 20
4.0000045037577214
 30
0.0
 11
953.83069858695649
 21
4.0000045037577223
 31
0.0
  0
LINE
  5
6BA
  8
0
 10
954.8227139037258
 20
98.375004503758291
 30
0.0
 11
953.83069858695671
 21
98.375004503758291
 31
0.0
  0
LINE
  5
6BB
  8
0
 10
845.83069858695831
 20
6.0000045037573919
 30
0.0
 11
869.83069858695671
 21
6.0000045037577348
 31
0.0
  0
LINE
  5
6BC
  8
0
 10
845.8306985869558
 20
86.080200527385244
 30
0.0
 11
869.83069858695569
 21
86.080200527385514
 31
0.0
  0
LINE
  5
6BD
  8
0
 10
869.83069858695637
 20
4.0000045037578484
 30
0.0
 11
869.83069858695671
 21
98.375004503758404
 31
0.0
  0
LINE
  5
6BE
  8
0
 10
870.83069858695671
 20
98.375004503758404
 30
0.0
 11
870.83069858695649
 21
4.0000045037578484
 31
0.0
  0
LINE
  5
6BF
  8
0
 10
869.83069858695637
 20
4.0000045037578484
 30
0.0
 11
870.83069858695649
 21
4.0000045037578484
 31
0.0
  0
LINE
  5
6C0
  8
0
 10
870.83069858695671
 20
98.375004503758404
 30
0.0
 11
869.83069858695671
 21
98.375004503758404
 31
0.0
  0
LINE
  5
6C1
  8
0
 10
844.83069858695637
 20
4.0000045037578911
 30
0.0
 11
844.83069858695671
 21
98.375004503758475
 31
0.0
  0
LINE
  5
6C2
  8
0
 10
845.83069858695671
 20
98.375004503758475
 30
0.0
 11
845.83069858695649
 21
4.0000045037578911
 31
0.0
  0
LINE
  5
6C3
  8
0
 10
844.83069858695637
 20
4.0000045037578911
 30
0.0
 11
845.83069858695649
 21
4.0000045037578911
 31
0.0
  0
LINE
  5
6C4
  8
0
 10
845.83069858695671
 20
98.375004503758475
 30
0.0
 11
844.83069858695671
 21
98.375004503758475
 31
0.0
  0
LINE
  5
6C5
  8
0
 10
831.58069858695615
 20
98.375004503759627
 30
0.0
 11
831.58069858695615
 21
4.0000045037577321
 31
0.0
  0
LINE
  5
6C6
  8
0
 10
831.58069858695615
 20
4.0000045037577321
 30
0.0
 11
844.83069858695546
 21
4.0000045037577321
 31
0.0
  0
LINE
  5
6C7
  8
0
 10
844.83069858695546
 20
4.0000045037577321
 30
0.0
 11
844.83069858695546
 21
98.375004503759627
 31
0.0
1001
ACAD
1000
ASC_BOUNDS
1002
{
1070
    19
1005
A74
1002
}
  0
LINE
  5
6C8
  8
0
 10
844.83069858695546
 20
98.375004503759627
 30
0.0
 11
831.58069858695615
 21
98.375004503759627
 31
0.0
  0
LINE
  5
6C9
  8
0
 10
886.82792055812945
 20
98.375004503758404
 30
0.0
 11
870.83069858695637
 21
98.375004503758404
 31
0.0
  0
LINE
  5
6CA
  8
0
 10
870.83069858695637
 20
98.375004503758404
 30
0.0
 11
870.83069858695637
 21
4.0000045037578484
 31
0.0
1001
ACAD
1000
ASC_BOUNDS
1002
{
1070
    19
1005
A74
1002
}
  0
LINE
  5
6CB
  8
0
 10
870.83069858695637
 20
4.0000045037578484
 30
0.0
 11
886.82792055812945
 21
4.0000045037578484
 31
0.0
  0
LINE
  5
6CC
  8
0
 10
886.82792055812945
 20
4.0000045037578484
 30
0.0
 11
886.82792055812945
 21
98.375004503758404
 31
0.0
1001
ACAD
1000
ASC_BOUNDS
1002
{
1070
    19
1005
A74
1002
}
  0
LINE
  5
6CD
  8
0
 10
968.08069858695637
 20
98.375004503758404
 30
0.0
 11
954.82271390372546
 21
98.375004503758404
 31
0.0
  0
LINE
  5
6CE
  8
0
 10
954.82271390372546
 20
98.375004503758404
 30
0.0
 11
954.82271390372546
 21
4.0000045037578484
 31
0.0
1001
ACAD
1000
ASC_BOUNDS
1002
{
1070
    19
1005
A74
1002
}
  0
LINE
  5
6CF
  8
0
 10
954.82271390372546
 20
4.0000045037578484
 30
0.0
 11
968.08069858695637
 21
4.0000045037578484
 31
0.0
  0
LINE
  5
6D0
  8
0
 10
968.08069858695637
 20
4.0000045037578484
 30
0.0
 11
968.08069858695637
 21
98.375004503758404
 31
0.0
  0
LINE
  5
6D1
  8
0
 10
928.83969824162762
 20
98.375004503758404
 30
0.0
 11
912.82318418770285
 21
98.375004503758404
 31
0.0
  0
LINE
  5
6D2
  8
0
 10
912.82318418770285
 20
98.375004503758404
 30
0.0
 11
912.82318418770285
 21
4.0000045037578484
 31
0.0
1001
ACAD
1000
ASC_BOUNDS
1002
{
1070
    19
1005
A74
1002
}
  0
LINE
  5
6D3
  8
0
 10
912.82318418770285
 20
4.0000045037578484
 30
0.0
 11
928.83969824162762
 21
4.0000045037578484
 31
0.0
  0
LINE
  5
6D4
  8
0
 10
928.83969824162762
 20
4.0000045037578484
 30
0.0
 11
928.83969824162762
 21
98.375004503758404
 31
0.0
1001
ACAD
1000
ASC_BOUNDS
1002
{
1070
    19
1005
A74
1002
}
  0
LINE
  5
6D5
  8
0
 10
829.95569858695728
 20
100.00000450375769
 30
0.0
 11
969.70569858695717
 21
100.00000450375769
 31
0.0
  0
LINE
  5
6D6
  8
0
 10
969.70569858695717
 20
0.0000045037577365
 30
0.0
 11
829.95569858695728
 21
0.0000045037577365
 31
0.0
  0
LINE
  5
6D7
  8
0
 10
829.95569858695728
 20
0.0000045037577365
 30
0.0
 11
829.95569858695728
 21
100.00000450375769
 31
0.0
  0
LINE
  5
6D8
  8
0
 10
831.58069858695694
 20
4.0000045037565908
 30
0.0
 11
831.58069858695603
 21
98.375004503757125
 31
0.0
1001
ACAD
1000
ASC_BOUNDS
1002
{
1070
    19
1005
A74
1002
}
  0
LINE
  5
6D9
  8
0
 10
831.58069858695603
 20
98.375004503757125
 30
0.0
 11
968.08069858695603
 21
98.375004503758575
 31
0.0
1001
ACAD
1000
ASC_BOUNDS
1002
{
1070
    19
1005
A74
1005
A74
1005
A74
1005
A74
1002
}
  0
LINE
  5
6DA
  8
0
 10
968.08069858695603
 20
98.375004503758575
 30
0.0
 11
968.08069858695694
 21
4.0000045037579977
 31
0.0
1001
ACAD
1000
ASC_BOUNDS
1002
{
1070
    19
1005
A74
1002
}
  0
LINE
  5
6DB
  8
0
 10
968.08069858695694
 20
4.000004503758019
 30
0.0
 11
831.58069858695694
 21
4.0000045037566121
 31
0.0
1001
ACAD
1000
ASC_BOUNDS
1002
{
1070
    19
1005
A74
1005
A74
1005
A74
1005
A74
1002
}
  0
LINE
  5
6DC
  8
0
 10
969.70569858695717
 20
0.0000045037577365
 30
0.0
 11
969.70569858695717
 21
100.00000450375769
 31
0.0
  0
ARC
  5
6DD
  8
0
 10
1040.5806985869519
 20
124.6250045037565
 30
0.0
 40
8.2500000000000089
 50
179.9999999999998
 51
359.99999999999881
  0
ARC
  5
6DE
  8
0
 10
1040.5806985869519
 20
124.6250045037565
 30
0.0
 40
8.25
 50
0.0
 51
179.9999999999998
  0
ARC
  5
6DF
  8
0
 10
1040.5806985869519
 20
124.6250045037565
 30
0.0
 40
7.6874999999999831
 50
0.0000000000009669
 51
180.0000000000002
  0
ARC
  5
6E0
  8
0
 10
1040.5806985869519
 20
124.6250045037565
 30
0.0
 40
7.6875
 50
179.99999999999969
 51
0.0
  0
LINE
  5
6E1
  8
0
 10
1045.7031993609401
 20
122.1831486549592
 30
0.0
 11
1045.508258884749
 21
121.73423992480041
 31
0.0
  0
LINE
  5
6E2
  8
0
 10
1045.508258884749
 20
121.73423992480041
 30
0.0
 11
1045.0573660276059
 21
121.5769978613084
 31
0.0
  0
LINE
  5
6E3
  8
0
 10
1045.0573660276059
 20
121.5769978613084
 30
0.0
 11
1044.7328372577649
 21
121.6412339724195
 31
0.0
  0
LINE
  5
6E4
  8
0
 10
1044.7328372577649
 20
121.6412339724195
 30
0.0
 11
1044.4973461863369
 21
121.8339423057528
 31
0.0
  0
LINE
  5
6E5
  8
0
 10
1044.4973461863369
 20
121.8339423057528
 30
0.0
 11
1044.3063739641141
 21
122.59187881368931
 31
0.0
  0
LINE
  5
6E6
  8
0
 10
1044.3063739641141
 20
122.59187881368931
 30
0.0
 11
1044.4904017418919
 21
123.35576770257821
 31
0.0
  0
LINE
  5
6E7
  8
0
 10
1044.4904017418919
 20
123.35576770257821
 30
0.0
 11
1044.7201884482411
 21
123.5454998454353
 31
0.0
  0
LINE
  5
6E8
  8
0
 10
1044.7201884482411
 20
123.5454998454353
 30
0.0
 11
1045.0414930117331
 21
123.6087438930544
 31
0.0
  0
LINE
  5
6E9
  8
0
 10
1045.0414930117331
 20
123.6087438930544
 30
0.0
 11
1045.5097469799871
 21
123.4653907184512
 31
0.0
  0
LINE
  5
6EA
  8
0
 10
1045.5097469799871
 20
123.4653907184512
 30
0.0
 11
1045.7031993609401
 21
123.040291512102
 31
0.0
  0
LINE
  5
6EB
  8
0
 10
1045.7031993609401
 20
123.040291512102
 30
0.0
 11
1046.8460565037969
 21
123.040291512102
 31
0.0
  0
LINE
  5
6EC
  8
0
 10
1046.8460565037969
 20
123.040291512102
 30
0.0
 11
1046.6858382498281
 21
123.68798496448299
 31
0.0
  0
LINE
  5
6ED
  8
0
 10
1046.6858382498281
 20
123.68798496448299
 30
0.0
 11
1046.3182787260189
 21
124.1667796073401
 31
0.0
  0
LINE
  5
6EE
  8
0
 10
1046.3182787260189
 20
124.1667796073401
 30
0.0
 11
1045.7592509482411
 21
124.46253853591161
 31
0.0
  0
LINE
  5
6EF
  8
0
 10
1045.7592509482411
 20
124.46253853591161
 30
0.0
 11
1045.024627932368
 21
124.5611248454354
 31
0.0
  0
LINE
  5
6F0
  8
0
 10
1045.024627932368
 20
124.5611248454354
 30
0.0
 11
1044.2266368609401
 21
124.4291804009909
 31
0.0
  0
LINE
  5
6F1
  8
0
 10
1044.2266368609401
 20
124.4291804009909
 30
0.0
 11
1043.616393805384
 21
124.0333470676576
 31
0.0
  0
LINE
  5
6F2
  8
0
 10
1043.616393805384
 20
124.0333470676576
 30
0.0
 11
1043.22911701967
 21
123.40933913114959
 31
0.0
  0
LINE
  5
6F3
  8
0
 10
1043.22911701967
 20
123.40933913114959
 30
0.0
 11
1043.1000247577649
 21
122.5928708771814
 31
0.0
  0
LINE
  5
6F4
  8
0
 10
1043.1000247577649
 20
122.5928708771814
 30
0.0
 11
1043.2297370593519
 21
121.7745425041655
 31
0.0
  0
LINE
  5
6F5
  8
0
 10
1043.2297370593519
 20
121.7745425041655
 30
0.0
 11
1043.6188739641141
 21
121.15090659146711
 31
0.0
  0
LINE
  5
6F6
  8
0
 10
1043.6188739641141
 20
121.15090659146711
 30
0.0
 11
1044.234201345067
 21
120.7561893295623
 31
0.0
  0
LINE
  5
6F7
  8
0
 10
1044.234201345067
 20
120.7561893295623
 30
0.0
 11
1045.0424850752249
 21
120.62461690892739
 31
0.0
  0
LINE
  5
6F8
  8
0
 10
1045.0424850752249
 20
120.62461690892739
 30
0.0
 11
1045.765575353003
 21
120.72679944861
 31
0.0
  0
LINE
  5
6F9
  8
0
 10
1045.765575353003
 20
120.72679944861
 30
0.0
 11
1046.3217509482411
 21
121.0333470676576
 31
0.0
  0
LINE
  5
6FA
  8
0
 10
1046.3217509482411
 20
121.0333470676576
 30
0.0
 11
1046.6891864641141
 21
121.5251625438481
 31
0.0
  0
LINE
  5
6FB
  8
0
 10
1046.6891864641141
 20
121.5251625438481
 30
0.0
 11
1046.8460565037969
 21
122.1831486549592
 31
0.0
  0
LINE
  5
6FC
  8
0
 10
1046.8460565037969
 20
122.1831486549592
 30
0.0
 11
1045.7031993609401
 21
122.1831486549592
 31
0.0
  0
LINE
  5
6FD
  8
0
 10
1038.481471983172
 20
122.95722284388241
 30
0.0
 11
1039.6590513482511
 21
122.95722284388241
 31
0.0
  0
LINE
  5
6FE
  8
0
 10
1039.6590513482511
 20
122.95722284388241
 30
0.0
 11
1039.8058767450771
 21
123.4651593518189
 31
0.0
  0
LINE
  5
6FF
  8
0
 10
1039.8058767450771
 20
123.4651593518189
 30
0.0
 11
1041.0092497609501
 21
123.4651593518189
 31
0.0
  0
LINE
  5
700
  8
0
 10
1041.0092497609501
 20
123.4651593518189
 30
0.0
 11
1041.1511148403149
 21
122.95722284388241
 31
0.0
  0
LINE
  5
701
  8
0
 10
1041.1511148403149
 20
122.95722284388241
 30
0.0
 11
1042.3544878561879
 21
122.95722284388241
 31
0.0
  0
LINE
  5
702
  8
0
 10
1042.3544878561879
 20
122.95722284388241
 30
0.0
 11
1041.0251227768231
 21
126.7667466534062
 31
0.0
  0
LINE
  5
703
  8
0
 10
1041.0251227768231
 20
126.7667466534062
 30
0.0
 11
1039.7959561101561
 21
126.7667466534062
 31
0.0
  0
LINE
  5
704
  8
0
 10
1039.7959561101561
 20
126.7667466534062
 30
0.0
 11
1038.481471983172
 21
122.95722284388241
 31
0.0
  0
LINE
  5
705
  8
0
 10
1040.0261148403149
 20
124.29055617721571
 30
0.0
 11
1040.412027538727
 21
125.59412760578709
 31
0.0
  0
LINE
  5
706
  8
0
 10
1040.412027538727
 20
125.59412760578709
 30
0.0
 11
1040.789011665712
 21
124.29055617721571
 31
0.0
  0
LINE
  5
707
  8
0
 10
1040.789011665712
 20
124.29055617721571
 30
0.0
 11
1040.0261148403149
 21
124.29055617721571
 31
0.0
  0
LINE
  5
708
  8
0
 10
1034.7207407929111
 20
124.6976111530626
 30
0.0
 11
1036.420145554815
 21
124.6976111530626
 31
0.0
  0
LINE
  5
709
  8
0
 10
1036.420145554815
 20
124.6976111530626
 30
0.0
 11
1037.1880026976719
 21
124.73630162925311
 31
0.0
  0
LINE
  5
70A
  8
0
 10
1037.1880026976719
 20
124.73630162925311
 30
0.0
 11
1037.6007011103709
 21
124.86824607369751
 31
0.0
  0
LINE
  5
70B
  8
0
 10
1037.6007011103709
 20
124.86824607369751
 30
0.0
 11
1038.008935237355
 21
125.2511825816341
 31
0.0
  0
LINE
  5
70C
  8
0
 10
1038.008935237355
 20
125.2511825816341
 30
0.0
 11
1038.149312221482
 21
125.83848416893569
 31
0.0
  0
LINE
  5
70D
  8
0
 10
1038.149312221482
 20
125.83848416893569
 30
0.0
 11
1038.005463015133
 21
126.4014802006817
 31
0.0
  0
LINE
  5
70E
  8
0
 10
1038.005463015133
 20
126.4014802006817
 30
0.0
 11
1037.5620106341801
 21
126.7263809943325
 31
0.0
  0
LINE
  5
70F
  8
0
 10
1037.5620106341801
 20
126.7263809943325
 30
0.0
 11
1037.9072487294179
 21
127.0438413117928
 31
0.0
  0
LINE
  5
710
  8
0
 10
1037.9072487294179
 20
127.0438413117928
 30
0.0
 11
1038.0223280944981
 21
127.4962222641738
 31
0.0
  0
LINE
  5
711
  8
0
 10
1038.0223280944981
 20
127.4962222641738
 30
0.0
 11
1037.868558253228
 21
128.0562421054436
 31
0.0
  0
LINE
  5
712
  8
0
 10
1037.868558253228
 20
128.0562421054436
 30
0.0
 11
1037.4260979357671
 21
128.39602385147529
 31
0.0
  0
LINE
  5
713
  8
0
 10
1037.4260979357671
 20
128.39602385147529
 30
0.0
 11
1037.0307606341801
 21
128.48134131179279
 31
0.0
  0
LINE
  5
714
  8
0
 10
1037.0307606341801
 20
128.48134131179279
 30
0.0
 11
1036.2971296817991
 21
128.50713496258649
 31
0.0
  0
LINE
  5
715
  8
0
 10
1036.2971296817991
 20
128.50713496258649
 30
0.0
 11
1034.7207407929111
 21
128.50713496258649
 31
0.0
  0
LINE
  5
716
  8
0
 10
1034.7207407929111
 20
128.50713496258649
 30
0.0
 11
1034.7207407929111
 21
124.6976111530626
 31
0.0
  0
LINE
  5
717
  8
0
 10
1035.92708999926
 20
125.5865000419515
 30
0.0
 11
1035.92708999926
 21
126.28491274036421
 31
0.0
  0
LINE
  5
718
  8
0
 10
1035.92708999926
 20
126.28491274036421
 30
0.0
 11
1036.4757011103709
 21
126.28491274036421
 31
0.0
  0
LINE
  5
719
  8
0
 10
1036.4757011103709
 20
126.28491274036421
 30
0.0
 11
1036.884927300847
 21
126.2055476609991
 31
0.0
  0
LINE
  5
71A
  8
0
 10
1036.884927300847
 20
126.2055476609991
 30
0.0
 11
1037.0064550786251
 21
125.938682581634
 31
0.0
  0
LINE
  5
71B
  8
0
 10
1037.0064550786251
 20
125.938682581634
 30
0.0
 11
1036.8874074595769
 21
125.6688413117928
 31
0.0
  0
LINE
  5
71C
  8
0
 10
1036.8874074595769
 20
125.6688413117928
 30
0.0
 11
1036.4866138087841
 21
125.5865000419515
 31
0.0
  0
LINE
  5
71D
  8
0
 10
1036.4866138087841
 20
125.5865000419515
 30
0.0
 11
1035.92708999926
 21
125.5865000419515
 31
0.0
  0
LINE
  5
71E
  8
0
 10
1035.92708999926
 20
126.9833254387769
 30
0.0
 11
1035.92708999926
 21
127.61824607369761
 31
0.0
  0
LINE
  5
71F
  8
0
 10
1035.92708999926
 20
127.61824607369761
 30
0.0
 11
1036.2614153960851
 21
127.61824607369761
 31
0.0
  0
LINE
  5
720
  8
0
 10
1036.2614153960851
 20
127.61824607369761
 30
0.0
 11
1036.769847935768
 21
127.5507857562372
 31
0.0
  0
LINE
  5
721
  8
0
 10
1036.769847935768
 20
127.5507857562372
 30
0.0
 11
1036.879470951641
 21
127.3007857562372
 31
0.0
  0
LINE
  5
722
  8
0
 10
1036.879470951641
 20
127.3007857562372
 30
0.0
 11
1036.7772884119579
 21
127.05574607369761
 31
0.0
  0
LINE
  5
723
  8
0
 10
1036.7772884119579
 20
127.05574607369761
 30
0.0
 11
1036.425105872275
 21
126.9833254387769
 31
0.0
  0
LINE
  5
724
  8
0
 10
1036.425105872275
 20
126.9833254387769
 30
0.0
 11
1035.92708999926
 21
126.9833254387769
 31
0.0
  0
ARC
  5
725
  8
0
 10
1040.5806985869519
 20
124.6250045037572
 30
0.0
 40
9.0000000000000124
 50
179.9999999999998
 51
359.99999999999881
  0
ARC
  5
726
  8
0
 10
1040.5806985869519
 20
124.6250045037572
 30
0.0
 40
9.0000000000000124
 50
359.99999999999949
 51
179.9999999999998
  0
LINE
  5
727
  8
0
 10
689.20569858695956
 20
154.62500450375751
 30
0.0
 11
828.95569858695376
 21
154.62500450375751
 31
0.0
  0
LINE
  5
728
  8
0
 10
689.20569858695956
 20
100.00000450375769
 30
0.0
 11
689.20569858695956
 21
154.62500450375751
 31
0.0
  0
LINE
  5
729
  8
0
 10
828.95569858695387
 20
100.00000450375769
 30
0.0
 11
828.95569858695387
 21
154.62500450375751
 31
0.0
  0
LINE
  5
72A
  8
0
 10
747.08069858695455
 20
6.0000045037577348
 30
0.0
 11
771.08069858695455
 21
6.0000045037584178
 31
0.0
  0
LINE
  5
72B
  8
0
 10
747.08069858695319
 20
86.080200527385671
 30
0.0
 11
771.08069858695319
 21
86.080200527385912
 31
0.0
  0
LINE
  5
72C
  8
0
 10
771.08069858695376
 20
4.0000045037577836
 30
0.0
 11
771.08069858695387
 21
98.375004503758362
 31
0.0
  0
LINE
  5
72D
  8
0
 10
772.07318418770046
 20
98.375004503758362
 30
0.0
 11
772.07318418770035
 21
4.0000045037577836
 31
0.0
  0
LINE
  5
72E
  8
0
 10
771.08069858695376
 20
4.0000045037577836
 30
0.0
 11
772.07318418770035
 21
4.0000045037577827
 31
0.0
  0
LINE
  5
72F
  8
0
 10
772.07318418770046
 20
98.375004503758362
 30
0.0
 11
771.08069858695387
 21
98.375004503758362
 31
0.0
  0
LINE
  5
730
  8
0
 10
746.07792055812706
 20
4.0000045037578227
 30
0.0
 11
746.07792055812729
 21
98.375004503758404
 31
0.0
  0
LINE
  5
731
  8
0
 10
747.08069858695399
 20
98.375004503758404
 30
0.0
 11
747.08069858695376
 21
4.000004503757828
 31
0.0
  0
LINE
  5
732
  8
0
 10
746.07792055812706
 20
4.0000045037578227
 30
0.0
 11
747.08069858695376
 21
4.0000045037578218
 31
0.0
  0
LINE
  5
733
  8
0
 10
747.08069858695399
 20
98.375004503758404
 30
0.0
 11
746.07792055812729
 21
98.375004503758404
 31
0.0
  0
LINE
  5
734
  8
0
 10
789.08069858695455
 20
6.0000045037577348
 30
0.0
 11
813.08069858695467
 21
6.0000045037577348
 31
0.0
  0
LINE
  5
735
  8
0
 10
789.0806985869541
 20
86.080200527385514
 30
0.0
 11
813.08069858695421
 21
86.080200527385514
 31
0.0
  0
LINE
  5
736
  8
0
 10
788.08969824162523
 20
4.0000045037577632
 30
0.0
 11
788.08969824162546
 21
98.375004503758333
 31
0.0
  0
LINE
  5
737
  8
0
 10
789.0806985869541
 20
98.375004503758333
 30
0.0
 11
789.08069858695387
 21
4.0000045037577632
 31
0.0
  0
LINE
  5
738
  8
0
 10
788.08969824162523
 20
4.0000045037577632
 30
0.0
 11
789.08069858695387
 21
4.0000045037577632
 31
0.0
  0
LINE
  5
739
  8
0
 10
789.0806985869541
 20
98.375004503758333
 30
0.0
 11
788.08969824162546
 21
98.375004503758333
 31
0.0
  0
LINE
  5
73A
  8
0
 10
813.08069858695376
 20
4.0000045037577223
 30
0.0
 11
813.08069858695399
 21
98.375004503758291
 31
0.0
  0
LINE
  5
73B
  8
0
 10
814.07271390372307
 20
98.375004503758291
 30
0.0
 11
814.07271390372307
 21
4.0000045037577214
 31
0.0
  0
LINE
  5
73C
  8
0
 10
814.07271390372307
 20
4.0000045037577214
 30
0.0
 11
813.08069858695376
 21
4.0000045037577223
 31
0.0
  0
LINE
  5
73D
  8
0
 10
814.07271390372307
 20
98.375004503758291
 30
0.0
 11
813.08069858695399
 21
98.375004503758291
 31
0.0
  0
LINE
  5
73E
  8
0
 10
705.08069858695592
 20
6.0000045037573919
 30
0.0
 11
729.08069858695455
 21
6.0000045037577348
 31
0.0
  0
LINE
  5
73F
  8
0
 10
705.08069858695296
 20
86.080200527385244
 30
0.0
 11
729.08069858695296
 21
86.080200527385514
 31
0.0
  0
LINE
  5
740
  8
0
 10
729.08069858695376
 20
4.0000045037578484
 30
0.0
 11
729.08069858695387
 21
98.375004503758404
 31
0.0
  0
LINE
  5
741
  8
0
 10
730.08069858695399
 20
98.375004503758404
 30
0.0
 11
730.08069858695376
 21
4.0000045037578484
 31
0.0
  0
LINE
  5
742
  8
0
 10
729.08069858695376
 20
4.0000045037578484
 30
0.0
 11
730.08069858695376
 21
4.0000045037578484
 31
0.0
  0
LINE
  5
743
  8
0
 10
730.08069858695399
 20
98.375004503758404
 30
0.0
 11
729.08069858695387
 21
98.375004503758404
 31
0.0
  0
LINE
  5
744
  8
0
 10
704.08069858695376
 20
4.0000045037578911
 30
0.0
 11
704.08069858695387
 21
98.375004503758475
 31
0.0
  0
LINE
  5
745
  8
0
 10
705.08069858695399
 20
98.375004503758475
 30
0.0
 11
705.08069858695364
 21
4.0000045037578911
 31
0.0
  0
LINE
  5
746
  8
0
 10
704.08069858695376
 20
4.0000045037578911
 30
0.0
 11
705.08069858695376
 21
4.0000045037578911
 31
0.0
  0
LINE
  5
747
  8
0
 10
705.08069858695399
 20
98.375004503758475
 30
0.0
 11
704.08069858695387
 21
98.375004503758475
 31
0.0
  0
LINE
  5
748
  8
0
 10
690.83069858695364
 20
98.375004503759627
 30
0.0
 11
690.83069858695364
 21
4.0000045037577321
 31
0.0
  0
LINE
  5
749
  8
0
 10
690.83069858695364
 20
4.0000045037577321
 30
0.0
 11
704.08069858695274
 21
4.0000045037577321
 31
0.0
  0
LINE
  5
74A
  8
0
 10
704.08069858695274
 20
4.0000045037577321
 30
0.0
 11
704.08069858695274
 21
98.375004503759627
 31
0.0
1001
ACAD
1000
ASC_BOUNDS
1002
{
1070
    19
1005
A74
1002
}
  0
LINE
  5
74B
  8
0
 10
704.08069858695274
 20
98.375004503759627
 30
0.0
 11
690.83069858695364
 21
98.375004503759627
 31
0.0
  0
LINE
  5
74C
  8
0
 10
746.07792055812695
 20
98.375004503758404
 30
0.0
 11
730.08069858695364
 21
98.375004503758404
 31
0.0
  0
LINE
  5
74D
  8
0
 10
730.08069858695364
 20
98.375004503758404
 30
0.0
 11
730.08069858695364
 21
4.0000045037578484
 31
0.0
1001
ACAD
1000
ASC_BOUNDS
1002
{
1070
    19
1005
A74
1002
}
  0
LINE
  5
74E
  8
0
 10
730.08069858695364
 20
4.0000045037578484
 30
0.0
 11
746.07792055812695
 21
4.0000045037578484
 31
0.0
  0
LINE
  5
74F
  8
0
 10
746.07792055812695
 20
4.0000045037578484
 30
0.0
 11
746.07792055812695
 21
98.375004503758404
 31
0.0
1001
ACAD
1000
ASC_BOUNDS
1002
{
1070
    19
1005
A74
1002
}
  0
LINE
  5
750
  8
0
 10
827.33069858695364
 20
98.375004503758404
 30
0.0
 11
814.07271390372273
 21
98.375004503758404
 31
0.0
  0
LINE
  5
751
  8
0
 10
814.07271390372273
 20
98.375004503758404
 30
0.0
 11
814.07271390372273
 21
4.0000045037578484
 31
0.0
1001
ACAD
1000
ASC_BOUNDS
1002
{
1070
    19
1005
A74
1002
}
  0
LINE
  5
752
  8
0
 10
814.07271390372273
 20
4.0000045037578484
 30
0.0
 11
827.33069858695364
 21
4.0000045037578484
 31
0.0
  0
LINE
  5
753
  8
0
 10
827.33069858695364
 20
4.0000045037578484
 30
0.0
 11
827.33069858695364
 21
98.375004503758404
 31
0.0
  0
LINE
  5
754
  8
0
 10
788.089698241625
 20
98.375004503758404
 30
0.0
 11
772.07318418770012
 21
98.375004503758404
 31
0.0
  0
LINE
  5
755
  8
0
 10
772.07318418770012
 20
98.375004503758404
 30
0.0
 11
772.07318418770012
 21
4.0000045037578484
 31
0.0
1001
ACAD
1000
ASC_BOUNDS
1002
{
1070
    19
1005
A74
1002
}
  0
LINE
  5
756
  8
0
 10
772.07318418770012
 20
4.0000045037578484
 30
0.0
 11
788.089698241625
 21
4.0000045037578484
 31
0.0
  0
LINE
  5
757
  8
0
 10
788.089698241625
 20
4.0000045037578484
 30
0.0
 11
788.089698241625
 21
98.375004503758404
 31
0.0
1001
ACAD
1000
ASC_BOUNDS
1002
{
1070
    19
1005
A74
1002
}
  0
LINE
  5
758
  8
0
 10
689.20569858695421
 20
100.00000450375769
 30
0.0
 11
828.9556985869541
 21
100.00000450375769
 31
0.0
  0
LINE
  5
759
  8
0
 10
828.9556985869541
 20
0.0000045037577365
 30
0.0
 11
689.20569858695421
 21
0.0000045037577365
 31
0.0
  0
LINE
  5
75A
  8
0
 10
689.20569858695421
 20
0.0000045037577365
 30
0.0
 11
689.20569858695421
 21
100.00000450375769
 31
0.0
  0
LINE
  5
75B
  8
0
 10
690.83069858695399
 20
4.0000045037565908
 30
0.0
 11
690.83069858695285
 21
98.375004503757125
 31
0.0
1001
ACAD
1000
ASC_BOUNDS
1002
{
1070
    19
1005
A74
1002
}
  0
LINE
  5
75C
  8
0
 10
690.83069858695285
 20
98.375004503757125
 30
0.0
 11
827.33069858695285
 21
98.375004503758575
 31
0.0
1001
ACAD
1000
ASC_BOUNDS
1002
{
1070
    19
1005
A74
1005
A74
1005
A74
1005
A74
1002
}
  0
LINE
  5
75D
  8
0
 10
827.33069858695285
 20
98.375004503758575
 30
0.0
 11
827.33069858695399
 21
4.0000045037579977
 31
0.0
1001
ACAD
1000
ASC_BOUNDS
1002
{
1070
    19
1005
A74
1002
}
  0
LINE
  5
75E
  8
0
 10
827.33069858695399
 20
4.000004503758019
 30
0.0
 11
690.83069858695399
 21
4.0000045037566121
 31
0.0
1001
ACAD
1000
ASC_BOUNDS
1002
{
1070
    19
1005
A74
1005
A74
1005
A74
1005
A74
1002
}
  0
LINE
  5
75F
  8
0
 10
828.9556985869541
 20
0.0000045037577365
 30
0.0
 11
828.9556985869541
 21
100.00000450375769
 31
0.0
  0
LINE
  5
760
  8
0
 10
970.70569858695956
 20
154.62500450375751
 30
0.0
 11
1110.455698586954
 21
154.62500450375751
 31
0.0
  0
LINE
  5
761
  8
0
 10
970.70569858695956
 20
100.00000450375769
 30
0.0
 11
970.70569858695956
 21
154.62500450375751
 31
0.0
  0
LINE
  5
762
  8
0
 10
1110.455698586954
 20
100.00000450375769
 30
0.0
 11
1110.455698586954
 21
154.62500450375751
 31
0.0
  0
LINE
  5
763
  8
0
 10
1028.5806985869549
 20
6.0000045037577348
 30
0.0
 11
1052.5806985869549
 21
6.0000045037584178
 31
0.0
  0
LINE
  5
764
  8
0
 10
1028.5806985869531
 20
86.080200527385671
 30
0.0
 11
1052.5806985869531
 21
86.080200527385912
 31
0.0
  0
LINE
  5
765
  8
0
 10
1052.580698586954
 20
4.0000045037577836
 30
0.0
 11
1052.580698586954
 21
98.375004503758362
 31
0.0
  0
LINE
  5
766
  8
0
 10
1053.5731841877
 20
98.375004503758362
 30
0.0
 11
1053.5731841877
 21
4.0000045037577836
 31
0.0
  0
LINE
  5
767
  8
0
 10
1052.580698586954
 20
4.0000045037577836
 30
0.0
 11
1053.5731841877
 21
4.0000045037577827
 31
0.0
  0
LINE
  5
768
  8
0
 10
1053.5731841877
 20
98.375004503758362
 30
0.0
 11
1052.580698586954
 21
98.375004503758362
 31
0.0
  0
LINE
  5
769
  8
0
 10
1027.5779205581271
 20
4.0000045037578227
 30
0.0
 11
1027.5779205581271
 21
98.375004503758404
 31
0.0
  0
LINE
  5
76A
  8
0
 10
1028.580698586954
 20
98.375004503758404
 30
0.0
 11
1028.580698586954
 21
4.000004503757828
 31
0.0
  0
LINE
  5
76B
  8
0
 10
1027.5779205581271
 20
4.0000045037578227
 30
0.0
 11
1028.580698586954
 21
4.0000045037578218
 31
0.0
  0
LINE
  5
76C
  8
0
 10
1028.580698586954
 20
98.375004503758404
 30
0.0
 11
1027.5779205581271
 21
98.375004503758404
 31
0.0
  0
LINE
  5
76D
  8
0
 10
1070.5806985869549
 20
6.0000045037577348
 30
0.0
 11
1094.580698586956
 21
6.0000045037577348
 31
0.0
  0
LINE
  5
76E
  8
0
 10
1070.580698586954
 20
86.080200527385514
 30
0.0
 11
1094.580698586954
 21
86.080200527385514
 31
0.0
  0
LINE
  5
76F
  8
0
 10
1069.589698241625
 20
4.0000045037577632
 30
0.0
 11
1069.589698241625
 21
98.375004503758333
 31
0.0
  0
LINE
  5
770
  8
0
 10
1070.580698586954
 20
98.375004503758333
 30
0.0
 11
1070.580698586954
 21
4.0000045037577632
 31
0.0
  0
LINE
  5
771
  8
0
 10
1069.589698241625
 20
4.0000045037577632
 30
0.0
 11
1070.580698586954
 21
4.0000045037577632
 31
0.0
  0
LINE
  5
772
  8
0
 10
1070.580698586954
 20
98.375004503758333
 30
0.0
 11
1069.589698241625
 21
98.375004503758333
 31
0.0
  0
LINE
  5
773
  8
0
 10
1094.580698586954
 20
4.0000045037577223
 30
0.0
 11
1094.580698586954
 21
98.375004503758291
 31
0.0
  0
LINE
  5
774
  8
0
 10
1095.5727139037231
 20
98.375004503758291
 30
0.0
 11
1095.5727139037231
 21
4.0000045037577214
 31
0.0
  0
LINE
  5
775
  8
0
 10
1095.5727139037231
 20
4.0000045037577214
 30
0.0
 11
1094.580698586954
 21
4.0000045037577223
 31
0.0
  0
LINE
  5
776
  8
0
 10
1095.5727139037231
 20
98.375004503758291
 30
0.0
 11
1094.580698586954
 21
98.375004503758291
 31
0.0
  0
LINE
  5
777
  8
0
 10
986.58069858695501
 20
6.0000045037573919
 30
0.0
 11
1010.580698586955
 21
6.0000045037577348
 31
0.0
  0
LINE
  5
778
  8
0
 10
986.58069858695296
 20
86.080200527385244
 30
0.0
 11
1010.580698586953
 21
86.080200527385514
 31
0.0
  0
LINE
  5
779
  8
0
 10
1010.580698586954
 20
4.0000045037578484
 30
0.0
 11
1010.580698586954
 21
98.375004503758404
 31
0.0
  0
LINE
  5
77A
  8
0
 10
1011.580698586954
 20
98.375004503758404
 30
0.0
 11
1011.580698586953
 21
4.0000045037578484
 31
0.0
  0
LINE
  5
77B
  8
0
 10
1010.580698586954
 20
4.0000045037578484
 30
0.0
 11
1011.580698586953
 21
4.0000045037578484
 31
0.0
  0
LINE
  5
77C
  8
0
 10
1011.580698586954
 20
98.375004503758404
 30
0.0
 11
1010.580698586954
 21
98.375004503758404
 31
0.0
  0
LINE
  5
77D
  8
0
 10
985.58069858695376
 20
4.0000045037578911
 30
0.0
 11
985.58069858695399
 21
98.375004503758475
 31
0.0
  0
LINE
  5
77E
  8
0
 10
986.58069858695387
 20
98.375004503758475
 30
0.0
 11
986.58069858695376
 21
4.0000045037578911
 31
0.0
  0
LINE
  5
77F
  8
0
 10
985.58069858695376
 20
4.0000045037578911
 30
0.0
 11
986.58069858695376
 21
4.0000045037578911
 31
0.0
  0
LINE
  5
780
  8
0
 10
986.58069858695387
 20
98.375004503758475
 30
0.0
 11
985.58069858695399
 21
98.375004503758475
 31
0.0
  0
LINE
  5
781
  8
0
 10
972.33069858695364
 20
98.375004503759627
 30
0.0
 11
972.33069858695364
 21
4.0000045037577321
 31
0.0
  0
LINE
  5
782
  8
0
 10
972.33069858695364
 20
4.0000045037577321
 30
0.0
 11
985.58069858695274
 21
4.0000045037577321
 31
0.0
  0
LINE
  5
783
  8
0
 10
985.58069858695274
 20
4.0000045037577321
 30
0.0
 11
985.58069858695274
 21
98.375004503759627
 31
0.0
1001
ACAD
1000
ASC_BOUNDS
1002
{
1070
    19
1005
A74
1002
}
  0
LINE
  5
784
  8
0
 10
985.58069858695274
 20
98.375004503759627
 30
0.0
 11
972.33069858695364
 21
98.375004503759627
 31
0.0
  0
LINE
  5
785
  8
0
 10
1027.5779205581271
 20
98.375004503758404
 30
0.0
 11
1011.580698586953
 21
98.375004503758404
 31
0.0
  0
LINE
  5
786
  8
0
 10
1011.580698586953
 20
98.375004503758404
 30
0.0
 11
1011.580698586953
 21
4.0000045037578484
 31
0.0
1001
ACAD
1000
ASC_BOUNDS
1002
{
1070
    19
1005
A74
1002
}
  0
LINE
  5
787
  8
0
 10
1011.580698586953
 20
4.0000045037578484
 30
0.0
 11
1027.5779205581271
 21
4.0000045037578484
 31
0.0
  0
LINE
  5
788
  8
0
 10
1027.5779205581271
 20
4.0000045037578484
 30
0.0
 11
1027.5779205581271
 21
98.375004503758404
 31
0.0
1001
ACAD
1000
ASC_BOUNDS
1002
{
1070
    19
1005
A74
1002
}
  0
LINE
  5
789
  8
0
 10
1108.8306985869531
 20
98.375004503758404
 30
0.0
 11
1095.5727139037219
 21
98.375004503758404
 31
0.0
  0
LINE
  5
78A
  8
0
 10
1095.5727139037219
 20
98.375004503758404
 30
0.0
 11
1095.5727139037219
 21
4.0000045037578484
 31
0.0
1001
ACAD
1000
ASC_BOUNDS
1002
{
1070
    19
1005
A74
1002
}
  0
LINE
  5
78B
  8
0
 10
1095.5727139037219
 20
4.0000045037578484
 30
0.0
 11
1108.8306985869531
 21
4.0000045037578484
 31
0.0
  0
LINE
  5
78C
  8
0
 10
1108.8306985869531
 20
4.0000045037578484
 30
0.0
 11
1108.8306985869531
 21
98.375004503758404
 31
0.0
  0
LINE
  5
78D
  8
0
 10
1069.589698241625
 20
98.375004503758404
 30
0.0
 11
1053.5731841877
 21
98.375004503758404
 31
0.0
  0
LINE
  5
78E
  8
0
 10
1053.5731841877
 20
98.375004503758404
 30
0.0
 11
1053.5731841877
 21
4.0000045037578484
 31
0.0
1001
ACAD
1000
ASC_BOUNDS
1002
{
1070
    19
1005
A74
1002
}
  0
LINE
  5
78F
  8
0
 10
1053.5731841877
 20
4.0000045037578484
 30
0.0
 11
1069.589698241625
 21
4.0000045037578484
 31
0.0
  0
LINE
  5
790
  8
0
 10
1069.589698241625
 20
4.0000045037578484
 30
0.0
 11
1069.589698241625
 21
98.375004503758404
 31
0.0
1001
ACAD
1000
ASC_BOUNDS
1002
{
1070
    19
1005
A74
1002
}
  0
LINE
  5
791
  8
0
 10
970.70569858695421
 20
100.00000450375769
 30
0.0
 11
1110.455698586954
 21
100.00000450375769
 31
0.0
  0
LINE
  5
792
  8
0
 10
1110.455698586954
 20
0.0000045037577365
 30
0.0
 11
970.70569858695421
 21
0.0000045037577365
 31
0.0
  0
LINE
  5
793
  8
0
 10
970.70569858695421
 20
0.0000045037577365
 30
0.0
 11
970.70569858695421
 21
100.00000450375769
 31
0.0
  0
LINE
  5
794
  8
0
 10
972.33069858695387
 20
4.0000045037565908
 30
0.0
 11
972.33069858695285
 21
98.375004503757125
 31
0.0
1001
ACAD
1000
ASC_BOUNDS
1002
{
1070
    19
1005
A74
1002
}
  0
LINE
  5
795
  8
0
 10
972.33069858695285
 20
98.375004503757125
 30
0.0
 11
1108.8306985869531
 21
98.375004503758575
 31
0.0
1001
ACAD
1000
ASC_BOUNDS
1002
{
1070
    19
1005
A74
1005
A74
1005
A74
1005
A74
1002
}
  0
LINE
  5
796
  8
0
 10
1108.8306985869531
 20
98.375004503758575
 30
0.0
 11
1108.830698586954
 21
4.0000045037579977
 31
0.0
1001
ACAD
1000
ASC_BOUNDS
1002
{
1070
    19
1005
A74
1002
}
  0
LINE
  5
797
  8
0
 10
1108.830698586954
 20
4.000004503758019
 30
0.0
 11
972.33069858695387
 21
4.0000045037566121
 31
0.0
1001
ACAD
1000
ASC_BOUNDS
1002
{
1070
    19
1005
A74
1005
A74
1005
A74
1005
A74
1002
}
  0
LINE
  5
798
  8
0
 10
1110.455698586954
 20
0.0000045037577365
 30
0.0
 11
1110.455698586954
 21
100.00000450375769
 31
0.0
  0
ARC
  5
799
  8
0
 10
759.08069858695205
 20
124.6250045037568
 30
0.0
 40
8.2500000000000053
 50
179.9999999999996
 51
359.99999999999881
  0
ARC
  5
79A
  8
0
 10
759.08069858695205
 20
124.6250045037568
 30
0.0
 40
8.25
 50
359.99999999999937
 51
179.99999999999969
  0
ARC
  5
79B
  8
0
 10
759.08069858695205
 20
124.6250045037568
 30
0.0
 40
7.6875000000000071
 50
0.0000000000005343
 51
180.00000000000011
  0
ARC
  5
79C
  8
0
 10
759.08069858695205
 20
124.6250045037568
 30
0.0
 40
7.6874999999999831
 50
180.00000000000031
 51
359.9999999999996
  0
LINE
  5
79D
  8
0
 10
764.20319936093995
 20
122.1831486549594
 30
0.0
 11
764.00825888474935
 21
121.7342399248007
 31
0.0
  0
LINE
  5
79E
  8
0
 10
764.00825888474935
 20
121.7342399248007
 30
0.0
 11
763.55736602760646
 21
121.5769978613086
 31
0.0
  0
LINE
  5
79F
  8
0
 10
763.55736602760646
 20
121.5769978613086
 30
0.0
 11
763.23283725776525
 21
121.6412339724197
 31
0.0
  0
LINE
  5
7A0
  8
0
 10
763.23283725776525
 20
121.6412339724197
 30
0.0
 11
762.99734618633659
 21
121.8339423057531
 31
0.0
  0
LINE
  5
7A1
  8
0
 10
762.99734618633659
 20
121.8339423057531
 30
0.0
 11
762.80637396411453
 21
122.5918788136896
 31
0.0
  0
LINE
  5
7A2
  8
0
 10
762.80637396411453
 20
122.5918788136896
 30
0.0
 11
762.99040174189236
 21
123.3557677025785
 31
0.0
  0
LINE
  5
7A3
  8
0
 10
762.99040174189236
 20
123.3557677025785
 30
0.0
 11
763.22018844824152
 21
123.5454998454356
 31
0.0
  0
LINE
  5
7A4
  8
0
 10
763.22018844824152
 20
123.5454998454356
 30
0.0
 11
763.54149301173345
 21
123.60874389305459
 31
0.0
  0
LINE
  5
7A5
  8
0
 10
763.54149301173345
 20
123.60874389305459
 30
0.0
 11
764.00974697998754
 21
123.4653907184515
 31
0.0
  0
LINE
  5
7A6
  8
0
 10
764.00974697998754
 20
123.4653907184515
 30
0.0
 11
764.20319936093995
 21
123.0402915121023
 31
0.0
  0
LINE
  5
7A7
  8
0
 10
764.20319936093995
 20
123.0402915121023
 30
0.0
 11
765.34605650379706
 21
123.0402915121023
 31
0.0
  0
LINE
  5
7A8
  8
0
 10
765.34605650379706
 20
123.0402915121023
 30
0.0
 11
765.18583824982875
 21
123.68798496448321
 31
0.0
  0
LINE
  5
7A9
  8
0
 10
765.18583824982875
 20
123.68798496448321
 30
0.0
 11
764.81827872601934
 21
124.1667796073403
 31
0.0
  0
LINE
  5
7AA
  8
0
 10
764.81827872601934
 20
124.1667796073403
 30
0.0
 11
764.2592509482414
 21
124.4625385359118
 31
0.0
  0
LINE
  5
7AB
  8
0
 10
764.2592509482414
 20
124.4625385359118
 30
0.0
 11
763.5246279323685
 21
124.5611248454356
 31
0.0
  0
LINE
  5
7AC
  8
0
 10
763.5246279323685
 20
124.5611248454356
 30
0.0
 11
762.72663686093995
 21
124.4291804009912
 31
0.0
  0
LINE
  5
7AD
  8
0
 10
762.72663686093995
 20
124.4291804009912
 30
0.0
 11
762.1163938053844
 21
124.0333470676578
 31
0.0
  0
LINE
  5
7AE
  8
0
 10
762.1163938053844
 20
124.0333470676578
 30
0.0
 11
761.72911701966996
 21
123.40933913114991
 31
0.0
  0
LINE
  5
7AF
  8
0
 10
761.72911701966996
 20
123.40933913114991
 30
0.0
 11
761.60002475776525
 21
122.5928708771816
 31
0.0
  0
LINE
  5
7B0
  8
0
 10
761.60002475776525
 20
122.5928708771816
 30
0.0
 11
761.7297370593526
 21
121.77454250416579
 31
0.0
  0
LINE
  5
7B1
  8
0
 10
761.7297370593526
 20
121.77454250416579
 30
0.0
 11
762.11887396411453
 21
121.1509065914673
 31
0.0
  0
LINE
  5
7B2
  8
0
 10
762.11887396411453
 20
121.1509065914673
 30
0.0
 11
762.73420134506694
 21
120.7561893295626
 31
0.0
  0
LINE
  5
7B3
  8
0
 10
762.73420134506694
 20
120.7561893295626
 30
0.0
 11
763.54248507522561
 21
120.62461690892771
 31
0.0
  0
LINE
  5
7B4
  8
0
 10
763.54248507522561
 20
120.62461690892771
 30
0.0
 11
764.26557535300344
 21
120.72679944861019
 31
0.0
  0
LINE
  5
7B5
  8
0
 10
764.26557535300344
 20
120.72679944861019
 30
0.0
 11
764.82175094824152
 21
121.0333470676578
 31
0.0
  0
LINE
  5
7B6
  8
0
 10
764.82175094824152
 20
121.0333470676578
 30
0.0
 11
765.18918646411453
 21
121.5251625438483
 31
0.0
  0
LINE
  5
7B7
  8
0
 10
765.18918646411453
 20
121.5251625438483
 30
0.0
 11
765.34605650379706
 21
122.1831486549594
 31
0.0
  0
LINE
  5
7B8
  8
0
 10
765.34605650379706
 20
122.1831486549594
 30
0.0
 11
764.20319936093995
 21
122.1831486549594
 31
0.0
  0
LINE
  5
7B9
  8
0
 10
756.98147198317224
 20
122.9572228438826
 30
0.0
 11
758.15905134825152
 21
122.9572228438826
 31
0.0
  0
LINE
  5
7BA
  8
0
 10
758.15905134825152
 20
122.9572228438826
 30
0.0
 11
758.30587674507694
 21
123.4651593518191
 31
0.0
  0
LINE
  5
7BB
  8
0
 10
758.30587674507694
 20
123.4651593518191
 30
0.0
 11
759.50924976094996
 21
123.4651593518191
 31
0.0
  0
LINE
  5
7BC
  8
0
 10
759.50924976094996
 20
123.4651593518191
 30
0.0
 11
759.65111484031513
 21
122.9572228438826
 31
0.0
  0
LINE
  5
7BD
  8
0
 10
759.65111484031513
 20
122.9572228438826
 30
0.0
 11
760.85448785618803
 21
122.9572228438826
 31
0.0
  0
LINE
  5
7BE
  8
0
 10
760.85448785618803
 20
122.9572228438826
 30
0.0
 11
759.52512277682308
 21
126.7667466534064
 31
0.0
  0
LINE
  5
7BF
  8
0
 10
759.52512277682308
 20
126.7667466534064
 30
0.0
 11
758.29595611015634
 21
126.7667466534064
 31
0.0
  0
LINE
  5
7C0
  8
0
 10
758.29595611015634
 20
126.7667466534064
 30
0.0
 11
756.98147198317224
 21
122.9572228438826
 31
0.0
  0
LINE
  5
7C1
  8
0
 10
758.52611484031513
 20
124.2905561772159
 30
0.0
 11
758.91202753872767
 21
125.59412760578741
 31
0.0
  0
LINE
  5
7C2
  8
0
 10
758.91202753872767
 20
125.59412760578741
 30
0.0
 11
759.289011665712
 21
124.2905561772159
 31
0.0
  0
LINE
  5
7C3
  8
0
 10
759.289011665712
 20
124.2905561772159
 30
0.0
 11
758.52611484031513
 21
124.2905561772159
 31
0.0
  0
LINE
  5
7C4
  8
0
 10
753.22074079291076
 20
124.69761115306289
 30
0.0
 11
754.92014555481546
 21
124.69761115306289
 31
0.0
  0
LINE
  5
7C5
  8
0
 10
754.92014555481546
 20
124.69761115306289
 30
0.0
 11
755.6880026976728
 21
124.7363016292533
 31
0.0
  0
LINE
  5
7C6
  8
0
 10
755.6880026976728
 20
124.7363016292533
 30
0.0
 11
756.10070111037112
 21
124.8682460736978
 31
0.0
  0
LINE
  5
7C7
  8
0
 10
756.10070111037112
 20
124.8682460736978
 30
0.0
 11
756.50893523735522
 21
125.2511825816343
 31
0.0
  0
LINE
  5
7C8
  8
0
 10
756.50893523735522
 20
125.2511825816343
 30
0.0
 11
756.64931222148221
 21
125.83848416893591
 31
0.0
  0
LINE
  5
7C9
  8
0
 10
756.64931222148221
 20
125.83848416893591
 30
0.0
 11
756.50546301513305
 21
126.4014802006819
 31
0.0
  0
LINE
  5
7CA
  8
0
 10
756.50546301513305
 20
126.4014802006819
 30
0.0
 11
756.06201063418064
 21
126.7263809943327
 31
0.0
  0
LINE
  5
7CB
  8
0
 10
756.06201063418064
 20
126.7263809943327
 30
0.0
 11
756.40724872941882
 21
127.043841311793
 31
0.0
  0
LINE
  5
7CC
  8
0
 10
756.40724872941882
 20
127.043841311793
 30
0.0
 11
756.52232809449811
 21
127.49622226417399
 31
0.0
  0
LINE
  5
7CD
  8
0
 10
756.52232809449811
 20
127.49622226417399
 30
0.0
 11
756.36855825322823
 21
128.0562421054438
 31
0.0
  0
LINE
  5
7CE
  8
0
 10
756.36855825322823
 20
128.0562421054438
 30
0.0
 11
755.92609793576798
 21
128.3960238514756
 31
0.0
  0
LINE
  5
7CF
  8
0
 10
755.92609793576798
 20
128.3960238514756
 30
0.0
 11
755.53076063418064
 21
128.48134131179299
 31
0.0
  0
LINE
  5
7D0
  8
0
 10
755.53076063418064
 20
128.48134131179299
 30
0.0
 11
754.79712968179979
 21
128.50713496258669
 31
0.0
  0
LINE
  5
7D1
  8
0
 10
754.79712968179979
 20
128.50713496258669
 30
0.0
 11
753.22074079291076
 21
128.50713496258669
 31
0.0
  0
LINE
  5
7D2
  8
0
 10
753.22074079291076
 20
128.50713496258669
 30
0.0
 11
753.22074079291076
 21
124.69761115306289
 31
0.0
  0
LINE
  5
7D3
  8
0
 10
754.42708999926003
 20
125.58650004195179
 30
0.0
 11
754.42708999926003
 21
126.2849127403645
 31
0.0
  0
LINE
  5
7D4
  8
0
 10
754.42708999926003
 20
126.2849127403645
 30
0.0
 11
754.97570111037112
 21
126.2849127403645
 31
0.0
  0
LINE
  5
7D5
  8
0
 10
754.97570111037112
 20
126.2849127403645
 30
0.0
 11
755.38492730084738
 21
126.2055476609994
 31
0.0
  0
LINE
  5
7D6
  8
0
 10
755.38492730084738
 20
126.2055476609994
 30
0.0
 11
755.50645507862509
 21
125.9386825816343
 31
0.0
  0
LINE
  5
7D7
  8
0
 10
755.50645507862509
 20
125.9386825816343
 30
0.0
 11
755.38740745957739
 21
125.668841311793
 31
0.0
  0
LINE
  5
7D8
  8
0
 10
755.38740745957739
 20
125.668841311793
 30
0.0
 11
754.98661380878377
 21
125.58650004195179
 31
0.0
  0
LINE
  5
7D9
  8
0
 10
754.98661380878377
 20
125.58650004195179
 30
0.0
 11
754.42708999926003
 21
125.58650004195179
 31
0.0
  0
LINE
  5
7DA
  8
0
 10
754.42708999926003
 20
126.9833254387771
 30
0.0
 11
754.42708999926003
 21
127.6182460736978
 31
0.0
  0
LINE
  5
7DB
  8
0
 10
754.42708999926003
 20
127.6182460736978
 30
0.0
 11
754.76141539608545
 21
127.6182460736978
 31
0.0
  0
LINE
  5
7DC
  8
0
 10
754.76141539608545
 20
127.6182460736978
 30
0.0
 11
755.26984793576798
 21
127.5507857562375
 31
0.0
  0
LINE
  5
7DD
  8
0
 10
755.26984793576798
 20
127.5507857562375
 30
0.0
 11
755.37947095164088
 21
127.3007857562375
 31
0.0
  0
LINE
  5
7DE
  8
0
 10
755.37947095164088
 20
127.3007857562375
 30
0.0
 11
755.27728841195835
 21
127.0557460736978
 31
0.0
  0
LINE
  5
7DF
  8
0
 10
755.27728841195835
 20
127.0557460736978
 30
0.0
 11
754.92510587227594
 21
126.9833254387771
 31
0.0
  0
LINE
  5
7E0
  8
0
 10
754.92510587227594
 20
126.9833254387771
 30
0.0
 11
754.42708999926003
 21
126.9833254387771
 31
0.0
  0
ARC
  5
7E1
  8
0
 10
759.08069858695171
 20
124.6250045037574
 30
0.0
 40
9.0000000000000213
 50
179.9999999999996
 51
359.99999999999869
  0
ARC
  5
7E2
  8
0
 10
759.08069858695171
 20
124.6250045037574
 30
0.0
 40
8.9999999999999964
 50
359.9999999999996
 51
179.9999999999998
  0
LINE
  5
7E3
  8
0
 10
1110.4556985869581
 20
8.5000045037581877
 30
0.0
 11
1110.7056985869569
 21
8.5000045037581877
 31
0.0
  0
LINE
  5
7E4
  8
0
 10
1110.7056985869569
 20
18.50000450375796
 30
0.0
 11
1110.4556985869581
 21
18.50000450375796
 31
0.0
  0
LINE
  5
7E5
  8
0
 10
1110.7056985869569
 20
13.50000450375817
 30
0.0
 11
1110.7056985869569
 21
11.000004727885679
 31
0.0
  0
LINE
  5
7E6
  8
0
 10
1110.7056985869569
 20
11.000004503758181
 30
0.0
 11
1110.7056985869569
 21
9.9644705978254482
 31
0.0
  0
LINE
  5
7E7
  8
0
 10
1110.7056985869569
 20
9.9644703211494576
 30
0.0
 11
1110.7056985869569
 21
9.1698776961388049
 31
0.0
  0
LINE
  5
7E8
  8
0
 10
1110.7056985869569
 20
9.1698774848359879
 30
0.0
 11
1110.7056985869569
 21
8.6703753723128347
 31
0.0
  0
LINE
  5
7E9
  8
0
 10
1110.7056985869569
 20
8.6703752701587877
 30
0.0
 11
1110.7056985869569
 21
8.5000045037581664
 31
0.0
  0
LINE
  5
7EA
  8
0
 10
1110.7056985869569
 20
18.500004503758159
 30
0.0
 11
1110.7056985869569
 21
18.329633635203511
 31
0.0
  0
LINE
  5
7EB
  8
0
 10
1110.7056985869569
 20
18.329633184914609
 30
0.0
 11
1110.7056985869569
 21
17.830131522680361
 31
0.0
  0
LINE
  5
7EC
  8
0
 10
1110.7056985869569
 20
17.83013131137686
 30
0.0
 11
1110.7056985869569
 21
17.035538409690911
 31
0.0
  0
LINE
  5
7ED
  8
0
 10
1110.7056985869569
 20
17.035537982667549
 30
0.0
 11
1110.7056985869569
 21
16.000005025763041
 31
0.0
  0
LINE
  5
7EE
  8
0
 10
1110.7056985869569
 20
16.00000450375817
 30
0.0
 11
1110.7056985869569
 21
13.50000450375817
 31
0.0
  0
ARC
  5
7EF
  8
0
 10
1040.580698586951
 20
146.87500450375771
 30
0.0
 40
3.999999999999976
 50
90.0
 51
270.0
  0
ARC
  5
7F0
  8
0
 10
1040.580698586951
 20
146.87500450375771
 30
0.0
 40
3.9999999999999978
 50
270.0
 51
90.0
  0
ARC
  5
7F1
  8
0
 10
759.08069858694887
 20
146.87500450375799
 30
0.0
 40
3.9999999999999929
 50
90.0
 51
270.0
  0
ARC
  5
7F2
  8
0
 10
759.08069858694887
 20
146.87500450375799
 30
0.0
 40
4.0000000000000044
 50
270.0
 51
90.0
  0
ARC
  5
7F3
  8
0
 10
899.83069858695558
 20
146.87500450375771
 30
0.0
 40
3.999999999999988
 50
90.0
 51
270.0
  0
ARC
  5
7F4
  8
0
 10
899.83069858695558
 20
146.87500450375771
 30
0.0
 40
4.0
 50
270.0
 51
90.0
  0
LINE
  5
7F5
  8
0
 10
688.95569858695615
 20
39.000004503758078
 30
0.0
 11
689.20569858695387
 21
39.000004503758078
 31
0.0
  0
LINE
  5
7F6
  8
0
 10
689.20569858695387
 20
42.000004503758063
 30
0.0
 11
688.95569858695615
 21
42.000004503758063
 31
0.0
  0
LINE
  5
7F7
  8
0
 10
688.95569858695626
 20
27.500004503757971
 30
0.0
 11
689.20569858695421
 21
27.500004503757971
 31
0.0
  0
LINE
  5
7F8
  8
0
 10
689.20569858695421
 20
30.50000450375796
 30
0.0
 11
688.95569858695626
 21
30.50000450375796
 31
0.0
  0
LINE
  5
7F9
  8
0
 10
688.95569858695626
 20
5.6250045037580758
 30
0.0
 11
689.20569858695421
 21
5.6250045037580758
 31
0.0
  0
LINE
  5
7FA
  8
0
 10
689.20569858695421
 20
7.625004503757963
 30
0.0
 11
688.95569858695626
 21
7.625004503757963
 31
0.0
  0
LINE
  5
7FB
  8
0
 10
688.9556985869574
 20
40.50000450375812
 30
0.0
 11
688.9556985869574
 21
40.888233071411911
 31
0.0
  0
LINE
  5
7FC
  8
0
 10
688.9556985869574
 20
40.888233912796231
 30
0.0
 11
688.95569858695728
 21
41.56066467553795
 31
0.0
  0
LINE
  5
7FD
  8
0
 10
688.95569858695728
 20
41.560666008313341
 30
0.0
 11
688.9556985869574
 21
41.799042609434778
 31
0.0
  0
LINE
  5
7FE
  8
0
 10
688.9556985869574
 20
41.799043633233801
 30
0.0
 11
688.9556985869574
 21
42.000004503758127
 31
0.0
  0
LINE
  5
7FF
  8
0
 10
688.9556985869574
 20
39.000004503758127
 30
0.0
 11
688.9556985869574
 21
39.200965374281381
 31
0.0
  0
LINE
  5
800
  8
0
 10
688.9556985869574
 20
39.200966398081484
 30
0.0
 11
688.95569858695728
 21
39.439342999202438
 31
0.0
  0
LINE
  5
801
  8
0
 10
688.95569858695728
 20
39.439344331978312
 30
0.0
 11
688.9556985869574
 21
40.111775094719157
 31
0.0
  0
LINE
  5
802
  8
0
 10
688.9556985869574
 20
40.111775936104351
 30
0.0
 11
688.9556985869574
 21
40.50000450375812
 31
0.0
  0
LINE
  5
803
  8
0
 10
688.95569858695751
 20
29.000005468413558
 30
0.0
 11
688.95569858695751
 21
29.750004503758142
 31
0.0
  0
LINE
  5
804
  8
0
 10
688.95569858695751
 20
29.750005547768129
 30
0.0
 11
688.95569858695751
 21
30.29904168195733
 31
0.0
  0
LINE
  5
805
  8
0
 10
688.95569858695751
 20
30.299042609434789
 30
0.0
 11
688.95569858695751
 21
30.448893243191741
 31
0.0
  0
LINE
  5
806
  8
0
 10
688.95569858695751
 20
30.448893321248359
 30
0.0
 11
688.95569858695751
 21
30.500004503758142
 31
0.0
  0
LINE
  5
807
  8
0
 10
688.95569858695751
 20
27.500004503758142
 30
0.0
 11
688.95569858695751
 21
27.551113789843139
 31
0.0
  0
LINE
  5
808
  8
0
 10
688.95569858695751
 20
27.551115764324539
 30
0.0
 11
688.95569858695751
 21
27.70096639808148
 31
0.0
  0
LINE
  5
809
  8
0
 10
688.95569858695751
 20
27.70096654002537
 30
0.0
 11
688.95569858695751
 21
27.939344110111541
 31
0.0
  0
LINE
  5
80A
  8
0
 10
688.95569858695751
 20
27.939344331978312
 30
0.0
 11
688.95569858695751
 21
29.000004503758131
 31
0.0
  0
LINE
  5
80B
  8
0
 10
688.95569858695751
 20
6.6250045037581291
 30
0.0
 11
688.95569858695751
 21
6.8838235488606498
 31
0.0
  0
LINE
  5
80C
  8
0
 10
688.95569858695751
 20
6.8838238598009589
 30
0.0
 11
688.95569858695751
 21
7.3321111142962136
 31
0.0
  0
LINE
  5
80D
  8
0
 10
688.95569858695751
 20
7.332111284944677
 30
0.0
 11
688.95569858695751
 21
7.4910299075425666
 31
0.0
  0
LINE
  5
80E
  8
0
 10
688.95569858695751
 20
7.4910302776755158
 30
0.0
 11
688.95569858695751
 21
7.5909303300471986
 31
0.0
  0
LINE
  5
80F
  8
0
 10
688.95569858695751
 20
7.5909310142280528
 30
0.0
 11
688.95569858695751
 21
7.62500450375813
 31
0.0
  0
LINE
  5
810
  8
0
 10
688.95569858695751
 20
5.62500450375813
 30
0.0
 11
688.95569858695751
 21
5.6590784673935657
 31
0.0
  0
LINE
  5
811
  8
0
 10
688.95569858695751
 20
5.659078677469064
 30
0.0
 11
688.95569858695751
 21
5.7589790422399183
 31
0.0
  0
LINE
  5
812
  8
0
 10
688.95569858695751
 20
5.7589790999736943
 30
0.0
 11
688.95569858695751
 21
5.917897722571583
 31
0.0
  0
LINE
  5
813
  8
0
 10
688.95569858695751
 20
5.917897786665125
 30
0.0
 11
688.95569858695751
 21
6.12500450375813
 31
0.0
  0
LINE
  5
814
  8
0
 10
688.95569858695751
 20
6.1250047278860302
 30
0.0
 11
688.95569858695751
 21
6.3661853976965928
 31
0.0
  0
LINE
  5
815
  8
0
 10
688.95569858695751
 20
6.3661854586556084
 30
0.0
 11
688.95569858695751
 21
6.625004262593543
 31
0.0
  0
LINE
  5
816
  8
0
 10
688.95569858695615
 20
8.5000045037581877
 30
0.0
 11
689.20569858695387
 21
8.5000045037581877
 31
0.0
  0
LINE
  5
817
  8
0
 10
689.20569858695387
 20
18.50000450375796
 30
0.0
 11
688.95569858695615
 21
18.50000450375796
 31
0.0
  0
LINE
  5
818
  8
0
 10
688.9556985869574
 20
13.50000450375814
 30
0.0
 11
688.9556985869574
 21
16.000004503758142
 31
0.0
  0
LINE
  5
819
  8
0
 10
688.9556985869574
 20
16.00000502576302
 30
0.0
 11
688.9556985869574
 21
17.035537982667542
 31
0.0
  0
LINE
  5
81A
  8
0
 10
688.9556985869574
 20
17.035538409690879
 30
0.0
 11
688.9556985869574
 21
17.830131311376839
 31
0.0
  0
LINE
  5
81B
  8
0
 10
688.9556985869574
 20
17.83013152268035
 30
0.0
 11
688.9556985869574
 21
18.329633184914609
 31
0.0
  0
LINE
  5
81C
  8
0
 10
688.9556985869574
 20
18.329633635203511
 30
0.0
 11
688.9556985869574
 21
18.500004503758159
 31
0.0
  0
LINE
  5
81D
  8
0
 10
688.9556985869574
 20
8.5000045037581664
 30
0.0
 11
688.9556985869574
 21
8.6703752701587788
 31
0.0
  0
LINE
  5
81E
  8
0
 10
688.9556985869574
 20
8.6703753723128241
 30
0.0
 11
688.9556985869574
 21
9.1698774848359719
 31
0.0
  0
LINE
  5
81F
  8
0
 10
688.9556985869574
 20
9.1698776961387871
 30
0.0
 11
688.9556985869574
 21
9.9644703211494363
 31
0.0
  0
LINE
  5
820
  8
0
 10
688.9556985869574
 20
9.9644705978254251
 30
0.0
 11
688.9556985869574
 21
11.00000450375815
 31
0.0
  0
LINE
  5
821
  8
0
 10
688.9556985869574
 20
11.000004727885649
 30
0.0
 11
688.9556985869574
 21
13.50000450375814
 31
0.0
  0
ARC
  5
822
  8
0
 10
210.8749953247513
 20
124.6250045037565
 30
0.0
 40
8.2500000000000089
 50
179.9999999999998
 51
359.99999999999881
  0
ARC
  5
823
  8
0
 10
210.8749953247513
 20
124.6250045037565
 30
0.0
 40
8.2500000000000053
 50
359.9999999999996
 51
179.9999999999998
  0
ARC
  5
824
  8
0
 10
210.8749953247513
 20
124.6250045037565
 30
0.0
 40
7.687499999999992
 50
0.0000000000007761
 51
180.0000000000002
  0
ARC
  5
825
  8
0
 10
210.8749953247513
 20
124.6250045037565
 30
0.0
 40
7.687499999999992
 50
180.0000000000002
 51
0.0000000000000509
  0
LINE
  5
826
  8
0
 10
215.99749609873911
 20
122.1831486549591
 30
0.0
 11
215.8025556225486
 21
121.73423992480041
 31
0.0
  0
LINE
  5
827
  8
0
 10
215.8025556225486
 20
121.73423992480041
 30
0.0
 11
215.35166276540579
 21
121.5769978613083
 31
0.0
  0
LINE
  5
828
  8
0
 10
215.35166276540579
 20
121.5769978613083
 30
0.0
 11
215.0271339955645
 21
121.6412339724194
 31
0.0
  0
LINE
  5
829
  8
0
 10
215.0271339955645
 20
121.6412339724194
 30
0.0
 11
214.79164292413591
 21
121.8339423057527
 31
0.0
  0
LINE
  5
82A
  8
0
 10
214.79164292413591
 20
121.8339423057527
 30
0.0
 11
214.60067070191371
 21
122.59187881368921
 31
0.0
  0
LINE
  5
82B
  8
0
 10
214.60067070191371
 20
122.59187881368921
 30
0.0
 11
214.78469847969151
 21
123.35576770257811
 31
0.0
  0
LINE
  5
82C
  8
0
 10
214.78469847969151
 20
123.35576770257811
 30
0.0
 11
215.0144851860407
 21
123.5454998454353
 31
0.0
  0
LINE
  5
82D
  8
0
 10
215.0144851860407
 20
123.5454998454353
 30
0.0
 11
215.33578974953281
 21
123.6087438930544
 31
0.0
  0
LINE
  5
82E
  8
0
 10
215.33578974953281
 20
123.6087438930544
 30
0.0
 11
215.8040437177867
 21
123.4653907184512
 31
0.0
  0
LINE
  5
82F
  8
0
 10
215.8040437177867
 20
123.4653907184512
 30
0.0
 11
215.99749609873911
 21
123.040291512102
 31
0.0
  0
LINE
  5
830
  8
0
 10
215.99749609873911
 20
123.040291512102
 30
0.0
 11
217.1403532415963
 21
123.040291512102
 31
0.0
  0
LINE
  5
831
  8
0
 10
217.1403532415963
 20
123.040291512102
 30
0.0
 11
216.98013498762799
 21
123.68798496448289
 31
0.0
  0
LINE
  5
832
  8
0
 10
216.98013498762799
 20
123.68798496448289
 30
0.0
 11
216.6125754638185
 21
124.1667796073401
 31
0.0
  0
LINE
  5
833
  8
0
 10
216.6125754638185
 20
124.1667796073401
 30
0.0
 11
216.0535476860407
 21
124.46253853591151
 31
0.0
  0
LINE
  5
834
  8
0
 10
216.0535476860407
 20
124.46253853591151
 30
0.0
 11
215.31892467016769
 21
124.5611248454353
 31
0.0
  0
LINE
  5
835
  8
0
 10
215.31892467016769
 20
124.5611248454353
 30
0.0
 11
214.52093359873911
 21
124.4291804009909
 31
0.0
  0
LINE
  5
836
  8
0
 10
214.52093359873911
 20
124.4291804009909
 30
0.0
 11
213.91069054318351
 21
124.0333470676575
 31
0.0
  0
LINE
  5
837
  8
0
 10
213.91069054318351
 20
124.0333470676575
 30
0.0
 11
213.52341375746931
 21
123.40933913114959
 31
0.0
  0
LINE
  5
838
  8
0
 10
213.52341375746931
 20
123.40933913114959
 30
0.0
 11
213.3943214955645
 21
122.5928708771813
 31
0.0
  0
LINE
  5
839
  8
0
 10
213.3943214955645
 20
122.5928708771813
 30
0.0
 11
213.52403379715179
 21
121.7745425041655
 31
0.0
  0
LINE
  5
83A
  8
0
 10
213.52403379715179
 20
121.7745425041655
 30
0.0
 11
213.91317070191371
 21
121.15090659146711
 31
0.0
  0
LINE
  5
83B
  8
0
 10
213.91317070191371
 20
121.15090659146711
 30
0.0
 11
214.52849808286609
 21
120.7561893295623
 31
0.0
  0
LINE
  5
83C
  8
0
 10
214.52849808286609
 20
120.7561893295623
 30
0.0
 11
215.3367818130248
 21
120.62461690892739
 31
0.0
  0
LINE
  5
83D
  8
0
 10
215.3367818130248
 20
120.62461690892739
 30
0.0
 11
216.0598720908026
 21
120.7267994486099
 31
0.0
  0
LINE
  5
83E
  8
0
 10
216.0598720908026
 20
120.7267994486099
 30
0.0
 11
216.6160476860407
 21
121.0333470676575
 31
0.0
  0
LINE
  5
83F
  8
0
 10
216.6160476860407
 20
121.0333470676575
 30
0.0
 11
216.98348320191371
 21
121.525162543848
 31
0.0
  0
LINE
  5
840
  8
0
 10
216.98348320191371
 20
121.525162543848
 30
0.0
 11
217.1403532415963
 21
122.1831486549591
 31
0.0
  0
LINE
  5
841
  8
0
 10
217.1403532415963
 20
122.1831486549591
 30
0.0
 11
215.99749609873911
 21
122.1831486549591
 31
0.0
  0
LINE
  5
842
  8
0
 10
208.7757687209714
 20
122.95722284388231
 30
0.0
 11
209.9533480860508
 21
122.95722284388231
 31
0.0
  0
LINE
  5
843
  8
0
 10
209.9533480860508
 20
122.95722284388231
 30
0.0
 11
210.10017348287619
 21
123.4651593518188
 31
0.0
  0
LINE
  5
844
  8
0
 10
210.10017348287619
 20
123.4651593518188
 30
0.0
 11
211.3035464987492
 21
123.4651593518188
 31
0.0
  0
LINE
  5
845
  8
0
 10
211.3035464987492
 20
123.4651593518188
 30
0.0
 11
211.44541157811429
 21
122.95722284388231
 31
0.0
  0
LINE
  5
846
  8
0
 10
211.44541157811429
 20
122.95722284388231
 30
0.0
 11
212.6487845939873
 21
122.95722284388231
 31
0.0
  0
LINE
  5
847
  8
0
 10
212.6487845939873
 20
122.95722284388231
 30
0.0
 11
211.31941951462221
 21
126.7667466534061
 31
0.0
  0
LINE
  5
848
  8
0
 10
211.31941951462221
 20
126.7667466534061
 30
0.0
 11
210.09025284795561
 21
126.7667466534061
 31
0.0
  0
LINE
  5
849
  8
0
 10
210.09025284795561
 20
126.7667466534061
 30
0.0
 11
208.7757687209714
 21
122.95722284388231
 31
0.0
  0
LINE
  5
84A
  8
0
 10
210.32041157811429
 20
124.29055617721561
 30
0.0
 11
210.706324276527
 21
125.59412760578709
 31
0.0
  0
LINE
  5
84B
  8
0
 10
210.706324276527
 20
125.59412760578709
 30
0.0
 11
211.0833084035111
 21
124.29055617721561
 31
0.0
  0
LINE
  5
84C
  8
0
 10
211.0833084035111
 20
124.29055617721561
 30
0.0
 11
210.32041157811429
 21
124.29055617721561
 31
0.0
  0
LINE
  5
84D
  8
0
 10
205.01503753071
 20
124.6976111530626
 30
0.0
 11
206.71444229261479
 21
124.6976111530626
 31
0.0
  0
LINE
  5
84E
  8
0
 10
206.71444229261479
 20
124.6976111530626
 30
0.0
 11
207.4822994354719
 21
124.73630162925301
 31
0.0
  0
LINE
  5
84F
  8
0
 10
207.4822994354719
 20
124.73630162925301
 30
0.0
 11
207.89499784817031
 21
124.86824607369751
 31
0.0
  0
LINE
  5
850
  8
0
 10
207.89499784817031
 20
124.86824607369751
 30
0.0
 11
208.30323197515449
 21
125.251182581634
 31
0.0
  0
LINE
  5
851
  8
0
 10
208.30323197515449
 20
125.251182581634
 30
0.0
 11
208.44360895928151
 21
125.83848416893559
 31
0.0
  0
LINE
  5
852
  8
0
 10
208.44360895928151
 20
125.83848416893559
 30
0.0
 11
208.2997597529322
 21
126.4014802006816
 31
0.0
  0
LINE
  5
853
  8
0
 10
208.2997597529322
 20
126.4014802006816
 30
0.0
 11
207.85630737197991
 21
126.7263809943324
 31
0.0
  0
LINE
  5
854
  8
0
 10
207.85630737197991
 20
126.7263809943324
 30
0.0
 11
208.20154546721801
 21
127.0438413117927
 31
0.0
  0
LINE
  5
855
  8
0
 10
208.20154546721801
 20
127.0438413117927
 30
0.0
 11
208.31662483229729
 21
127.4962222641737
 31
0.0
  0
LINE
  5
856
  8
0
 10
208.31662483229729
 20
127.4962222641737
 30
0.0
 11
208.1628549910275
 21
128.05624210544349
 31
0.0
  0
LINE
  5
857
  8
0
 10
208.1628549910275
 20
128.05624210544349
 30
0.0
 11
207.72039467356711
 21
128.39602385147529
 31
0.0
  0
LINE
  5
858
  8
0
 10
207.72039467356711
 20
128.39602385147529
 30
0.0
 11
207.32505737197991
 21
128.4813413117927
 31
0.0
  0
LINE
  5
859
  8
0
 10
207.32505737197991
 20
128.4813413117927
 30
0.0
 11
206.59142641959889
 21
128.50713496258641
 31
0.0
  0
LINE
  5
85A
  8
0
 10
206.59142641959889
 20
128.50713496258641
 30
0.0
 11
205.01503753071
 21
128.50713496258641
 31
0.0
  0
LINE
  5
85B
  8
0
 10
205.01503753071
 20
128.50713496258641
 30
0.0
 11
205.01503753071
 21
124.6976111530626
 31
0.0
  0
LINE
  5
85C
  8
0
 10
206.22138673705919
 20
125.5865000419515
 30
0.0
 11
206.22138673705919
 21
126.28491274036421
 31
0.0
  0
LINE
  5
85D
  8
0
 10
206.22138673705919
 20
126.28491274036421
 30
0.0
 11
206.76999784817031
 21
126.28491274036421
 31
0.0
  0
LINE
  5
85E
  8
0
 10
206.76999784817031
 20
126.28491274036421
 30
0.0
 11
207.17922403864651
 21
126.2055476609991
 31
0.0
  0
LINE
  5
85F
  8
0
 10
207.17922403864651
 20
126.2055476609991
 30
0.0
 11
207.30075181642431
 21
125.938682581634
 31
0.0
  0
LINE
  5
860
  8
0
 10
207.30075181642431
 20
125.938682581634
 30
0.0
 11
207.18170419737669
 21
125.6688413117927
 31
0.0
  0
LINE
  5
861
  8
0
 10
207.18170419737669
 20
125.6688413117927
 30
0.0
 11
206.78091054658299
 21
125.5865000419515
 31
0.0
  0
LINE
  5
862
  8
0
 10
206.78091054658299
 20
125.5865000419515
 30
0.0
 11
206.22138673705919
 21
125.5865000419515
 31
0.0
  0
LINE
  5
863
  8
0
 10
206.22138673705919
 20
126.9833254387768
 30
0.0
 11
206.22138673705919
 21
127.61824607369751
 31
0.0
  0
LINE
  5
864
  8
0
 10
206.22138673705919
 20
127.61824607369751
 30
0.0
 11
206.55571213388461
 21
127.61824607369751
 31
0.0
  0
LINE
  5
865
  8
0
 10
206.55571213388461
 20
127.61824607369751
 30
0.0
 11
207.0641446735672
 21
127.5507857562372
 31
0.0
  0
LINE
  5
866
  8
0
 10
207.0641446735672
 20
127.5507857562372
 30
0.0
 11
207.17376768944021
 21
127.3007857562372
 31
0.0
  0
LINE
  5
867
  8
0
 10
207.17376768944021
 20
127.3007857562372
 30
0.0
 11
207.07158514975771
 21
127.05574607369751
 31
0.0
  0
LINE
  5
868
  8
0
 10
207.07158514975771
 20
127.05574607369751
 30
0.0
 11
206.71940261007509
 21
126.9833254387768
 31
0.0
  0
LINE
  5
869
  8
0
 10
206.71940261007509
 20
126.9833254387768
 30
0.0
 11
206.22138673705919
 21
126.9833254387768
 31
0.0
  0
ARC
  5
86A
  8
0
 10
210.87499532475081
 20
124.6250045037571
 30
0.0
 40
9.0000000000000089
 50
179.9999999999998
 51
359.99999999999898
  0
ARC
  5
86B
  8
0
 10
210.87499532475081
 20
124.6250045037571
 30
0.0
 40
9.0000000000000124
 50
359.9999999999996
 51
179.9999999999998
  0
LINE
  5
86C
  8
0
 10
140.9999953247501
 20
154.62500450375751
 30
0.0
 11
280.74999532474442
 21
154.62500450375751
 31
0.0
  0
LINE
  5
86D
  8
0
 10
280.74999532474442
 20
100.00000450375769
 30
0.0
 11
140.9999953247501
 21
100.00000450375769
 31
0.0
  0
LINE
  5
86E
  8
0
 10
140.9999953247501
 20
154.62500450375751
 30
0.0
 11
140.9999953247501
 21
100.00000450375769
 31
0.0
  0
LINE
  5
86F
  8
0
 10
280.74999532474442
 20
100.00000450375769
 30
0.0
 11
280.74999532474442
 21
154.62500450375751
 31
0.0
  0
LINE
  5
870
  8
0
 10
140.99999532474999
 20
100.00000450375769
 30
0.0
 11
280.74999532474988
 21
100.00000450375769
 31
0.0
  0
LINE
  5
871
  8
0
 10
280.74999532474988
 20
0.0000045037577365
 30
0.0
 11
140.99999532474999
 21
0.0000045037577365
 31
0.0
  0
LINE
  5
872
  8
0
 10
280.74999532474988
 20
100.00000450375769
 30
0.0
 11
280.74999532474988
 21
0.0000045037577365
 31
0.0
  0
LINE
  5
873
  8
0
 10
140.99999532474999
 20
0.0000045037577365
 30
0.0
 11
140.99999532474999
 21
100.00000450375769
 31
0.0
  0
ARC
  5
874
  8
0
 10
351.62499532475368
 20
124.6250045037611
 30
0.0
 40
8.2500000000000124
 50
179.99999999999969
 51
359.99999999999881
  0
ARC
  5
875
  8
0
 10
351.62499532475368
 20
124.6250045037611
 30
0.0
 40
8.2500000000000124
 50
359.9999999999996
 51
179.99999999999969
  0
ARC
  5
876
  8
0
 10
351.62499532475368
 20
124.6250045037611
 30
0.0
 40
7.687499999999976
 50
0.0000000000010114
 51
180.00000000000031
  0
ARC
  5
877
  8
0
 10
351.62499532475368
 20
124.6250045037611
 30
0.0
 40
7.6874999999999831
 50
180.0000000000002
 51
0.0000000000001018
  0
LINE
  5
878
  8
0
 10
356.74749609874169
 20
122.1831486549638
 30
0.0
 11
356.5525556225511
 21
121.734239924805
 31
0.0
  0
LINE
  5
879
  8
0
 10
356.5525556225511
 20
121.734239924805
 30
0.0
 11
356.10166276540821
 21
121.576997861313
 31
0.0
  0
LINE
  5
87A
  8
0
 10
356.10166276540821
 20
121.576997861313
 30
0.0
 11
355.77713399556689
 21
121.6412339724241
 31
0.0
  0
LINE
  5
87B
  8
0
 10
355.77713399556689
 20
121.6412339724241
 30
0.0
 11
355.54164292413839
 21
121.8339423057574
 31
0.0
  0
LINE
  5
87C
  8
0
 10
355.54164292413839
 20
121.8339423057574
 30
0.0
 11
355.3506707019161
 21
122.5918788136939
 31
0.0
  0
LINE
  5
87D
  8
0
 10
355.3506707019161
 20
122.5918788136939
 30
0.0
 11
355.5346984796941
 21
123.3557677025828
 31
0.0
  0
LINE
  5
87E
  8
0
 10
355.5346984796941
 20
123.3557677025828
 30
0.0
 11
355.76448518604309
 21
123.54549984543991
 31
0.0
  0
LINE
  5
87F
  8
0
 10
355.76448518604309
 20
123.54549984543991
 30
0.0
 11
356.08578974953531
 21
123.608743893059
 31
0.0
  0
LINE
  5
880
  8
0
 10
356.08578974953531
 20
123.608743893059
 30
0.0
 11
356.55404371778923
 21
123.46539071845579
 31
0.0
  0
LINE
  5
881
  8
0
 10
356.55404371778923
 20
123.46539071845579
 30
0.0
 11
356.74749609874169
 21
123.04029151210661
 31
0.0
  0
LINE
  5
882
  8
0
 10
356.74749609874169
 20
123.04029151210661
 30
0.0
 11
357.8903532415988
 21
123.04029151210661
 31
0.0
  0
LINE
  5
883
  8
0
 10
357.8903532415988
 20
123.04029151210661
 30
0.0
 11
357.73013498763038
 21
123.6879849644876
 31
0.0
  0
LINE
  5
884
  8
0
 10
357.73013498763038
 20
123.6879849644876
 30
0.0
 11
357.36257546382092
 21
124.16677960734469
 31
0.0
  0
LINE
  5
885
  8
0
 10
357.36257546382092
 20
124.16677960734469
 30
0.0
 11
356.80354768604309
 21
124.4625385359162
 31
0.0
  0
LINE
  5
886
  8
0
 10
356.80354768604309
 20
124.4625385359162
 30
0.0
 11
356.06892467017008
 21
124.56112484544001
 31
0.0
  0
LINE
  5
887
  8
0
 10
356.06892467017008
 20
124.56112484544001
 30
0.0
 11
355.27093359874158
 21
124.42918040099551
 31
0.0
  0
LINE
  5
888
  8
0
 10
355.27093359874158
 20
124.42918040099551
 30
0.0
 11
354.66069054318598
 21
124.03334706766221
 31
0.0
  0
LINE
  5
889
  8
0
 10
354.66069054318598
 20
124.03334706766221
 30
0.0
 11
354.2734137574717
 21
123.4093391311543
 31
0.0
  0
LINE
  5
88A
  8
0
 10
354.2734137574717
 20
123.4093391311543
 30
0.0
 11
354.14432149556689
 21
122.592870877186
 31
0.0
  0
LINE
  5
88B
  8
0
 10
354.14432149556689
 20
122.592870877186
 30
0.0
 11
354.27403379715429
 21
121.7745425041701
 31
0.0
  0
LINE
  5
88C
  8
0
 10
354.27403379715429
 20
121.7745425041701
 30
0.0
 11
354.6631707019161
 21
121.1509065914717
 31
0.0
  0
LINE
  5
88D
  8
0
 10
354.6631707019161
 20
121.1509065914717
 30
0.0
 11
355.27849808286851
 21
120.75618932956689
 31
0.0
  0
LINE
  5
88E
  8
0
 10
355.27849808286851
 20
120.75618932956689
 30
0.0
 11
356.0867818130273
 21
120.624616908932
 31
0.0
  0
LINE
  5
88F
  8
0
 10
356.0867818130273
 20
120.624616908932
 30
0.0
 11
356.80987209080502
 21
120.7267994486145
 31
0.0
  0
LINE
  5
890
  8
0
 10
356.80987209080502
 20
120.7267994486145
 30
0.0
 11
357.36604768604309
 21
121.03334706766221
 31
0.0
  0
LINE
  5
891
  8
0
 10
357.36604768604309
 20
121.03334706766221
 30
0.0
 11
357.7334832019161
 21
121.5251625438527
 31
0.0
  0
LINE
  5
892
  8
0
 10
357.7334832019161
 20
121.5251625438527
 30
0.0
 11
357.8903532415988
 21
122.1831486549638
 31
0.0
  0
LINE
  5
893
  8
0
 10
357.8903532415988
 20
122.1831486549638
 30
0.0
 11
356.74749609874169
 21
122.1831486549638
 31
0.0
  0
LINE
  5
894
  8
0
 10
349.52576872097387
 20
122.957222843887
 30
0.0
 11
350.70334808605321
 21
122.957222843887
 31
0.0
  0
LINE
  5
895
  8
0
 10
350.70334808605321
 20
122.957222843887
 30
0.0
 11
350.85017348287869
 21
123.4651593518235
 31
0.0
  0
LINE
  5
896
  8
0
 10
350.85017348287869
 20
123.4651593518235
 30
0.0
 11
352.0535464987517
 21
123.4651593518235
 31
0.0
  0
LINE
  5
897
  8
0
 10
352.0535464987517
 20
123.4651593518235
 30
0.0
 11
352.1954115781167
 21
122.957222843887
 31
0.0
  0
LINE
  5
898
  8
0
 10
352.1954115781167
 20
122.957222843887
 30
0.0
 11
353.39878459398972
 21
122.957222843887
 31
0.0
  0
LINE
  5
899
  8
0
 10
353.39878459398972
 20
122.957222843887
 30
0.0
 11
352.06941951462471
 21
126.76674665341081
 31
0.0
  0
LINE
  5
89A
  8
0
 10
352.06941951462471
 20
126.76674665341081
 30
0.0
 11
350.84025284795803
 21
126.76674665341081
 31
0.0
  0
LINE
  5
89B
  8
0
 10
350.84025284795803
 20
126.76674665341081
 30
0.0
 11
349.52576872097387
 21
122.957222843887
 31
0.0
  0
LINE
  5
89C
  8
0
 10
351.07041157811682
 20
124.2905561772203
 30
0.0
 11
351.45632427652941
 21
125.5941276057917
 31
0.0
  0
LINE
  5
89D
  8
0
 10
351.45632427652941
 20
125.5941276057917
 30
0.0
 11
351.83330840351363
 21
124.2905561772203
 31
0.0
  0
LINE
  5
89E
  8
0
 10
351.83330840351363
 20
124.2905561772203
 30
0.0
 11
351.07041157811682
 21
124.2905561772203
 31
0.0
  0
LINE
  5
89F
  8
0
 10
345.7650375307125
 20
124.6976111530672
 30
0.0
 11
347.46444229261721
 21
124.6976111530672
 31
0.0
  0
LINE
  5
8A0
  8
0
 10
347.46444229261721
 20
124.6976111530672
 30
0.0
 11
348.23229943547437
 21
124.7363016292577
 31
0.0
  0
LINE
  5
8A1
  8
0
 10
348.23229943547437
 20
124.7363016292577
 30
0.0
 11
348.64499784817281
 21
124.8682460737021
 31
0.0
  0
LINE
  5
8A2
  8
0
 10
348.64499784817281
 20
124.8682460737021
 30
0.0
 11
349.05323197515702
 21
125.2511825816387
 31
0.0
  0
LINE
  5
8A3
  8
0
 10
349.05323197515702
 20
125.2511825816387
 30
0.0
 11
349.19360895928389
 21
125.8384841689403
 31
0.0
  0
LINE
  5
8A4
  8
0
 10
349.19360895928389
 20
125.8384841689403
 30
0.0
 11
349.04975975293468
 21
126.40148020068629
 31
0.0
  0
LINE
  5
8A5
  8
0
 10
349.04975975293468
 20
126.40148020068629
 30
0.0
 11
348.60630737198233
 21
126.72638099433711
 31
0.0
  0
LINE
  5
8A6
  8
0
 10
348.60630737198233
 20
126.72638099433711
 30
0.0
 11
348.9515454672204
 21
127.04384131179739
 31
0.0
  0
LINE
  5
8A7
  8
0
 10
348.9515454672204
 20
127.04384131179739
 30
0.0
 11
349.06662483229979
 21
127.4962222641784
 31
0.0
  0
LINE
  5
8A8
  8
0
 10
349.06662483229979
 20
127.4962222641784
 30
0.0
 11
348.91285499102997
 21
128.05624210544821
 31
0.0
  0
LINE
  5
8A9
  8
0
 10
348.91285499102997
 20
128.05624210544821
 30
0.0
 11
348.47039467356961
 21
128.3960238514799
 31
0.0
  0
LINE
  5
8AA
  8
0
 10
348.47039467356961
 20
128.3960238514799
 30
0.0
 11
348.07505737198233
 21
128.48134131179739
 31
0.0
  0
LINE
  5
8AB
  8
0
 10
348.07505737198233
 20
128.48134131179739
 30
0.0
 11
347.34142641960131
 21
128.5071349625911
 31
0.0
  0
LINE
  5
8AC
  8
0
 10
347.34142641960131
 20
128.5071349625911
 30
0.0
 11
345.7650375307125
 21
128.5071349625911
 31
0.0
  0
LINE
  5
8AD
  8
0
 10
345.7650375307125
 20
128.5071349625911
 30
0.0
 11
345.7650375307125
 21
124.6976111530672
 31
0.0
  0
LINE
  5
8AE
  8
0
 10
346.97138673706172
 20
125.5865000419561
 30
0.0
 11
346.97138673706172
 21
126.2849127403688
 31
0.0
  0
LINE
  5
8AF
  8
0
 10
346.97138673706172
 20
126.2849127403688
 30
0.0
 11
347.51999784817281
 21
126.2849127403688
 31
0.0
  0
LINE
  5
8B0
  8
0
 10
347.51999784817281
 20
126.2849127403688
 30
0.0
 11
347.92922403864901
 21
126.20554766100371
 31
0.0
  0
LINE
  5
8B1
  8
0
 10
347.92922403864901
 20
126.20554766100371
 30
0.0
 11
348.05075181642673
 21
125.9386825816386
 31
0.0
  0
LINE
  5
8B2
  8
0
 10
348.05075181642673
 20
125.9386825816386
 30
0.0
 11
347.93170419737908
 21
125.66884131179739
 31
0.0
  0
LINE
  5
8B3
  8
0
 10
347.93170419737908
 20
125.66884131179739
 30
0.0
 11
347.53091054658552
 21
125.5865000419561
 31
0.0
  0
LINE
  5
8B4
  8
0
 10
347.53091054658552
 20
125.5865000419561
 30
0.0
 11
346.97138673706172
 21
125.5865000419561
 31
0.0
  0
LINE
  5
8B5
  8
0
 10
346.97138673706172
 20
126.98332543878151
 30
0.0
 11
346.97138673706172
 21
127.6182460737022
 31
0.0
  0
LINE
  5
8B6
  8
0
 10
346.97138673706172
 20
127.6182460737022
 30
0.0
 11
347.3057121338872
 21
127.6182460737022
 31
0.0
  0
LINE
  5
8B7
  8
0
 10
347.3057121338872
 20
127.6182460737022
 30
0.0
 11
347.81414467356961
 21
127.55078575624189
 31
0.0
  0
LINE
  5
8B8
  8
0
 10
347.81414467356961
 20
127.55078575624189
 30
0.0
 11
347.92376768944268
 21
127.30078575624179
 31
0.0
  0
LINE
  5
8B9
  8
0
 10
347.92376768944268
 20
127.30078575624179
 30
0.0
 11
347.82158514976021
 21
127.0557460737022
 31
0.0
  0
LINE
  5
8BA
  8
0
 10
347.82158514976021
 20
127.0557460737022
 30
0.0
 11
347.46940261007762
 21
126.98332543878151
 31
0.0
  0
LINE
  5
8BB
  8
0
 10
347.46940261007762
 20
126.98332543878151
 30
0.0
 11
346.97138673706172
 21
126.98332543878151
 31
0.0
  0
ARC
  5
8BC
  8
0
 10
351.62499532475329
 20
124.6250045037618
 30
0.0
 40
9.0000000000000089
 50
179.9999999999998
 51
359.99999999999881
  0
ARC
  5
8BD
  8
0
 10
351.62499532475329
 20
124.6250045037618
 30
0.0
 40
9.0
 50
0.0
 51
179.99999999999989
  0
LINE
  5
8BE
  8
0
 10
281.749995324753
 20
154.62500450375751
 30
0.0
 11
421.49999532474732
 21
154.62500450375751
 31
0.0
  0
LINE
  5
8BF
  8
0
 10
421.49999532474732
 20
100.00000450375769
 30
0.0
 11
281.749995324753
 21
100.00000450375769
 31
0.0
  0
LINE
  5
8C0
  8
0
 10
281.749995324753
 20
154.62500450375751
 30
0.0
 11
281.749995324753
 21
100.00000450375769
 31
0.0
  0
LINE
  5
8C1
  8
0
 10
421.49999532474732
 20
100.00000450375769
 30
0.0
 11
421.49999532474732
 21
154.62500450375751
 31
0.0
  0
LINE
  5
8C2
  8
0
 10
281.749995324753
 20
100.00000450375769
 30
0.0
 11
421.49999532475277
 21
100.00000450375769
 31
0.0
  0
LINE
  5
8C3
  8
0
 10
421.49999532475277
 20
0.0000045037577365
 30
0.0
 11
281.749995324753
 21
0.0000045037577365
 31
0.0
  0
LINE
  5
8C4
  8
0
 10
421.49999532475277
 20
100.00000450375769
 30
0.0
 11
421.49999532475277
 21
0.0000045037577365
 31
0.0
  0
LINE
  5
8C5
  8
0
 10
281.749995324753
 20
0.0000045037577365
 30
0.0
 11
281.749995324753
 21
100.00000450375769
 31
0.0
  0
LINE
  5
8C6
  8
0
 10
0.2499953247531152
 20
154.62500450375751
 30
0.0
 11
139.9999953247474
 21
154.62500450375751
 31
0.0
  0
LINE
  5
8C7
  8
0
 10
139.9999953247474
 20
100.00000450375769
 30
0.0
 11
0.2499953247531152
 21
100.00000450375769
 31
0.0
  0
LINE
  5
8C8
  8
0
 10
0.2499953247531152
 20
154.62500450375751
 30
0.0
 11
0.2499953247531152
 21
100.00000450375769
 31
0.0
  0
LINE
  5
8C9
  8
0
 10
139.9999953247474
 20
100.00000450375769
 30
0.0
 11
139.9999953247474
 21
154.62500450375751
 31
0.0
  0
LINE
  5
8CA
  8
0
 10
0.2499953247531152
 20
100.00000450375769
 30
0.0
 11
139.99999532475289
 21
100.00000450375769
 31
0.0
  0
LINE
  5
8CB
  8
0
 10
139.99999532475289
 20
0.0000045037577365
 30
0.0
 11
0.2499953247531152
 21
0.0000045037577365
 31
0.0
  0
LINE
  5
8CC
  8
0
 10
139.99999532475289
 20
100.00000450375769
 30
0.0
 11
139.99999532475289
 21
0.0000045037577365
 31
0.0
  0
LINE
  5
8CD
  8
0
 10
0.2499953247531152
 20
0.0000045037577365
 30
0.0
 11
0.2499953247531152
 21
100.00000450375769
 31
0.0
  0
ARC
  5
8CE
  8
0
 10
70.124995324753797
 20
124.6250045037566
 30
0.0
 40
8.25
 50
179.99999999999969
 51
359.99999999999881
  0
ARC
  5
8CF
  8
0
 10
70.124995324753797
 20
124.6250045037566
 30
0.0
 40
8.2499999999999911
 50
359.9999999999996
 51
179.9999999999998
  0
ARC
  5
8D0
  8
0
 10
70.124995324753797
 20
124.6250045037566
 30
0.0
 40
7.6874999999999831
 50
0.0000000000007506
 51
180.0000000000002
  0
ARC
  5
8D1
  8
0
 10
70.124995324753797
 20
124.6250045037566
 30
0.0
 40
7.687499999999992
 50
180.00000000000011
 51
359.9999999999996
  0
LINE
  5
8D2
  8
0
 10
75.247496098741635
 20
122.1831486549592
 30
0.0
 11
75.05255562255121
 21
121.73423992480051
 31
0.0
  0
LINE
  5
8D3
  8
0
 10
75.05255562255121
 20
121.73423992480051
 30
0.0
 11
74.601662765408321
 21
121.5769978613085
 31
0.0
  0
LINE
  5
8D4
  8
0
 10
74.601662765408321
 20
121.5769978613085
 30
0.0
 11
74.277133995566999
 21
121.6412339724196
 31
0.0
  0
LINE
  5
8D5
  8
0
 10
74.277133995566999
 20
121.6412339724196
 30
0.0
 11
74.0416429241385
 21
121.8339423057529
 31
0.0
  0
LINE
  5
8D6
  8
0
 10
74.0416429241385
 20
121.8339423057529
 30
0.0
 11
73.850670701916215
 21
122.59187881368941
 31
0.0
  0
LINE
  5
8D7
  8
0
 10
73.850670701916215
 20
122.59187881368941
 30
0.0
 11
74.034698479694043
 21
123.35576770257831
 31
0.0
  0
LINE
  5
8D8
  8
0
 10
74.034698479694043
 20
123.35576770257831
 30
0.0
 11
74.264485186043203
 21
123.5454998454355
 31
0.0
  0
LINE
  5
8D9
  8
0
 10
74.264485186043203
 20
123.5454998454355
 30
0.0
 11
74.585789749535309
 21
123.60874389305449
 31
0.0
  0
LINE
  5
8DA
  8
0
 10
74.585789749535309
 20
123.60874389305449
 30
0.0
 11
75.054043717789213
 21
123.4653907184513
 31
0.0
  0
LINE
  5
8DB
  8
0
 10
75.054043717789213
 20
123.4653907184513
 30
0.0
 11
75.247496098741635
 21
123.0402915121021
 31
0.0
  0
LINE
  5
8DC
  8
0
 10
75.247496098741635
 20
123.0402915121021
 30
0.0
 11
76.390353241598802
 21
123.0402915121021
 31
0.0
  0
LINE
  5
8DD
  8
0
 10
76.390353241598802
 20
123.0402915121021
 30
0.0
 11
76.230134987630549
 21
123.68798496448299
 31
0.0
  0
LINE
  5
8DE
  8
0
 10
76.230134987630549
 20
123.68798496448299
 30
0.0
 11
75.862575463821031
 21
124.1667796073402
 31
0.0
  0
LINE
  5
8DF
  8
0
 10
75.862575463821031
 20
124.1667796073402
 30
0.0
 11
75.303547686043203
 21
124.46253853591161
 31
0.0
  0
LINE
  5
8E0
  8
0
 10
75.303547686043203
 20
124.46253853591161
 30
0.0
 11
74.56892467017019
 21
124.5611248454354
 31
0.0
  0
LINE
  5
8E1
  8
0
 10
74.56892467017019
 20
124.5611248454354
 30
0.0
 11
73.770933598741635
 21
124.429180400991
 31
0.0
  0
LINE
  5
8E2
  8
0
 10
73.770933598741635
 20
124.429180400991
 30
0.0
 11
73.160690543186092
 21
124.0333470676577
 31
0.0
  0
LINE
  5
8E3
  8
0
 10
73.160690543186092
 20
124.0333470676577
 30
0.0
 11
72.773413757471815
 21
123.40933913114969
 31
0.0
  0
LINE
  5
8E4
  8
0
 10
72.773413757471815
 20
123.40933913114969
 30
0.0
 11
72.644321495566999
 21
122.5928708771815
 31
0.0
  0
LINE
  5
8E5
  8
0
 10
72.644321495566999
 20
122.5928708771815
 30
0.0
 11
72.774033797154289
 21
121.77454250416559
 31
0.0
  0
LINE
  5
8E6
  8
0
 10
72.774033797154289
 20
121.77454250416559
 30
0.0
 11
73.163170701916215
 21
121.1509065914672
 31
0.0
  0
LINE
  5
8E7
  8
0
 10
73.163170701916215
 20
121.1509065914672
 30
0.0
 11
73.778498082868623
 21
120.7561893295624
 31
0.0
  0
LINE
  5
8E8
  8
0
 10
73.778498082868623
 20
120.7561893295624
 30
0.0
 11
74.586781813027415
 21
120.62461690892751
 31
0.0
  0
LINE
  5
8E9
  8
0
 10
74.586781813027415
 20
120.62461690892751
 30
0.0
 11
75.309872090805129
 21
120.72679944861
 31
0.0
  0
LINE
  5
8EA
  8
0
 10
75.309872090805129
 20
120.72679944861
 30
0.0
 11
75.866047686043203
 21
121.0333470676576
 31
0.0
  0
LINE
  5
8EB
  8
0
 10
75.866047686043203
 20
121.0333470676576
 30
0.0
 11
76.233483201916215
 21
121.5251625438481
 31
0.0
  0
LINE
  5
8EC
  8
0
 10
76.233483201916215
 20
121.5251625438481
 30
0.0
 11
76.390353241598802
 21
122.1831486549592
 31
0.0
  0
LINE
  5
8ED
  8
0
 10
76.390353241598802
 20
122.1831486549592
 30
0.0
 11
75.247496098741635
 21
122.1831486549592
 31
0.0
  0
LINE
  5
8EE
  8
0
 10
68.025768720973986
 20
122.95722284388251
 30
0.0
 11
69.203348086053325
 21
122.95722284388251
 31
0.0
  0
LINE
  5
8EF
  8
0
 10
69.203348086053325
 20
122.95722284388251
 30
0.0
 11
69.350173482878745
 21
123.465159351819
 31
0.0
  0
LINE
  5
8F0
  8
0
 10
69.350173482878745
 20
123.465159351819
 30
0.0
 11
70.553546498751814
 21
123.465159351819
 31
0.0
  0
LINE
  5
8F1
  8
0
 10
70.553546498751814
 20
123.465159351819
 30
0.0
 11
70.695411578116818
 21
122.95722284388251
 31
0.0
  0
LINE
  5
8F2
  8
0
 10
70.695411578116818
 20
122.95722284388251
 30
0.0
 11
71.898784593989831
 21
122.95722284388251
 31
0.0
  0
LINE
  5
8F3
  8
0
 10
71.898784593989831
 20
122.95722284388251
 30
0.0
 11
70.569419514624713
 21
126.7667466534063
 31
0.0
  0
LINE
  5
8F4
  8
0
 10
70.569419514624713
 20
126.7667466534063
 30
0.0
 11
69.340252847958141
 21
126.7667466534063
 31
0.0
  0
LINE
  5
8F5
  8
0
 10
69.340252847958141
 20
126.7667466534063
 30
0.0
 11
68.025768720973986
 21
122.95722284388251
 31
0.0
  0
LINE
  5
8F6
  8
0
 10
69.570411578116818
 20
124.29055617721581
 30
0.0
 11
69.956324276529529
 21
125.59412760578719
 31
0.0
  0
LINE
  5
8F7
  8
0
 10
69.956324276529529
 20
125.59412760578719
 30
0.0
 11
70.333308403513627
 21
124.29055617721581
 31
0.0
  0
LINE
  5
8F8
  8
0
 10
70.333308403513627
 20
124.29055617721581
 30
0.0
 11
69.570411578116818
 21
124.29055617721581
 31
0.0
  0
LINE
  5
8F9
  8
0
 10
64.265037530712505
 20
124.6976111530627
 30
0.0
 11
65.964442292617321
 21
124.6976111530627
 31
0.0
  0
LINE
  5
8FA
  8
0
 10
65.964442292617321
 20
124.6976111530627
 30
0.0
 11
66.732299435474431
 21
124.73630162925321
 31
0.0
  0
LINE
  5
8FB
  8
0
 10
66.732299435474431
 20
124.73630162925321
 30
0.0
 11
67.14499784817292
 21
124.86824607369761
 31
0.0
  0
LINE
  5
8FC
  8
0
 10
67.14499784817292
 20
124.86824607369761
 30
0.0
 11
67.553231975157018
 21
125.2511825816341
 31
0.0
  0
LINE
  5
8FD
  8
0
 10
67.553231975157018
 20
125.2511825816341
 30
0.0
 11
67.693608959284006
 21
125.83848416893569
 31
0.0
  0
LINE
  5
8FE
  8
0
 10
67.693608959284006
 20
125.83848416893569
 30
0.0
 11
67.549759752934733
 21
126.4014802006818
 31
0.0
  0
LINE
  5
8FF
  8
0
 10
67.549759752934733
 20
126.4014802006818
 30
0.0
 11
67.106307371982425
 21
126.7263809943325
 31
0.0
  0
LINE
  5
900
  8
0
 10
67.106307371982425
 20
126.7263809943325
 30
0.0
 11
67.451545467220512
 21
127.0438413117929
 31
0.0
  0
LINE
  5
901
  8
0
 10
67.451545467220512
 20
127.0438413117929
 30
0.0
 11
67.566624832299794
 21
127.4962222641738
 31
0.0
  0
LINE
  5
902
  8
0
 10
67.566624832299794
 20
127.4962222641738
 30
0.0
 11
67.412854991030031
 21
128.05624210544369
 31
0.0
  0
LINE
  5
903
  8
0
 10
67.412854991030031
 20
128.05624210544369
 30
0.0
 11
66.970394673569714
 21
128.39602385147541
 31
0.0
  0
LINE
  5
904
  8
0
 10
66.970394673569714
 20
128.39602385147541
 30
0.0
 11
66.575057371982439
 21
128.4813413117929
 31
0.0
  0
LINE
  5
905
  8
0
 10
66.575057371982439
 20
128.4813413117929
 30
0.0
 11
65.841426419601405
 21
128.50713496258649
 31
0.0
  0
LINE
  5
906
  8
0
 10
65.841426419601405
 20
128.50713496258649
 30
0.0
 11
64.265037530712505
 21
128.50713496258649
 31
0.0
  0
LINE
  5
907
  8
0
 10
64.265037530712505
 20
128.50713496258649
 30
0.0
 11
64.265037530712505
 21
124.6976111530627
 31
0.0
  0
LINE
  5
908
  8
0
 10
65.471386737061721
 20
125.5865000419516
 30
0.0
 11
65.471386737061721
 21
126.28491274036431
 31
0.0
  0
LINE
  5
909
  8
0
 10
65.471386737061721
 20
126.28491274036431
 30
0.0
 11
66.01999784817292
 21
126.28491274036431
 31
0.0
  0
LINE
  5
90A
  8
0
 10
66.01999784817292
 20
126.28491274036431
 30
0.0
 11
66.429224038649124
 21
126.2055476609992
 31
0.0
  0
LINE
  5
90B
  8
0
 10
66.429224038649124
 20
126.2055476609992
 30
0.0
 11
66.550751816426782
 21
125.9386825816341
 31
0.0
  0
LINE
  5
90C
  8
0
 10
66.550751816426782
 20
125.9386825816341
 30
0.0
 11
66.43170419737919
 21
125.6688413117929
 31
0.0
  0
LINE
  5
90D
  8
0
 10
66.43170419737919
 20
125.6688413117929
 30
0.0
 11
66.030910546585631
 21
125.5865000419516
 31
0.0
  0
LINE
  5
90E
  8
0
 10
66.030910546585631
 20
125.5865000419516
 30
0.0
 11
65.471386737061721
 21
125.5865000419516
 31
0.0
  0
LINE
  5
90F
  8
0
 10
65.471386737061721
 20
126.983325438777
 30
0.0
 11
65.471386737061721
 21
127.61824607369761
 31
0.0
  0
LINE
  5
910
  8
0
 10
65.471386737061721
 20
127.61824607369761
 30
0.0
 11
65.805712133887141
 21
127.61824607369761
 31
0.0
  0
LINE
  5
911
  8
0
 10
65.805712133887141
 20
127.61824607369761
 30
0.0
 11
66.314144673569729
 21
127.5507857562373
 31
0.0
  0
LINE
  5
912
  8
0
 10
66.314144673569729
 20
127.5507857562373
 30
0.0
 11
66.423767689442684
 21
127.3007857562373
 31
0.0
  0
LINE
  5
913
  8
0
 10
66.423767689442684
 20
127.3007857562373
 30
0.0
 11
66.321585149760153
 21
127.05574607369761
 31
0.0
  0
LINE
  5
914
  8
0
 10
66.321585149760153
 20
127.05574607369761
 30
0.0
 11
65.969402610077623
 21
126.983325438777
 31
0.0
  0
LINE
  5
915
  8
0
 10
65.969402610077623
 20
126.983325438777
 30
0.0
 11
65.471386737061721
 21
126.983325438777
 31
0.0
  0
ARC
  5
916
  8
0
 10
70.124995324753286
 20
124.6250045037573
 30
0.0
 40
9.0
 50
179.99999999999969
 51
359.99999999999881
  0
ARC
  5
917
  8
0
 10
70.124995324753286
 20
124.6250045037573
 30
0.0
 40
9.0000000000000426
 50
359.99999999999937
 51
179.99999999999969
  0
LINE
  5
918
  8
0
 10
-0.0000046752502385
 20
8.5000045037581877
 30
0.0
 11
0.2499953247501025
 21
8.5000045037581877
 31
0.0
  0
LINE
  5
919
  8
0
 10
0.2499953247501025
 20
18.50000450375796
 30
0.0
 11
-0.0000046752502385
 21
18.50000450375796
 31
0.0
  0
LINE
  5
91A
  8
0
 10
-0.0000046752497838
 20
8.5000045037581664
 30
0.0
 11
-0.0000046752497838
 21
8.6703752701587682
 31
0.0
  0
LINE
  5
91B
  8
0
 10
-0.0000046752497838
 20
8.6703753723128134
 30
0.0
 11
-0.0000046752497838
 21
9.9644703211494061
 31
0.0
  0
LINE
  5
91C
  8
0
 10
-0.0000046752497838
 20
9.9644705978253967
 30
0.0
 11
-0.0000046752497838
 21
12.20590927824551
 31
0.0
  0
LINE
  5
91D
  8
0
 10
-0.0000046752497838
 20
12.205909460117921
 30
0.0
 11
-0.0000046752497838
 21
13.500004503758101
 31
0.0
  0
LINE
  5
91E
  8
0
 10
-0.0000046752497838
 20
13.500004503758159
 30
0.0
 11
-0.0000046752497838
 21
14.794099547397551
 31
0.0
  0
LINE
  5
91F
  8
0
 10
-0.0000046752497838
 20
14.79409972927076
 30
0.0
 11
-0.0000046752497838
 21
16.000004503758159
 31
0.0
  0
LINE
  5
920
  8
0
 10
-0.0000046752497838
 20
16.000005025763031
 30
0.0
 11
-0.0000046752496701
 21
18.500004503758159
 31
0.0
  0
LINE
  5
921
  8
0
 10
421.4999953247538
 20
39.000004503758078
 30
0.0
 11
421.7499953247501
 21
39.000004503758078
 31
0.0
  0
LINE
  5
922
  8
0
 10
421.7499953247501
 20
42.000004503758063
 30
0.0
 11
421.4999953247538
 21
42.000004503758063
 31
0.0
  0
LINE
  5
923
  8
0
 10
421.49999532475368
 20
27.500004503757971
 30
0.0
 11
421.74999532474999
 21
27.500004503757971
 31
0.0
  0
LINE
  5
924
  8
0
 10
421.74999532474999
 20
30.50000450375796
 30
0.0
 11
421.49999532475368
 21
30.50000450375796
 31
0.0
  0
LINE
  5
925
  8
0
 10
421.49999532475368
 20
5.6250045037580758
 30
0.0
 11
421.74999532474999
 21
5.6250045037580758
 31
0.0
  0
LINE
  5
926
  8
0
 10
421.74999532474999
 20
7.625004503757963
 30
0.0
 11
421.49999532475368
 21
7.625004503757963
 31
0.0
  0
LINE
  5
927
  8
0
 10
421.74999532475027
 20
42.000004503758127
 30
0.0
 11
421.74999532475027
 21
41.948893243191733
 31
0.0
  0
LINE
  5
928
  8
0
 10
421.74999532475027
 20
41.948892622972288
 30
0.0
 11
421.74999532475027
 21
41.799043633233801
 31
0.0
  0
LINE
  5
929
  8
0
 10
421.74999532475027
 20
41.799042609434792
 30
0.0
 11
421.74999532475027
 21
41.560666008313348
 31
0.0
  0
LINE
  5
92A
  8
0
 10
421.74999532475027
 20
41.56066467553795
 30
0.0
 11
421.74999532475027
 21
40.888233912796238
 31
0.0
  0
LINE
  5
92B
  8
0
 10
421.74999532475027
 20
40.888233071411932
 30
0.0
 11
421.74999532475027
 21
40.500004503758142
 31
0.0
  0
LINE
  5
92C
  8
0
 10
421.74999532475027
 20
40.50000450375812
 30
0.0
 11
421.74999532475027
 21
40.11177593610433
 31
0.0
  0
LINE
  5
92D
  8
0
 10
421.74999532475027
 20
40.111775094719157
 30
0.0
 11
421.74999532475027
 21
39.439344331978312
 31
0.0
  0
LINE
  5
92E
  8
0
 10
421.74999532475027
 20
39.439342999202417
 30
0.0
 11
421.74999532475027
 21
39.200966398081484
 31
0.0
  0
LINE
  5
92F
  8
0
 10
421.74999532475027
 20
39.200965374281381
 30
0.0
 11
421.74999532475027
 21
39.051116384543441
 31
0.0
  0
LINE
  5
930
  8
0
 10
421.74999532475027
 20
39.051115764324521
 30
0.0
 11
421.74999532475027
 21
39.000004503758127
 31
0.0
  0
LINE
  5
931
  8
0
 10
421.74999532475022
 20
30.500004503758142
 30
0.0
 11
421.74999532475022
 21
30.44889332124837
 31
0.0
  0
LINE
  5
932
  8
0
 10
421.74999532475022
 20
30.448893243191751
 30
0.0
 11
421.74999532475022
 21
29.75000554776814
 31
0.0
  0
LINE
  5
933
  8
0
 10
421.74999532475022
 20
29.750004503758142
 30
0.0
 11
421.74999532475022
 21
29.388233071411928
 31
0.0
  0
LINE
  5
934
  8
0
 10
421.74999532475022
 20
29.388231991884851
 30
0.0
 11
421.74999532475022
 21
29.00000546841358
 31
0.0
  0
LINE
  5
935
  8
0
 10
421.74999532475022
 20
29.000004503758131
 30
0.0
 11
421.74999532475022
 21
28.611776083844109
 31
0.0
  0
LINE
  5
936
  8
0
 10
421.74999532475022
 20
28.611775936104351
 30
0.0
 11
421.74999532475022
 21
28.250005400270229
 31
0.0
  0
LINE
  5
937
  8
0
 10
421.74999532475022
 20
28.250004503758142
 30
0.0
 11
421.74999532475022
 21
27.939344331978312
 31
0.0
  0
LINE
  5
938
  8
0
 10
421.74999532475022
 20
27.939344110111541
 30
0.0
 11
421.74999532475022
 21
27.551115764324539
 31
0.0
  0
LINE
  5
939
  8
0
 10
421.74999532475022
 20
27.551113789843139
 30
0.0
 11
421.74999532475022
 21
27.500004503758142
 31
0.0
  0
LINE
  5
93A
  8
0
 10
421.74999532475022
 20
7.62500450375813
 30
0.0
 11
421.74999532475022
 21
7.5909310142280564
 31
0.0
  0
LINE
  5
93B
  8
0
 10
421.74999532475022
 20
7.5909303300472004
 30
0.0
 11
421.74999532475022
 21
7.4910302776755184
 31
0.0
  0
LINE
  5
93C
  8
0
 10
421.74999532475022
 20
7.491029907542571
 30
0.0
 11
421.74999532475022
 21
7.3321112849446823
 31
0.0
  0
LINE
  5
93D
  8
0
 10
421.74999532475022
 20
7.3321111142962181
 30
0.0
 11
421.74999532475022
 21
6.8838238598009669
 31
0.0
  0
LINE
  5
93E
  8
0
 10
421.74999532475022
 20
6.8838235488606561
 30
0.0
 11
421.74999532475022
 21
6.6250045037581371
 31
0.0
  0
LINE
  5
93F
  8
0
 10
421.74999532475022
 20
6.6250042625935386
 30
0.0
 11
421.74999532475022
 21
6.3661854586556057
 31
0.0
  0
LINE
  5
940
  8
0
 10
421.74999532475022
 20
6.3661853976970209
 30
0.0
 11
421.74999532475022
 21
6.1250047278860258
 31
0.0
  0
LINE
  5
941
  8
0
 10
421.74999532475022
 20
6.1250045037581273
 30
0.0
 11
421.74999532475022
 21
5.9178977866651188
 31
0.0
  0
LINE
  5
942
  8
0
 10
421.74999532475022
 20
5.9178977225715803
 30
0.0
 11
421.74999532475022
 21
5.7589790999736907
 31
0.0
  0
LINE
  5
943
  8
0
 10
421.74999532475022
 20
5.7589790422399139
 30
0.0
 11
421.74999532475022
 21
5.6590786774690622
 31
0.0
  0
LINE
  5
944
  8
0
 10
421.74999532475022
 20
5.6590784673935657
 30
0.0
 11
421.74999532475022
 21
5.62500450375813
 31
0.0
  0
LINE
  5
945
  8
0
 10
421.49999532475368
 20
8.5000045037581877
 30
0.0
 11
421.7499953247501
 21
8.5000045037581877
 31
0.0
  0
LINE
  5
946
  8
0
 10
421.7499953247501
 20
18.50000450375796
 30
0.0
 11
421.49999532475368
 21
18.50000450375796
 31
0.0
  0
LINE
  5
947
  8
0
 10
421.74999532475027
 20
18.500004503758159
 30
0.0
 11
421.74999532475027
 21
16.000005025763059
 31
0.0
  0
LINE
  5
948
  8
0
 10
421.74999532475027
 20
16.000004503758181
 30
0.0
 11
421.74999532475027
 21
14.794099729270791
 31
0.0
  0
LINE
  5
949
  8
0
 10
421.74999532475027
 20
14.79409954739757
 30
0.0
 11
421.74999532475027
 21
13.5000045037582
 31
0.0
  0
LINE
  5
94A
  8
0
 10
421.74999532475027
 20
13.500004503758131
 30
0.0
 11
421.74999532475027
 21
12.20590946011796
 31
0.0
  0
LINE
  5
94B
  8
0
 10
421.74999532475027
 20
12.20590927824553
 30
0.0
 11
421.74999532475027
 21
9.9644705978254162
 31
0.0
  0
LINE
  5
94C
  8
0
 10
421.74999532475027
 20
9.9644703211494257
 30
0.0
 11
421.74999532475027
 21
8.6703753723128205
 31
0.0
  0
LINE
  5
94D
  8
0
 10
421.74999532475027
 20
8.6703752701587771
 30
0.0
 11
421.74999532475027
 21
8.5000045037581664
 31
0.0
  0
LINE
  5
94E
  8
0
 10
483.6739009550202
 20
443.32160827560642
 30
0.0
 11
483.61280857830633
 21
443.32160827560642
 31
0.0
  0
LINE
  5
94F
  8
0
 10
483.61280857830633
 20
426.82160827560642
 30
0.0
 11
483.6739009550202
 21
426.82160827560642
 31
0.0
  0
LINE
  5
950
  8
0
 10
483.6128085783065
 20
426.82160827560563
 30
0.0
 11
483.6128085783065
 21
427.7665939266011
 31
0.0
  0
LINE
  5
951
  8
0
 10
483.6128085783065
 20
427.76659606396669
 30
0.0
 11
483.6128085783065
 21
432.14611669056029
 31
0.0
  0
LINE
  5
952
  8
0
 10
483.6128085783065
 20
432.14611795750471
 30
0.0
 11
483.6128085783065
 21
434.07718066349918
 31
0.0
  0
LINE
  5
953
  8
0
 10
483.6128085783065
 20
434.0771813629209
 30
0.0
 11
483.6128085783065
 21
436.06603577515898
 31
0.0
  0
LINE
  5
954
  8
0
 10
483.6128085783065
 20
436.06603588771208
 30
0.0
 11
483.6128085783065
 21
439.75814243613769
 31
0.0
  0
LINE
  5
955
  8
0
 10
483.6128085783065
 20
439.75814303031189
 30
0.0
 11
483.6128085783065
 21
442.37661995884031
 31
0.0
  0
LINE
  5
956
  8
0
 10
483.6128085783065
 20
442.37662048724462
 30
0.0
 11
483.6128085783065
 21
443.08187826937058
 31
0.0
  0
LINE
  5
957
  8
0
 10
483.6128085783065
 20
443.08188005394351
 30
0.0
 11
483.6128085783065
 21
443.32160827560563
 31
0.0
  0
LINE
  5
958
  8
0
 10
483.73390232830678
 20
444.07160827560767
 30
0.0
 11
483.6739023283065
 21
444.07160827560767
 31
0.0
  0
LINE
  5
959
  8
0
 10
483.6739023283065
 20
426.07160827560767
 30
0.0
 11
483.7339023283065
 21
426.07160827560767
 31
0.0
  0
LINE
  5
95A
  8
0
 10
483.67390232830638
 20
426.07160827560608
 30
0.0
 11
483.67390232830638
 21
426.9628869502219
 31
0.0
  0
LINE
  5
95B
  8
0
 10
483.67390232830638
 20
426.96288846448442
 30
0.0
 11
483.67390232830638
 21
428.03512422360433
 31
0.0
  0
LINE
  5
95C
  8
0
 10
483.67390232830638
 20
428.03512493339389
 30
0.0
 11
483.67390232830638
 21
429.46019983851733
 31
0.0
  0
LINE
  5
95D
  8
0
 10
483.67390232830638
 20
429.4602000588776
 30
0.0
 11
483.67390232830638
 21
431.16665410477913
 31
0.0
  0
LINE
  5
95E
  8
0
 10
483.67390232830638
 20
431.16665462354808
 30
0.0
 11
483.67390232830638
 21
433.06891967927999
 31
0.0
  0
LINE
  5
95F
  8
0
 10
483.67390232830638
 20
433.06891986999932
 30
0.0
 11
483.6739023283065
 21
435.07160713037888
 31
0.0
  0
LINE
  5
960
  8
0
 10
483.6739023283065
 20
435.07160827560608
 30
0.0
 11
483.6739023283065
 21
437.0742966812129
 31
0.0
  0
LINE
  5
961
  8
0
 10
483.6739023283065
 20
437.0742974823487
 30
0.0
 11
483.6739023283065
 21
438.97656192766419
 31
0.0
  0
LINE
  5
962
  8
0
 10
483.6739023283065
 20
438.97656307527268
 30
0.0
 11
483.6739023283065
 21
440.68301649233479
 31
0.0
  0
LINE
  5
963
  8
0
 10
483.6739023283065
 20
440.68301736612659
 30
0.0
 11
483.6739023283065
 21
442.10809161781839
 31
0.0
  0
LINE
  5
964
  8
0
 10
483.6739023283065
 20
442.10809302017969
 30
0.0
 11
483.6739023283065
 21
443.18032717059208
 31
0.0
  0
LINE
  5
965
  8
0
 10
483.6739023283065
 20
443.18032808672803
 30
0.0
 11
483.6739023283065
 21
444.07160827560608
 31
0.0
  0
LINE
  5
966
  8
0
 10
624.54390179425366
 20
426.82160827560642
 30
0.0
 11
624.60499607830752
 21
426.82160827560642
 31
0.0
  0
LINE
  5
967
  8
0
 10
624.60499607830752
 20
443.32160827560779
 30
0.0
 11
624.54390179425366
 21
443.32160827560779
 31
0.0
  0
LINE
  5
968
  8
0
 10
624.60499607830707
 20
443.32160827560648
 30
0.0
 11
624.60499607830707
 21
443.0818800539443
 31
0.0
  0
LINE
  5
969
  8
0
 10
624.60499607830707
 20
443.08187826937137
 30
0.0
 11
624.60499607830707
 21
442.37662048724548
 31
0.0
  0
LINE
  5
96A
  8
0
 10
624.60499607830707
 20
442.37661995883968
 30
0.0
 11
624.60499607830707
 21
439.75814303031268
 31
0.0
  0
LINE
  5
96B
  8
0
 10
624.60499607830707
 20
439.75814243613848
 30
0.0
 11
624.60499607830707
 21
439.09865448724861
 31
0.0
  0
LINE
  5
96C
  8
0
 10
624.60499607830707
 20
431.04456264667368
 30
0.0
 11
624.60499607830707
 21
427.7665960639676
 31
0.0
  0
LINE
  5
96D
  8
0
 10
624.60499607830707
 20
427.7665939265998
 30
0.0
 11
624.60499607830707
 21
426.82160827560648
 31
0.0
  0
LINE
  5
96E
  8
0
 10
624.48390232830695
 20
426.07160827560767
 30
0.0
 11
624.54390232830735
 21
426.07160827560767
 31
0.0
  0
LINE
  5
96F
  8
0
 10
624.54390232830735
 20
444.07160827560767
 30
0.0
 11
624.48390232830695
 21
444.07160827560767
 31
0.0
  0
LINE
  5
970
  8
0
 10
624.5439023283069
 20
444.07160827560602
 30
0.0
 11
624.5439023283069
 21
443.1803280867278
 31
0.0
  0
LINE
  5
971
  8
0
 10
624.5439023283069
 20
443.18032717059191
 30
0.0
 11
624.5439023283069
 21
442.10809302017952
 31
0.0
  0
LINE
  5
972
  8
0
 10
624.5439023283069
 20
442.10809161781822
 30
0.0
 11
624.5439023283069
 21
440.68301736612648
 31
0.0
  0
LINE
  5
973
  8
0
 10
624.5439023283069
 20
440.68301649233467
 30
0.0
 11
624.5439023283069
 21
439.07760302204417
 31
0.0
  0
LINE
  5
974
  8
0
 10
624.5439023283069
 20
431.06561415417332
 30
0.0
 11
624.5439023283069
 21
429.46020005887738
 31
0.0
  0
LINE
  5
975
  8
0
 10
624.5439023283069
 20
429.46019983851721
 30
0.0
 11
624.5439023283069
 21
428.03512493339372
 31
0.0
  0
LINE
  5
976
  8
0
 10
624.5439023283069
 20
428.0351242236041
 30
0.0
 11
624.5439023283069
 21
426.96288846448431
 31
0.0
  0
LINE
  5
977
  8
0
 10
624.5439023283069
 20
426.96288695022179
 30
0.0
 11
624.5439023283069
 21
426.07160827560602
 31
0.0
  0
LINE
  5
978
  8
0
 10
483.73390232830678
 20
504.94660827560682
 30
0.0
 11
483.73390232830678
 21
365.19660827561262
 31
0.0
  0
LINE
  5
979
  8
0
 10
483.73390232830678
 20
365.19660827561262
 30
0.0
 11
624.48390232830388
 21
365.19660827561222
 31
0.0
  0
LINE
  5
97A
  8
0
 10
624.48390232830388
 20
365.19660827561222
 30
0.0
 11
624.48390232830411
 21
504.94660827560648
 31
0.0
  0
LINE
  5
97B
  8
0
 10
624.48390232830411
 20
504.94660827560648
 30
0.0
 11
483.73390232830678
 21
504.94660827560682
 31
0.0
  0
LINE
  5
97C
  8
0
 10
622.85890232830695
 20
503.32160827560688
 30
0.0
 11
622.85890232830684
 21
366.82160827560688
 31
0.0
1001
ACAD
1000
ASC_BOUNDS
1002
{
1070
    19
1005
A34
1002
}
  0
LINE
  5
97D
  8
0
 10
622.85890232830684
 20
366.82160827560688
 30
0.0
 11
485.3589023283069
 21
366.82160827560722
 31
0.0
1001
ACAD
1000
ASC_BOUNDS
1002
{
1070
    19
1005
A34
1002
}
  0
LINE
  5
97E
  8
0
 10
485.3589023283069
 20
366.82160827560722
 30
0.0
 11
485.35890232830712
 21
503.3216082756071
 31
0.0
1001
ACAD
1000
ASC_BOUNDS
1002
{
1070
    19
1005
A34
1002
}
  0
LINE
  5
97F
  8
0
 10
485.35890232830712
 20
503.3216082756071
 30
0.0
 11
622.85890232830695
 21
503.32160827560688
 31
0.0
1001
ACAD
1000
ASC_BOUNDS
1002
{
1070
    19
1005
A34
1002
}
  0
LINE
  5
980
  8
0
 10
624.48390232830411
 20
365.1966082756071
 30
0.0
 11
625.73390232830695
 21
365.1966082756071
 31
0.0
  0
LINE
  5
981
  8
0
 10
625.73390232830695
 20
365.1966082756071
 30
0.0
 11
625.73390232830695
 21
504.94660827560688
 31
0.0
  0
LINE
  5
982
  8
0
 10
625.73390232830695
 20
504.94660827560688
 30
0.0
 11
624.48390232830411
 21
504.94660827560688
 31
0.0
  0
LINE
  5
983
  8
0
 10
483.6739009550202
 20
302.57160827560421
 30
0.0
 11
483.61280857830633
 21
302.57160827560421
 31
0.0
  0
LINE
  5
984
  8
0
 10
483.61280857830633
 20
286.07160827560421
 30
0.0
 11
483.6739009550202
 21
286.07160827560421
 31
0.0
  0
LINE
  5
985
  8
0
 10
483.6128085783065
 20
286.07160827560318
 30
0.0
 11
483.6128085783065
 21
287.01659606396419
 31
0.0
  0
LINE
  5
986
  8
0
 10
483.6128085783065
 20
287.01659629391969
 30
0.0
 11
483.6128085783065
 21
288.14639087691722
 31
0.0
  0
LINE
  5
987
  8
0
 10
483.6128085783065
 20
288.1463946031916
 30
0.0
 11
483.6128085783065
 21
289.63507311978231
 31
0.0
  0
LINE
  5
988
  8
0
 10
483.6128085783065
 20
289.63507411507118
 30
0.0
 11
483.6128085783065
 21
291.39611265253109
 31
0.0
  0
LINE
  5
989
  8
0
 10
483.6128085783065
 20
291.39611795750233
 30
0.0
 11
483.6128085783065
 21
293.32717747412943
 31
0.0
  0
LINE
  5
98A
  8
0
 10
483.6128085783065
 20
293.32718066349679
 30
0.0
 11
483.6128085783065
 21
295.31603482613059
 31
0.0
  0
LINE
  5
98B
  8
0
 10
483.6128085783065
 20
295.31603588770969
 30
0.0
 11
483.6128085783065
 21
297.24709859370421
 31
0.0
  0
LINE
  5
98C
  8
0
 10
483.6128085783065
 20
297.24709947541203
 30
0.0
 11
483.61280857830661
 21
301.62661683049578
 31
0.0
  0
LINE
  5
98D
  8
0
 10
483.61280857830661
 20
301.62662048724218
 30
0.0
 11
483.61280857830661
 21
302.33187826936819
 31
0.0
  0
LINE
  5
98E
  8
0
 10
483.61280857830661
 20
302.33188385003251
 30
0.0
 11
483.61280857830661
 21
302.57160827560318
 31
0.0
  0
LINE
  5
98F
  8
0
 10
483.73390232830678
 20
303.32160827560563
 30
0.0
 11
483.6739023283065
 21
303.32160827560563
 31
0.0
  0
LINE
  5
990
  8
0
 10
483.6739023283065
 20
285.32160827560563
 30
0.0
 11
483.73390232830678
 21
285.32160827560563
 31
0.0
  0
LINE
  5
991
  8
0
 10
483.6739023283065
 20
285.32160827560381
 30
0.0
 11
483.6739023283065
 21
285.54725308343842
 31
0.0
  0
LINE
  5
992
  8
0
 10
483.6739023283065
 20
285.5472570659673
 30
0.0
 11
483.6739023283065
 21
286.21288846448198
 31
0.0
  0
LINE
  5
993
  8
0
 10
483.6739023283065
 20
286.21288908319968
 30
0.0
 11
483.6739023283065
 21
287.28511974376028
 31
0.0
  0
LINE
  5
994
  8
0
 10
483.6739023283065
 20
287.2851249333915
 30
0.0
 11
483.6739023283065
 21
288.71019561183431
 31
0.0
  0
LINE
  5
995
  8
0
 10
483.6739023283065
 20
288.71020005887522
 30
0.0
 11
483.6739023283065
 21
292.31891869216958
 31
0.0
  0
LINE
  5
996
  8
0
 10
483.6739023283065
 20
292.31891986999688
 30
0.0
 11
483.6739023283065
 21
294.32160827560381
 31
0.0
  0
LINE
  5
997
  8
0
 10
483.6739023283065
 20
294.3216119390047
 30
0.0
 11
483.6739023283065
 21
298.22656192766181
 31
0.0
  0
LINE
  5
998
  8
0
 10
483.6739023283065
 20
298.22656510907723
 30
0.0
 11
483.6739023283065
 21
299.93301633961067
 31
0.0
  0
LINE
  5
999
  8
0
 10
483.6739023283065
 20
299.93301649233229
 30
0.0
 11
483.6739023283065
 21
301.358091617816
 31
0.0
  0
LINE
  5
99A
  8
0
 10
483.6739023283065
 20
301.35809190021882
 30
0.0
 11
483.6739023283065
 21
302.43032405308202
 31
0.0
  0
LINE
  5
99B
  8
0
 10
483.6739023283065
 20
302.43032808672541
 30
0.0
 11
483.6739023283065
 21
303.32160827560369
 31
0.0
  0
LINE
  5
99C
  8
0
 10
624.54390179425366
 20
567.57160827560324
 30
0.0
 11
624.60499607830684
 21
567.57160827560324
 31
0.0
  0
LINE
  5
99D
  8
0
 10
624.60499607830684
 20
584.07160827560301
 30
0.0
 11
624.54390179425366
 21
584.07160827560301
 31
0.0
  0
LINE
  5
99E
  8
0
 10
624.60499607830707
 20
584.07160827560165
 30
0.0
 11
624.60499607830707
 21
583.12662465224582
 31
0.0
  0
LINE
  5
99F
  8
0
 10
624.60499607830707
 20
583.12662048724064
 30
0.0
 11
624.60499607830707
 21
580.50814723477549
 31
0.0
  0
LINE
  5
9A0
  8
0
 10
624.60499607830707
 20
580.50814243613388
 30
0.0
 11
624.60499607830707
 21
579.84864977572227
 31
0.0
  0
LINE
  5
9A1
  8
0
 10
624.60499607830707
 20
571.79456076206327
 30
0.0
 11
624.60499607830707
 21
569.64639460319029
 31
0.0
  0
LINE
  5
9A2
  8
0
 10
624.60499607830707
 20
569.64639310885957
 30
0.0
 11
624.60499607830707
 21
568.51659785808977
 31
0.0
  0
LINE
  5
9A3
  8
0
 10
624.60499607830707
 20
568.51659606396277
 30
0.0
 11
624.60499607830707
 21
567.57160827560176
 31
0.0
  0
LINE
  5
9A4
  8
0
 10
624.48390232830695
 20
566.82160827560187
 30
0.0
 11
624.54390232830735
 21
566.82160827560187
 31
0.0
  0
LINE
  5
9A5
  8
0
 10
624.54390232830735
 20
584.82160827560176
 30
0.0
 11
624.48390232830695
 21
584.82160827560176
 31
0.0
  0
LINE
  5
9A6
  8
0
 10
624.5439023283069
 20
584.82160827560108
 30
0.0
 11
624.5439023283069
 21
584.59597034021101
 31
0.0
  0
LINE
  5
9A7
  8
0
 10
624.5439023283069
 20
584.59595948523759
 30
0.0
 11
624.5439023283069
 21
583.93033163281655
 31
0.0
  0
LINE
  5
9A8
  8
0
 10
624.5439023283069
 20
583.93032808672297
 30
0.0
 11
624.5439023283069
 21
582.85809161781356
 31
0.0
  0
LINE
  5
9A9
  8
0
 10
624.5439023283069
 20
582.85808845962731
 30
0.0
 11
624.5439023283069
 21
581.4330164923299
 31
0.0
  0
LINE
  5
9AA
  8
0
 10
624.5439023283069
 20
581.43301280986861
 30
0.0
 11
624.5439023283069
 21
579.82759796853088
 31
0.0
  0
LINE
  5
9AB
  8
0
 10
624.5439023283069
 20
571.81561213276768
 30
0.0
 11
624.5439023283069
 21
570.21020005887272
 31
0.0
  0
LINE
  5
9AC
  8
0
 10
624.5439023283069
 20
570.21019772517639
 30
0.0
 11
624.5439023283069
 21
568.78512493338906
 31
0.0
  0
LINE
  5
9AD
  8
0
 10
624.5439023283069
 20
568.78512198368287
 30
0.0
 11
624.5439023283069
 21
567.71289064195423
 31
0.0
  0
LINE
  5
9AE
  8
0
 10
624.5439023283069
 20
567.71288846447953
 30
0.0
 11
624.5439023283069
 21
567.04725706596491
 31
0.0
  0
LINE
  5
9AF
  8
0
 10
624.5439023283069
 20
567.04725688209919
 30
0.0
 11
624.5439023283069
 21
566.82160827560119
 31
0.0
  0
LINE
  5
9B0
  8
0
 10
483.73390232830678
 20
364.19660827560392
 30
0.0
 11
483.73390232830673
 21
224.44660827560961
 31
0.0
  0
LINE
  5
9B1
  8
0
 10
483.73390232830673
 20
224.44660827560961
 30
0.0
 11
624.48390232830366
 21
224.44660827560929
 31
0.0
  0
LINE
  5
9B2
  8
0
 10
624.48390232830366
 20
224.44660827560929
 30
0.0
 11
624.48390232830411
 21
364.19660827560358
 31
0.0
  0
LINE
  5
9B3
  8
0
 10
624.48390232830411
 20
364.19660827560358
 30
0.0
 11
483.73390232830678
 21
364.19660827560392
 31
0.0
  0
LINE
  5
9B4
  8
0
 10
622.85890232830695
 20
362.57160827560392
 30
0.0
 11
622.85890232830673
 21
226.07160827560409
 31
0.0
1001
ACAD
1000
ASC_BOUNDS
1002
{
1070
    19
1005
A34
1002
}
  0
LINE
  5
9B5
  8
0
 10
622.85890232830673
 20
226.07160827560409
 30
0.0
 11
485.35890232830678
 21
226.07160827560429
 31
0.0
1001
ACAD
1000
ASC_BOUNDS
1002
{
1070
    19
1005
A34
1002
}
  0
LINE
  5
9B6
  8
0
 10
485.35890232830678
 20
226.07160827560429
 30
0.0
 11
485.35890232830701
 21
362.57160827560432
 31
0.0
1001
ACAD
1000
ASC_BOUNDS
1002
{
1070
    19
1005
A34
1002
}
  0
LINE
  5
9B7
  8
0
 10
485.35890232830701
 20
362.57160827560432
 30
0.0
 11
622.85890232830695
 21
362.57160827560392
 31
0.0
1001
ACAD
1000
ASC_BOUNDS
1002
{
1070
    19
1005
A34
1002
}
  0
LINE
  5
9B8
  8
0
 10
624.48390232830343
 20
224.44660827560409
 30
0.0
 11
625.73390232830695
 21
224.44660827560409
 31
0.0
  0
LINE
  5
9B9
  8
0
 10
625.73390232830695
 20
224.44660827560409
 30
0.0
 11
625.73390232830718
 21
364.19660827560392
 31
0.0
  0
LINE
  5
9BA
  8
0
 10
625.73390232830718
 20
364.19660827560392
 30
0.0
 11
624.48390232830388
 21
364.19660827560392
 31
0.0
  0
LINE
  5
9BB
  8
0
 10
483.73390232830752
 20
645.69660827560392
 30
0.0
 11
483.73390232830752
 21
505.94660827560949
 31
0.0
  0
LINE
  5
9BC
  8
0
 10
483.73390232830752
 20
505.94660827560949
 30
0.0
 11
624.48390232830445
 21
505.94660827560932
 31
0.0
  0
LINE
  5
9BD
  8
0
 10
624.48390232830445
 20
505.94660827560932
 30
0.0
 11
624.48390232830479
 21
645.69660827560369
 31
0.0
  0
LINE
  5
9BE
  8
0
 10
624.48390232830479
 20
645.69660827560369
 30
0.0
 11
483.73390232830752
 21
645.69660827560392
 31
0.0
  0
LINE
  5
9BF
  8
0
 10
622.85890232830775
 20
644.07160827560392
 30
0.0
 11
622.85890232830752
 21
507.57160827560398
 31
0.0
1001
ACAD
1000
ASC_BOUNDS
1002
{
1070
    19
1005
A34
1002
}
  0
LINE
  5
9C0
  8
0
 10
622.85890232830752
 20
507.57160827560398
 30
0.0
 11
485.35890232830758
 21
507.57160827560421
 31
0.0
1001
ACAD
1000
ASC_BOUNDS
1002
{
1070
    19
1005
A34
1002
}
  0
LINE
  5
9C1
  8
0
 10
485.35890232830758
 20
507.57160827560421
 30
0.0
 11
485.35890232830781
 21
644.07160827560426
 31
0.0
1001
ACAD
1000
ASC_BOUNDS
1002
{
1070
    19
1005
A34
1002
}
  0
LINE
  5
9C2
  8
0
 10
485.35890232830781
 20
644.07160827560426
 30
0.0
 11
622.85890232830775
 21
644.07160827560392
 31
0.0
1001
ACAD
1000
ASC_BOUNDS
1002
{
1070
    19
1005
A34
1002
}
  0
LINE
  5
9C3
  8
0
 10
624.48390232830434
 20
505.94660827560398
 30
0.0
 11
625.73390232830752
 21
505.94660827560398
 31
0.0
  0
LINE
  5
9C4
  8
0
 10
625.73390232830752
 20
505.94660827560398
 30
0.0
 11
625.73390232830764
 21
645.69660827560381
 31
0.0
  0
LINE
  5
9C5
  8
0
 10
625.73390232830764
 20
645.69660827560381
 30
0.0
 11
624.48390232830479
 21
645.69660827560381
 31
0.0
  0
LINE
  5
9C6
  8
0
 10
515.85890232830695
 20
645.69660827560688
 30
0.0
 11
515.85890232830695
 21
645.94660827560722
 31
0.0
  0
LINE
  5
9C7
  8
0
 10
505.85890232830718
 20
645.94660827560722
 30
0.0
 11
505.85890232830718
 21
645.69660827560688
 31
0.0
  0
LINE
  5
9C8
  8
0
 10
505.8589023283069
 20
645.94660827560665
 30
0.0
 11
506.02926787954181
 21
645.94660827560665
 31
0.0
  0
LINE
  5
9C9
  8
0
 10
506.02927319686148
 20
645.94660827560665
 30
0.0
 11
506.52877530938468
 21
645.94660827560665
 31
0.0
  0
LINE
  5
9CA
  8
0
 10
506.52877630622379
 20
645.94660827560665
 30
0.0
 11
510.85890039899931
 21
645.94660827560665
 31
0.0
  0
LINE
  5
9CB
  8
0
 10
510.8589023283069
 20
645.94660827560665
 30
0.0
 11
512.15299755381955
 21
645.94660827560665
 31
0.0
  0
LINE
  5
9CC
  8
0
 10
512.15299835858025
 20
645.94660827560665
 30
0.0
 11
514.39443623423972
 21
645.94660827560665
 31
0.0
  0
LINE
  5
9CD
  8
0
 10
514.39443845501228
 20
645.94660827560665
 30
0.0
 11
515.18902934722905
 21
645.94660827560665
 31
0.0
  0
LINE
  5
9CE
  8
0
 10
515.18903026070075
 20
645.94660827560665
 30
0.0
 11
515.85890232830695
 21
645.94660827560665
 31
0.0
  0
LINE
  5
9DA
  8
0
 10
624.73390232830707
 20
579.82160827560097
 30
0.0
 11
624.48390232830695
 21
579.82160827560097
 31
0.0
  0
LINE
  5
9DB
  8
0
 10
624.48390232830695
 20
571.82160827560142
 30
0.0
 11
624.73390232830707
 21
571.82160827560142
 31
0.0
  0
LINE
  5
9DC
  8
0
 10
624.73390232830695
 20
298.32160827560062
 30
0.0
 11
624.48390232830695
 21
298.32160827560062
 31
0.0
  0
LINE
  5
9DD
  8
0
 10
624.48390232830695
 20
290.3216082755996
 30
0.0
 11
624.73390232830695
 21
290.3216082755996
 31
0.0
  0
LINE
  5
9DE
  8
0
 10
624.73390232830707
 20
439.07160827560551
 30
0.0
 11
624.48390232830695
 21
439.07160827560551
 31
0.0
  0
LINE
  5
9DF
  8
0
 10
624.48390232830695
 20
431.07160827560591
 30
0.0
 11
624.73390232830707
 21
431.07160827560591
 31
0.0
  0
LINE
  5
9E0
  8
0
 10
624.73390232830707
 20
575.82160809154448
 30
0.0
 11
624.73390232830707
 21
574.78633209519057
 31
0.0
  0
LINE
  5
9E1
  8
0
 10
624.73390232830707
 20
574.78632966071075
 30
0.0
 11
624.73390232830707
 21
573.82160827560074
 31
0.0
  0
LINE
  5
9E2
  8
0
 10
624.73390232830707
 20
573.82160390036051
 30
0.0
 11
624.73390232830707
 21
572.99318115085453
 31
0.0
  0
LINE
  5
9E3
  8
0
 10
624.73390232830707
 20
572.99317738482455
 30
0.0
 11
624.73390232830707
 21
572.35750666046295
 31
0.0
  0
LINE
  5
9E4
  8
0
 10
624.73390232830707
 20
572.35750369190725
 30
0.0
 11
624.73390232830707
 21
571.82160827560074
 31
0.0
  0
LINE
  5
9E5
  8
0
 10
624.73390232830707
 20
579.82160827560074
 30
0.0
 11
624.73390232830707
 21
579.68532154124625
 31
0.0
  0
LINE
  5
9E6
  8
0
 10
624.73390232830707
 20
579.68531158075689
 30
0.0
 11
624.73390232830707
 21
579.28571238244558
 31
0.0
  0
LINE
  5
9E7
  8
0
 10
624.73390232830707
 20
579.28570989073842
 30
0.0
 11
624.73390232830707
 21
578.65003874245326
 31
0.0
  0
LINE
  5
9E8
  8
0
 10
624.73390232830707
 20
578.65003540034695
 30
0.0
 11
624.73390232830707
 21
577.82161225244488
 31
0.0
  0
LINE
  5
9E9
  8
0
 10
624.73390232830707
 20
577.82160827560074
 30
0.0
 11
624.73390232830707
 21
576.85688650891655
 31
0.0
  0
LINE
  5
9EA
  8
0
 10
624.73390232830707
 20
576.85688445601056
 30
0.0
 11
624.73390232830707
 21
575.82160827560074
 31
0.0
  0
LINE
  5
9EB
  8
0
 10
624.73390232830695
 20
294.32160827559869
 30
0.0
 11
624.73390232830695
 21
293.28633355376098
 31
0.0
  0
LINE
  5
9EC
  8
0
 10
624.73390232830695
 20
293.28633209518881
 30
0.0
 11
624.73390232830695
 21
292.32160827559869
 31
0.0
  0
LINE
  5
9ED
  8
0
 10
624.73390232830695
 20
292.32160807640241
 30
0.0
 11
624.73390232830695
 21
290.45790497044243
 31
0.0
  0
LINE
  5
9EE
  8
0
 10
624.73390232830695
 20
290.45790187188021
 30
0.0
 11
624.73390232830695
 21
290.32160827559869
 31
0.0
  0
LINE
  5
9EF
  8
0
 10
624.73390232830695
 20
298.32160827559881
 30
0.0
 11
624.73390232830695
 21
297.78571738082968
 31
0.0
  0
LINE
  5
9F0
  8
0
 10
624.73390232830695
 20
297.7857098907366
 30
0.0
 11
624.73390232830695
 21
295.35688445600891
 31
0.0
  0
LINE
  5
9F1
  8
0
 10
624.73390232830695
 20
295.35687891472372
 30
0.0
 11
624.73390232830695
 21
294.32161195016829
 31
0.0
  0
LINE
  5
9F2
  8
0
 10
624.73390232830695
 20
435.07160712688813
 30
0.0
 11
624.73390232830695
 21
434.03633209519518
 31
0.0
  0
LINE
  5
9F3
  8
0
 10
624.73390232830695
 20
434.03633166056989
 30
0.0
 11
624.73390232830695
 21
432.24318115085902
 31
0.0
  0
LINE
  5
9F4
  8
0
 10
624.73390232830695
 20
432.24317960664098
 30
0.0
 11
624.73390232830695
 21
431.60750666046749
 31
0.0
  0
LINE
  5
9F5
  8
0
 10
624.73390232830695
 20
431.60750619110331
 30
0.0
 11
624.73390232830695
 21
431.20790497044902
 31
0.0
  0
LINE
  5
9F6
  8
0
 10
624.73390232830695
 20
431.20790376829899
 30
0.0
 11
624.73390232830695
 21
431.07160827560517
 31
0.0
  0
LINE
  5
9F7
  8
0
 10
624.73390232830695
 20
439.07160827560517
 30
0.0
 11
624.73390232830695
 21
438.93531395564241
 31
0.0
  0
LINE
  5
9F8
  8
0
 10
624.73390232830695
 20
438.93531158076149
 30
0.0
 11
624.73390232830695
 21
438.5357111328459
 31
0.0
  0
LINE
  5
9F9
  8
0
 10
624.73390232830695
 20
438.53570989074302
 30
0.0
 11
624.73390232830695
 21
436.10688550898573
 31
0.0
  0
LINE
  5
9FA
  8
0
 10
624.73390232830695
 20
436.10688445601528
 30
0.0
 11
624.73390232830695
 21
435.07160827560517
 31
0.0
  0
LINE
  5
9FB
  8
0
 10
550.48390232830639
 20
224.19660827560821
 30
0.0
 11
550.48390232830639
 21
224.4466082756046
 31
0.0
  0
LINE
  5
9FC
  8
0
 10
547.48390232830604
 20
224.4466082756046
 30
0.0
 11
547.48390232830604
 21
224.19660827560821
 31
0.0
  0
LINE
  5
9FD
  8
0
 10
489.98390232830621
 20
224.1966082756083
 30
0.0
 11
489.98390232830621
 21
224.4466082756046
 31
0.0
  0
LINE
  5
9FE
  8
0
 10
486.98390232830621
 20
224.4466082756046
 30
0.0
 11
486.98390232830621
 21
224.1966082756083
 31
0.0
  0
LINE
  5
9FF
  8
0
 10
486.10890232830633
 20
224.4466082756046
 30
0.0
 11
486.10890232830633
 21
224.1966082756083
 31
0.0
  0
LINE
  5
A00
  8
0
 10
550.48390232830604
 20
224.19660827560671
 30
0.0
 11
550.43279209402294
 21
224.19660827560671
 31
0.0
  0
LINE
  5
A01
  8
0
 10
550.4327910677398
 20
224.19660827560671
 30
0.0
 11
550.04456250008604
 21
224.19660827560671
 31
0.0
  0
LINE
  5
A02
  8
0
 10
550.04456224411888
 20
224.19660827560671
 30
0.0
 11
548.5956737606524
 21
224.19660827560671
 31
0.0
  0
LINE
  5
A03
  8
0
 10
548.59567291927283
 20
224.19660827560671
 30
0.0
 11
547.92324215652638
 21
224.19660827560671
 31
0.0
  0
LINE
  5
A04
  8
0
 10
547.9232408237566
 20
224.19660827560671
 30
0.0
 11
547.68486422262947
 21
224.19660827560671
 31
0.0
  0
LINE
  5
A05
  8
0
 10
547.68486319883687
 20
224.19660827560671
 30
0.0
 11
547.53501420909527
 21
224.19660827560671
 31
0.0
  0
LINE
  5
A06
  8
0
 10
547.5350135888724
 20
224.19660827560671
 30
0.0
 11
547.48390232830604
 21
224.19660827560671
 31
0.0
  0
LINE
  5
A07
  8
0
 10
489.9839023283061
 20
224.19660827560679
 30
0.0
 11
489.78294043398279
 21
224.19660827560679
 31
0.0
  0
LINE
  5
A08
  8
0
 10
489.78294029204301
 20
224.19660827560679
 30
0.0
 11
489.23390441633239
 21
224.19660827560679
 31
0.0
  0
LINE
  5
A09
  8
0
 10
489.2339023283061
 20
224.19660827560679
 30
0.0
 11
488.87213373720869
 21
224.19660827560679
 31
0.0
  0
LINE
  5
A0A
  8
0
 10
488.87213089595991
 20
224.19660827560679
 30
0.0
 11
488.48390425762318
 21
224.19660827560679
 31
0.0
  0
LINE
  5
A0B
  8
0
 10
488.48390232830621
 20
224.19660827560679
 30
0.0
 11
488.0956748401839
 21
224.19660827560679
 31
0.0
  0
LINE
  5
A0C
  8
0
 10
488.09567376065229
 20
224.19660827560679
 30
0.0
 11
487.18486422262953
 21
224.19660827560679
 31
0.0
  0
LINE
  5
A0D
  8
0
 10
487.18486194924031
 20
224.19660827560679
 30
0.0
 11
487.03501358887257
 21
224.19660827560679
 31
0.0
  0
LINE
  5
A0E
  8
0
 10
487.03501351082582
 20
224.19660827560679
 30
0.0
 11
486.9839023283061
 21
224.19660827560679
 31
0.0
  0
LINE
  5
A0F
  8
0
 10
486.98280147413209
 20
224.19660827560679
 30
0.0
 11
486.85008328320339
 21
224.19660827560679
 31
0.0
  0
LINE
  5
A10
  8
0
 10
486.85008272228578
 20
224.19660827560679
 30
0.0
 11
486.60890412133671
 21
224.19660827560679
 31
0.0
  0
LINE
  5
A11
  8
0
 10
486.60890232830587
 20
224.19660827560679
 30
0.0
 11
486.40179554711949
 21
224.19660827560679
 31
0.0
  0
LINE
  5
A12
  8
0
 10
486.40179465860871
 20
224.19660827560679
 30
0.0
 11
486.24287692452151
 21
224.19660827560679
 31
0.0
  0
LINE
  5
A13
  8
0
 10
486.24287624199559
 20
224.19660827560679
 30
0.0
 11
486.14297650201689
 21
224.19660827560679
 31
0.0
  0
LINE
  5
A14
  8
0
 10
486.14297392144789
 20
224.19660827560679
 30
0.0
 11
486.10890232830587
 21
224.19660827560679
 31
0.0
  0
LINE
  5
A15
  8
0
 10
515.85890232830661
 20
224.19660827560821
 30
0.0
 11
515.85890232830661
 21
224.4466082756046
 31
0.0
  0
LINE
  5
A16
  8
0
 10
505.85890232830639
 20
224.4466082756046
 30
0.0
 11
505.85890232830639
 21
224.19660827560821
 31
0.0
  0
LINE
  5
A17
  8
0
 10
515.85890232830627
 20
224.19660827560671
 30
0.0
 11
515.18903026070132
 21
224.19660827560671
 31
0.0
  0
LINE
  5
A18
  8
0
 10
515.1890293472286
 20
224.19660827560671
 30
0.0
 11
514.39443845501216
 21
224.19660827560671
 31
0.0
  0
LINE
  5
A19
  8
0
 10
514.39443623423904
 20
224.19660827560671
 30
0.0
 11
512.15299835858036
 21
224.19660827560671
 31
0.0
  0
LINE
  5
A1A
  8
0
 10
512.15299755381886
 20
224.19660827560671
 30
0.0
 11
510.85890232830633
 21
224.19660827560671
 31
0.0
  0
LINE
  5
A1B
  8
0
 10
510.8589003989992
 20
224.19660827560671
 30
0.0
 11
506.52877630622362
 21
224.19660827560671
 31
0.0
  0
LINE
  5
A1C
  8
0
 10
506.52877530938412
 20
224.19660827560671
 30
0.0
 11
506.02927319686103
 21
224.19660827560671
 31
0.0
  0
LINE
  5
A1D
  8
0
 10
506.02926787954198
 20
224.19660827560671
 30
0.0
 11
505.85890232830633
 21
224.19660827560671
 31
0.0
  0
INSERT
  5
A34
  8
0
  6
CONTINUOUS
  2
*X4
 10
0.0
 20
0.0
 30
0.0
1001
GRADIENTCOLOR1ACI
1070
     5
1001
GRADIENTCOLOR2ACI
1070
     2
1001
ACAD
1000
HATCH
1002
{
1070
    19
1000
ANSI31
1040
12.0
1040
2.3561944901923439
1000
ASC_BOUNDS
1070
     3
1070
     1
1070
     4
1005
9B4
1005
9B5
1005
9B6
1005
9B7
1070
     1
1070
     4
1005
97C
1005
97D
1005
97E
1005
97F
1070
     1
1070
     4
1005
9BF
1005
9C0
1005
9C1
1005
9C2
1000
ASC_SEEDPOINT
1011
530.23272696442473
1021
0.0
1031
0.0
1021
602.62402673687302
1031
0.0
1000
R14_HATCH_DATA
1000
A34
1011
1.0
1021
0.0
1031
0.0
1021
0.0
1031
0.0
1011
0.0
1021
0.0
1031
0.0
1021
1.0
1031
0.0
1011
0.0
1021
0.0
1031
0.0
1021
0.0
1031
1.0
1040
0.0
1010
0.0
1020
0.0
1030
1.0
1000
ANSI31
1070
     0
1070
     1
1071
        3
1071
        7
1070
     0
1070
     1
1071
        4
1040
622.85890232830775
1040
644.07160827560392
1040
485.35890232830781
1040
644.07160827560426
1040
485.35890232830758
1040
507.57160827560421
1040
622.85890232830752
1040
507.57160827560398
1071
        4
1005
9C2
1005
9C1
1005
9C0
1005
9BF
1071
        7
1070
     0
1070
     1
1071
        4
1040
622.85890232830695
1040
503.32160827560688
1040
485.35890232830712
1040
503.3216082756071
1040
485.3589023283069
1040
366.82160827560722
1040
622.85890232830684
1040
366.82160827560688
1071
        4
1005
97F
1005
97E
1005
97D
1005
97C
1071
        7
1070
     0
1070
     1
1071
        4
1040
622.85890232830695
1040
362.57160827560392
1040
485.35890232830701
1040
362.57160827560432
1040
485.35890232830678
1040
226.07160827560429
1040
622.85890232830673
1040
226.07160827560401
1071
        4
1005
9B7
1005
9B6
1005
9B5
1005
9B4
1070
     1
1070
     1
1040
2.3561944901923439
1040
12.0
1070
     0
1070
     1
1040
3.1415926535897931
1040
0.0
1040
0.0
1040
-0.0000000000000002
1040
-1.5
1070
     0
1040
0.7272599590228328
1071
        3
1040
530.23272696442473
1040
602.62402673687302
1040
0.0
1040
546.6328421200933
1040
424.50385618088848
1040
0.0
1040
537.17389856781801
1040
317.59664225488592
1040
0.0
1002
}
  0
INSERT
  5
A74
  8
0
  6
CONTINUOUS
  2
*X5
 10
0.0
 20
0.0
 30
0.0
1001
GRADIENTCOLOR1ACI
1070
     5
1001
GRADIENTCOLOR2ACI
1070
     2
1001
ACAD
1000
HATCH
1002
{
1070
    19
1000
NET
1040
12.0
1040
0.0
1000
ASC_BOUNDS
1070
    12
1070
     1
1070
     4
1005
796
1005
797
1005
78A
1005
795
1070
     1
1070
     4
1005
790
1005
797
1005
78E
1005
795
1070
     1
1070
     4
1005
788
1005
797
1005
786
1005
795
1070
     1
1070
     4
1005
783
1005
797
1005
794
1005
795
1070
     1
1070
     4
1005
6DA
1005
6DB
1005
6CE
1005
6D9
1070
     1
1070
     4
1005
6D4
1005
6DB
1005
6D2
1005
6D9
1070
     1
1070
     4
1005
6CC
1005
6DB
1005
6CA
1005
6D9
1070
     1
1070
     4
1005
6C7
1005
6DB
1005
6D8
1005
6D9
1070
     1
1070
     4
1005
75D
1005
75E
1005
751
1005
75C
1070
     1
1070
     4
1005
757
1005
75E
1005
755
1005
75C
1070
     1
1070
     4
1005
74F
1005
75E
1005
74D
1005
75C
1070
     1
1070
     4
1005
74A
1005
75E
1005
75B
1005
75C
1000
ASC_SEEDPOINT
1011
696.98598017503616
1021
0.0
1031
0.0
1021
76.835345770751246
1031
0.0
1000
R14_HATCH_DATA
1000
A74
1011
1.0
1021
0.0
1031
0.0
1021
0.0
1031
0.0
1011
0.0
1021
0.0
1031
0.0
1021
1.0
1031
0.0
1011
0.0
1021
0.0
1031
0.0
1021
0.0
1031
1.0
1040
0.0
1010
0.0
1020
0.0
1030
1.0
1000
NET
1070
     0
1070
     1
1071
       12
1071
        7
1070
     0
1070
     1
1071
        4
1040
704.08069858695274
1040
98.375004503757282
1040
690.83069858695285
1040
98.375004503757125
1040
690.83069858695399
1040
4.000004503756613
1040
704.08069858695274
1040
4.0000045037567551
1071
        4
1005
75C
1005
75B
1005
75E
1005
74A
1071
        7
1070
     0
1070
     1
1071
        4
1040
746.07792055812695
1040
98.375004503757694
1040
730.08069858695364
1040
98.375004503757566
1040
730.08069858695364
1040
4.0000045037570109
1040
746.07792055812695
1040
4.0000045037571823
1071
        4
1005
75C
1005
74D
1005
75E
1005
74F
1071
        7
1070
     0
1070
     1
1071
        4
1040
788.089698241625
1040
98.375004503758163
1040
772.07318418770012
1040
98.375004503757992
1040
772.07318418770012
1040
4.0000045037574523
1040
788.089698241625
1040
4.0000045037576077
1071
        4
1005
75C
1005
755
1005
75E
1005
757
1071
        7
1070
     0
1070
     1
1071
        4
1040
827.33069858695285
1040
98.375004503758575
1040
814.07271390372273
1040
98.375004503758433
1040
814.07271390372273
1040
4.0000045037578777
1040
827.33069858695399
1040
4.0000045037580199
1071
        4
1005
75C
1005
751
1005
75E
1005
75D
1071
        7
1070
     0
1070
     1
1071
        4
1040
844.83069858695546
1040
98.375004503757282
1040
831.58069858695603
1040
98.375004503757125
1040
831.58069858695694
1040
4.000004503756613
1040
844.83069858695546
1040
4.0000045037567551
1071
        4
1005
6D9
1005
6D8
1005
6DB
1005
6C7
1071
        7
1070
     0
1070
     1
1071
        4
1040
886.82792055812945
1040
98.375004503757722
1040
870.83069858695637
1040
98.375004503757566
1040
870.83069858695637
1040
4.0000045037570109
1040
886.82792055812945
1040
4.0000045037571681
1071
        4
1005
6D9
1005
6CA
1005
6DB
1005
6CC
1071
        7
1070
     0
1070
     1
1071
        4
1040
928.83969824162762
1040
98.375004503758163
1040
912.82318418770285
1040
98.375004503757992
1040
912.82318418770285
1040
4.0000045037574523
1040
928.83969824162762
1040
4.0000045037576077
1071
        4
1005
6D9
1005
6D2
1005
6DB
1005
6D4
1071
        7
1070
     0
1070
     1
1071
        4
1040
968.08069858695603
1040
98.375004503758575
1040
954.82271390372546
1040
98.375004503758433
1040
954.82271390372546
1040
4.0000045037578777
1040
968.08069858695694
1040
4.0000045037580199
1071
        4
1005
6D9
1005
6CE
1005
6DB
1005
6DA
1071
        7
1070
     0
1070
     1
1071
        4
1040
985.58069858695274
1040
98.375004503757282
1040
972.33069858695285
1040
98.375004503757125
1040
972.33069858695387
1040
4.000004503756613
1040
985.58069858695274
1040
4.0000045037567551
1071
        4
1005
795
1005
794
1005
797
1005
783
1071
        7
1070
     0
1070
     1
1071
        4
1040
1027.5779205581271
1040
98.375004503757722
1040
1011.580698586953
1040
98.375004503757566
1040
1011.580698586953
1040
4.0000045037570109
1040
1027.5779205581271
1040
4.0000045037571681
1071
        4
1005
795
1005
786
1005
797
1005
788
1071
        7
1070
     0
1070
     1
1071
        4
1040
1069.589698241625
1040
98.375004503758163
1040
1053.5731841877
1040
98.375004503757992
1040
1053.5731841877
1040
4.0000045037574523
1040
1069.589698241625
1040
4.0000045037576077
1071
        4
1005
795
1005
78E
1005
797
1005
790
1071
        7
1070
     0
1070
     1
1071
        4
1040
1108.8306985869531
1040
98.375004503758575
1040
1095.5727139037219
1040
98.375004503758433
1040
1095.5727139037219
1040
4.0000045037578777
1040
1108.830698586954
1040
4.0000045037580199
1071
        4
1005
795
1005
78A
1005
797
1005
796
1070
     1
1070
     1
1040
0.0
1040
12.0
1070
     0
1070
     2
1040
0.0
1040
0.0
1040
0.0
1040
0.0
1040
1.5
1070
     0
1040
1.5707963267948959
1040
0.0
1040
0.0
1040
-1.5
1040
0.0000000000000001
1070
     0
1040
0.1793331784912051
1071
       12
1040
696.98598017503616
1040
76.835345770751246
1040
0.0
1040
738.4319375253026
1040
80.601343307939942
1040
0.0
1040
779.33963579362126
1040
72.172683811432307
1040
0.0
1040
818.8119765100804
1040
67.868686409792872
1040
0.0
1040
837.29220767038032
1040
66.434022123212117
1040
0.0
1040
878.73816502064619
1040
63.564690522119008
1040
0.0
1040
922.51657839268455
1040
59.081360841639928
1040
0.0
1040
961.76596377382828
1040
56.750627121494972
1040
0.0
1040
980.24619493412763
1040
58.364625200881157
1040
0.0
1040
1019.718535650587
1040
57.10929319314004
1040
0.0
1040
1062.779272926801
1040
54.419295384852603
1040
0.0
1040
1102.4310306571369
1040
53.701963241562218
1040
0.0
1002
}
  0
ENDSEC
  0
EOF
