  0
SECTION
  2
HEADER
  9
$ACADVER
  1
AC1009
  9
$INSBASE
 10
0.0
 20
0.0
 30
0.0
  9
$EXTMIN
 10
-0.0338981372997296
 20
-0.0197112221439966
 30
-0.0015258207003583
  9
$EXTMAX
 10
1110.7395972211341
 20
668.73452115761734
 30
0.0000000349246037
  9
$LIMMIN
 10
0.0
 20
0.0
  9
$LIMMAX
 10
12.0
 20
9.0
  9
$ORTHOMODE
 70
     1
  9
$REGENMODE
 70
     1
  9
$FILLMODE
 70
     1
  9
$QTEXTMODE
 70
     0
  9
$MIRRTEXT
 70
     0
  9
$DRAGMODE
 70
     2
  9
$LTSCALE
 40
1.0
  9
$OSMODE
 70
    37
  9
$ATTMODE
 70
     1
  9
$TEXTSIZE
 40
0.2
  9
$TRACEWID
 40
0.05
  9
$TEXTSTYLE
  7
ROMANS
  9
$CLAYER
  8
0
  9
$CELTYPE
  6
BYLAYER
  9
$CECOLOR
 62
   256
  9
$DIMSCALE
 40
1.0
  9
$DIMASZ
 40
0.09375
  9
$DIMEXO
 40
0.0625
  9
$DIMDLI
 40
0.375
  9
$DIMRND
 40
0.0
  9
$DIMDLE
 40
0.0
  9
$DIMEXE
 40
0.03125
  9
$DIMTP
 40
0.0
  9
$DIMTM
 40
0.0
  9
$DIMTXT
 40
0.09375
  9
$DIMCEN
 40
0.09375
  9
$DIMTSZ
 40
0.0
  9
$DIMTOL
 70
     0
  9
$DIMLIM
 70
     0
  9
$DIMTIH
 70
     0
  9
$DIMTOH
 70
     0
  9
$DIMSE1
 70
     0
  9
$DIMSE2
 70
     0
  9
$DIMTAD
 70
     0
  9
$DIMZIN
 70
     0
  9
$DIMBLK
  1

  9
$DIMASO
 70
     1
  9
$DIMSHO
 70
     1
  9
$DIMPOST
  1

  9
$DIMAPOST
  1

  9
$DIMALT
 70
     0
  9
$DIMALTD
 70
     2
  9
$DIMALTF
 40
25.399999999999999
  9
$DIMLFAC
 40
1.0
  9
$DIMTOFL
 70
     0
  9
$DIMTVP
 40
0.0
  9
$DIMTIX
 70
     0
  9
$DIMSOXD
 70
     0
  9
$DIMSAH
 70
     0
  9
$DIMBLK1
  1

  9
$DIMBLK2
  1

  9
$DIMSTYLE
  2
BAC
  9
$DIMCLRD
 70
     0
  9
$DIMCLRE
 70
     6
  9
$DIMCLRT
 70
     0
  9
$DIMTFAC
 40
1.0
  9
$DIMGAP
 40
0.0625
  9
$LUNITS
 70
     5
  9
$LUPREC
 70
     6
  9
$SKETCHINC
 40
0.1
  9
$FILLETRAD
 40
0.5
  9
$AUNITS
 70
     0
  9
$AUPREC
 70
     0
  9
$MENU
  1
.
  9
$ELEVATION
 40
0.0
  9
$PELEVATION
 40
0.0
  9
$THICKNESS
 40
0.0
  9
$LIMCHECK
 70
     0
  9
$BLIPMODE
 70
     0
  9
$CHAMFERA
 40
0.5
  9
$CHAMFERB
 40
0.5
  9
$SKPOLY
 70
     0
  9
$TDCREATE
 40
2456834.650311864
  9
$TDUPDATE
 40
2456834.6530019101
  9
$TDINDWG
 40
0.0026918519
  9
$TDUSRTIMER
 40
0.0026913889
  9
$USRTIMER
 70
     1
  9
$ANGBASE
 50
0.0
  9
$ANGDIR
 70
     0
  9
$PDMODE
 70
     0
  9
$PDSIZE
 40
0.0
  9
$PLINEWID
 40
0.0
  9
$COORDS
 70
     1
  9
$SPLFRAME
 70
     0
  9
$SPLINETYPE
 70
     6
  9
$SPLINESEGS
 70
     8
  9
$ATTDIA
 70
     0
  9
$ATTREQ
 70
     1
  9
$HANDLING
 70
     1
  9
$HANDSEED
  5
1DC7
  9
$SURFTAB1
 70
     6
  9
$SURFTAB2
 70
     6
  9
$SURFTYPE
 70
     6
  9
$SURFU
 70
     6
  9
$SURFV
 70
     6
  9
$UCSNAME
  2

  9
$UCSORG
 10
0.0
 20
0.0
 30
0.0
  9
$UCSXDIR
 10
1.0
 20
0.0
 30
0.0
  9
$UCSYDIR
 10
0.0
 20
1.0
 30
0.0
  9
$PUCSNAME
  2

  9
$PUCSORG
 10
0.0
 20
0.0
 30
0.0
  9
$PUCSXDIR
 10
1.0
 20
0.0
 30
0.0
  9
$PUCSYDIR
 10
0.0
 20
1.0
 30
0.0
  9
$USERI1
 70
     0
  9
$USERI2
 70
     0
  9
$USERI3
 70
     0
  9
$USERI4
 70
     0
  9
$USERI5
 70
     0
  9
$USERR1
 40
0.0
  9
$USERR2
 40
0.0
  9
$USERR3
 40
0.0
  9
$USERR4
 40
0.0
  9
$USERR5
 40
0.0
  9
$WORLDVIEW
 70
     1
  9
$SHADEDGE
 70
     3
  9
$SHADEDIF
 70
    70
  9
$TILEMODE
 70
     1
  9
$MAXACTVP
 70
    48
  9
$PLIMCHECK
 70
     0
  9
$PEXTMIN
 10
1.0000000000000000E+020
 20
1.0000000000000000E+020
 30
1.0000000000000000E+020
  9
$PEXTMAX
 10
-1.0000000000000000E+020
 20
-1.0000000000000000E+020
 30
-1.0000000000000000E+020
  9
$PLIMMIN
 10
0.0
 20
0.0
  9
$PLIMMAX
 10
12.0
 20
9.0
  9
$UNITMODE
 70
     0
  9
$VISRETAIN
 70
     1
  9
$PLINEGEN
 70
     0
  9
$PSLTSCALE
 70
     1
  0
ENDSEC
  0
SECTION
  2
TABLES
  0
TABLE
  2
VPORT
 70
     1
  0
VPORT
  2
*ACTIVE
 70
     0
 10
0.0
 20
0.0
 11
1.0
 21
1.0
 12
555.35284954191707
 22
334.35740496773673
 13
0.0
 23
0.0
 14
0.5
 24
0.5
 15
0.5
 25
0.5
 16
0.0
 26
0.0
 36
1.0
 17
0.0
 27
0.0
 37
0.0
 40
673.20270842663331
 41
1.7702552719200879
 42
50.0
 43
0.0
 44
0.0
 50
0.0
 51
0.0
 71
     0
 72
   100
 73
     1
 74
     1
 75
     0
 76
     0
 77
     0
 78
     0
  0
ENDTAB
  0
TABLE
  2
LTYPE
 70
    20
  0
LTYPE
  2
CONTINUOUS
 70
     0
  3
Solid line
 72
    65
 73
     0
 40
0.0
  0
LTYPE
  2
CENTER
 70
     0
  3
Center ____ _ ____ _ ____ _ ____ _ ____ _ ____
 72
    65
 73
     4
 40
2.0
 49
1.25
 49
-0.25
 49
0.25
 49
-0.25
  0
LTYPE
  2
CENTER2
 70
     0
  3
Center (.5x) ___ _ ___ _ ___ _ ___ _ ___ _ ___
 72
    65
 73
     4
 40
1.125
 49
0.75
 49
-0.125
 49
0.125
 49
-0.125
  0
LTYPE
  2
HIDDEN
 70
     0
  3
Hidden __ __ __ __ __ __ __ __ __ __ __ __ __ _
 72
    65
 73
     2
 40
0.375
 49
0.25
 49
-0.125
  0
LTYPE
  2
HIDDEN2
 70
     0
  3
Hidden (.5x) _ _ _ _ _ _ _ _ _ _ _ _ _ _ _ _ _
 72
    65
 73
     2
 40
0.1875
 49
0.125
 49
-0.0625
  0
LTYPE
  2
PHANTOM2
 70
     0
  3
Phantom (.5x) ___ _ _ ___ _ _ ___ _ _ ___ _ _
 72
    65
 73
     6
 40
1.25
 49
0.625
 49
-0.125
 49
0.125
 49
-0.125
 49
0.125
 49
-0.125
  0
LTYPE
  2
AMCONSTR
 70
     0
  3
_______________________
 72
    65
 73
     2
 40
9999.0
 49
9999.0
 49
0.0
  0
LTYPE
  2
AMZIGZAG2
 70
     0
  3
/\/-/\/-/\/-/\/-/\/-/\/
 72
    65
 73
     2
 40
0.4401
 49
0.0001
 49
-0.4400000000000001
  0
LTYPE
  2
ACANSTGB
 70
     0
  3
__ . . __ . .
 72
    65
 73
     6
 40
0.35433070866
 49
0.15748031496
 49
-0.03937007874
 49
0.03937007874
 49
-0.03937007874
 49
0.03937007874
 49
-0.03937007874
  0
LTYPE
  2
ACANSTGL
 70
     0
  3
_ _ _ _ _
 72
    65
 73
     2
 40
0.11811023622
 49
0.07874015748
 49
-0.03937007874
  0
ENDTAB
  0
TABLE
  2
LAYER
 70
     8
  0
LAYER
  2
0
 70
     0
 62
     7
  6
CONTINUOUS
  0
ENDTAB
  0
TABLE
  2
STYLE
 70
    11
  0
STYLE
  2
STANDARD
 70
     0
 40
0.0
 41
1.0
 50
0.0
 71
     0
 42
0.2
  3
txt
  4

  0
STYLE
  2
ROMANS
 70
     0
 40
0.0
 41
0.75
 50
0.0
 71
     0
 42
0.2
  3
romans.shx
  4

  0
STYLE
  2

 70
     1
 40
0.0
 41
1.0
 50
0.0
 71
     0
 42
0.2
  3
genltshp.shx
  4

  0
STYLE
  2
ACANSGDT
 70
     0
 40
0.0
 41
1.0
 50
0.0
 71
     0
 42
0.2
  3
amgdt.shx
  4

  0
ENDTAB
  0
TABLE
  2
VIEW
 70
     0
  0
ENDTAB
  0
TABLE
  2
UCS
 70
     0
  0
ENDTAB
  0
TABLE
  2
APPID
 70
    15
  0
APPID
  2
ACAD
 70
     0
  0
APPID
  2
ACAD_MLEADERVER
 70
     0
  0
APPID
  2
ACAD_DSTYLE_DIMJAG
 70
     0
  0
APPID
  2
ACAD_DSTYLE_DIMTALN
 70
     0
  0
APPID
  2
ACAD_PSEXT
 70
     0
  0
APPID
  2
ACADANNOPO
 70
     0
  0
APPID
  2
MCAD_NO_VIS
 70
     0
  0
APPID
  2
ACAD_TEMP_GRAPHIC
 70
     0
  0
APPID
  2
ACATTRIBSERVICES
 70
     0
  0
APPID
  2
DESIGNERASSEMBLIES
 70
     0
  0
APPID
  2
ACAD_DSTYLE_DIMBREAK
 70
     0
  0
APPID
  2
ACAD_NAV_VCDISPLAY
 70
     0
  0
APPID
  2
GRADIENTCOLOR1ACI
 70
     0
  0
APPID
  2
GRADIENTCOLOR2ACI
 70
     0
  0
APPID
  2
ACAD_EXEMPT_FROM_CAD_STANDARDS
 70
     0
  0
ENDTAB
  0
TABLE
  2
DIMSTYLE
 70
    14
  0
DIMSTYLE
  2
BAC
 70
     0
  3

  4

  5

  6

  7

 40
1.0
 41
0.09375
 42
0.0625
 43
0.375
 44
0.03125
 45
0.0
 46
0.0
 47
0.0
 48
0.0
140
0.09375
141
0.09375
142
0.0
143
25.399999999999999
144
1.0
145
0.0
146
1.0
147
0.0625
 71
     0
 72
     0
 73
     0
 74
     0
 75
     0
 76
     0
 77
     0
 78
     0
170
     0
171
     2
172
     0
173
     0
174
     0
175
     0
176
     0
177
     6
178
     0
  0
DIMSTYLE
  2
AM_ANSI
 70
     0
  3

  4
mm
  5

  6

  7

 40
1.0
 41
0.12
 42
0.05
 43
0.5
 44
0.1
 45
0.0
 46
0.0
 47
0.1
 48
0.1
140
0.12
141
0.0
142
0.0
143
25.399999999999999
144
1.0
145
0.0
146
0.71
147
0.06
 71
     0
 72
     0
 73
     1
 74
     1
 75
     0
 76
     0
 77
     0
 78
     7
170
     0
171
     2
172
     0
173
     0
174
     0
175
     0
176
   256
177
   256
178
     2
  0
DIMSTYLE
  2
AM_ANSI$3
 70
     0
  3

  4
mm
  5

  6

  7

 40
1.0
 41
0.12
 42
0.05
 43
0.5
 44
0.1
 45
0.0
 46
0.0
 47
0.1
 48
0.1
140
0.12
141
0.0
142
0.0
143
25.399999999999999
144
1.0
145
0.0
146
0.71
147
0.06
 71
     0
 72
     0
 73
     1
 74
     1
 75
     0
 76
     0
 77
     0
 78
     7
170
     0
171
     2
172
     0
173
     0
174
     0
175
     0
176
   256
177
   256
178
     2
  0
DIMSTYLE
  2
AM_ANSI$4
 70
     0
  3

  4
mm
  5

  6

  7

 40
1.0
 41
0.12
 42
0.05
 43
0.5
 44
0.1
 45
0.0
 46
0.0
 47
0.1
 48
0.1
140
0.12
141
0.0
142
0.0
143
25.399999999999999
144
1.0
145
0.0
146
0.71
147
0.06
 71
     0
 72
     0
 73
     1
 74
     1
 75
     0
 76
     0
 77
     0
 78
     7
170
     0
171
     2
172
     0
173
     0
174
     0
175
     0
176
   256
177
   256
178
     2
  0
DIMSTYLE
  2
AM_ANSI$7
 70
     0
  3

  4
mm
  5

  6

  7

 40
1.0
 41
0.12
 42
0.05
 43
0.5
 44
0.1
 45
0.0
 46
0.0
 47
0.1
 48
0.1
140
0.12
141
0.0
142
0.0
143
25.399999999999999
144
1.0
145
0.0
146
0.71
147
0.06
 71
     0
 72
     0
 73
     1
 74
     1
 75
     0
 76
     0
 77
     0
 78
     7
170
     0
171
     2
172
     0
173
     0
174
     0
175
     0
176
   256
177
   256
178
     2
  0
DIMSTYLE
  2
AM_ANSI$SF
 70
     0
  3

  4
mm
  5

  6

  7

 40
1.0
 41
0.12
 42
0.05
 43
0.5
 44
0.1
 45
0.0
 46
0.0
 47
0.1
 48
0.1
140
0.12
141
0.0
142
0.0
143
25.399999999999999
144
1.0
145
0.0
146
0.71
147
0.06
 71
     0
 72
     0
 73
     1
 74
     1
 75
     1
 76
     1
 77
     0
 78
     7
170
     0
171
     2
172
     0
173
     0
174
     0
175
     0
176
   256
177
   256
178
     2
  0
DIMSTYLE
  2
AM_ANSI$SH
 70
     0
  3

  4
mm
  5

  6
GENAXEH
  7

 40
1.0
 41
0.12
 42
0.05
 43
0.5
 44
0.1
 45
0.0
 46
0.0
 47
0.1
 48
0.1
140
0.12
141
0.0
142
0.0
143
25.399999999999999
144
1.0
145
0.0
146
0.71
147
0.06
 71
     0
 72
     0
 73
     1
 74
     1
 75
     1
 76
     1
 77
     0
 78
     7
170
     0
171
     2
172
     0
173
     1
174
     0
175
     0
176
   256
177
   256
178
     2
  0
DIMSTYLE
  2
STANDARD
 70
     0
  3

  4

  5

  6

  7

 40
1.0
 41
0.18
 42
0.0625
 43
0.38
 44
0.18
 45
0.0
 46
0.0
 47
0.0
 48
0.0
140
0.18
141
0.09
142
0.0
143
25.399999999999999
144
1.0
145
0.0
146
1.0
147
0.09
 71
     0
 72
     0
 73
     1
 74
     1
 75
     0
 76
     0
 77
     0
 78
     0
170
     0
171
     2
172
     0
173
     0
174
     0
175
     0
176
     0
177
     0
178
     0
  0
ENDTAB
  0
ENDSEC
  0
SECTION
  2
BLOCKS
  0
BLOCK
  8
0
  2
$MODEL_SPACE
 70
     0
 10
0.0
 20
0.0
 30
0.0
  3
$MODEL_SPACE
  1

  0
ENDBLK
  5
1A
  8
0
  0
BLOCK
 67
     1
  8
0
  2
$PAPER_SPACE
 70
     0
 10
0.0
 20
0.0
 30
0.0
  3
$PAPER_SPACE
  1

  0
ENDBLK
  5
17
 67
     1
  8
0
  0
BLOCK
  8
0
  2
*U0
 70
     1
 10
0.0
 20
0.0
 30
0.0
  3
*U0
  1

  0
ENDBLK
  5
17A
  8
0
  0
BLOCK
  8
0
  2
GENAXEH
 70
     0
 10
0.0
 20
0.0
 30
0.0
  3
GENAXEH
  1

  0
LINE
  5
1AD
  8
0
 10
-1.0
 20
0.0
 30
0.0
 11
1.0
 21
0.0
 31
0.0
  0
ENDBLK
  5
1AF
  8
0
  0
BLOCK
  8
0
  2
*X4
 70
     1
 10
0.0
 20
0.0
 30
0.0
  3
*X4
  1

  0
LINE
  5
1942
  8
0
 62
     0
 10
622.85890232830775
 20
666.24999999999977
 30
0.0
 11
485.35890232830781
 21
666.24999999999977
 31
0.0
  0
LINE
  5
1943
  8
0
 62
     0
 10
622.85890232830775
 20
664.74999999999989
 30
0.0
 11
485.35890232830781
 21
664.74999999999989
 31
0.0
  0
LINE
  5
1944
  8
0
 62
     0
 10
622.85890232830775
 20
663.24999999999989
 30
0.0
 11
485.35890232830781
 21
663.24999999999989
 31
0.0
  0
LINE
  5
1945
  8
0
 62
     0
 10
622.85890232830775
 20
661.74999999999977
 30
0.0
 11
485.35890232830781
 21
661.74999999999977
 31
0.0
  0
LINE
  5
1946
  8
0
 62
     0
 10
622.85890232830775
 20
660.24999999999989
 30
0.0
 11
485.35890232830781
 21
660.24999999999989
 31
0.0
  0
LINE
  5
1947
  8
0
 62
     0
 10
622.85890232830775
 20
658.74999999999977
 30
0.0
 11
485.35890232830781
 21
658.74999999999977
 31
0.0
  0
LINE
  5
1948
  8
0
 62
     0
 10
622.85890232830775
 20
657.24999999999977
 30
0.0
 11
485.35890232830781
 21
657.24999999999977
 31
0.0
  0
LINE
  5
1949
  8
0
 62
     0
 10
622.85890232830775
 20
655.74999999999989
 30
0.0
 11
485.35890232830781
 21
655.74999999999989
 31
0.0
  0
LINE
  5
194A
  8
0
 62
     0
 10
622.85890232830775
 20
654.24999999999977
 30
0.0
 11
485.35890232830781
 21
654.24999999999977
 31
0.0
  0
LINE
  5
194B
  8
0
 62
     0
 10
622.85890232830775
 20
652.74999999999977
 30
0.0
 11
485.35890232830781
 21
652.74999999999977
 31
0.0
  0
LINE
  5
194C
  8
0
 62
     0
 10
622.85890232830775
 20
651.24999999999989
 30
0.0
 11
485.35890232830781
 21
651.24999999999989
 31
0.0
  0
LINE
  5
194D
  8
0
 62
     0
 10
622.85890232830775
 20
649.74999999999977
 30
0.0
 11
485.35890232830781
 21
649.74999999999977
 31
0.0
  0
LINE
  5
194E
  8
0
 62
     0
 10
622.85890232830775
 20
648.24999999999989
 30
0.0
 11
485.35890232830781
 21
648.24999999999989
 31
0.0
  0
LINE
  5
194F
  8
0
 62
     0
 10
622.85890232830775
 20
646.74999999999989
 30
0.0
 11
485.35890232830781
 21
646.74999999999989
 31
0.0
  0
LINE
  5
1950
  8
0
 62
     0
 10
622.85890232830775
 20
645.24999999999977
 30
0.0
 11
485.35890232830781
 21
645.24999999999977
 31
0.0
  0
LINE
  5
1951
  8
0
 62
     0
 10
622.85890232830775
 20
643.74999999999989
 30
0.0
 11
485.35890232830781
 21
643.74999999999989
 31
0.0
  0
LINE
  5
1952
  8
0
 62
     0
 10
622.85890232830775
 20
642.24999999999989
 30
0.0
 11
485.35890232830781
 21
642.24999999999989
 31
0.0
  0
LINE
  5
1953
  8
0
 62
     0
 10
622.85890232830775
 20
640.74999999999977
 30
0.0
 11
485.35890232830781
 21
640.74999999999977
 31
0.0
  0
LINE
  5
1954
  8
0
 62
     0
 10
622.85890232830775
 20
639.24999999999989
 30
0.0
 11
485.35890232830781
 21
639.24999999999989
 31
0.0
  0
LINE
  5
1955
  8
0
 62
     0
 10
622.85890232830775
 20
637.74999999999977
 30
0.0
 11
485.35890232830781
 21
637.74999999999977
 31
0.0
  0
LINE
  5
1956
  8
0
 62
     0
 10
622.85890232830775
 20
636.24999999999977
 30
0.0
 11
485.35890232830781
 21
636.24999999999977
 31
0.0
  0
LINE
  5
1957
  8
0
 62
     0
 10
622.85890232830775
 20
634.74999999999989
 30
0.0
 11
485.35890232830781
 21
634.74999999999989
 31
0.0
  0
LINE
  5
1958
  8
0
 62
     0
 10
622.85890232830775
 20
633.24999999999977
 30
0.0
 11
485.35890232830781
 21
633.24999999999977
 31
0.0
  0
LINE
  5
1959
  8
0
 62
     0
 10
622.85890232830764
 20
631.74999999999989
 30
0.0
 11
485.35890232830781
 21
631.74999999999989
 31
0.0
  0
LINE
  5
195A
  8
0
 62
     0
 10
622.85890232830764
 20
630.24999999999989
 30
0.0
 11
485.35890232830781
 21
630.24999999999989
 31
0.0
  0
LINE
  5
195B
  8
0
 62
     0
 10
622.85890232830764
 20
628.74999999999977
 30
0.0
 11
485.35890232830781
 21
628.74999999999977
 31
0.0
  0
LINE
  5
195C
  8
0
 62
     0
 10
622.85890232830764
 20
627.24999999999989
 30
0.0
 11
485.35890232830781
 21
627.24999999999989
 31
0.0
  0
LINE
  5
195D
  8
0
 62
     0
 10
622.85890232830764
 20
625.74999999999989
 30
0.0
 11
485.35890232830769
 21
625.74999999999989
 31
0.0
  0
LINE
  5
195E
  8
0
 62
     0
 10
622.85890232830764
 20
624.24999999999977
 30
0.0
 11
485.35890232830769
 21
624.24999999999977
 31
0.0
  0
LINE
  5
195F
  8
0
 62
     0
 10
622.85890232830764
 20
622.74999999999989
 30
0.0
 11
485.35890232830769
 21
622.74999999999989
 31
0.0
  0
LINE
  5
1960
  8
0
 62
     0
 10
622.85890232830764
 20
621.24999999999977
 30
0.0
 11
485.35890232830769
 21
621.24999999999977
 31
0.0
  0
LINE
  5
1961
  8
0
 62
     0
 10
622.85890232830764
 20
619.74999999999977
 30
0.0
 11
485.35890232830769
 21
619.74999999999977
 31
0.0
  0
LINE
  5
1962
  8
0
 62
     0
 10
622.85890232830764
 20
618.24999999999989
 30
0.0
 11
485.35890232830769
 21
618.24999999999989
 31
0.0
  0
LINE
  5
1963
  8
0
 62
     0
 10
622.85890232830764
 20
616.74999999999977
 30
0.0
 11
485.35890232830769
 21
616.74999999999977
 31
0.0
  0
LINE
  5
1964
  8
0
 62
     0
 10
622.85890232830764
 20
615.24999999999977
 30
0.0
 11
485.35890232830769
 21
615.24999999999977
 31
0.0
  0
LINE
  5
1965
  8
0
 62
     0
 10
622.85890232830764
 20
613.74999999999989
 30
0.0
 11
485.35890232830769
 21
613.74999999999989
 31
0.0
  0
LINE
  5
1966
  8
0
 62
     0
 10
622.85890232830764
 20
612.24999999999977
 30
0.0
 11
485.35890232830769
 21
612.24999999999977
 31
0.0
  0
LINE
  5
1967
  8
0
 62
     0
 10
622.85890232830764
 20
610.74999999999989
 30
0.0
 11
485.35890232830769
 21
610.74999999999989
 31
0.0
  0
LINE
  5
1968
  8
0
 62
     0
 10
622.85890232830764
 20
609.24999999999989
 30
0.0
 11
485.35890232830769
 21
609.24999999999989
 31
0.0
  0
LINE
  5
1969
  8
0
 62
     0
 10
622.85890232830764
 20
607.74999999999977
 30
0.0
 11
485.35890232830769
 21
607.74999999999977
 31
0.0
  0
LINE
  5
196A
  8
0
 62
     0
 10
622.85890232830764
 20
606.24999999999989
 30
0.0
 11
485.35890232830769
 21
606.24999999999989
 31
0.0
  0
LINE
  5
196B
  8
0
 62
     0
 10
622.85890232830764
 20
604.74999999999989
 30
0.0
 11
485.35890232830769
 21
604.74999999999989
 31
0.0
  0
LINE
  5
196C
  8
0
 62
     0
 10
622.85890232830764
 20
603.24999999999977
 30
0.0
 11
485.35890232830769
 21
603.24999999999977
 31
0.0
  0
LINE
  5
196D
  8
0
 62
     0
 10
622.85890232830764
 20
601.74999999999989
 30
0.0
 11
485.35890232830769
 21
601.74999999999989
 31
0.0
  0
LINE
  5
196E
  8
0
 62
     0
 10
622.85890232830764
 20
600.24999999999977
 30
0.0
 11
485.35890232830769
 21
600.24999999999977
 31
0.0
  0
LINE
  5
196F
  8
0
 62
     0
 10
622.85890232830764
 20
598.74999999999977
 30
0.0
 11
485.35890232830769
 21
598.74999999999977
 31
0.0
  0
LINE
  5
1970
  8
0
 62
     0
 10
622.85890232830764
 20
597.24999999999989
 30
0.0
 11
485.35890232830769
 21
597.24999999999989
 31
0.0
  0
LINE
  5
1971
  8
0
 62
     0
 10
622.85890232830764
 20
595.74999999999977
 30
0.0
 11
485.35890232830769
 21
595.74999999999977
 31
0.0
  0
LINE
  5
1972
  8
0
 62
     0
 10
622.85890232830764
 20
594.24999999999989
 30
0.0
 11
485.35890232830769
 21
594.24999999999989
 31
0.0
  0
LINE
  5
1973
  8
0
 62
     0
 10
622.85890232830764
 20
592.74999999999989
 30
0.0
 11
485.35890232830769
 21
592.74999999999989
 31
0.0
  0
LINE
  5
1974
  8
0
 62
     0
 10
622.85890232830764
 20
591.24999999999977
 30
0.0
 11
485.35890232830769
 21
591.24999999999977
 31
0.0
  0
LINE
  5
1975
  8
0
 62
     0
 10
622.85890232830764
 20
589.74999999999989
 30
0.0
 11
485.35890232830769
 21
589.74999999999989
 31
0.0
  0
LINE
  5
1976
  8
0
 62
     0
 10
622.85890232830764
 20
588.24999999999989
 30
0.0
 11
485.35890232830769
 21
588.24999999999989
 31
0.0
  0
LINE
  5
1977
  8
0
 62
     0
 10
622.85890232830764
 20
586.74999999999977
 30
0.0
 11
485.35890232830769
 21
586.74999999999977
 31
0.0
  0
LINE
  5
1978
  8
0
 62
     0
 10
622.85890232830764
 20
585.24999999999989
 30
0.0
 11
485.35890232830769
 21
585.24999999999989
 31
0.0
  0
LINE
  5
1979
  8
0
 62
     0
 10
622.85890232830764
 20
583.74999999999977
 30
0.0
 11
485.35890232830769
 21
583.74999999999977
 31
0.0
  0
LINE
  5
197A
  8
0
 62
     0
 10
622.85890232830764
 20
582.24999999999977
 30
0.0
 11
485.35890232830769
 21
582.24999999999977
 31
0.0
  0
LINE
  5
197B
  8
0
 62
     0
 10
622.85890232830764
 20
580.74999999999989
 30
0.0
 11
485.35890232830769
 21
580.74999999999989
 31
0.0
  0
LINE
  5
197C
  8
0
 62
     0
 10
622.85890232830764
 20
579.24999999999977
 30
0.0
 11
485.35890232830769
 21
579.24999999999977
 31
0.0
  0
LINE
  5
197D
  8
0
 62
     0
 10
622.85890232830764
 20
577.74999999999977
 30
0.0
 11
485.35890232830769
 21
577.74999999999977
 31
0.0
  0
LINE
  5
197E
  8
0
 62
     0
 10
622.85890232830764
 20
576.24999999999989
 30
0.0
 11
485.35890232830769
 21
576.24999999999989
 31
0.0
  0
LINE
  5
197F
  8
0
 62
     0
 10
622.85890232830764
 20
574.74999999999977
 30
0.0
 11
485.35890232830769
 21
574.74999999999977
 31
0.0
  0
LINE
  5
1980
  8
0
 62
     0
 10
622.85890232830764
 20
573.24999999999989
 30
0.0
 11
485.35890232830769
 21
573.24999999999989
 31
0.0
  0
LINE
  5
1981
  8
0
 62
     0
 10
622.85890232830764
 20
571.74999999999989
 30
0.0
 11
485.35890232830769
 21
571.74999999999989
 31
0.0
  0
LINE
  5
1982
  8
0
 62
     0
 10
622.85890232830764
 20
570.24999999999977
 30
0.0
 11
485.35890232830758
 21
570.24999999999977
 31
0.0
  0
LINE
  5
1983
  8
0
 62
     0
 10
622.85890232830764
 20
568.74999999999989
 30
0.0
 11
485.35890232830758
 21
568.74999999999989
 31
0.0
  0
LINE
  5
1984
  8
0
 62
     0
 10
622.85890232830764
 20
567.24999999999977
 30
0.0
 11
485.35890232830758
 21
567.24999999999977
 31
0.0
  0
LINE
  5
1985
  8
0
 62
     0
 10
622.85890232830764
 20
565.74999999999977
 30
0.0
 11
485.35890232830758
 21
565.74999999999977
 31
0.0
  0
LINE
  5
1986
  8
0
 62
     0
 10
622.85890232830752
 20
564.24999999999989
 30
0.0
 11
485.35890232830758
 21
564.24999999999989
 31
0.0
  0
LINE
  5
1987
  8
0
 62
     0
 10
622.85890232830752
 20
562.74999999999977
 30
0.0
 11
485.35890232830758
 21
562.74999999999977
 31
0.0
  0
LINE
  5
1988
  8
0
 62
     0
 10
622.85890232830752
 20
561.24999999999977
 30
0.0
 11
485.35890232830758
 21
561.24999999999977
 31
0.0
  0
LINE
  5
1989
  8
0
 62
     0
 10
622.85890232830752
 20
559.74999999999989
 30
0.0
 11
485.35890232830758
 21
559.74999999999989
 31
0.0
  0
LINE
  5
198A
  8
0
 62
     0
 10
622.85890232830752
 20
558.24999999999977
 30
0.0
 11
485.35890232830758
 21
558.24999999999977
 31
0.0
  0
LINE
  5
198B
  8
0
 62
     0
 10
622.85890232830752
 20
556.74999999999989
 30
0.0
 11
485.35890232830758
 21
556.74999999999989
 31
0.0
  0
LINE
  5
198C
  8
0
 62
     0
 10
622.85890232830752
 20
555.24999999999989
 30
0.0
 11
485.35890232830758
 21
555.24999999999989
 31
0.0
  0
LINE
  5
198D
  8
0
 62
     0
 10
622.85890232830752
 20
553.74999999999977
 30
0.0
 11
485.35890232830758
 21
553.74999999999977
 31
0.0
  0
LINE
  5
198E
  8
0
 62
     0
 10
622.85890232830752
 20
552.24999999999989
 30
0.0
 11
485.35890232830758
 21
552.24999999999989
 31
0.0
  0
LINE
  5
198F
  8
0
 62
     0
 10
622.85890232830752
 20
550.74999999999989
 30
0.0
 11
485.35890232830758
 21
550.74999999999989
 31
0.0
  0
LINE
  5
1990
  8
0
 62
     0
 10
622.85890232830752
 20
549.24999999999977
 30
0.0
 11
485.35890232830758
 21
549.24999999999977
 31
0.0
  0
LINE
  5
1991
  8
0
 62
     0
 10
622.85890232830752
 20
547.74999999999989
 30
0.0
 11
485.35890232830758
 21
547.74999999999989
 31
0.0
  0
LINE
  5
1992
  8
0
 62
     0
 10
622.85890232830752
 20
546.24999999999977
 30
0.0
 11
485.35890232830758
 21
546.24999999999977
 31
0.0
  0
LINE
  5
1993
  8
0
 62
     0
 10
622.85890232830752
 20
544.74999999999977
 30
0.0
 11
485.35890232830758
 21
544.74999999999977
 31
0.0
  0
LINE
  5
1994
  8
0
 62
     0
 10
622.85890232830752
 20
543.24999999999989
 30
0.0
 11
485.35890232830758
 21
543.24999999999989
 31
0.0
  0
LINE
  5
1995
  8
0
 62
     0
 10
622.85890232830752
 20
541.74999999999977
 30
0.0
 11
485.35890232830758
 21
541.74999999999977
 31
0.0
  0
LINE
  5
1996
  8
0
 62
     0
 10
622.85890232830752
 20
540.24999999999977
 30
0.0
 11
485.35890232830758
 21
540.24999999999977
 31
0.0
  0
LINE
  5
1997
  8
0
 62
     0
 10
622.85890232830752
 20
538.74999999999989
 30
0.0
 11
485.35890232830758
 21
538.74999999999989
 31
0.0
  0
LINE
  5
1998
  8
0
 62
     0
 10
622.85890232830752
 20
537.24999999999977
 30
0.0
 11
485.35890232830758
 21
537.24999999999977
 31
0.0
  0
LINE
  5
1999
  8
0
 62
     0
 10
622.85890232830752
 20
535.74999999999989
 30
0.0
 11
485.35890232830758
 21
535.74999999999989
 31
0.0
  0
LINE
  5
199A
  8
0
 62
     0
 10
622.85890232830752
 20
534.24999999999989
 30
0.0
 11
485.35890232830758
 21
534.24999999999989
 31
0.0
  0
LINE
  5
199B
  8
0
 62
     0
 10
622.85890232830752
 20
532.74999999999977
 30
0.0
 11
485.35890232830758
 21
532.74999999999977
 31
0.0
  0
LINE
  5
199C
  8
0
 62
     0
 10
622.85890232830752
 20
531.24999999999989
 30
0.0
 11
485.35890232830758
 21
531.24999999999989
 31
0.0
  0
LINE
  5
199D
  8
0
 62
     0
 10
622.85890232830695
 20
525.24999999999977
 30
0.0
 11
485.35890232830712
 21
525.24999999999977
 31
0.0
  0
LINE
  5
199E
  8
0
 62
     0
 10
622.85890232830695
 20
523.74999999999977
 30
0.0
 11
485.35890232830712
 21
523.74999999999977
 31
0.0
  0
LINE
  5
199F
  8
0
 62
     0
 10
622.85890232830695
 20
522.24999999999989
 30
0.0
 11
485.35890232830712
 21
522.24999999999989
 31
0.0
  0
LINE
  5
19A0
  8
0
 62
     0
 10
622.85890232830695
 20
520.74999999999977
 30
0.0
 11
485.35890232830712
 21
520.74999999999977
 31
0.0
  0
LINE
  5
19A1
  8
0
 62
     0
 10
622.85890232830695
 20
519.24999999999989
 30
0.0
 11
485.35890232830712
 21
519.24999999999989
 31
0.0
  0
LINE
  5
19A2
  8
0
 62
     0
 10
622.85890232830695
 20
517.74999999999989
 30
0.0
 11
485.35890232830712
 21
517.74999999999989
 31
0.0
  0
LINE
  5
19A3
  8
0
 62
     0
 10
622.85890232830695
 20
516.24999999999977
 30
0.0
 11
485.35890232830712
 21
516.24999999999977
 31
0.0
  0
LINE
  5
19A4
  8
0
 62
     0
 10
622.85890232830695
 20
514.74999999999989
 30
0.0
 11
485.35890232830712
 21
514.74999999999989
 31
0.0
  0
LINE
  5
19A5
  8
0
 62
     0
 10
622.85890232830695
 20
513.24999999999989
 30
0.0
 11
485.35890232830712
 21
513.24999999999989
 31
0.0
  0
LINE
  5
19A6
  8
0
 62
     0
 10
622.85890232830695
 20
511.74999999999989
 30
0.0
 11
485.35890232830701
 21
511.74999999999989
 31
0.0
  0
LINE
  5
19A7
  8
0
 62
     0
 10
622.85890232830695
 20
510.24999999999989
 30
0.0
 11
485.35890232830701
 21
510.24999999999989
 31
0.0
  0
LINE
  5
19A8
  8
0
 62
     0
 10
622.85890232830695
 20
508.74999999999989
 30
0.0
 11
485.35890232830701
 21
508.74999999999989
 31
0.0
  0
LINE
  5
19A9
  8
0
 62
     0
 10
622.85890232830695
 20
507.24999999999989
 30
0.0
 11
485.35890232830701
 21
507.24999999999989
 31
0.0
  0
LINE
  5
19AA
  8
0
 62
     0
 10
622.85890232830695
 20
505.74999999999989
 30
0.0
 11
485.35890232830701
 21
505.74999999999989
 31
0.0
  0
LINE
  5
19AB
  8
0
 62
     0
 10
622.85890232830695
 20
504.24999999999989
 30
0.0
 11
485.35890232830701
 21
504.24999999999989
 31
0.0
  0
LINE
  5
19AC
  8
0
 62
     0
 10
622.85890232830695
 20
502.74999999999989
 30
0.0
 11
485.35890232830701
 21
502.74999999999989
 31
0.0
  0
LINE
  5
19AD
  8
0
 62
     0
 10
622.85890232830695
 20
501.24999999999989
 30
0.0
 11
485.35890232830701
 21
501.24999999999989
 31
0.0
  0
LINE
  5
19AE
  8
0
 62
     0
 10
622.85890232830695
 20
499.74999999999989
 30
0.0
 11
485.35890232830701
 21
499.74999999999989
 31
0.0
  0
LINE
  5
19AF
  8
0
 62
     0
 10
622.85890232830695
 20
498.24999999999989
 30
0.0
 11
485.35890232830701
 21
498.24999999999989
 31
0.0
  0
LINE
  5
19B0
  8
0
 62
     0
 10
622.85890232830695
 20
496.74999999999989
 30
0.0
 11
485.35890232830701
 21
496.74999999999989
 31
0.0
  0
LINE
  5
19B1
  8
0
 62
     0
 10
622.85890232830695
 20
495.24999999999989
 30
0.0
 11
485.35890232830701
 21
495.24999999999989
 31
0.0
  0
LINE
  5
19B2
  8
0
 62
     0
 10
622.85890232830695
 20
493.74999999999989
 30
0.0
 11
485.35890232830701
 21
493.74999999999989
 31
0.0
  0
LINE
  5
19B3
  8
0
 62
     0
 10
622.85890232830695
 20
492.24999999999989
 30
0.0
 11
485.35890232830701
 21
492.24999999999989
 31
0.0
  0
LINE
  5
19B4
  8
0
 62
     0
 10
622.85890232830695
 20
490.74999999999989
 30
0.0
 11
485.35890232830701
 21
490.74999999999989
 31
0.0
  0
LINE
  5
19B5
  8
0
 62
     0
 10
622.85890232830695
 20
489.24999999999989
 30
0.0
 11
485.35890232830701
 21
489.24999999999989
 31
0.0
  0
LINE
  5
19B6
  8
0
 62
     0
 10
622.85890232830695
 20
487.74999999999989
 30
0.0
 11
485.35890232830701
 21
487.74999999999989
 31
0.0
  0
LINE
  5
19B7
  8
0
 62
     0
 10
622.85890232830695
 20
486.24999999999989
 30
0.0
 11
485.35890232830701
 21
486.24999999999989
 31
0.0
  0
LINE
  5
19B8
  8
0
 62
     0
 10
622.85890232830695
 20
484.74999999999989
 30
0.0
 11
485.35890232830701
 21
484.74999999999989
 31
0.0
  0
LINE
  5
19B9
  8
0
 62
     0
 10
622.85890232830695
 20
483.24999999999989
 30
0.0
 11
485.35890232830701
 21
483.24999999999989
 31
0.0
  0
LINE
  5
19BA
  8
0
 62
     0
 10
622.85890232830695
 20
481.74999999999989
 30
0.0
 11
485.35890232830701
 21
481.74999999999989
 31
0.0
  0
LINE
  5
19BB
  8
0
 62
     0
 10
622.85890232830695
 20
480.24999999999989
 30
0.0
 11
485.35890232830701
 21
480.24999999999989
 31
0.0
  0
LINE
  5
19BC
  8
0
 62
     0
 10
622.85890232830695
 20
478.74999999999989
 30
0.0
 11
485.35890232830701
 21
478.74999999999989
 31
0.0
  0
LINE
  5
19BD
  8
0
 62
     0
 10
622.85890232830695
 20
477.24999999999989
 30
0.0
 11
485.35890232830701
 21
477.24999999999989
 31
0.0
  0
LINE
  5
19BE
  8
0
 62
     0
 10
622.85890232830695
 20
475.74999999999989
 30
0.0
 11
485.35890232830701
 21
475.74999999999989
 31
0.0
  0
LINE
  5
19BF
  8
0
 62
     0
 10
622.85890232830695
 20
474.24999999999989
 30
0.0
 11
485.35890232830701
 21
474.24999999999989
 31
0.0
  0
LINE
  5
19C0
  8
0
 62
     0
 10
622.85890232830695
 20
472.74999999999989
 30
0.0
 11
485.35890232830701
 21
472.74999999999989
 31
0.0
  0
LINE
  5
19C1
  8
0
 62
     0
 10
622.85890232830695
 20
471.24999999999989
 30
0.0
 11
485.35890232830701
 21
471.24999999999989
 31
0.0
  0
LINE
  5
19C2
  8
0
 62
     0
 10
622.85890232830695
 20
469.74999999999989
 30
0.0
 11
485.35890232830701
 21
469.74999999999989
 31
0.0
  0
LINE
  5
19C3
  8
0
 62
     0
 10
622.85890232830695
 20
468.24999999999989
 30
0.0
 11
485.35890232830701
 21
468.24999999999989
 31
0.0
  0
LINE
  5
19C4
  8
0
 62
     0
 10
622.85890232830695
 20
466.74999999999989
 30
0.0
 11
485.35890232830701
 21
466.74999999999989
 31
0.0
  0
LINE
  5
19C5
  8
0
 62
     0
 10
622.85890232830695
 20
465.24999999999989
 30
0.0
 11
485.35890232830701
 21
465.24999999999989
 31
0.0
  0
LINE
  5
19C6
  8
0
 62
     0
 10
622.85890232830695
 20
463.74999999999989
 30
0.0
 11
485.35890232830701
 21
463.74999999999989
 31
0.0
  0
LINE
  5
19C7
  8
0
 62
     0
 10
622.85890232830695
 20
462.24999999999989
 30
0.0
 11
485.35890232830701
 21
462.24999999999989
 31
0.0
  0
LINE
  5
19C8
  8
0
 62
     0
 10
622.85890232830695
 20
460.74999999999989
 30
0.0
 11
485.35890232830701
 21
460.74999999999989
 31
0.0
  0
LINE
  5
19C9
  8
0
 62
     0
 10
622.85890232830695
 20
459.24999999999989
 30
0.0
 11
485.35890232830701
 21
459.24999999999989
 31
0.0
  0
LINE
  5
19CA
  8
0
 62
     0
 10
622.85890232830695
 20
457.74999999999989
 30
0.0
 11
485.35890232830701
 21
457.74999999999989
 31
0.0
  0
LINE
  5
19CB
  8
0
 62
     0
 10
622.85890232830695
 20
456.24999999999989
 30
0.0
 11
485.35890232830701
 21
456.24999999999989
 31
0.0
  0
LINE
  5
19CC
  8
0
 62
     0
 10
622.85890232830695
 20
454.74999999999989
 30
0.0
 11
485.35890232830701
 21
454.74999999999989
 31
0.0
  0
LINE
  5
19CD
  8
0
 62
     0
 10
622.85890232830695
 20
453.24999999999989
 30
0.0
 11
485.35890232830701
 21
453.24999999999989
 31
0.0
  0
LINE
  5
19CE
  8
0
 62
     0
 10
622.85890232830695
 20
451.74999999999989
 30
0.0
 11
485.35890232830701
 21
451.74999999999989
 31
0.0
  0
LINE
  5
19CF
  8
0
 62
     0
 10
622.85890232830695
 20
450.24999999999989
 30
0.0
 11
485.35890232830701
 21
450.24999999999989
 31
0.0
  0
LINE
  5
19D0
  8
0
 62
     0
 10
622.85890232830695
 20
448.74999999999989
 30
0.0
 11
485.35890232830701
 21
448.74999999999989
 31
0.0
  0
LINE
  5
19D1
  8
0
 62
     0
 10
622.85890232830695
 20
447.24999999999989
 30
0.0
 11
485.35890232830701
 21
447.24999999999989
 31
0.0
  0
LINE
  5
19D2
  8
0
 62
     0
 10
622.85890232830695
 20
445.74999999999989
 30
0.0
 11
485.35890232830701
 21
445.74999999999989
 31
0.0
  0
LINE
  5
19D3
  8
0
 62
     0
 10
622.85890232830695
 20
444.24999999999989
 30
0.0
 11
485.35890232830701
 21
444.24999999999989
 31
0.0
  0
LINE
  5
19D4
  8
0
 62
     0
 10
622.85890232830695
 20
442.74999999999989
 30
0.0
 11
485.35890232830701
 21
442.74999999999989
 31
0.0
  0
LINE
  5
19D5
  8
0
 62
     0
 10
622.85890232830695
 20
441.24999999999989
 30
0.0
 11
485.35890232830701
 21
441.24999999999989
 31
0.0
  0
LINE
  5
19D6
  8
0
 62
     0
 10
622.85890232830695
 20
439.74999999999989
 30
0.0
 11
485.35890232830701
 21
439.74999999999989
 31
0.0
  0
LINE
  5
19D7
  8
0
 62
     0
 10
622.85890232830695
 20
438.24999999999989
 30
0.0
 11
485.35890232830701
 21
438.24999999999989
 31
0.0
  0
LINE
  5
19D8
  8
0
 62
     0
 10
622.85890232830695
 20
436.74999999999989
 30
0.0
 11
485.35890232830701
 21
436.74999999999989
 31
0.0
  0
LINE
  5
19D9
  8
0
 62
     0
 10
622.85890232830695
 20
435.24999999999989
 30
0.0
 11
485.35890232830701
 21
435.24999999999989
 31
0.0
  0
LINE
  5
19DA
  8
0
 62
     0
 10
622.85890232830695
 20
433.74999999999989
 30
0.0
 11
485.35890232830701
 21
433.74999999999989
 31
0.0
  0
LINE
  5
19DB
  8
0
 62
     0
 10
622.85890232830695
 20
432.24999999999989
 30
0.0
 11
485.35890232830701
 21
432.24999999999989
 31
0.0
  0
LINE
  5
19DC
  8
0
 62
     0
 10
622.85890232830695
 20
430.74999999999989
 30
0.0
 11
485.35890232830701
 21
430.74999999999989
 31
0.0
  0
LINE
  5
19DD
  8
0
 62
     0
 10
622.85890232830695
 20
429.24999999999989
 30
0.0
 11
485.35890232830701
 21
429.24999999999989
 31
0.0
  0
LINE
  5
19DE
  8
0
 62
     0
 10
622.85890232830695
 20
427.74999999999989
 30
0.0
 11
485.35890232830701
 21
427.74999999999989
 31
0.0
  0
LINE
  5
19DF
  8
0
 62
     0
 10
622.85890232830695
 20
426.24999999999989
 30
0.0
 11
485.35890232830701
 21
426.24999999999989
 31
0.0
  0
LINE
  5
19E0
  8
0
 62
     0
 10
622.85890232830695
 20
424.74999999999989
 30
0.0
 11
485.35890232830701
 21
424.74999999999989
 31
0.0
  0
LINE
  5
19E1
  8
0
 62
     0
 10
622.85890232830684
 20
423.24999999999989
 30
0.0
 11
485.35890232830701
 21
423.24999999999989
 31
0.0
  0
LINE
  5
19E2
  8
0
 62
     0
 10
622.85890232830684
 20
421.74999999999989
 30
0.0
 11
485.35890232830701
 21
421.74999999999989
 31
0.0
  0
LINE
  5
19E3
  8
0
 62
     0
 10
622.85890232830684
 20
420.24999999999989
 30
0.0
 11
485.35890232830701
 21
420.24999999999989
 31
0.0
  0
LINE
  5
19E4
  8
0
 62
     0
 10
622.85890232830684
 20
418.74999999999989
 30
0.0
 11
485.35890232830701
 21
418.74999999999989
 31
0.0
  0
LINE
  5
19E5
  8
0
 62
     0
 10
622.85890232830684
 20
417.24999999999989
 30
0.0
 11
485.35890232830701
 21
417.24999999999989
 31
0.0
  0
LINE
  5
19E6
  8
0
 62
     0
 10
622.85890232830684
 20
415.74999999999989
 30
0.0
 11
485.35890232830701
 21
415.74999999999989
 31
0.0
  0
LINE
  5
19E7
  8
0
 62
     0
 10
622.85890232830684
 20
414.24999999999989
 30
0.0
 11
485.35890232830701
 21
414.24999999999989
 31
0.0
  0
LINE
  5
19E8
  8
0
 62
     0
 10
622.85890232830684
 20
412.74999999999989
 30
0.0
 11
485.35890232830701
 21
412.74999999999989
 31
0.0
  0
LINE
  5
19E9
  8
0
 62
     0
 10
622.85890232830684
 20
411.24999999999989
 30
0.0
 11
485.35890232830701
 21
411.24999999999989
 31
0.0
  0
LINE
  5
19EA
  8
0
 62
     0
 10
622.85890232830684
 20
409.74999999999989
 30
0.0
 11
485.35890232830701
 21
409.74999999999989
 31
0.0
  0
LINE
  5
19EB
  8
0
 62
     0
 10
622.85890232830684
 20
408.24999999999989
 30
0.0
 11
485.35890232830701
 21
408.24999999999989
 31
0.0
  0
LINE
  5
19EC
  8
0
 62
     0
 10
622.85890232830684
 20
406.74999999999989
 30
0.0
 11
485.35890232830701
 21
406.74999999999989
 31
0.0
  0
LINE
  5
19ED
  8
0
 62
     0
 10
622.85890232830684
 20
405.24999999999989
 30
0.0
 11
485.35890232830701
 21
405.24999999999989
 31
0.0
  0
LINE
  5
19EE
  8
0
 62
     0
 10
622.85890232830684
 20
403.74999999999989
 30
0.0
 11
485.35890232830701
 21
403.74999999999989
 31
0.0
  0
LINE
  5
19EF
  8
0
 62
     0
 10
622.85890232830684
 20
402.24999999999989
 30
0.0
 11
485.3589023283069
 21
402.24999999999989
 31
0.0
  0
LINE
  5
19F0
  8
0
 62
     0
 10
622.85890232830684
 20
400.74999999999989
 30
0.0
 11
485.3589023283069
 21
400.74999999999989
 31
0.0
  0
LINE
  5
19F1
  8
0
 62
     0
 10
622.85890232830684
 20
399.25
 30
0.0
 11
485.3589023283069
 21
399.25
 31
0.0
  0
LINE
  5
19F2
  8
0
 62
     0
 10
622.85890232830684
 20
397.75
 30
0.0
 11
485.3589023283069
 21
397.75
 31
0.0
  0
LINE
  5
19F3
  8
0
 62
     0
 10
622.85890232830684
 20
396.25
 30
0.0
 11
485.3589023283069
 21
396.25
 31
0.0
  0
LINE
  5
19F4
  8
0
 62
     0
 10
622.85890232830684
 20
394.74999999999989
 30
0.0
 11
485.3589023283069
 21
394.74999999999989
 31
0.0
  0
LINE
  5
19F5
  8
0
 62
     0
 10
622.85890232830684
 20
393.25
 30
0.0
 11
485.3589023283069
 21
393.25
 31
0.0
  0
LINE
  5
19F6
  8
0
 62
     0
 10
622.85890232830684
 20
391.75
 30
0.0
 11
485.3589023283069
 21
391.75
 31
0.0
  0
LINE
  5
19F7
  8
0
 62
     0
 10
622.85890232830684
 20
390.24999999999989
 30
0.0
 11
485.3589023283069
 21
390.24999999999989
 31
0.0
  0
LINE
  5
19F8
  8
0
 62
     0
 10
622.85890232830695
 20
384.24999999999989
 30
0.0
 11
485.35890232830701
 21
384.24999999999989
 31
0.0
  0
LINE
  5
19F9
  8
0
 62
     0
 10
622.85890232830695
 20
382.75
 30
0.0
 11
485.35890232830701
 21
382.75
 31
0.0
  0
LINE
  5
19FA
  8
0
 62
     0
 10
622.85890232830695
 20
381.25
 30
0.0
 11
485.35890232830701
 21
381.25
 31
0.0
  0
LINE
  5
19FB
  8
0
 62
     0
 10
622.85890232830695
 20
379.74999999999989
 30
0.0
 11
485.35890232830701
 21
379.74999999999989
 31
0.0
  0
LINE
  5
19FC
  8
0
 62
     0
 10
622.85890232830695
 20
378.24999999999989
 30
0.0
 11
485.35890232830701
 21
378.24999999999989
 31
0.0
  0
LINE
  5
19FD
  8
0
 62
     0
 10
622.85890232830695
 20
376.75
 30
0.0
 11
485.35890232830701
 21
376.75
 31
0.0
  0
LINE
  5
19FE
  8
0
 62
     0
 10
622.85890232830695
 20
375.24999999999989
 30
0.0
 11
485.35890232830701
 21
375.24999999999989
 31
0.0
  0
LINE
  5
19FF
  8
0
 62
     0
 10
622.85890232830695
 20
373.74999999999989
 30
0.0
 11
485.35890232830701
 21
373.74999999999989
 31
0.0
  0
LINE
  5
1A00
  8
0
 62
     0
 10
622.85890232830695
 20
372.25
 30
0.0
 11
485.35890232830701
 21
372.25
 31
0.0
  0
LINE
  5
1A01
  8
0
 62
     0
 10
622.85890232830695
 20
370.75
 30
0.0
 11
485.35890232830701
 21
370.75
 31
0.0
  0
LINE
  5
1A02
  8
0
 62
     0
 10
622.85890232830695
 20
369.24999999999989
 30
0.0
 11
485.35890232830701
 21
369.24999999999989
 31
0.0
  0
LINE
  5
1A03
  8
0
 62
     0
 10
622.85890232830695
 20
367.74999999999989
 30
0.0
 11
485.35890232830701
 21
367.74999999999989
 31
0.0
  0
LINE
  5
1A04
  8
0
 62
     0
 10
622.85890232830695
 20
366.25
 30
0.0
 11
485.35890232830701
 21
366.25
 31
0.0
  0
LINE
  5
1A05
  8
0
 62
     0
 10
622.85890232830695
 20
364.74999999999989
 30
0.0
 11
485.35890232830701
 21
364.74999999999989
 31
0.0
  0
LINE
  5
1A06
  8
0
 62
     0
 10
622.85890232830695
 20
363.24999999999989
 30
0.0
 11
485.35890232830701
 21
363.24999999999989
 31
0.0
  0
LINE
  5
1A07
  8
0
 62
     0
 10
622.85890232830695
 20
361.75
 30
0.0
 11
485.35890232830701
 21
361.75
 31
0.0
  0
LINE
  5
1A08
  8
0
 62
     0
 10
622.85890232830695
 20
360.25
 30
0.0
 11
485.35890232830701
 21
360.25
 31
0.0
  0
LINE
  5
1A09
  8
0
 62
     0
 10
622.85890232830695
 20
358.74999999999989
 30
0.0
 11
485.35890232830701
 21
358.74999999999989
 31
0.0
  0
LINE
  5
1A0A
  8
0
 62
     0
 10
622.85890232830695
 20
357.24999999999989
 30
0.0
 11
485.35890232830701
 21
357.24999999999989
 31
0.0
  0
LINE
  5
1A0B
  8
0
 62
     0
 10
622.85890232830695
 20
355.75
 30
0.0
 11
485.35890232830701
 21
355.75
 31
0.0
  0
LINE
  5
1A0C
  8
0
 62
     0
 10
622.85890232830695
 20
354.24999999999989
 30
0.0
 11
485.35890232830701
 21
354.24999999999989
 31
0.0
  0
LINE
  5
1A0D
  8
0
 62
     0
 10
622.85890232830695
 20
352.74999999999989
 30
0.0
 11
485.35890232830701
 21
352.74999999999989
 31
0.0
  0
LINE
  5
1A0E
  8
0
 62
     0
 10
622.85890232830695
 20
351.24999999999989
 30
0.0
 11
485.35890232830701
 21
351.24999999999989
 31
0.0
  0
LINE
  5
1A0F
  8
0
 62
     0
 10
622.85890232830695
 20
349.75
 30
0.0
 11
485.35890232830701
 21
349.75
 31
0.0
  0
LINE
  5
1A10
  8
0
 62
     0
 10
622.85890232830695
 20
348.24999999999989
 30
0.0
 11
485.35890232830701
 21
348.24999999999989
 31
0.0
  0
LINE
  5
1A11
  8
0
 62
     0
 10
622.85890232830695
 20
346.74999999999989
 30
0.0
 11
485.35890232830701
 21
346.74999999999989
 31
0.0
  0
LINE
  5
1A12
  8
0
 62
     0
 10
622.85890232830695
 20
345.25
 30
0.0
 11
485.35890232830701
 21
345.25
 31
0.0
  0
LINE
  5
1A13
  8
0
 62
     0
 10
622.85890232830695
 20
343.75
 30
0.0
 11
485.35890232830701
 21
343.75
 31
0.0
  0
LINE
  5
1A14
  8
0
 62
     0
 10
622.85890232830695
 20
342.24999999999989
 30
0.0
 11
485.35890232830701
 21
342.24999999999989
 31
0.0
  0
LINE
  5
1A15
  8
0
 62
     0
 10
622.85890232830695
 20
340.74999999999989
 30
0.0
 11
485.35890232830701
 21
340.74999999999989
 31
0.0
  0
LINE
  5
1A16
  8
0
 62
     0
 10
622.85890232830695
 20
339.25
 30
0.0
 11
485.35890232830701
 21
339.25
 31
0.0
  0
LINE
  5
1A17
  8
0
 62
     0
 10
622.85890232830695
 20
337.74999999999989
 30
0.0
 11
485.35890232830701
 21
337.74999999999989
 31
0.0
  0
LINE
  5
1A18
  8
0
 62
     0
 10
622.85890232830695
 20
336.24999999999989
 30
0.0
 11
485.35890232830701
 21
336.24999999999989
 31
0.0
  0
LINE
  5
1A19
  8
0
 62
     0
 10
622.85890232830695
 20
334.75
 30
0.0
 11
485.35890232830701
 21
334.75
 31
0.0
  0
LINE
  5
1A1A
  8
0
 62
     0
 10
622.85890232830695
 20
333.25
 30
0.0
 11
485.35890232830701
 21
333.25
 31
0.0
  0
LINE
  5
1A1B
  8
0
 62
     0
 10
622.85890232830695
 20
331.74999999999989
 30
0.0
 11
485.35890232830701
 21
331.74999999999989
 31
0.0
  0
LINE
  5
1A1C
  8
0
 62
     0
 10
622.85890232830695
 20
330.24999999999989
 30
0.0
 11
485.35890232830701
 21
330.24999999999989
 31
0.0
  0
LINE
  5
1A1D
  8
0
 62
     0
 10
622.85890232830695
 20
328.75
 30
0.0
 11
485.35890232830701
 21
328.75
 31
0.0
  0
LINE
  5
1A1E
  8
0
 62
     0
 10
622.85890232830695
 20
327.24999999999989
 30
0.0
 11
485.35890232830701
 21
327.24999999999989
 31
0.0
  0
LINE
  5
1A1F
  8
0
 62
     0
 10
622.85890232830695
 20
325.74999999999989
 30
0.0
 11
485.35890232830701
 21
325.74999999999989
 31
0.0
  0
LINE
  5
1A20
  8
0
 62
     0
 10
622.85890232830695
 20
324.25
 30
0.0
 11
485.35890232830701
 21
324.25
 31
0.0
  0
LINE
  5
1A21
  8
0
 62
     0
 10
622.85890232830695
 20
322.75
 30
0.0
 11
485.35890232830701
 21
322.75
 31
0.0
  0
LINE
  5
1A22
  8
0
 62
     0
 10
622.85890232830695
 20
321.24999999999989
 30
0.0
 11
485.35890232830701
 21
321.24999999999989
 31
0.0
  0
LINE
  5
1A23
  8
0
 62
     0
 10
622.85890232830695
 20
319.74999999999989
 30
0.0
 11
485.35890232830701
 21
319.74999999999989
 31
0.0
  0
LINE
  5
1A24
  8
0
 62
     0
 10
622.85890232830695
 20
318.25
 30
0.0
 11
485.35890232830701
 21
318.25
 31
0.0
  0
LINE
  5
1A25
  8
0
 62
     0
 10
622.85890232830684
 20
316.74999999999989
 30
0.0
 11
485.35890232830701
 21
316.74999999999989
 31
0.0
  0
LINE
  5
1A26
  8
0
 62
     0
 10
622.85890232830684
 20
315.24999999999989
 30
0.0
 11
485.35890232830701
 21
315.24999999999989
 31
0.0
  0
LINE
  5
1A27
  8
0
 62
     0
 10
622.85890232830684
 20
313.74999999999989
 30
0.0
 11
485.35890232830701
 21
313.74999999999989
 31
0.0
  0
LINE
  5
1A28
  8
0
 62
     0
 10
622.85890232830684
 20
312.25
 30
0.0
 11
485.35890232830701
 21
312.25
 31
0.0
  0
LINE
  5
1A29
  8
0
 62
     0
 10
622.85890232830684
 20
310.74999999999989
 30
0.0
 11
485.35890232830701
 21
310.74999999999989
 31
0.0
  0
LINE
  5
1A2A
  8
0
 62
     0
 10
622.85890232830684
 20
309.24999999999989
 30
0.0
 11
485.35890232830701
 21
309.24999999999989
 31
0.0
  0
LINE
  5
1A2B
  8
0
 62
     0
 10
622.85890232830684
 20
307.75
 30
0.0
 11
485.35890232830701
 21
307.75
 31
0.0
  0
LINE
  5
1A2C
  8
0
 62
     0
 10
622.85890232830684
 20
306.25
 30
0.0
 11
485.35890232830701
 21
306.25
 31
0.0
  0
LINE
  5
1A2D
  8
0
 62
     0
 10
622.85890232830684
 20
304.74999999999989
 30
0.0
 11
485.35890232830701
 21
304.74999999999989
 31
0.0
  0
LINE
  5
1A2E
  8
0
 62
     0
 10
622.85890232830684
 20
303.24999999999989
 30
0.0
 11
485.35890232830701
 21
303.24999999999989
 31
0.0
  0
LINE
  5
1A2F
  8
0
 62
     0
 10
622.85890232830684
 20
301.75
 30
0.0
 11
485.35890232830701
 21
301.75
 31
0.0
  0
LINE
  5
1A30
  8
0
 62
     0
 10
622.85890232830684
 20
300.24999999999989
 30
0.0
 11
485.35890232830701
 21
300.24999999999989
 31
0.0
  0
LINE
  5
1A31
  8
0
 62
     0
 10
622.85890232830684
 20
298.74999999999989
 30
0.0
 11
485.3589023283069
 21
298.74999999999989
 31
0.0
  0
LINE
  5
1A32
  8
0
 62
     0
 10
622.85890232830684
 20
297.25
 30
0.0
 11
485.3589023283069
 21
297.25
 31
0.0
  0
LINE
  5
1A33
  8
0
 62
     0
 10
622.85890232830684
 20
295.74999999999989
 30
0.0
 11
485.3589023283069
 21
295.74999999999989
 31
0.0
  0
LINE
  5
1A34
  8
0
 62
     0
 10
622.85890232830684
 20
294.24999999999989
 30
0.0
 11
485.3589023283069
 21
294.24999999999989
 31
0.0
  0
LINE
  5
1A35
  8
0
 62
     0
 10
622.85890232830684
 20
292.74999999999989
 30
0.0
 11
485.3589023283069
 21
292.74999999999989
 31
0.0
  0
LINE
  5
1A36
  8
0
 62
     0
 10
622.85890232830684
 20
291.25
 30
0.0
 11
485.3589023283069
 21
291.25
 31
0.0
  0
LINE
  5
1A37
  8
0
 62
     0
 10
622.85890232830684
 20
289.74999999999989
 30
0.0
 11
485.3589023283069
 21
289.74999999999989
 31
0.0
  0
LINE
  5
1A38
  8
0
 62
     0
 10
622.85890232830684
 20
288.24999999999989
 30
0.0
 11
485.3589023283069
 21
288.24999999999989
 31
0.0
  0
LINE
  5
1A39
  8
0
 62
     0
 10
622.85890232830684
 20
286.74999999999989
 30
0.0
 11
485.3589023283069
 21
286.74999999999989
 31
0.0
  0
LINE
  5
1A3A
  8
0
 62
     0
 10
622.85890232830684
 20
285.25
 30
0.0
 11
485.3589023283069
 21
285.25
 31
0.0
  0
LINE
  5
1A3B
  8
0
 62
     0
 10
622.85890232830684
 20
283.75
 30
0.0
 11
485.3589023283069
 21
283.75
 31
0.0
  0
LINE
  5
1A3C
  8
0
 62
     0
 10
622.85890232830684
 20
282.24999999999989
 30
0.0
 11
485.3589023283069
 21
282.24999999999989
 31
0.0
  0
LINE
  5
1A3D
  8
0
 62
     0
 10
622.85890232830684
 20
280.75
 30
0.0
 11
485.3589023283069
 21
280.75
 31
0.0
  0
LINE
  5
1A3E
  8
0
 62
     0
 10
622.85890232830684
 20
279.24999999999989
 30
0.0
 11
485.3589023283069
 21
279.24999999999989
 31
0.0
  0
LINE
  5
1A3F
  8
0
 62
     0
 10
622.85890232830684
 20
277.74999999999989
 30
0.0
 11
485.3589023283069
 21
277.74999999999989
 31
0.0
  0
LINE
  5
1A40
  8
0
 62
     0
 10
622.85890232830684
 20
276.24999999999989
 30
0.0
 11
485.3589023283069
 21
276.24999999999989
 31
0.0
  0
LINE
  5
1A41
  8
0
 62
     0
 10
622.85890232830684
 20
274.75
 30
0.0
 11
485.3589023283069
 21
274.75
 31
0.0
  0
LINE
  5
1A42
  8
0
 62
     0
 10
622.85890232830684
 20
273.24999999999989
 30
0.0
 11
485.3589023283069
 21
273.24999999999989
 31
0.0
  0
LINE
  5
1A43
  8
0
 62
     0
 10
622.85890232830684
 20
271.74999999999989
 30
0.0
 11
485.3589023283069
 21
271.74999999999989
 31
0.0
  0
LINE
  5
1A44
  8
0
 62
     0
 10
622.85890232830673
 20
270.25
 30
0.0
 11
485.3589023283069
 21
270.25
 31
0.0
  0
LINE
  5
1A45
  8
0
 62
     0
 10
622.85890232830673
 20
268.75
 30
0.0
 11
485.3589023283069
 21
268.75
 31
0.0
  0
LINE
  5
1A46
  8
0
 62
     0
 10
622.85890232830673
 20
267.24999999999989
 30
0.0
 11
485.3589023283069
 21
267.24999999999989
 31
0.0
  0
LINE
  5
1A47
  8
0
 62
     0
 10
622.85890232830673
 20
265.74999999999989
 30
0.0
 11
485.35890232830678
 21
265.74999999999989
 31
0.0
  0
LINE
  5
1A48
  8
0
 62
     0
 10
622.85890232830673
 20
264.25
 30
0.0
 11
485.35890232830678
 21
264.25
 31
0.0
  0
LINE
  5
1A49
  8
0
 62
     0
 10
622.85890232830673
 20
262.74999999999989
 30
0.0
 11
485.35890232830678
 21
262.74999999999989
 31
0.0
  0
LINE
  5
1A4A
  8
0
 62
     0
 10
622.85890232830673
 20
261.24999999999989
 30
0.0
 11
485.35890232830678
 21
261.24999999999989
 31
0.0
  0
LINE
  5
1A4B
  8
0
 62
     0
 10
622.85890232830673
 20
259.75
 30
0.0
 11
485.35890232830678
 21
259.75
 31
0.0
  0
LINE
  5
1A4C
  8
0
 62
     0
 10
622.85890232830673
 20
258.25
 30
0.0
 11
485.35890232830678
 21
258.25
 31
0.0
  0
LINE
  5
1A4D
  8
0
 62
     0
 10
622.85890232830673
 20
256.74999999999989
 30
0.0
 11
485.35890232830678
 21
256.74999999999989
 31
0.0
  0
LINE
  5
1A4E
  8
0
 62
     0
 10
622.85890232830673
 20
255.24999999999989
 30
0.0
 11
485.35890232830678
 21
255.24999999999989
 31
0.0
  0
LINE
  5
1A4F
  8
0
 62
     0
 10
622.85890232830673
 20
253.74999999999989
 30
0.0
 11
485.35890232830678
 21
253.75
 31
0.0
  0
LINE
  5
1A50
  8
0
 62
     0
 10
622.85890232830673
 20
252.24999999999989
 30
0.0
 11
485.35890232830678
 21
252.24999999999989
 31
0.0
  0
LINE
  5
1A51
  8
0
 62
     0
 10
622.85890232830673
 20
250.74999999999989
 30
0.0
 11
485.35890232830678
 21
250.74999999999989
 31
0.0
  0
LINE
  5
1A52
  8
0
 62
     0
 10
622.85890232830673
 20
249.24999999999989
 30
0.0
 11
485.35890232830678
 21
249.24999999999989
 31
0.0
  0
ENDBLK
  5
1A54
  8
0
  0
BLOCK
  8
0
  2
*X5
 70
     1
 10
0.0
 20
0.0
 30
0.0
  3
*X5
  1

  0
LINE
  5
1A56
  8
0
 62
     0
 10
1108.5
 20
4.0000045037580172
 30
0.0
 11
1108.5
 21
98.375004503758575
 31
0.0
  0
LINE
  5
1A57
  8
0
 62
     0
 10
1107.0
 20
4.0000045037580012
 30
0.0
 11
1107.0
 21
98.375004503758561
 31
0.0
  0
LINE
  5
1A58
  8
0
 62
     0
 10
1105.5
 20
4.0000045037579852
 30
0.0
 11
1105.5
 21
98.375004503758547
 31
0.0
  0
LINE
  5
1A59
  8
0
 62
     0
 10
1104.0
 20
4.0000045037579692
 30
0.0
 11
1104.0
 21
98.375004503758518
 31
0.0
  0
LINE
  5
1A5A
  8
0
 62
     0
 10
1102.5
 20
4.0000045037579532
 30
0.0
 11
1102.5
 21
98.375004503758504
 31
0.0
  0
LINE
  5
1A5B
  8
0
 62
     0
 10
1101.0
 20
4.0000045037579364
 30
0.0
 11
1101.0
 21
98.375004503758475
 31
0.0
  0
LINE
  5
1A5C
  8
0
 62
     0
 10
1099.5
 20
4.0000045037579204
 30
0.0
 11
1099.5
 21
98.375004503758475
 31
0.0
  0
LINE
  5
1A5D
  8
0
 62
     0
 10
1098.0
 20
4.0000045037579044
 30
0.0
 11
1098.0
 21
98.375004503758475
 31
0.0
  0
LINE
  5
1A5E
  8
0
 62
     0
 10
1096.5
 20
4.0000045037578884
 30
0.0
 11
1096.5
 21
98.375004503758447
 31
0.0
  0
LINE
  5
1A5F
  8
0
 62
     0
 10
1069.5
 20
4.0000045037576069
 30
0.0
 11
1069.5
 21
98.375004503758163
 31
0.0
  0
LINE
  5
1A60
  8
0
 62
     0
 10
1068.0
 20
4.0000045037575926
 30
0.0
 11
1068.0
 21
98.375004503758149
 31
0.0
  0
LINE
  5
1A61
  8
0
 62
     0
 10
1066.5
 20
4.0000045037575784
 30
0.0
 11
1066.5
 21
98.375004503758134
 31
0.0
  0
LINE
  5
1A62
  8
0
 62
     0
 10
1065.0
 20
4.0000045037575642
 30
0.0
 11
1065.0
 21
98.375004503758134
 31
0.0
  0
LINE
  5
1A63
  8
0
 62
     0
 10
1063.5
 20
4.0000045037575491
 30
0.0
 11
1063.5
 21
98.375004503758092
 31
0.0
  0
LINE
  5
1A64
  8
0
 62
     0
 10
1062.0
 20
4.000004503757534
 30
0.0
 11
1062.0
 21
98.375004503758078
 31
0.0
  0
LINE
  5
1A65
  8
0
 62
     0
 10
1060.5
 20
4.0000045037575189
 30
0.0
 11
1060.5
 21
98.375004503758063
 31
0.0
  0
LINE
  5
1A66
  8
0
 62
     0
 10
1059.0
 20
4.0000045037575047
 30
0.0
 11
1059.0
 21
98.375004503758063
 31
0.0
  0
LINE
  5
1A67
  8
0
 62
     0
 10
1057.5
 20
4.0000045037574896
 30
0.0
 11
1057.5
 21
98.375004503758035
 31
0.0
  0
LINE
  5
1A68
  8
0
 62
     0
 10
1056.0
 20
4.0000045037574763
 30
0.0
 11
1056.0
 21
98.375004503758021
 31
0.0
  0
LINE
  5
1A69
  8
0
 62
     0
 10
1054.5
 20
4.0000045037574612
 30
0.0
 11
1054.5
 21
98.375004503758007
 31
0.0
  0
LINE
  5
1A6A
  8
0
 62
     0
 10
1027.5
 20
4.0000045037571672
 30
0.0
 11
1027.5
 21
98.375004503757722
 31
0.0
  0
LINE
  5
1A6B
  8
0
 62
     0
 10
1026.0
 20
4.0000045037571521
 30
0.0
 11
1026.0
 21
98.375004503757694
 31
0.0
  0
LINE
  5
1A6C
  8
0
 62
     0
 10
1024.5
 20
4.000004503757137
 30
0.0
 11
1024.5
 21
98.375004503757694
 31
0.0
  0
LINE
  5
1A6D
  8
0
 62
     0
 10
1023.0
 20
4.0000045037571228
 30
0.0
 11
1023.0
 21
98.375004503757694
 31
0.0
  0
LINE
  5
1A6E
  8
0
 62
     0
 10
1021.5
 20
4.0000045037571077
 30
0.0
 11
1021.5
 21
98.375004503757651
 31
0.0
  0
LINE
  5
1A6F
  8
0
 62
     0
 10
1020.0
 20
4.0000045037570944
 30
0.0
 11
1020.0
 21
98.375004503757637
 31
0.0
  0
LINE
  5
1A70
  8
0
 62
     0
 10
1018.5
 20
4.0000045037570793
 30
0.0
 11
1018.5
 21
98.375004503757637
 31
0.0
  0
LINE
  5
1A71
  8
0
 62
     0
 10
1017.0
 20
4.0000045037570651
 30
0.0
 11
1017.0
 21
98.375004503757609
 31
0.0
  0
LINE
  5
1A72
  8
0
 62
     0
 10
1015.5
 20
4.0000045037570491
 30
0.0
 11
1015.5
 21
98.375004503757594
 31
0.0
  0
LINE
  5
1A73
  8
0
 62
     0
 10
1014.0
 20
4.0000045037570349
 30
0.0
 11
1014.0
 21
98.37500450375758
 31
0.0
  0
LINE
  5
1A74
  8
0
 62
     0
 10
1012.5
 20
4.0000045037570198
 30
0.0
 11
1012.5
 21
98.375004503757566
 31
0.0
  0
LINE
  5
1A75
  8
0
 62
     0
 10
985.5
 20
4.0000045037567551
 30
0.0
 11
985.5
 21
98.375004503757282
 31
0.0
  0
LINE
  5
1A76
  8
0
 62
     0
 10
984.0
 20
4.0000045037567391
 30
0.0
 11
984.0
 21
98.375004503757282
 31
0.0
  0
LINE
  5
1A77
  8
0
 62
     0
 10
982.50000000000011
 20
4.0000045037567231
 30
0.0
 11
982.50000000000011
 21
98.375004503757253
 31
0.0
  0
LINE
  5
1A78
  8
0
 62
     0
 10
981.0
 20
4.0000045037567071
 30
0.0
 11
981.0
 21
98.375004503757239
 31
0.0
  0
LINE
  5
1A79
  8
0
 62
     0
 10
979.49999999999989
 20
4.0000045037566911
 30
0.0
 11
979.49999999999989
 21
98.375004503757211
 31
0.0
  0
LINE
  5
1A7A
  8
0
 62
     0
 10
978.0
 20
4.0000045037566743
 30
0.0
 11
978.0
 21
98.375004503757211
 31
0.0
  0
LINE
  5
1A7B
  8
0
 62
     0
 10
976.5
 20
4.0000045037566583
 30
0.0
 11
976.5
 21
98.375004503757197
 31
0.0
  0
LINE
  5
1A7C
  8
0
 62
     0
 10
975.0
 20
4.0000045037566423
 30
0.0
 11
975.0
 21
98.375004503757168
 31
0.0
  0
LINE
  5
1A7D
  8
0
 62
     0
 10
973.49999999999989
 20
4.0000045037566263
 30
0.0
 11
973.49999999999989
 21
98.375004503757154
 31
0.0
  0
LINE
  5
1A7E
  8
0
 62
     0
 10
967.5
 20
4.0000045037580136
 30
0.0
 11
967.5
 21
98.375004503758575
 31
0.0
  0
LINE
  5
1A7F
  8
0
 62
     0
 10
966.0
 20
4.0000045037579977
 30
0.0
 11
966.0
 21
98.375004503758561
 31
0.0
  0
LINE
  5
1A80
  8
0
 62
     0
 10
964.49999999999989
 20
4.0000045037579817
 30
0.0
 11
964.49999999999989
 21
98.375004503758547
 31
0.0
  0
LINE
  5
1A81
  8
0
 62
     0
 10
963.0
 20
4.0000045037579657
 30
0.0
 11
963.0
 21
98.375004503758518
 31
0.0
  0
LINE
  5
1A82
  8
0
 62
     0
 10
961.5
 20
4.0000045037579497
 30
0.0
 11
961.5
 21
98.375004503758504
 31
0.0
  0
LINE
  5
1A83
  8
0
 62
     0
 10
960.0
 20
4.0000045037579328
 30
0.0
 11
960.0
 21
98.375004503758475
 31
0.0
  0
LINE
  5
1A84
  8
0
 62
     0
 10
958.5
 20
4.0000045037579168
 30
0.0
 11
958.5
 21
98.375004503758475
 31
0.0
  0
LINE
  5
1A85
  8
0
 62
     0
 10
957.0
 20
4.0000045037579008
 30
0.0
 11
957.0
 21
98.375004503758475
 31
0.0
  0
LINE
  5
1A86
  8
0
 62
     0
 10
955.49999999999989
 20
4.0000045037578849
 30
0.0
 11
955.49999999999989
 21
98.375004503758447
 31
0.0
  0
LINE
  5
1A87
  8
0
 62
     0
 10
928.5
 20
4.0000045037576051
 30
0.0
 11
928.5
 21
98.375004503758163
 31
0.0
  0
LINE
  5
1A88
  8
0
 62
     0
 10
927.0
 20
4.00000450375759
 30
0.0
 11
927.0
 21
98.375004503758149
 31
0.0
  0
LINE
  5
1A89
  8
0
 62
     0
 10
925.5
 20
4.0000045037575749
 30
0.0
 11
925.5
 21
98.375004503758134
 31
0.0
  0
LINE
  5
1A8A
  8
0
 62
     0
 10
924.0
 20
4.0000045037575607
 30
0.0
 11
924.0
 21
98.375004503758106
 31
0.0
  0
LINE
  5
1A8B
  8
0
 62
     0
 10
922.49999999999989
 20
4.0000045037575456
 30
0.0
 11
922.49999999999989
 21
98.375004503758092
 31
0.0
  0
LINE
  5
1A8C
  8
0
 62
     0
 10
921.0
 20
4.0000045037575322
 30
0.0
 11
921.0
 21
98.375004503758078
 31
0.0
  0
LINE
  5
1A8D
  8
0
 62
     0
 10
919.5
 20
4.0000045037575171
 30
0.0
 11
919.5
 21
98.375004503758063
 31
0.0
  0
LINE
  5
1A8E
  8
0
 62
     0
 10
918.0
 20
4.0000045037575021
 30
0.0
 11
918.0
 21
98.375004503758063
 31
0.0
  0
LINE
  5
1A8F
  8
0
 62
     0
 10
916.5
 20
4.000004503757487
 30
0.0
 11
916.5
 21
98.375004503758035
 31
0.0
  0
LINE
  5
1A90
  8
0
 62
     0
 10
915.0
 20
4.0000045037574727
 30
0.0
 11
915.0
 21
98.375004503758021
 31
0.0
  0
LINE
  5
1A91
  8
0
 62
     0
 10
913.49999999999989
 20
4.0000045037574576
 30
0.0
 11
913.49999999999989
 21
98.375004503758007
 31
0.0
  0
LINE
  5
1A92
  8
0
 62
     0
 10
886.5
 20
4.0000045037571637
 30
0.0
 11
886.5
 21
98.375004503757722
 31
0.0
  0
LINE
  5
1A93
  8
0
 62
     0
 10
885.0
 20
4.0000045037571503
 30
0.0
 11
885.0
 21
98.375004503757694
 31
0.0
  0
LINE
  5
1A94
  8
0
 62
     0
 10
883.5
 20
4.0000045037571352
 30
0.0
 11
883.5
 21
98.375004503757694
 31
0.0
  0
LINE
  5
1A95
  8
0
 62
     0
 10
882.0
 20
4.000004503757121
 30
0.0
 11
882.0
 21
98.375004503757665
 31
0.0
  0
LINE
  5
1A96
  8
0
 62
     0
 10
880.49999999999989
 20
4.000004503757105
 30
0.0
 11
880.49999999999989
 21
98.375004503757651
 31
0.0
  0
LINE
  5
1A97
  8
0
 62
     0
 10
879.0
 20
4.0000045037570908
 30
0.0
 11
879.0
 21
98.375004503757637
 31
0.0
  0
LINE
  5
1A98
  8
0
 62
     0
 10
877.5
 20
4.0000045037570757
 30
0.0
 11
877.5
 21
98.375004503757637
 31
0.0
  0
LINE
  5
1A99
  8
0
 62
     0
 10
876.0
 20
4.0000045037570624
 30
0.0
 11
876.0
 21
98.375004503757609
 31
0.0
  0
LINE
  5
1A9A
  8
0
 62
     0
 10
874.5
 20
4.0000045037570473
 30
0.0
 11
874.5
 21
98.375004503757594
 31
0.0
  0
LINE
  5
1A9B
  8
0
 62
     0
 10
873.0
 20
4.0000045037570331
 30
0.0
 11
873.0
 21
98.37500450375758
 31
0.0
  0
LINE
  5
1A9C
  8
0
 62
     0
 10
871.49999999999989
 20
4.0000045037570171
 30
0.0
 11
871.49999999999989
 21
98.375004503757566
 31
0.0
  0
LINE
  5
1A9D
  8
0
 62
     0
 10
844.5
 20
4.0000045037567524
 30
0.0
 11
844.5
 21
98.375004503757282
 31
0.0
  0
LINE
  5
1A9E
  8
0
 62
     0
 10
843.0
 20
4.0000045037567364
 30
0.0
 11
843.0
 21
98.375004503757282
 31
0.0
  0
LINE
  5
1A9F
  8
0
 62
     0
 10
841.5
 20
4.0000045037567196
 30
0.0
 11
841.5
 21
98.375004503757239
 31
0.0
  0
LINE
  5
1AA0
  8
0
 62
     0
 10
840.0
 20
4.0000045037567036
 30
0.0
 11
840.0
 21
98.375004503757225
 31
0.0
  0
LINE
  5
1AA1
  8
0
 62
     0
 10
838.49999999999989
 20
4.0000045037566876
 30
0.0
 11
838.49999999999989
 21
98.375004503757211
 31
0.0
  0
LINE
  5
1AA2
  8
0
 62
     0
 10
837.0
 20
4.0000045037566707
 30
0.0
 11
837.0
 21
98.375004503757211
 31
0.0
  0
LINE
  5
1AA3
  8
0
 62
     0
 10
835.5
 20
4.0000045037566547
 30
0.0
 11
835.5
 21
98.375004503757197
 31
0.0
  0
LINE
  5
1AA4
  8
0
 62
     0
 10
834.0
 20
4.0000045037566387
 30
0.0
 11
834.0
 21
98.375004503757168
 31
0.0
  0
LINE
  5
1AA5
  8
0
 62
     0
 10
832.49999999999989
 20
4.0000045037566228
 30
0.0
 11
832.49999999999989
 21
98.375004503757154
 31
0.0
  0
LINE
  5
1AA6
  8
0
 62
     0
 10
826.5
 20
4.000004503758011
 30
0.0
 11
826.5
 21
98.375004503758561
 31
0.0
  0
LINE
  5
1AA7
  8
0
 62
     0
 10
825.0
 20
4.000004503757995
 30
0.0
 11
825.0
 21
98.375004503758561
 31
0.0
  0
LINE
  5
1AA8
  8
0
 62
     0
 10
823.49999999999989
 20
4.000004503757979
 30
0.0
 11
823.49999999999989
 21
98.375004503758547
 31
0.0
  0
LINE
  5
1AA9
  8
0
 62
     0
 10
822.0
 20
4.000004503757963
 30
0.0
 11
822.0
 21
98.375004503758518
 31
0.0
  0
LINE
  5
1AAA
  8
0
 62
     0
 10
820.5
 20
4.000004503757947
 30
0.0
 11
820.5
 21
98.375004503758504
 31
0.0
  0
LINE
  5
1AAB
  8
0
 62
     0
 10
819.0
 20
4.000004503757931
 30
0.0
 11
819.0
 21
98.375004503758475
 31
0.0
  0
LINE
  5
1AAC
  8
0
 62
     0
 10
817.5
 20
4.0000045037579151
 30
0.0
 11
817.5
 21
98.375004503758475
 31
0.0
  0
LINE
  5
1AAD
  8
0
 62
     0
 10
816.0
 20
4.0000045037578991
 30
0.0
 11
816.0
 21
98.375004503758447
 31
0.0
  0
LINE
  5
1AAE
  8
0
 62
     0
 10
814.49999999999989
 20
4.0000045037578831
 30
0.0
 11
814.49999999999989
 21
98.375004503758433
 31
0.0
  0
LINE
  5
1AAF
  8
0
 62
     0
 10
787.5
 20
4.0000045037576033
 30
0.0
 11
787.5
 21
98.375004503758163
 31
0.0
  0
LINE
  5
1AB0
  8
0
 62
     0
 10
786.0
 20
4.0000045037575882
 30
0.0
 11
786.0
 21
98.375004503758134
 31
0.0
  0
LINE
  5
1AB1
  8
0
 62
     0
 10
784.49999999999989
 20
4.0000045037575731
 30
0.0
 11
784.49999999999989
 21
98.375004503758134
 31
0.0
  0
LINE
  5
1AB2
  8
0
 62
     0
 10
783.0
 20
4.000004503757558
 30
0.0
 11
783.0
 21
98.375004503758106
 31
0.0
  0
LINE
  5
1AB3
  8
0
 62
     0
 10
781.5
 20
4.0000045037575438
 30
0.0
 11
781.5
 21
98.375004503758092
 31
0.0
  0
LINE
  5
1AB4
  8
0
 62
     0
 10
780.0
 20
4.0000045037575287
 30
0.0
 11
780.0
 21
98.375004503758078
 31
0.0
  0
LINE
  5
1AB5
  8
0
 62
     0
 10
778.5
 20
4.0000045037575154
 30
0.0
 11
778.5
 21
98.375004503758063
 31
0.0
  0
LINE
  5
1AB6
  8
0
 62
     0
 10
777.0
 20
4.0000045037575003
 30
0.0
 11
777.0
 21
98.375004503758063
 31
0.0
  0
LINE
  5
1AB7
  8
0
 62
     0
 10
775.49999999999989
 20
4.0000045037574861
 30
0.0
 11
775.49999999999989
 21
98.375004503758035
 31
0.0
  0
LINE
  5
1AB8
  8
0
 62
     0
 10
774.0
 20
4.0000045037574701
 30
0.0
 11
774.0
 21
98.375004503758007
 31
0.0
  0
LINE
  5
1AB9
  8
0
 62
     0
 10
772.5
 20
4.0000045037574559
 30
0.0
 11
772.5
 21
98.375004503757992
 31
0.0
  0
LINE
  5
1ABA
  8
0
 62
     0
 10
745.5
 20
4.0000045037571761
 30
0.0
 11
745.5
 21
98.375004503757694
 31
0.0
  0
LINE
  5
1ABB
  8
0
 62
     0
 10
744.0
 20
4.0000045037571601
 30
0.0
 11
744.0
 21
98.375004503757694
 31
0.0
  0
LINE
  5
1ABC
  8
0
 62
     0
 10
742.49999999999989
 20
4.0000045037571441
 30
0.0
 11
742.49999999999989
 21
98.375004503757694
 31
0.0
  0
LINE
  5
1ABD
  8
0
 62
     0
 10
741.0
 20
4.0000045037571281
 30
0.0
 11
741.0
 21
98.375004503757665
 31
0.0
  0
LINE
  5
1ABE
  8
0
 62
     0
 10
739.5
 20
4.0000045037571121
 30
0.0
 11
739.5
 21
98.375004503757637
 31
0.0
  0
LINE
  5
1ABF
  8
0
 62
     0
 10
738.0
 20
4.0000045037570962
 30
0.0
 11
738.0
 21
98.375004503757637
 31
0.0
  0
LINE
  5
1AC0
  8
0
 62
     0
 10
736.5
 20
4.0000045037570802
 30
0.0
 11
736.5
 21
98.375004503757609
 31
0.0
  0
LINE
  5
1AC1
  8
0
 62
     0
 10
735.0
 20
4.0000045037570642
 30
0.0
 11
735.0
 21
98.375004503757594
 31
0.0
  0
LINE
  5
1AC2
  8
0
 62
     0
 10
733.49999999999989
 20
4.0000045037570482
 30
0.0
 11
733.49999999999989
 21
98.37500450375758
 31
0.0
  0
LINE
  5
1AC3
  8
0
 62
     0
 10
732.0
 20
4.0000045037570322
 30
0.0
 11
732.0
 21
98.375004503757566
 31
0.0
  0
LINE
  5
1AC4
  8
0
 62
     0
 10
730.49999999999989
 20
4.0000045037570162
 30
0.0
 11
730.49999999999989
 21
98.375004503757566
 31
0.0
  0
LINE
  5
1AC5
  8
0
 62
     0
 10
703.5
 20
4.0000045037567489
 30
0.0
 11
703.5
 21
98.375004503757282
 31
0.0
  0
LINE
  5
1AC6
  8
0
 62
     0
 10
702.0
 20
4.0000045037567329
 30
0.0
 11
702.0
 21
98.375004503757253
 31
0.0
  0
LINE
  5
1AC7
  8
0
 62
     0
 10
700.49999999999989
 20
4.0000045037567169
 30
0.0
 11
700.49999999999989
 21
98.375004503757239
 31
0.0
  0
LINE
  5
1AC8
  8
0
 62
     0
 10
699.0
 20
4.0000045037567009
 30
0.0
 11
699.0
 21
98.375004503757225
 31
0.0
  0
LINE
  5
1AC9
  8
0
 62
     0
 10
697.5
 20
4.0000045037566849
 30
0.0
 11
697.5
 21
98.375004503757211
 31
0.0
  0
LINE
  5
1ACA
  8
0
 62
     0
 10
696.0
 20
4.0000045037566681
 30
0.0
 11
696.0
 21
98.375004503757211
 31
0.0
  0
LINE
  5
1ACB
  8
0
 62
     0
 10
694.5
 20
4.0000045037566521
 30
0.0
 11
694.5
 21
98.375004503757197
 31
0.0
  0
LINE
  5
1ACC
  8
0
 62
     0
 10
693.0
 20
4.0000045037566361
 30
0.0
 11
693.0
 21
98.375004503757168
 31
0.0
  0
LINE
  5
1ACD
  8
0
 62
     0
 10
691.5
 20
4.0000045037566201
 30
0.0
 11
691.5
 21
98.375004503757154
 31
0.0
  0
LINE
  5
1ACE
  8
0
 62
     0
 10
912.82318418770285
 20
4.5
 30
0.0
 11
928.83969824162762
 21
4.5
 31
0.0
  0
LINE
  5
1ACF
  8
0
 62
     0
 10
870.83069858695637
 20
4.5
 30
0.0
 11
886.82792055812945
 21
4.5
 31
0.0
  0
LINE
  5
1AD0
  8
0
 62
     0
 10
954.82271390372546
 20
4.5
 30
0.0
 11
968.08069858695694
 21
4.5
 31
0.0
  0
LINE
  5
1AD1
  8
0
 62
     0
 10
831.58069858695694
 20
4.5
 30
0.0
 11
844.83069858695546
 21
4.5
 31
0.0
  0
LINE
  5
1AD2
  8
0
 62
     0
 10
972.33069858695387
 20
4.5
 30
0.0
 11
985.58069858695274
 21
4.5
 31
0.0
  0
LINE
  5
1AD3
  8
0
 62
     0
 10
814.07271390372273
 20
4.5
 30
0.0
 11
827.33069858695399
 21
4.5
 31
0.0
  0
LINE
  5
1AD4
  8
0
 62
     0
 10
1011.580698586953
 20
4.5
 30
0.0
 11
1027.5779205581271
 21
4.5
 31
0.0
  0
LINE
  5
1AD5
  8
0
 62
     0
 10
772.07318418770012
 20
4.5
 30
0.0
 11
788.089698241625
 21
4.5
 31
0.0
  0
LINE
  5
1AD6
  8
0
 62
     0
 10
1053.5731841877
 20
4.5
 30
0.0
 11
1069.589698241625
 21
4.5
 31
0.0
  0
LINE
  5
1AD7
  8
0
 62
     0
 10
730.08069858695364
 20
4.5
 30
0.0
 11
746.07792055812695
 21
4.5
 31
0.0
  0
LINE
  5
1AD8
  8
0
 62
     0
 10
1095.5727139037219
 20
4.5
 30
0.0
 11
1108.830698586954
 21
4.5
 31
0.0
  0
LINE
  5
1AD9
  8
0
 62
     0
 10
690.83069858695399
 20
4.5
 30
0.0
 11
704.08069858695274
 21
4.5
 31
0.0
  0
LINE
  5
1ADA
  8
0
 62
     0
 10
912.82318418770285
 20
6.0
 30
0.0
 11
928.83969824162762
 21
6.0
 31
0.0
  0
LINE
  5
1ADB
  8
0
 62
     0
 10
870.83069858695637
 20
6.0
 30
0.0
 11
886.82792055812945
 21
6.0
 31
0.0
  0
LINE
  5
1ADC
  8
0
 62
     0
 10
954.82271390372546
 20
6.0
 30
0.0
 11
968.08069858695694
 21
6.0
 31
0.0
  0
LINE
  5
1ADD
  8
0
 62
     0
 10
831.58069858695694
 20
6.0
 30
0.0
 11
844.83069858695546
 21
6.0
 31
0.0
  0
LINE
  5
1ADE
  8
0
 62
     0
 10
972.33069858695387
 20
6.0
 30
0.0
 11
985.58069858695274
 21
6.0
 31
0.0
  0
LINE
  5
1ADF
  8
0
 62
     0
 10
814.07271390372273
 20
6.0
 30
0.0
 11
827.33069858695399
 21
6.0
 31
0.0
  0
LINE
  5
1AE0
  8
0
 62
     0
 10
1011.580698586953
 20
6.0
 30
0.0
 11
1027.5779205581271
 21
6.0
 31
0.0
  0
LINE
  5
1AE1
  8
0
 62
     0
 10
772.07318418770012
 20
6.0
 30
0.0
 11
788.089698241625
 21
6.0
 31
0.0
  0
LINE
  5
1AE2
  8
0
 62
     0
 10
1053.5731841877
 20
6.0
 30
0.0
 11
1069.589698241625
 21
6.0
 31
0.0
  0
LINE
  5
1AE3
  8
0
 62
     0
 10
730.08069858695364
 20
6.0
 30
0.0
 11
746.07792055812695
 21
6.0
 31
0.0
  0
LINE
  5
1AE4
  8
0
 62
     0
 10
1095.5727139037219
 20
6.0
 30
0.0
 11
1108.830698586954
 21
6.0
 31
0.0
  0
LINE
  5
1AE5
  8
0
 62
     0
 10
690.83069858695399
 20
6.0
 30
0.0
 11
704.08069858695274
 21
6.0
 31
0.0
  0
LINE
  5
1AE6
  8
0
 62
     0
 10
912.82318418770285
 20
7.5
 30
0.0
 11
928.83969824162762
 21
7.5
 31
0.0
  0
LINE
  5
1AE7
  8
0
 62
     0
 10
870.83069858695637
 20
7.5
 30
0.0
 11
886.82792055812945
 21
7.5
 31
0.0
  0
LINE
  5
1AE8
  8
0
 62
     0
 10
954.82271390372546
 20
7.5
 30
0.0
 11
968.08069858695694
 21
7.5
 31
0.0
  0
LINE
  5
1AE9
  8
0
 62
     0
 10
831.58069858695694
 20
7.5
 30
0.0
 11
844.83069858695546
 21
7.5
 31
0.0
  0
LINE
  5
1AEA
  8
0
 62
     0
 10
972.33069858695387
 20
7.5
 30
0.0
 11
985.58069858695274
 21
7.5
 31
0.0
  0
LINE
  5
1AEB
  8
0
 62
     0
 10
814.07271390372273
 20
7.5
 30
0.0
 11
827.33069858695399
 21
7.5
 31
0.0
  0
LINE
  5
1AEC
  8
0
 62
     0
 10
1011.580698586953
 20
7.5
 30
0.0
 11
1027.5779205581271
 21
7.5
 31
0.0
  0
LINE
  5
1AED
  8
0
 62
     0
 10
772.07318418770012
 20
7.5
 30
0.0
 11
788.089698241625
 21
7.5
 31
0.0
  0
LINE
  5
1AEE
  8
0
 62
     0
 10
1053.5731841877
 20
7.5
 30
0.0
 11
1069.589698241625
 21
7.5
 31
0.0
  0
LINE
  5
1AEF
  8
0
 62
     0
 10
730.08069858695364
 20
7.5
 30
0.0
 11
746.07792055812695
 21
7.5
 31
0.0
  0
LINE
  5
1AF0
  8
0
 62
     0
 10
1095.5727139037219
 20
7.5
 30
0.0
 11
1108.830698586954
 21
7.5
 31
0.0
  0
LINE
  5
1AF1
  8
0
 62
     0
 10
690.83069858695399
 20
7.5
 30
0.0
 11
704.08069858695274
 21
7.5
 31
0.0
  0
LINE
  5
1AF2
  8
0
 62
     0
 10
912.82318418770285
 20
9.0
 30
0.0
 11
928.83969824162762
 21
9.0
 31
0.0
  0
LINE
  5
1AF3
  8
0
 62
     0
 10
870.83069858695637
 20
9.0
 30
0.0
 11
886.82792055812945
 21
9.0
 31
0.0
  0
LINE
  5
1AF4
  8
0
 62
     0
 10
954.82271390372546
 20
9.0
 30
0.0
 11
968.08069858695694
 21
9.0
 31
0.0
  0
LINE
  5
1AF5
  8
0
 62
     0
 10
831.58069858695694
 20
9.0
 30
0.0
 11
844.83069858695546
 21
9.0
 31
0.0
  0
LINE
  5
1AF6
  8
0
 62
     0
 10
972.33069858695387
 20
9.0
 30
0.0
 11
985.58069858695274
 21
9.0
 31
0.0
  0
LINE
  5
1AF7
  8
0
 62
     0
 10
814.07271390372273
 20
9.0
 30
0.0
 11
827.33069858695399
 21
9.0
 31
0.0
  0
LINE
  5
1AF8
  8
0
 62
     0
 10
1011.580698586953
 20
9.0
 30
0.0
 11
1027.5779205581271
 21
9.0
 31
0.0
  0
LINE
  5
1AF9
  8
0
 62
     0
 10
772.07318418770012
 20
9.0
 30
0.0
 11
788.089698241625
 21
9.0
 31
0.0
  0
LINE
  5
1AFA
  8
0
 62
     0
 10
1053.5731841877
 20
9.0
 30
0.0
 11
1069.589698241625
 21
9.0
 31
0.0
  0
LINE
  5
1AFB
  8
0
 62
     0
 10
730.08069858695364
 20
9.0
 30
0.0
 11
746.07792055812695
 21
9.0
 31
0.0
  0
LINE
  5
1AFC
  8
0
 62
     0
 10
1095.5727139037219
 20
9.0
 30
0.0
 11
1108.830698586954
 21
9.0
 31
0.0
  0
LINE
  5
1AFD
  8
0
 62
     0
 10
690.83069858695399
 20
9.0
 30
0.0
 11
704.08069858695274
 21
9.0
 31
0.0
  0
LINE
  5
1AFE
  8
0
 62
     0
 10
912.82318418770285
 20
10.5
 30
0.0
 11
928.83969824162762
 21
10.5
 31
0.0
  0
LINE
  5
1AFF
  8
0
 62
     0
 10
870.83069858695637
 20
10.5
 30
0.0
 11
886.82792055812945
 21
10.5
 31
0.0
  0
LINE
  5
1B00
  8
0
 62
     0
 10
954.82271390372546
 20
10.5
 30
0.0
 11
968.08069858695671
 21
10.5
 31
0.0
  0
LINE
  5
1B01
  8
0
 62
     0
 10
831.58069858695671
 20
10.5
 30
0.0
 11
844.83069858695546
 21
10.5
 31
0.0
  0
LINE
  5
1B02
  8
0
 62
     0
 10
972.33069858695387
 20
10.5
 30
0.0
 11
985.58069858695274
 21
10.5
 31
0.0
  0
LINE
  5
1B03
  8
0
 62
     0
 10
814.07271390372273
 20
10.5
 30
0.0
 11
827.33069858695376
 21
10.5
 31
0.0
  0
LINE
  5
1B04
  8
0
 62
     0
 10
1011.580698586953
 20
10.5
 30
0.0
 11
1027.5779205581271
 21
10.5
 31
0.0
  0
LINE
  5
1B05
  8
0
 62
     0
 10
772.07318418770012
 20
10.5
 30
0.0
 11
788.089698241625
 21
10.5
 31
0.0
  0
LINE
  5
1B06
  8
0
 62
     0
 10
1053.5731841877
 20
10.5
 30
0.0
 11
1069.589698241625
 21
10.5
 31
0.0
  0
LINE
  5
1B07
  8
0
 62
     0
 10
730.08069858695364
 20
10.5
 30
0.0
 11
746.07792055812695
 21
10.5
 31
0.0
  0
LINE
  5
1B08
  8
0
 62
     0
 10
1095.5727139037219
 20
10.5
 30
0.0
 11
1108.830698586954
 21
10.5
 31
0.0
  0
LINE
  5
1B09
  8
0
 62
     0
 10
690.83069858695376
 20
10.5
 30
0.0
 11
704.08069858695274
 21
10.5
 31
0.0
  0
LINE
  5
1B0A
  8
0
 62
     0
 10
912.82318418770285
 20
12.0
 30
0.0
 11
928.83969824162762
 21
12.0
 31
0.0
  0
LINE
  5
1B0B
  8
0
 62
     0
 10
870.83069858695637
 20
12.0
 30
0.0
 11
886.82792055812945
 21
12.0
 31
0.0
  0
LINE
  5
1B0C
  8
0
 62
     0
 10
954.82271390372546
 20
12.0
 30
0.0
 11
968.08069858695671
 21
12.0
 31
0.0
  0
LINE
  5
1B0D
  8
0
 62
     0
 10
831.58069858695671
 20
12.0
 30
0.0
 11
844.83069858695546
 21
12.0
 31
0.0
  0
LINE
  5
1B0E
  8
0
 62
     0
 10
972.33069858695387
 20
12.0
 30
0.0
 11
985.58069858695274
 21
12.0
 31
0.0
  0
LINE
  5
1B0F
  8
0
 62
     0
 10
814.07271390372273
 20
12.0
 30
0.0
 11
827.33069858695376
 21
12.0
 31
0.0
  0
LINE
  5
1B10
  8
0
 62
     0
 10
1011.580698586953
 20
12.0
 30
0.0
 11
1027.5779205581271
 21
12.0
 31
0.0
  0
LINE
  5
1B11
  8
0
 62
     0
 10
772.07318418770012
 20
12.0
 30
0.0
 11
788.089698241625
 21
12.0
 31
0.0
  0
LINE
  5
1B12
  8
0
 62
     0
 10
1053.5731841877
 20
12.0
 30
0.0
 11
1069.589698241625
 21
12.0
 31
0.0
  0
LINE
  5
1B13
  8
0
 62
     0
 10
730.08069858695364
 20
12.0
 30
0.0
 11
746.07792055812695
 21
12.0
 31
0.0
  0
LINE
  5
1B14
  8
0
 62
     0
 10
1095.5727139037219
 20
12.0
 30
0.0
 11
1108.830698586954
 21
12.0
 31
0.0
  0
LINE
  5
1B15
  8
0
 62
     0
 10
690.83069858695376
 20
12.0
 30
0.0
 11
704.08069858695274
 21
12.0
 31
0.0
  0
LINE
  5
1B16
  8
0
 62
     0
 10
912.82318418770285
 20
13.5
 30
0.0
 11
928.83969824162762
 21
13.5
 31
0.0
  0
LINE
  5
1B17
  8
0
 62
     0
 10
870.83069858695637
 20
13.5
 30
0.0
 11
886.82792055812945
 21
13.5
 31
0.0
  0
LINE
  5
1B18
  8
0
 62
     0
 10
954.82271390372546
 20
13.5
 30
0.0
 11
968.08069858695671
 21
13.5
 31
0.0
  0
LINE
  5
1B19
  8
0
 62
     0
 10
831.58069858695671
 20
13.5
 30
0.0
 11
844.83069858695546
 21
13.5
 31
0.0
  0
LINE
  5
1B1A
  8
0
 62
     0
 10
972.33069858695387
 20
13.5
 30
0.0
 11
985.58069858695274
 21
13.5
 31
0.0
  0
LINE
  5
1B1B
  8
0
 62
     0
 10
814.07271390372273
 20
13.5
 30
0.0
 11
827.33069858695376
 21
13.5
 31
0.0
  0
LINE
  5
1B1C
  8
0
 62
     0
 10
1011.580698586953
 20
13.5
 30
0.0
 11
1027.5779205581271
 21
13.5
 31
0.0
  0
LINE
  5
1B1D
  8
0
 62
     0
 10
772.07318418770012
 20
13.5
 30
0.0
 11
788.089698241625
 21
13.5
 31
0.0
  0
LINE
  5
1B1E
  8
0
 62
     0
 10
1053.5731841877
 20
13.5
 30
0.0
 11
1069.589698241625
 21
13.5
 31
0.0
  0
LINE
  5
1B1F
  8
0
 62
     0
 10
730.08069858695364
 20
13.5
 30
0.0
 11
746.07792055812695
 21
13.5
 31
0.0
  0
LINE
  5
1B20
  8
0
 62
     0
 10
1095.5727139037219
 20
13.5
 30
0.0
 11
1108.830698586954
 21
13.5
 31
0.0
  0
LINE
  5
1B21
  8
0
 62
     0
 10
690.83069858695376
 20
13.5
 30
0.0
 11
704.08069858695274
 21
13.5
 31
0.0
  0
LINE
  5
1B22
  8
0
 62
     0
 10
912.82318418770285
 20
15.0
 30
0.0
 11
928.83969824162762
 21
15.0
 31
0.0
  0
LINE
  5
1B23
  8
0
 62
     0
 10
870.83069858695637
 20
15.0
 30
0.0
 11
886.82792055812945
 21
15.0
 31
0.0
  0
LINE
  5
1B24
  8
0
 62
     0
 10
954.82271390372546
 20
15.0
 30
0.0
 11
968.08069858695671
 21
15.0
 31
0.0
  0
LINE
  5
1B25
  8
0
 62
     0
 10
831.58069858695671
 20
15.0
 30
0.0
 11
844.83069858695546
 21
15.0
 31
0.0
  0
LINE
  5
1B26
  8
0
 62
     0
 10
972.33069858695387
 20
15.0
 30
0.0
 11
985.58069858695274
 21
15.0
 31
0.0
  0
LINE
  5
1B27
  8
0
 62
     0
 10
814.07271390372273
 20
15.0
 30
0.0
 11
827.33069858695376
 21
15.0
 31
0.0
  0
LINE
  5
1B28
  8
0
 62
     0
 10
1011.580698586953
 20
15.0
 30
0.0
 11
1027.5779205581271
 21
15.0
 31
0.0
  0
LINE
  5
1B29
  8
0
 62
     0
 10
772.07318418770012
 20
15.0
 30
0.0
 11
788.089698241625
 21
15.0
 31
0.0
  0
LINE
  5
1B2A
  8
0
 62
     0
 10
1053.5731841877
 20
15.0
 30
0.0
 11
1069.589698241625
 21
15.0
 31
0.0
  0
LINE
  5
1B2B
  8
0
 62
     0
 10
730.08069858695364
 20
15.0
 30
0.0
 11
746.07792055812695
 21
15.0
 31
0.0
  0
LINE
  5
1B2C
  8
0
 62
     0
 10
1095.5727139037219
 20
15.0
 30
0.0
 11
1108.830698586954
 21
15.0
 31
0.0
  0
LINE
  5
1B2D
  8
0
 62
     0
 10
690.83069858695376
 20
15.0
 30
0.0
 11
704.08069858695274
 21
15.0
 31
0.0
  0
LINE
  5
1B2E
  8
0
 62
     0
 10
912.82318418770285
 20
16.5
 30
0.0
 11
928.83969824162762
 21
16.5
 31
0.0
  0
LINE
  5
1B2F
  8
0
 62
     0
 10
870.83069858695637
 20
16.5
 30
0.0
 11
886.82792055812945
 21
16.5
 31
0.0
  0
LINE
  5
1B30
  8
0
 62
     0
 10
954.82271390372546
 20
16.5
 30
0.0
 11
968.08069858695671
 21
16.5
 31
0.0
  0
LINE
  5
1B31
  8
0
 62
     0
 10
831.58069858695671
 20
16.5
 30
0.0
 11
844.83069858695546
 21
16.5
 31
0.0
  0
LINE
  5
1B32
  8
0
 62
     0
 10
972.33069858695387
 20
16.5
 30
0.0
 11
985.58069858695274
 21
16.5
 31
0.0
  0
LINE
  5
1B33
  8
0
 62
     0
 10
814.07271390372273
 20
16.5
 30
0.0
 11
827.33069858695376
 21
16.5
 31
0.0
  0
LINE
  5
1B34
  8
0
 62
     0
 10
1011.580698586953
 20
16.5
 30
0.0
 11
1027.5779205581271
 21
16.5
 31
0.0
  0
LINE
  5
1B35
  8
0
 62
     0
 10
772.07318418770012
 20
16.5
 30
0.0
 11
788.089698241625
 21
16.5
 31
0.0
  0
LINE
  5
1B36
  8
0
 62
     0
 10
1053.5731841877
 20
16.5
 30
0.0
 11
1069.589698241625
 21
16.5
 31
0.0
  0
LINE
  5
1B37
  8
0
 62
     0
 10
730.08069858695364
 20
16.5
 30
0.0
 11
746.07792055812695
 21
16.5
 31
0.0
  0
LINE
  5
1B38
  8
0
 62
     0
 10
1095.5727139037219
 20
16.5
 30
0.0
 11
1108.830698586954
 21
16.5
 31
0.0
  0
LINE
  5
1B39
  8
0
 62
     0
 10
690.83069858695376
 20
16.5
 30
0.0
 11
704.08069858695274
 21
16.5
 31
0.0
  0
LINE
  5
1B3A
  8
0
 62
     0
 10
912.82318418770285
 20
18.0
 30
0.0
 11
928.83969824162762
 21
18.0
 31
0.0
  0
LINE
  5
1B3B
  8
0
 62
     0
 10
870.83069858695637
 20
18.0
 30
0.0
 11
886.82792055812945
 21
18.0
 31
0.0
  0
LINE
  5
1B3C
  8
0
 62
     0
 10
954.82271390372546
 20
18.0
 30
0.0
 11
968.08069858695671
 21
18.0
 31
0.0
  0
LINE
  5
1B3D
  8
0
 62
     0
 10
831.58069858695671
 20
18.0
 30
0.0
 11
844.83069858695546
 21
18.0
 31
0.0
  0
LINE
  5
1B3E
  8
0
 62
     0
 10
972.33069858695387
 20
18.0
 30
0.0
 11
985.58069858695274
 21
18.0
 31
0.0
  0
LINE
  5
1B3F
  8
0
 62
     0
 10
814.07271390372273
 20
18.0
 30
0.0
 11
827.33069858695376
 21
18.0
 31
0.0
  0
LINE
  5
1B40
  8
0
 62
     0
 10
1011.580698586953
 20
18.0
 30
0.0
 11
1027.5779205581271
 21
18.0
 31
0.0
  0
LINE
  5
1B41
  8
0
 62
     0
 10
772.07318418770012
 20
18.0
 30
0.0
 11
788.089698241625
 21
18.0
 31
0.0
  0
LINE
  5
1B42
  8
0
 62
     0
 10
1053.5731841877
 20
18.0
 30
0.0
 11
1069.589698241625
 21
18.0
 31
0.0
  0
LINE
  5
1B43
  8
0
 62
     0
 10
730.08069858695364
 20
18.0
 30
0.0
 11
746.07792055812695
 21
18.0
 31
0.0
  0
LINE
  5
1B44
  8
0
 62
     0
 10
1095.5727139037219
 20
18.0
 30
0.0
 11
1108.830698586954
 21
18.0
 31
0.0
  0
LINE
  5
1B45
  8
0
 62
     0
 10
690.83069858695376
 20
18.0
 30
0.0
 11
704.08069858695274
 21
18.0
 31
0.0
  0
LINE
  5
1B46
  8
0
 62
     0
 10
912.82318418770285
 20
19.5
 30
0.0
 11
928.83969824162762
 21
19.5
 31
0.0
  0
LINE
  5
1B47
  8
0
 62
     0
 10
870.83069858695637
 20
19.5
 30
0.0
 11
886.82792055812945
 21
19.5
 31
0.0
  0
LINE
  5
1B48
  8
0
 62
     0
 10
954.82271390372546
 20
19.5
 30
0.0
 11
968.08069858695671
 21
19.5
 31
0.0
  0
LINE
  5
1B49
  8
0
 62
     0
 10
831.58069858695671
 20
19.5
 30
0.0
 11
844.83069858695546
 21
19.5
 31
0.0
  0
LINE
  5
1B4A
  8
0
 62
     0
 10
972.33069858695387
 20
19.5
 30
0.0
 11
985.58069858695274
 21
19.5
 31
0.0
  0
LINE
  5
1B4B
  8
0
 62
     0
 10
814.07271390372273
 20
19.5
 30
0.0
 11
827.33069858695376
 21
19.5
 31
0.0
  0
LINE
  5
1B4C
  8
0
 62
     0
 10
1011.580698586953
 20
19.5
 30
0.0
 11
1027.5779205581271
 21
19.5
 31
0.0
  0
LINE
  5
1B4D
  8
0
 62
     0
 10
772.07318418770012
 20
19.5
 30
0.0
 11
788.089698241625
 21
19.5
 31
0.0
  0
LINE
  5
1B4E
  8
0
 62
     0
 10
1053.5731841877
 20
19.5
 30
0.0
 11
1069.589698241625
 21
19.5
 31
0.0
  0
LINE
  5
1B4F
  8
0
 62
     0
 10
730.08069858695364
 20
19.5
 30
0.0
 11
746.07792055812695
 21
19.5
 31
0.0
  0
LINE
  5
1B50
  8
0
 62
     0
 10
1095.5727139037219
 20
19.5
 30
0.0
 11
1108.830698586954
 21
19.5
 31
0.0
  0
LINE
  5
1B51
  8
0
 62
     0
 10
690.83069858695376
 20
19.5
 30
0.0
 11
704.08069858695274
 21
19.5
 31
0.0
  0
LINE
  5
1B52
  8
0
 62
     0
 10
912.82318418770285
 20
21.0
 30
0.0
 11
928.83969824162762
 21
21.0
 31
0.0
  0
LINE
  5
1B53
  8
0
 62
     0
 10
870.83069858695637
 20
21.0
 30
0.0
 11
886.82792055812945
 21
21.0
 31
0.0
  0
LINE
  5
1B54
  8
0
 62
     0
 10
954.82271390372546
 20
21.0
 30
0.0
 11
968.08069858695671
 21
21.0
 31
0.0
  0
LINE
  5
1B55
  8
0
 62
     0
 10
831.58069858695671
 20
21.0
 30
0.0
 11
844.83069858695546
 21
21.0
 31
0.0
  0
LINE
  5
1B56
  8
0
 62
     0
 10
972.33069858695376
 20
21.0
 30
0.0
 11
985.58069858695274
 21
21.0
 31
0.0
  0
LINE
  5
1B57
  8
0
 62
     0
 10
814.07271390372273
 20
21.0
 30
0.0
 11
827.33069858695364
 21
21.0
 31
0.0
  0
LINE
  5
1B58
  8
0
 62
     0
 10
1011.580698586953
 20
21.0
 30
0.0
 11
1027.5779205581271
 21
21.0
 31
0.0
  0
LINE
  5
1B59
  8
0
 62
     0
 10
772.07318418770012
 20
21.0
 30
0.0
 11
788.089698241625
 21
21.0
 31
0.0
  0
LINE
  5
1B5A
  8
0
 62
     0
 10
1053.5731841877
 20
21.0
 30
0.0
 11
1069.589698241625
 21
21.0
 31
0.0
  0
LINE
  5
1B5B
  8
0
 62
     0
 10
730.08069858695364
 20
21.0
 30
0.0
 11
746.07792055812695
 21
21.0
 31
0.0
  0
LINE
  5
1B5C
  8
0
 62
     0
 10
1095.5727139037219
 20
21.0
 30
0.0
 11
1108.830698586954
 21
21.0
 31
0.0
  0
LINE
  5
1B5D
  8
0
 62
     0
 10
690.83069858695364
 20
21.0
 30
0.0
 11
704.08069858695274
 21
21.0
 31
0.0
  0
LINE
  5
1B5E
  8
0
 62
     0
 10
912.82318418770285
 20
22.5
 30
0.0
 11
928.83969824162762
 21
22.5
 31
0.0
  0
LINE
  5
1B5F
  8
0
 62
     0
 10
870.83069858695637
 20
22.5
 30
0.0
 11
886.82792055812945
 21
22.5
 31
0.0
  0
LINE
  5
1B60
  8
0
 62
     0
 10
954.82271390372546
 20
22.5
 30
0.0
 11
968.08069858695671
 21
22.5
 31
0.0
  0
LINE
  5
1B61
  8
0
 62
     0
 10
831.58069858695671
 20
22.5
 30
0.0
 11
844.83069858695546
 21
22.5
 31
0.0
  0
LINE
  5
1B62
  8
0
 62
     0
 10
972.33069858695376
 20
22.5
 30
0.0
 11
985.58069858695274
 21
22.5
 31
0.0
  0
LINE
  5
1B63
  8
0
 62
     0
 10
814.07271390372273
 20
22.5
 30
0.0
 11
827.33069858695364
 21
22.5
 31
0.0
  0
LINE
  5
1B64
  8
0
 62
     0
 10
1011.580698586953
 20
22.5
 30
0.0
 11
1027.5779205581271
 21
22.5
 31
0.0
  0
LINE
  5
1B65
  8
0
 62
     0
 10
772.07318418770012
 20
22.5
 30
0.0
 11
788.089698241625
 21
22.5
 31
0.0
  0
LINE
  5
1B66
  8
0
 62
     0
 10
1053.5731841877
 20
22.5
 30
0.0
 11
1069.589698241625
 21
22.5
 31
0.0
  0
LINE
  5
1B67
  8
0
 62
     0
 10
730.08069858695364
 20
22.5
 30
0.0
 11
746.07792055812695
 21
22.5
 31
0.0
  0
LINE
  5
1B68
  8
0
 62
     0
 10
1095.5727139037219
 20
22.5
 30
0.0
 11
1108.830698586954
 21
22.5
 31
0.0
  0
LINE
  5
1B69
  8
0
 62
     0
 10
690.83069858695364
 20
22.5
 30
0.0
 11
704.08069858695274
 21
22.5
 31
0.0
  0
LINE
  5
1B6A
  8
0
 62
     0
 10
912.82318418770285
 20
24.0
 30
0.0
 11
928.83969824162762
 21
24.0
 31
0.0
  0
LINE
  5
1B6B
  8
0
 62
     0
 10
870.83069858695637
 20
24.0
 30
0.0
 11
886.82792055812945
 21
24.0
 31
0.0
  0
LINE
  5
1B6C
  8
0
 62
     0
 10
954.82271390372546
 20
24.0
 30
0.0
 11
968.08069858695671
 21
24.0
 31
0.0
  0
LINE
  5
1B6D
  8
0
 62
     0
 10
831.58069858695671
 20
24.0
 30
0.0
 11
844.83069858695546
 21
24.0
 31
0.0
  0
LINE
  5
1B6E
  8
0
 62
     0
 10
972.33069858695376
 20
24.0
 30
0.0
 11
985.58069858695274
 21
24.0
 31
0.0
  0
LINE
  5
1B6F
  8
0
 62
     0
 10
814.07271390372273
 20
24.0
 30
0.0
 11
827.33069858695364
 21
24.0
 31
0.0
  0
LINE
  5
1B70
  8
0
 62
     0
 10
1011.580698586953
 20
24.0
 30
0.0
 11
1027.5779205581271
 21
24.0
 31
0.0
  0
LINE
  5
1B71
  8
0
 62
     0
 10
772.07318418770012
 20
24.0
 30
0.0
 11
788.089698241625
 21
24.0
 31
0.0
  0
LINE
  5
1B72
  8
0
 62
     0
 10
1053.5731841877
 20
24.0
 30
0.0
 11
1069.589698241625
 21
24.0
 31
0.0
  0
LINE
  5
1B73
  8
0
 62
     0
 10
730.08069858695364
 20
24.0
 30
0.0
 11
746.07792055812695
 21
24.0
 31
0.0
  0
LINE
  5
1B74
  8
0
 62
     0
 10
1095.5727139037219
 20
24.0
 30
0.0
 11
1108.830698586954
 21
24.0
 31
0.0
  0
LINE
  5
1B75
  8
0
 62
     0
 10
690.83069858695364
 20
24.0
 30
0.0
 11
704.08069858695274
 21
24.0
 31
0.0
  0
LINE
  5
1B76
  8
0
 62
     0
 10
912.82318418770285
 20
25.5
 30
0.0
 11
928.83969824162762
 21
25.5
 31
0.0
  0
LINE
  5
1B77
  8
0
 62
     0
 10
870.83069858695637
 20
25.5
 30
0.0
 11
886.82792055812945
 21
25.5
 31
0.0
  0
LINE
  5
1B78
  8
0
 62
     0
 10
954.82271390372546
 20
25.5
 30
0.0
 11
968.08069858695671
 21
25.5
 31
0.0
  0
LINE
  5
1B79
  8
0
 62
     0
 10
831.58069858695671
 20
25.5
 30
0.0
 11
844.83069858695546
 21
25.5
 31
0.0
  0
LINE
  5
1B7A
  8
0
 62
     0
 10
972.33069858695376
 20
25.5
 30
0.0
 11
985.58069858695274
 21
25.5
 31
0.0
  0
LINE
  5
1B7B
  8
0
 62
     0
 10
814.07271390372273
 20
25.5
 30
0.0
 11
827.33069858695364
 21
25.5
 31
0.0
  0
LINE
  5
1B7C
  8
0
 62
     0
 10
1011.580698586953
 20
25.5
 30
0.0
 11
1027.5779205581271
 21
25.5
 31
0.0
  0
LINE
  5
1B7D
  8
0
 62
     0
 10
772.07318418770012
 20
25.5
 30
0.0
 11
788.089698241625
 21
25.5
 31
0.0
  0
LINE
  5
1B7E
  8
0
 62
     0
 10
1053.5731841877
 20
25.5
 30
0.0
 11
1069.589698241625
 21
25.5
 31
0.0
  0
LINE
  5
1B7F
  8
0
 62
     0
 10
730.08069858695364
 20
25.5
 30
0.0
 11
746.07792055812695
 21
25.5
 31
0.0
  0
LINE
  5
1B80
  8
0
 62
     0
 10
1095.5727139037219
 20
25.5
 30
0.0
 11
1108.830698586954
 21
25.5
 31
0.0
  0
LINE
  5
1B81
  8
0
 62
     0
 10
690.83069858695364
 20
25.5
 30
0.0
 11
704.08069858695274
 21
25.5
 31
0.0
  0
LINE
  5
1B82
  8
0
 62
     0
 10
912.82318418770285
 20
27.0
 30
0.0
 11
928.83969824162762
 21
27.0
 31
0.0
  0
LINE
  5
1B83
  8
0
 62
     0
 10
870.83069858695637
 20
27.0
 30
0.0
 11
886.82792055812945
 21
27.0
 31
0.0
  0
LINE
  5
1B84
  8
0
 62
     0
 10
954.82271390372546
 20
27.0
 30
0.0
 11
968.08069858695671
 21
27.0
 31
0.0
  0
LINE
  5
1B85
  8
0
 62
     0
 10
831.58069858695671
 20
27.0
 30
0.0
 11
844.83069858695546
 21
27.0
 31
0.0
  0
LINE
  5
1B86
  8
0
 62
     0
 10
972.33069858695376
 20
27.0
 30
0.0
 11
985.58069858695274
 21
27.0
 31
0.0
  0
LINE
  5
1B87
  8
0
 62
     0
 10
814.07271390372273
 20
27.0
 30
0.0
 11
827.33069858695364
 21
27.0
 31
0.0
  0
LINE
  5
1B88
  8
0
 62
     0
 10
1011.580698586953
 20
27.0
 30
0.0
 11
1027.5779205581271
 21
27.0
 31
0.0
  0
LINE
  5
1B89
  8
0
 62
     0
 10
772.07318418770012
 20
27.0
 30
0.0
 11
788.089698241625
 21
27.0
 31
0.0
  0
LINE
  5
1B8A
  8
0
 62
     0
 10
1053.5731841877
 20
27.0
 30
0.0
 11
1069.589698241625
 21
27.0
 31
0.0
  0
LINE
  5
1B8B
  8
0
 62
     0
 10
730.08069858695364
 20
27.0
 30
0.0
 11
746.07792055812695
 21
27.0
 31
0.0
  0
LINE
  5
1B8C
  8
0
 62
     0
 10
1095.5727139037219
 20
27.0
 30
0.0
 11
1108.830698586954
 21
27.0
 31
0.0
  0
LINE
  5
1B8D
  8
0
 62
     0
 10
690.83069858695364
 20
27.0
 30
0.0
 11
704.08069858695274
 21
27.0
 31
0.0
  0
LINE
  5
1B8E
  8
0
 62
     0
 10
912.82318418770285
 20
28.5
 30
0.0
 11
928.83969824162762
 21
28.5
 31
0.0
  0
LINE
  5
1B8F
  8
0
 62
     0
 10
870.83069858695637
 20
28.5
 30
0.0
 11
886.82792055812945
 21
28.5
 31
0.0
  0
LINE
  5
1B90
  8
0
 62
     0
 10
954.82271390372546
 20
28.5
 30
0.0
 11
968.08069858695671
 21
28.5
 31
0.0
  0
LINE
  5
1B91
  8
0
 62
     0
 10
831.58069858695671
 20
28.5
 30
0.0
 11
844.83069858695546
 21
28.5
 31
0.0
  0
LINE
  5
1B92
  8
0
 62
     0
 10
972.33069858695376
 20
28.5
 30
0.0
 11
985.58069858695274
 21
28.5
 31
0.0
  0
LINE
  5
1B93
  8
0
 62
     0
 10
814.07271390372273
 20
28.5
 30
0.0
 11
827.33069858695364
 21
28.5
 31
0.0
  0
LINE
  5
1B94
  8
0
 62
     0
 10
1011.580698586953
 20
28.5
 30
0.0
 11
1027.5779205581271
 21
28.5
 31
0.0
  0
LINE
  5
1B95
  8
0
 62
     0
 10
772.07318418770012
 20
28.5
 30
0.0
 11
788.089698241625
 21
28.5
 31
0.0
  0
LINE
  5
1B96
  8
0
 62
     0
 10
1053.5731841877
 20
28.5
 30
0.0
 11
1069.589698241625
 21
28.5
 31
0.0
  0
LINE
  5
1B97
  8
0
 62
     0
 10
730.08069858695364
 20
28.5
 30
0.0
 11
746.07792055812695
 21
28.5
 31
0.0
  0
LINE
  5
1B98
  8
0
 62
     0
 10
1095.5727139037219
 20
28.5
 30
0.0
 11
1108.830698586954
 21
28.5
 31
0.0
  0
LINE
  5
1B99
  8
0
 62
     0
 10
690.83069858695364
 20
28.5
 30
0.0
 11
704.08069858695274
 21
28.5
 31
0.0
  0
LINE
  5
1B9A
  8
0
 62
     0
 10
912.82318418770285
 20
30.0
 30
0.0
 11
928.83969824162762
 21
30.0
 31
0.0
  0
LINE
  5
1B9B
  8
0
 62
     0
 10
870.83069858695637
 20
30.0
 30
0.0
 11
886.82792055812945
 21
30.0
 31
0.0
  0
LINE
  5
1B9C
  8
0
 62
     0
 10
954.82271390372546
 20
30.0
 30
0.0
 11
968.08069858695671
 21
30.0
 31
0.0
  0
LINE
  5
1B9D
  8
0
 62
     0
 10
831.58069858695671
 20
30.0
 30
0.0
 11
844.83069858695546
 21
30.0
 31
0.0
  0
LINE
  5
1B9E
  8
0
 62
     0
 10
972.33069858695376
 20
30.0
 30
0.0
 11
985.58069858695274
 21
30.0
 31
0.0
  0
LINE
  5
1B9F
  8
0
 62
     0
 10
814.07271390372273
 20
30.0
 30
0.0
 11
827.33069858695364
 21
30.0
 31
0.0
  0
LINE
  5
1BA0
  8
0
 62
     0
 10
1011.580698586953
 20
30.0
 30
0.0
 11
1027.5779205581271
 21
30.0
 31
0.0
  0
LINE
  5
1BA1
  8
0
 62
     0
 10
772.07318418770012
 20
30.0
 30
0.0
 11
788.089698241625
 21
30.0
 31
0.0
  0
LINE
  5
1BA2
  8
0
 62
     0
 10
1053.5731841877
 20
30.0
 30
0.0
 11
1069.589698241625
 21
30.0
 31
0.0
  0
LINE
  5
1BA3
  8
0
 62
     0
 10
730.08069858695364
 20
30.0
 30
0.0
 11
746.07792055812695
 21
30.0
 31
0.0
  0
LINE
  5
1BA4
  8
0
 62
     0
 10
1095.5727139037219
 20
30.0
 30
0.0
 11
1108.830698586954
 21
30.0
 31
0.0
  0
LINE
  5
1BA5
  8
0
 62
     0
 10
690.83069858695364
 20
30.0
 30
0.0
 11
704.08069858695274
 21
30.0
 31
0.0
  0
LINE
  5
1BA6
  8
0
 62
     0
 10
912.82318418770285
 20
31.5
 30
0.0
 11
928.83969824162762
 21
31.5
 31
0.0
  0
LINE
  5
1BA7
  8
0
 62
     0
 10
870.83069858695637
 20
31.5
 30
0.0
 11
886.82792055812945
 21
31.5
 31
0.0
  0
LINE
  5
1BA8
  8
0
 62
     0
 10
954.82271390372546
 20
31.5
 30
0.0
 11
968.08069858695671
 21
31.5
 31
0.0
  0
LINE
  5
1BA9
  8
0
 62
     0
 10
831.58069858695671
 20
31.5
 30
0.0
 11
844.83069858695546
 21
31.5
 31
0.0
  0
LINE
  5
1BAA
  8
0
 62
     0
 10
972.33069858695364
 20
31.5
 30
0.0
 11
985.58069858695274
 21
31.5
 31
0.0
  0
LINE
  5
1BAB
  8
0
 62
     0
 10
814.07271390372273
 20
31.5
 30
0.0
 11
827.33069858695364
 21
31.5
 31
0.0
  0
LINE
  5
1BAC
  8
0
 62
     0
 10
1011.580698586953
 20
31.5
 30
0.0
 11
1027.5779205581271
 21
31.5
 31
0.0
  0
LINE
  5
1BAD
  8
0
 62
     0
 10
772.07318418770012
 20
31.5
 30
0.0
 11
788.089698241625
 21
31.5
 31
0.0
  0
LINE
  5
1BAE
  8
0
 62
     0
 10
1053.5731841877
 20
31.5
 30
0.0
 11
1069.589698241625
 21
31.5
 31
0.0
  0
LINE
  5
1BAF
  8
0
 62
     0
 10
730.08069858695364
 20
31.5
 30
0.0
 11
746.07792055812695
 21
31.5
 31
0.0
  0
LINE
  5
1BB0
  8
0
 62
     0
 10
1095.5727139037219
 20
31.5
 30
0.0
 11
1108.830698586954
 21
31.5
 31
0.0
  0
LINE
  5
1BB1
  8
0
 62
     0
 10
690.83069858695364
 20
31.5
 30
0.0
 11
704.08069858695274
 21
31.5
 31
0.0
  0
LINE
  5
1BB2
  8
0
 62
     0
 10
912.82318418770285
 20
33.0
 30
0.0
 11
928.83969824162762
 21
33.0
 31
0.0
  0
LINE
  5
1BB3
  8
0
 62
     0
 10
870.83069858695637
 20
33.0
 30
0.0
 11
886.82792055812945
 21
33.0
 31
0.0
  0
LINE
  5
1BB4
  8
0
 62
     0
 10
954.82271390372546
 20
33.0
 30
0.0
 11
968.08069858695671
 21
33.0
 31
0.0
  0
LINE
  5
1BB5
  8
0
 62
     0
 10
831.58069858695671
 20
33.0
 30
0.0
 11
844.83069858695546
 21
33.0
 31
0.0
  0
LINE
  5
1BB6
  8
0
 62
     0
 10
972.33069858695364
 20
33.0
 30
0.0
 11
985.58069858695274
 21
33.0
 31
0.0
  0
LINE
  5
1BB7
  8
0
 62
     0
 10
814.07271390372273
 20
33.0
 30
0.0
 11
827.33069858695364
 21
33.0
 31
0.0
  0
LINE
  5
1BB8
  8
0
 62
     0
 10
1011.580698586953
 20
33.0
 30
0.0
 11
1027.5779205581271
 21
33.0
 31
0.0
  0
LINE
  5
1BB9
  8
0
 62
     0
 10
772.07318418770012
 20
33.0
 30
0.0
 11
788.089698241625
 21
33.0
 31
0.0
  0
LINE
  5
1BBA
  8
0
 62
     0
 10
1053.5731841877
 20
33.0
 30
0.0
 11
1069.589698241625
 21
33.0
 31
0.0
  0
LINE
  5
1BBB
  8
0
 62
     0
 10
730.08069858695364
 20
33.0
 30
0.0
 11
746.07792055812695
 21
33.0
 31
0.0
  0
LINE
  5
1BBC
  8
0
 62
     0
 10
1095.5727139037219
 20
33.0
 30
0.0
 11
1108.830698586954
 21
33.0
 31
0.0
  0
LINE
  5
1BBD
  8
0
 62
     0
 10
690.83069858695364
 20
33.0
 30
0.0
 11
704.08069858695274
 21
33.0
 31
0.0
  0
LINE
  5
1BBE
  8
0
 62
     0
 10
912.82318418770285
 20
34.5
 30
0.0
 11
928.83969824162762
 21
34.5
 31
0.0
  0
LINE
  5
1BBF
  8
0
 62
     0
 10
870.83069858695637
 20
34.5
 30
0.0
 11
886.82792055812945
 21
34.5
 31
0.0
  0
LINE
  5
1BC0
  8
0
 62
     0
 10
954.82271390372546
 20
34.5
 30
0.0
 11
968.0806985869566
 21
34.5
 31
0.0
  0
LINE
  5
1BC1
  8
0
 62
     0
 10
831.58069858695649
 20
34.5
 30
0.0
 11
844.83069858695546
 21
34.5
 31
0.0
  0
LINE
  5
1BC2
  8
0
 62
     0
 10
972.33069858695364
 20
34.5
 30
0.0
 11
985.58069858695274
 21
34.5
 31
0.0
  0
LINE
  5
1BC3
  8
0
 62
     0
 10
814.07271390372273
 20
34.5
 30
0.0
 11
827.33069858695364
 21
34.5
 31
0.0
  0
LINE
  5
1BC4
  8
0
 62
     0
 10
1011.580698586953
 20
34.5
 30
0.0
 11
1027.5779205581271
 21
34.5
 31
0.0
  0
LINE
  5
1BC5
  8
0
 62
     0
 10
772.07318418770012
 20
34.5
 30
0.0
 11
788.089698241625
 21
34.5
 31
0.0
  0
LINE
  5
1BC6
  8
0
 62
     0
 10
1053.5731841877
 20
34.5
 30
0.0
 11
1069.589698241625
 21
34.5
 31
0.0
  0
LINE
  5
1BC7
  8
0
 62
     0
 10
730.08069858695364
 20
34.5
 30
0.0
 11
746.07792055812695
 21
34.5
 31
0.0
  0
LINE
  5
1BC8
  8
0
 62
     0
 10
1095.5727139037219
 20
34.5
 30
0.0
 11
1108.830698586954
 21
34.5
 31
0.0
  0
LINE
  5
1BC9
  8
0
 62
     0
 10
690.83069858695364
 20
34.5
 30
0.0
 11
704.08069858695274
 21
34.5
 31
0.0
  0
LINE
  5
1BCA
  8
0
 62
     0
 10
912.82318418770285
 20
36.0
 30
0.0
 11
928.83969824162762
 21
36.0
 31
0.0
  0
LINE
  5
1BCB
  8
0
 62
     0
 10
870.83069858695637
 20
36.0
 30
0.0
 11
886.82792055812945
 21
36.0
 31
0.0
  0
LINE
  5
1BCC
  8
0
 62
     0
 10
954.82271390372546
 20
36.0
 30
0.0
 11
968.0806985869566
 21
36.0
 31
0.0
  0
LINE
  5
1BCD
  8
0
 62
     0
 10
831.58069858695649
 20
36.0
 30
0.0
 11
844.83069858695546
 21
36.0
 31
0.0
  0
LINE
  5
1BCE
  8
0
 62
     0
 10
972.33069858695364
 20
36.0
 30
0.0
 11
985.58069858695274
 21
36.0
 31
0.0
  0
LINE
  5
1BCF
  8
0
 62
     0
 10
814.07271390372273
 20
36.0
 30
0.0
 11
827.33069858695364
 21
36.0
 31
0.0
  0
LINE
  5
1BD0
  8
0
 62
     0
 10
1011.580698586953
 20
36.0
 30
0.0
 11
1027.5779205581271
 21
36.0
 31
0.0
  0
LINE
  5
1BD1
  8
0
 62
     0
 10
772.07318418770012
 20
36.0
 30
0.0
 11
788.089698241625
 21
36.0
 31
0.0
  0
LINE
  5
1BD2
  8
0
 62
     0
 10
1053.5731841877
 20
36.0
 30
0.0
 11
1069.589698241625
 21
36.0
 31
0.0
  0
LINE
  5
1BD3
  8
0
 62
     0
 10
730.08069858695364
 20
36.0
 30
0.0
 11
746.07792055812695
 21
36.0
 31
0.0
  0
LINE
  5
1BD4
  8
0
 62
     0
 10
1095.5727139037219
 20
36.0
 30
0.0
 11
1108.830698586954
 21
36.0
 31
0.0
  0
LINE
  5
1BD5
  8
0
 62
     0
 10
690.83069858695364
 20
36.0
 30
0.0
 11
704.08069858695274
 21
36.0
 31
0.0
  0
LINE
  5
1BD6
  8
0
 62
     0
 10
912.82318418770285
 20
37.5
 30
0.0
 11
928.83969824162762
 21
37.5
 31
0.0
  0
LINE
  5
1BD7
  8
0
 62
     0
 10
870.83069858695637
 20
37.5
 30
0.0
 11
886.82792055812945
 21
37.5
 31
0.0
  0
LINE
  5
1BD8
  8
0
 62
     0
 10
954.82271390372546
 20
37.5
 30
0.0
 11
968.0806985869566
 21
37.5
 31
0.0
  0
LINE
  5
1BD9
  8
0
 62
     0
 10
831.58069858695649
 20
37.5
 30
0.0
 11
844.83069858695546
 21
37.5
 31
0.0
  0
LINE
  5
1BDA
  8
0
 62
     0
 10
972.33069858695364
 20
37.5
 30
0.0
 11
985.58069858695274
 21
37.5
 31
0.0
  0
LINE
  5
1BDB
  8
0
 62
     0
 10
814.07271390372273
 20
37.5
 30
0.0
 11
827.33069858695364
 21
37.5
 31
0.0
  0
LINE
  5
1BDC
  8
0
 62
     0
 10
1011.580698586953
 20
37.5
 30
0.0
 11
1027.5779205581271
 21
37.5
 31
0.0
  0
LINE
  5
1BDD
  8
0
 62
     0
 10
772.07318418770012
 20
37.5
 30
0.0
 11
788.089698241625
 21
37.5
 31
0.0
  0
LINE
  5
1BDE
  8
0
 62
     0
 10
1053.5731841877
 20
37.5
 30
0.0
 11
1069.589698241625
 21
37.5
 31
0.0
  0
LINE
  5
1BDF
  8
0
 62
     0
 10
730.08069858695364
 20
37.5
 30
0.0
 11
746.07792055812695
 21
37.5
 31
0.0
  0
LINE
  5
1BE0
  8
0
 62
     0
 10
1095.5727139037219
 20
37.5
 30
0.0
 11
1108.830698586954
 21
37.5
 31
0.0
  0
LINE
  5
1BE1
  8
0
 62
     0
 10
690.83069858695364
 20
37.5
 30
0.0
 11
704.08069858695274
 21
37.5
 31
0.0
  0
LINE
  5
1BE2
  8
0
 62
     0
 10
912.82318418770285
 20
39.0
 30
0.0
 11
928.83969824162762
 21
39.0
 31
0.0
  0
LINE
  5
1BE3
  8
0
 62
     0
 10
870.83069858695637
 20
39.0
 30
0.0
 11
886.82792055812945
 21
39.0
 31
0.0
  0
LINE
  5
1BE4
  8
0
 62
     0
 10
954.82271390372546
 20
39.0
 30
0.0
 11
968.0806985869566
 21
39.0
 31
0.0
  0
LINE
  5
1BE5
  8
0
 62
     0
 10
831.58069858695649
 20
39.0
 30
0.0
 11
844.83069858695546
 21
39.0
 31
0.0
  0
LINE
  5
1BE6
  8
0
 62
     0
 10
972.33069858695364
 20
39.0
 30
0.0
 11
985.58069858695274
 21
39.0
 31
0.0
  0
LINE
  5
1BE7
  8
0
 62
     0
 10
814.07271390372273
 20
39.0
 30
0.0
 11
827.33069858695364
 21
39.0
 31
0.0
  0
LINE
  5
1BE8
  8
0
 62
     0
 10
1011.580698586953
 20
39.0
 30
0.0
 11
1027.5779205581271
 21
39.0
 31
0.0
  0
LINE
  5
1BE9
  8
0
 62
     0
 10
772.07318418770012
 20
39.0
 30
0.0
 11
788.089698241625
 21
39.0
 31
0.0
  0
LINE
  5
1BEA
  8
0
 62
     0
 10
1053.5731841877
 20
39.0
 30
0.0
 11
1069.589698241625
 21
39.0
 31
0.0
  0
LINE
  5
1BEB
  8
0
 62
     0
 10
730.08069858695364
 20
39.0
 30
0.0
 11
746.07792055812695
 21
39.0
 31
0.0
  0
LINE
  5
1BEC
  8
0
 62
     0
 10
1095.5727139037219
 20
39.0
 30
0.0
 11
1108.830698586954
 21
39.0
 31
0.0
  0
LINE
  5
1BED
  8
0
 62
     0
 10
690.83069858695364
 20
39.0
 30
0.0
 11
704.08069858695274
 21
39.0
 31
0.0
  0
LINE
  5
1BEE
  8
0
 62
     0
 10
912.82318418770285
 20
40.499999999999993
 30
0.0
 11
928.83969824162762
 21
40.499999999999993
 31
0.0
  0
LINE
  5
1BEF
  8
0
 62
     0
 10
870.83069858695637
 20
40.499999999999993
 30
0.0
 11
886.82792055812945
 21
40.499999999999993
 31
0.0
  0
LINE
  5
1BF0
  8
0
 62
     0
 10
954.82271390372546
 20
40.499999999999993
 30
0.0
 11
968.0806985869566
 21
40.499999999999993
 31
0.0
  0
LINE
  5
1BF1
  8
0
 62
     0
 10
831.58069858695649
 20
40.499999999999993
 30
0.0
 11
844.83069858695546
 21
40.499999999999993
 31
0.0
  0
LINE
  5
1BF2
  8
0
 62
     0
 10
972.33069858695364
 20
40.499999999999993
 30
0.0
 11
985.58069858695274
 21
40.499999999999993
 31
0.0
  0
LINE
  5
1BF3
  8
0
 62
     0
 10
814.07271390372273
 20
40.499999999999993
 30
0.0
 11
827.33069858695364
 21
40.499999999999993
 31
0.0
  0
LINE
  5
1BF4
  8
0
 62
     0
 10
1011.580698586953
 20
40.499999999999993
 30
0.0
 11
1027.5779205581271
 21
40.499999999999993
 31
0.0
  0
LINE
  5
1BF5
  8
0
 62
     0
 10
772.07318418770012
 20
40.499999999999993
 30
0.0
 11
788.089698241625
 21
40.499999999999993
 31
0.0
  0
LINE
  5
1BF6
  8
0
 62
     0
 10
1053.5731841877
 20
40.499999999999993
 30
0.0
 11
1069.589698241625
 21
40.499999999999993
 31
0.0
  0
LINE
  5
1BF7
  8
0
 62
     0
 10
730.08069858695364
 20
40.499999999999993
 30
0.0
 11
746.07792055812695
 21
40.499999999999993
 31
0.0
  0
LINE
  5
1BF8
  8
0
 62
     0
 10
1095.5727139037219
 20
40.499999999999993
 30
0.0
 11
1108.8306985869531
 21
40.499999999999993
 31
0.0
  0
LINE
  5
1BF9
  8
0
 62
     0
 10
690.83069858695364
 20
40.499999999999993
 30
0.0
 11
704.08069858695274
 21
40.499999999999993
 31
0.0
  0
LINE
  5
1BFA
  8
0
 62
     0
 10
912.82318418770285
 20
42.0
 30
0.0
 11
928.83969824162762
 21
42.0
 31
0.0
  0
LINE
  5
1BFB
  8
0
 62
     0
 10
870.83069858695637
 20
42.0
 30
0.0
 11
886.82792055812945
 21
42.0
 31
0.0
  0
LINE
  5
1BFC
  8
0
 62
     0
 10
954.82271390372546
 20
42.0
 30
0.0
 11
968.0806985869566
 21
42.0
 31
0.0
  0
LINE
  5
1BFD
  8
0
 62
     0
 10
831.58069858695649
 20
42.0
 30
0.0
 11
844.83069858695546
 21
42.0
 31
0.0
  0
LINE
  5
1BFE
  8
0
 62
     0
 10
972.33069858695364
 20
42.0
 30
0.0
 11
985.58069858695274
 21
42.0
 31
0.0
  0
LINE
  5
1BFF
  8
0
 62
     0
 10
814.07271390372273
 20
42.0
 30
0.0
 11
827.33069858695353
 21
42.0
 31
0.0
  0
LINE
  5
1C00
  8
0
 62
     0
 10
1011.580698586953
 20
42.0
 30
0.0
 11
1027.5779205581271
 21
42.0
 31
0.0
  0
LINE
  5
1C01
  8
0
 62
     0
 10
772.07318418770012
 20
42.0
 30
0.0
 11
788.089698241625
 21
42.0
 31
0.0
  0
LINE
  5
1C02
  8
0
 62
     0
 10
1053.5731841877
 20
42.0
 30
0.0
 11
1069.589698241625
 21
42.0
 31
0.0
  0
LINE
  5
1C03
  8
0
 62
     0
 10
730.08069858695364
 20
42.0
 30
0.0
 11
746.07792055812695
 21
42.0
 31
0.0
  0
LINE
  5
1C04
  8
0
 62
     0
 10
1095.5727139037219
 20
42.0
 30
0.0
 11
1108.8306985869531
 21
42.0
 31
0.0
  0
LINE
  5
1C05
  8
0
 62
     0
 10
690.83069858695353
 20
42.0
 30
0.0
 11
704.08069858695274
 21
42.0
 31
0.0
  0
LINE
  5
1C06
  8
0
 62
     0
 10
912.82318418770285
 20
43.5
 30
0.0
 11
928.83969824162762
 21
43.5
 31
0.0
  0
LINE
  5
1C07
  8
0
 62
     0
 10
870.83069858695637
 20
43.5
 30
0.0
 11
886.82792055812945
 21
43.5
 31
0.0
  0
LINE
  5
1C08
  8
0
 62
     0
 10
954.82271390372546
 20
43.5
 30
0.0
 11
968.0806985869566
 21
43.5
 31
0.0
  0
LINE
  5
1C09
  8
0
 62
     0
 10
831.58069858695649
 20
43.5
 30
0.0
 11
844.83069858695546
 21
43.5
 31
0.0
  0
LINE
  5
1C0A
  8
0
 62
     0
 10
972.33069858695364
 20
43.5
 30
0.0
 11
985.58069858695274
 21
43.5
 31
0.0
  0
LINE
  5
1C0B
  8
0
 62
     0
 10
814.07271390372273
 20
43.5
 30
0.0
 11
827.33069858695353
 21
43.5
 31
0.0
  0
LINE
  5
1C0C
  8
0
 62
     0
 10
1011.580698586953
 20
43.5
 30
0.0
 11
1027.5779205581271
 21
43.5
 31
0.0
  0
LINE
  5
1C0D
  8
0
 62
     0
 10
772.07318418770012
 20
43.5
 30
0.0
 11
788.089698241625
 21
43.5
 31
0.0
  0
LINE
  5
1C0E
  8
0
 62
     0
 10
1053.5731841877
 20
43.5
 30
0.0
 11
1069.589698241625
 21
43.5
 31
0.0
  0
LINE
  5
1C0F
  8
0
 62
     0
 10
730.08069858695364
 20
43.5
 30
0.0
 11
746.07792055812695
 21
43.5
 31
0.0
  0
LINE
  5
1C10
  8
0
 62
     0
 10
1095.5727139037219
 20
43.5
 30
0.0
 11
1108.8306985869531
 21
43.5
 31
0.0
  0
LINE
  5
1C11
  8
0
 62
     0
 10
690.83069858695353
 20
43.5
 30
0.0
 11
704.08069858695274
 21
43.5
 31
0.0
  0
LINE
  5
1C12
  8
0
 62
     0
 10
912.82318418770285
 20
45.0
 30
0.0
 11
928.83969824162762
 21
45.0
 31
0.0
  0
LINE
  5
1C13
  8
0
 62
     0
 10
870.83069858695637
 20
45.0
 30
0.0
 11
886.82792055812945
 21
45.0
 31
0.0
  0
LINE
  5
1C14
  8
0
 62
     0
 10
954.82271390372546
 20
45.0
 30
0.0
 11
968.0806985869566
 21
45.0
 31
0.0
  0
LINE
  5
1C15
  8
0
 62
     0
 10
831.58069858695649
 20
45.0
 30
0.0
 11
844.83069858695546
 21
45.0
 31
0.0
  0
LINE
  5
1C16
  8
0
 62
     0
 10
972.33069858695364
 20
45.0
 30
0.0
 11
985.58069858695274
 21
45.0
 31
0.0
  0
LINE
  5
1C17
  8
0
 62
     0
 10
814.07271390372273
 20
45.0
 30
0.0
 11
827.33069858695353
 21
45.0
 31
0.0
  0
LINE
  5
1C18
  8
0
 62
     0
 10
1011.580698586953
 20
45.0
 30
0.0
 11
1027.5779205581271
 21
45.0
 31
0.0
  0
LINE
  5
1C19
  8
0
 62
     0
 10
772.07318418770012
 20
45.0
 30
0.0
 11
788.089698241625
 21
45.0
 31
0.0
  0
LINE
  5
1C1A
  8
0
 62
     0
 10
1053.5731841877
 20
45.0
 30
0.0
 11
1069.589698241625
 21
45.0
 31
0.0
  0
LINE
  5
1C1B
  8
0
 62
     0
 10
730.08069858695364
 20
45.0
 30
0.0
 11
746.07792055812695
 21
45.0
 31
0.0
  0
LINE
  5
1C1C
  8
0
 62
     0
 10
1095.5727139037219
 20
45.0
 30
0.0
 11
1108.8306985869531
 21
45.0
 31
0.0
  0
LINE
  5
1C1D
  8
0
 62
     0
 10
690.83069858695353
 20
45.0
 30
0.0
 11
704.08069858695274
 21
45.0
 31
0.0
  0
LINE
  5
1C1E
  8
0
 62
     0
 10
912.82318418770285
 20
46.5
 30
0.0
 11
928.83969824162762
 21
46.5
 31
0.0
  0
LINE
  5
1C1F
  8
0
 62
     0
 10
870.83069858695637
 20
46.5
 30
0.0
 11
886.82792055812945
 21
46.5
 31
0.0
  0
LINE
  5
1C20
  8
0
 62
     0
 10
954.82271390372546
 20
46.5
 30
0.0
 11
968.08069858695637
 21
46.5
 31
0.0
  0
LINE
  5
1C21
  8
0
 62
     0
 10
831.58069858695649
 20
46.5
 30
0.0
 11
844.83069858695546
 21
46.5
 31
0.0
  0
LINE
  5
1C22
  8
0
 62
     0
 10
972.33069858695364
 20
46.5
 30
0.0
 11
985.58069858695274
 21
46.5
 31
0.0
  0
LINE
  5
1C23
  8
0
 62
     0
 10
814.07271390372273
 20
46.5
 30
0.0
 11
827.33069858695353
 21
46.5
 31
0.0
  0
LINE
  5
1C24
  8
0
 62
     0
 10
1011.580698586953
 20
46.5
 30
0.0
 11
1027.5779205581271
 21
46.5
 31
0.0
  0
LINE
  5
1C25
  8
0
 62
     0
 10
772.07318418770012
 20
46.5
 30
0.0
 11
788.089698241625
 21
46.5
 31
0.0
  0
LINE
  5
1C26
  8
0
 62
     0
 10
1053.5731841877
 20
46.5
 30
0.0
 11
1069.589698241625
 21
46.5
 31
0.0
  0
LINE
  5
1C27
  8
0
 62
     0
 10
730.08069858695364
 20
46.5
 30
0.0
 11
746.07792055812695
 21
46.5
 31
0.0
  0
LINE
  5
1C28
  8
0
 62
     0
 10
1095.5727139037219
 20
46.5
 30
0.0
 11
1108.8306985869531
 21
46.5
 31
0.0
  0
LINE
  5
1C29
  8
0
 62
     0
 10
690.83069858695353
 20
46.5
 30
0.0
 11
704.08069858695274
 21
46.5
 31
0.0
  0
LINE
  5
1C2A
  8
0
 62
     0
 10
912.82318418770285
 20
48.0
 30
0.0
 11
928.83969824162762
 21
48.0
 31
0.0
  0
LINE
  5
1C2B
  8
0
 62
     0
 10
870.83069858695637
 20
48.0
 30
0.0
 11
886.82792055812945
 21
48.0
 31
0.0
  0
LINE
  5
1C2C
  8
0
 62
     0
 10
954.82271390372546
 20
48.0
 30
0.0
 11
968.08069858695637
 21
48.0
 31
0.0
  0
LINE
  5
1C2D
  8
0
 62
     0
 10
831.58069858695649
 20
48.0
 30
0.0
 11
844.83069858695546
 21
48.0
 31
0.0
  0
LINE
  5
1C2E
  8
0
 62
     0
 10
972.33069858695364
 20
48.0
 30
0.0
 11
985.58069858695274
 21
48.0
 31
0.0
  0
LINE
  5
1C2F
  8
0
 62
     0
 10
814.07271390372273
 20
48.0
 30
0.0
 11
827.33069858695353
 21
48.0
 31
0.0
  0
LINE
  5
1C30
  8
0
 62
     0
 10
1011.580698586953
 20
48.0
 30
0.0
 11
1027.5779205581271
 21
48.0
 31
0.0
  0
LINE
  5
1C31
  8
0
 62
     0
 10
772.07318418770012
 20
48.0
 30
0.0
 11
788.089698241625
 21
48.0
 31
0.0
  0
LINE
  5
1C32
  8
0
 62
     0
 10
1053.5731841877
 20
48.0
 30
0.0
 11
1069.589698241625
 21
48.0
 31
0.0
  0
LINE
  5
1C33
  8
0
 62
     0
 10
730.08069858695364
 20
48.0
 30
0.0
 11
746.07792055812695
 21
48.0
 31
0.0
  0
LINE
  5
1C34
  8
0
 62
     0
 10
1095.5727139037219
 20
48.0
 30
0.0
 11
1108.8306985869531
 21
48.0
 31
0.0
  0
LINE
  5
1C35
  8
0
 62
     0
 10
690.83069858695353
 20
48.0
 30
0.0
 11
704.08069858695274
 21
48.0
 31
0.0
  0
LINE
  5
1C36
  8
0
 62
     0
 10
912.82318418770285
 20
49.5
 30
0.0
 11
928.83969824162762
 21
49.5
 31
0.0
  0
LINE
  5
1C37
  8
0
 62
     0
 10
870.83069858695637
 20
49.5
 30
0.0
 11
886.82792055812945
 21
49.5
 31
0.0
  0
LINE
  5
1C38
  8
0
 62
     0
 10
954.82271390372546
 20
49.5
 30
0.0
 11
968.08069858695637
 21
49.5
 31
0.0
  0
LINE
  5
1C39
  8
0
 62
     0
 10
831.58069858695649
 20
49.5
 30
0.0
 11
844.83069858695546
 21
49.5
 31
0.0
  0
LINE
  5
1C3A
  8
0
 62
     0
 10
972.33069858695364
 20
49.5
 30
0.0
 11
985.58069858695274
 21
49.5
 31
0.0
  0
LINE
  5
1C3B
  8
0
 62
     0
 10
814.07271390372273
 20
49.5
 30
0.0
 11
827.33069858695353
 21
49.5
 31
0.0
  0
LINE
  5
1C3C
  8
0
 62
     0
 10
1011.580698586953
 20
49.5
 30
0.0
 11
1027.5779205581271
 21
49.5
 31
0.0
  0
LINE
  5
1C3D
  8
0
 62
     0
 10
772.07318418770012
 20
49.5
 30
0.0
 11
788.089698241625
 21
49.5
 31
0.0
  0
LINE
  5
1C3E
  8
0
 62
     0
 10
1053.5731841877
 20
49.5
 30
0.0
 11
1069.589698241625
 21
49.5
 31
0.0
  0
LINE
  5
1C3F
  8
0
 62
     0
 10
730.08069858695364
 20
49.5
 30
0.0
 11
746.07792055812695
 21
49.5
 31
0.0
  0
LINE
  5
1C40
  8
0
 62
     0
 10
1095.5727139037219
 20
49.5
 30
0.0
 11
1108.8306985869531
 21
49.5
 31
0.0
  0
LINE
  5
1C41
  8
0
 62
     0
 10
690.83069858695353
 20
49.5
 30
0.0
 11
704.08069858695274
 21
49.5
 31
0.0
  0
LINE
  5
1C42
  8
0
 62
     0
 10
912.82318418770285
 20
51.0
 30
0.0
 11
928.83969824162762
 21
51.0
 31
0.0
  0
LINE
  5
1C43
  8
0
 62
     0
 10
870.83069858695637
 20
51.0
 30
0.0
 11
886.82792055812945
 21
51.0
 31
0.0
  0
LINE
  5
1C44
  8
0
 62
     0
 10
954.82271390372546
 20
51.0
 30
0.0
 11
968.08069858695637
 21
51.0
 31
0.0
  0
LINE
  5
1C45
  8
0
 62
     0
 10
831.58069858695649
 20
51.0
 30
0.0
 11
844.83069858695546
 21
51.0
 31
0.0
  0
LINE
  5
1C46
  8
0
 62
     0
 10
972.33069858695364
 20
51.0
 30
0.0
 11
985.58069858695274
 21
51.0
 31
0.0
  0
LINE
  5
1C47
  8
0
 62
     0
 10
814.07271390372273
 20
51.0
 30
0.0
 11
827.33069858695353
 21
51.0
 31
0.0
  0
LINE
  5
1C48
  8
0
 62
     0
 10
1011.580698586953
 20
51.0
 30
0.0
 11
1027.5779205581271
 21
51.0
 31
0.0
  0
LINE
  5
1C49
  8
0
 62
     0
 10
772.07318418770012
 20
51.0
 30
0.0
 11
788.089698241625
 21
51.0
 31
0.0
  0
LINE
  5
1C4A
  8
0
 62
     0
 10
1053.5731841877
 20
51.0
 30
0.0
 11
1069.589698241625
 21
51.0
 31
0.0
  0
LINE
  5
1C4B
  8
0
 62
     0
 10
730.08069858695364
 20
51.0
 30
0.0
 11
746.07792055812695
 21
51.0
 31
0.0
  0
LINE
  5
1C4C
  8
0
 62
     0
 10
1095.5727139037219
 20
51.0
 30
0.0
 11
1108.8306985869531
 21
51.0
 31
0.0
  0
LINE
  5
1C4D
  8
0
 62
     0
 10
690.83069858695353
 20
51.0
 30
0.0
 11
704.08069858695274
 21
51.0
 31
0.0
  0
LINE
  5
1C4E
  8
0
 62
     0
 10
912.82318418770285
 20
52.5
 30
0.0
 11
928.83969824162762
 21
52.5
 31
0.0
  0
LINE
  5
1C4F
  8
0
 62
     0
 10
870.83069858695637
 20
52.5
 30
0.0
 11
886.82792055812945
 21
52.5
 31
0.0
  0
LINE
  5
1C50
  8
0
 62
     0
 10
954.82271390372546
 20
52.5
 30
0.0
 11
968.08069858695637
 21
52.5
 31
0.0
  0
LINE
  5
1C51
  8
0
 62
     0
 10
831.58069858695649
 20
52.5
 30
0.0
 11
844.83069858695546
 21
52.5
 31
0.0
  0
LINE
  5
1C52
  8
0
 62
     0
 10
972.33069858695342
 20
52.5
 30
0.0
 11
985.58069858695274
 21
52.5
 31
0.0
  0
LINE
  5
1C53
  8
0
 62
     0
 10
814.07271390372273
 20
52.5
 30
0.0
 11
827.33069858695353
 21
52.5
 31
0.0
  0
LINE
  5
1C54
  8
0
 62
     0
 10
1011.580698586953
 20
52.5
 30
0.0
 11
1027.5779205581271
 21
52.5
 31
0.0
  0
LINE
  5
1C55
  8
0
 62
     0
 10
772.07318418770012
 20
52.5
 30
0.0
 11
788.089698241625
 21
52.5
 31
0.0
  0
LINE
  5
1C56
  8
0
 62
     0
 10
1053.5731841877
 20
52.5
 30
0.0
 11
1069.589698241625
 21
52.5
 31
0.0
  0
LINE
  5
1C57
  8
0
 62
     0
 10
730.08069858695364
 20
52.5
 30
0.0
 11
746.07792055812695
 21
52.5
 31
0.0
  0
LINE
  5
1C58
  8
0
 62
     0
 10
1095.5727139037219
 20
52.5
 30
0.0
 11
1108.8306985869531
 21
52.5
 31
0.0
  0
LINE
  5
1C59
  8
0
 62
     0
 10
690.83069858695342
 20
52.5
 30
0.0
 11
704.08069858695274
 21
52.5
 31
0.0
  0
LINE
  5
1C5A
  8
0
 62
     0
 10
912.82318418770285
 20
54.0
 30
0.0
 11
928.83969824162762
 21
54.0
 31
0.0
  0
LINE
  5
1C5B
  8
0
 62
     0
 10
870.83069858695637
 20
54.0
 30
0.0
 11
886.82792055812945
 21
54.0
 31
0.0
  0
LINE
  5
1C5C
  8
0
 62
     0
 10
954.82271390372546
 20
54.0
 30
0.0
 11
968.08069858695637
 21
54.0
 31
0.0
  0
LINE
  5
1C5D
  8
0
 62
     0
 10
831.58069858695649
 20
54.0
 30
0.0
 11
844.83069858695546
 21
54.0
 31
0.0
  0
LINE
  5
1C5E
  8
0
 62
     0
 10
972.33069858695342
 20
54.0
 30
0.0
 11
985.58069858695274
 21
54.0
 31
0.0
  0
LINE
  5
1C5F
  8
0
 62
     0
 10
814.07271390372273
 20
54.0
 30
0.0
 11
827.33069858695353
 21
54.0
 31
0.0
  0
LINE
  5
1C60
  8
0
 62
     0
 10
1011.580698586953
 20
54.0
 30
0.0
 11
1027.5779205581271
 21
54.0
 31
0.0
  0
LINE
  5
1C61
  8
0
 62
     0
 10
772.07318418770012
 20
54.0
 30
0.0
 11
788.089698241625
 21
54.0
 31
0.0
  0
LINE
  5
1C62
  8
0
 62
     0
 10
1053.5731841877
 20
54.0
 30
0.0
 11
1069.589698241625
 21
54.0
 31
0.0
  0
LINE
  5
1C63
  8
0
 62
     0
 10
730.08069858695364
 20
54.0
 30
0.0
 11
746.07792055812695
 21
54.0
 31
0.0
  0
LINE
  5
1C64
  8
0
 62
     0
 10
1095.5727139037219
 20
54.0
 30
0.0
 11
1108.8306985869531
 21
54.0
 31
0.0
  0
LINE
  5
1C65
  8
0
 62
     0
 10
690.83069858695342
 20
54.0
 30
0.0
 11
704.08069858695274
 21
54.0
 31
0.0
  0
LINE
  5
1C66
  8
0
 62
     0
 10
912.82318418770285
 20
55.5
 30
0.0
 11
928.83969824162762
 21
55.5
 31
0.0
  0
LINE
  5
1C67
  8
0
 62
     0
 10
870.83069858695637
 20
55.5
 30
0.0
 11
886.82792055812945
 21
55.5
 31
0.0
  0
LINE
  5
1C68
  8
0
 62
     0
 10
954.82271390372546
 20
55.5
 30
0.0
 11
968.08069858695637
 21
55.5
 31
0.0
  0
LINE
  5
1C69
  8
0
 62
     0
 10
831.58069858695649
 20
55.5
 30
0.0
 11
844.83069858695546
 21
55.5
 31
0.0
  0
LINE
  5
1C6A
  8
0
 62
     0
 10
972.33069858695342
 20
55.5
 30
0.0
 11
985.58069858695274
 21
55.5
 31
0.0
  0
LINE
  5
1C6B
  8
0
 62
     0
 10
814.07271390372273
 20
55.5
 30
0.0
 11
827.33069858695353
 21
55.5
 31
0.0
  0
LINE
  5
1C6C
  8
0
 62
     0
 10
1011.580698586953
 20
55.5
 30
0.0
 11
1027.5779205581271
 21
55.5
 31
0.0
  0
LINE
  5
1C6D
  8
0
 62
     0
 10
772.07318418770012
 20
55.5
 30
0.0
 11
788.089698241625
 21
55.5
 31
0.0
  0
LINE
  5
1C6E
  8
0
 62
     0
 10
1053.5731841877
 20
55.5
 30
0.0
 11
1069.589698241625
 21
55.5
 31
0.0
  0
LINE
  5
1C6F
  8
0
 62
     0
 10
730.08069858695364
 20
55.5
 30
0.0
 11
746.07792055812695
 21
55.5
 31
0.0
  0
LINE
  5
1C70
  8
0
 62
     0
 10
1095.5727139037219
 20
55.5
 30
0.0
 11
1108.8306985869531
 21
55.5
 31
0.0
  0
LINE
  5
1C71
  8
0
 62
     0
 10
690.83069858695342
 20
55.5
 30
0.0
 11
704.08069858695274
 21
55.5
 31
0.0
  0
LINE
  5
1C72
  8
0
 62
     0
 10
912.82318418770285
 20
57.0
 30
0.0
 11
928.83969824162762
 21
57.0
 31
0.0
  0
LINE
  5
1C73
  8
0
 62
     0
 10
870.83069858695637
 20
57.0
 30
0.0
 11
886.82792055812945
 21
57.0
 31
0.0
  0
LINE
  5
1C74
  8
0
 62
     0
 10
954.82271390372546
 20
57.0
 30
0.0
 11
968.08069858695637
 21
57.0
 31
0.0
  0
LINE
  5
1C75
  8
0
 62
     0
 10
831.58069858695649
 20
57.0
 30
0.0
 11
844.83069858695546
 21
57.0
 31
0.0
  0
LINE
  5
1C76
  8
0
 62
     0
 10
972.33069858695342
 20
57.0
 30
0.0
 11
985.58069858695274
 21
57.0
 31
0.0
  0
LINE
  5
1C77
  8
0
 62
     0
 10
814.07271390372273
 20
57.0
 30
0.0
 11
827.33069858695353
 21
57.0
 31
0.0
  0
LINE
  5
1C78
  8
0
 62
     0
 10
1011.580698586953
 20
57.0
 30
0.0
 11
1027.5779205581271
 21
57.0
 31
0.0
  0
LINE
  5
1C79
  8
0
 62
     0
 10
772.07318418770012
 20
57.0
 30
0.0
 11
788.089698241625
 21
57.0
 31
0.0
  0
LINE
  5
1C7A
  8
0
 62
     0
 10
1053.5731841877
 20
57.0
 30
0.0
 11
1069.589698241625
 21
57.0
 31
0.0
  0
LINE
  5
1C7B
  8
0
 62
     0
 10
730.08069858695364
 20
57.0
 30
0.0
 11
746.07792055812695
 21
57.0
 31
0.0
  0
LINE
  5
1C7C
  8
0
 62
     0
 10
1095.5727139037219
 20
57.0
 30
0.0
 11
1108.8306985869531
 21
57.0
 31
0.0
  0
LINE
  5
1C7D
  8
0
 62
     0
 10
690.83069858695342
 20
57.0
 30
0.0
 11
704.08069858695274
 21
57.0
 31
0.0
  0
LINE
  5
1C7E
  8
0
 62
     0
 10
912.82318418770285
 20
58.5
 30
0.0
 11
928.83969824162762
 21
58.5
 31
0.0
  0
LINE
  5
1C7F
  8
0
 62
     0
 10
870.83069858695637
 20
58.5
 30
0.0
 11
886.82792055812945
 21
58.5
 31
0.0
  0
LINE
  5
1C80
  8
0
 62
     0
 10
954.82271390372546
 20
58.5
 30
0.0
 11
968.08069858695637
 21
58.5
 31
0.0
  0
LINE
  5
1C81
  8
0
 62
     0
 10
831.58069858695637
 20
58.5
 30
0.0
 11
844.83069858695546
 21
58.5
 31
0.0
  0
LINE
  5
1C82
  8
0
 62
     0
 10
972.33069858695342
 20
58.5
 30
0.0
 11
985.58069858695274
 21
58.5
 31
0.0
  0
LINE
  5
1C83
  8
0
 62
     0
 10
814.07271390372273
 20
58.5
 30
0.0
 11
827.33069858695353
 21
58.5
 31
0.0
  0
LINE
  5
1C84
  8
0
 62
     0
 10
1011.580698586953
 20
58.5
 30
0.0
 11
1027.5779205581271
 21
58.5
 31
0.0
  0
LINE
  5
1C85
  8
0
 62
     0
 10
772.07318418770012
 20
58.5
 30
0.0
 11
788.089698241625
 21
58.5
 31
0.0
  0
LINE
  5
1C86
  8
0
 62
     0
 10
1053.5731841877
 20
58.5
 30
0.0
 11
1069.589698241625
 21
58.5
 31
0.0
  0
LINE
  5
1C87
  8
0
 62
     0
 10
730.08069858695364
 20
58.5
 30
0.0
 11
746.07792055812695
 21
58.5
 31
0.0
  0
LINE
  5
1C88
  8
0
 62
     0
 10
1095.5727139037219
 20
58.5
 30
0.0
 11
1108.8306985869531
 21
58.5
 31
0.0
  0
LINE
  5
1C89
  8
0
 62
     0
 10
690.83069858695342
 20
58.5
 30
0.0
 11
704.08069858695274
 21
58.5
 31
0.0
  0
LINE
  5
1C8A
  8
0
 62
     0
 10
912.82318418770285
 20
60.0
 30
0.0
 11
928.83969824162762
 21
60.0
 31
0.0
  0
LINE
  5
1C8B
  8
0
 62
     0
 10
870.83069858695637
 20
60.0
 30
0.0
 11
886.82792055812945
 21
60.0
 31
0.0
  0
LINE
  5
1C8C
  8
0
 62
     0
 10
954.82271390372546
 20
60.0
 30
0.0
 11
968.08069858695637
 21
60.0
 31
0.0
  0
LINE
  5
1C8D
  8
0
 62
     0
 10
831.58069858695637
 20
60.0
 30
0.0
 11
844.83069858695546
 21
60.0
 31
0.0
  0
LINE
  5
1C8E
  8
0
 62
     0
 10
972.33069858695342
 20
60.0
 30
0.0
 11
985.58069858695274
 21
60.0
 31
0.0
  0
LINE
  5
1C8F
  8
0
 62
     0
 10
814.07271390372273
 20
60.0
 30
0.0
 11
827.33069858695353
 21
60.0
 31
0.0
  0
LINE
  5
1C90
  8
0
 62
     0
 10
1011.580698586953
 20
60.0
 30
0.0
 11
1027.5779205581271
 21
60.0
 31
0.0
  0
LINE
  5
1C91
  8
0
 62
     0
 10
772.07318418770012
 20
60.0
 30
0.0
 11
788.089698241625
 21
60.0
 31
0.0
  0
LINE
  5
1C92
  8
0
 62
     0
 10
1053.5731841877
 20
60.0
 30
0.0
 11
1069.589698241625
 21
60.0
 31
0.0
  0
LINE
  5
1C93
  8
0
 62
     0
 10
730.08069858695364
 20
60.0
 30
0.0
 11
746.07792055812695
 21
60.0
 31
0.0
  0
LINE
  5
1C94
  8
0
 62
     0
 10
1095.5727139037219
 20
60.0
 30
0.0
 11
1108.8306985869531
 21
60.0
 31
0.0
  0
LINE
  5
1C95
  8
0
 62
     0
 10
690.83069858695342
 20
60.0
 30
0.0
 11
704.08069858695274
 21
60.0
 31
0.0
  0
LINE
  5
1C96
  8
0
 62
     0
 10
912.82318418770285
 20
61.5
 30
0.0
 11
928.83969824162762
 21
61.5
 31
0.0
  0
LINE
  5
1C97
  8
0
 62
     0
 10
870.83069858695637
 20
61.5
 30
0.0
 11
886.82792055812945
 21
61.5
 31
0.0
  0
LINE
  5
1C98
  8
0
 62
     0
 10
954.82271390372546
 20
61.5
 30
0.0
 11
968.08069858695637
 21
61.5
 31
0.0
  0
LINE
  5
1C99
  8
0
 62
     0
 10
831.58069858695637
 20
61.5
 30
0.0
 11
844.83069858695546
 21
61.5
 31
0.0
  0
LINE
  5
1C9A
  8
0
 62
     0
 10
972.33069858695342
 20
61.5
 30
0.0
 11
985.58069858695274
 21
61.5
 31
0.0
  0
LINE
  5
1C9B
  8
0
 62
     0
 10
814.07271390372273
 20
61.5
 30
0.0
 11
827.33069858695353
 21
61.5
 31
0.0
  0
LINE
  5
1C9C
  8
0
 62
     0
 10
1011.580698586953
 20
61.5
 30
0.0
 11
1027.5779205581271
 21
61.5
 31
0.0
  0
LINE
  5
1C9D
  8
0
 62
     0
 10
772.07318418770012
 20
61.5
 30
0.0
 11
788.089698241625
 21
61.5
 31
0.0
  0
LINE
  5
1C9E
  8
0
 62
     0
 10
1053.5731841877
 20
61.5
 30
0.0
 11
1069.589698241625
 21
61.5
 31
0.0
  0
LINE
  5
1C9F
  8
0
 62
     0
 10
730.08069858695364
 20
61.5
 30
0.0
 11
746.07792055812695
 21
61.5
 31
0.0
  0
LINE
  5
1CA0
  8
0
 62
     0
 10
1095.5727139037219
 20
61.5
 30
0.0
 11
1108.8306985869531
 21
61.5
 31
0.0
  0
LINE
  5
1CA1
  8
0
 62
     0
 10
690.83069858695342
 20
61.5
 30
0.0
 11
704.08069858695274
 21
61.5
 31
0.0
  0
LINE
  5
1CA2
  8
0
 62
     0
 10
912.82318418770285
 20
63.0
 30
0.0
 11
928.83969824162762
 21
63.0
 31
0.0
  0
LINE
  5
1CA3
  8
0
 62
     0
 10
870.83069858695637
 20
63.0
 30
0.0
 11
886.82792055812945
 21
63.0
 31
0.0
  0
LINE
  5
1CA4
  8
0
 62
     0
 10
954.82271390372546
 20
63.0
 30
0.0
 11
968.08069858695637
 21
63.0
 31
0.0
  0
LINE
  5
1CA5
  8
0
 62
     0
 10
831.58069858695637
 20
63.0
 30
0.0
 11
844.83069858695546
 21
63.0
 31
0.0
  0
LINE
  5
1CA6
  8
0
 62
     0
 10
972.33069858695319
 20
63.0
 30
0.0
 11
985.58069858695274
 21
63.0
 31
0.0
  0
LINE
  5
1CA7
  8
0
 62
     0
 10
814.07271390372273
 20
63.0
 30
0.0
 11
827.3306985869533
 21
63.0
 31
0.0
  0
LINE
  5
1CA8
  8
0
 62
     0
 10
1011.580698586953
 20
63.0
 30
0.0
 11
1027.5779205581271
 21
63.0
 31
0.0
  0
LINE
  5
1CA9
  8
0
 62
     0
 10
772.07318418770012
 20
63.0
 30
0.0
 11
788.089698241625
 21
63.0
 31
0.0
  0
LINE
  5
1CAA
  8
0
 62
     0
 10
1053.5731841877
 20
63.0
 30
0.0
 11
1069.589698241625
 21
63.0
 31
0.0
  0
LINE
  5
1CAB
  8
0
 62
     0
 10
730.08069858695364
 20
63.0
 30
0.0
 11
746.07792055812695
 21
63.0
 31
0.0
  0
LINE
  5
1CAC
  8
0
 62
     0
 10
1095.5727139037219
 20
63.0
 30
0.0
 11
1108.8306985869531
 21
63.0
 31
0.0
  0
LINE
  5
1CAD
  8
0
 62
     0
 10
690.8306985869533
 20
63.0
 30
0.0
 11
704.08069858695274
 21
63.0
 31
0.0
  0
LINE
  5
1CAE
  8
0
 62
     0
 10
912.82318418770285
 20
64.5
 30
0.0
 11
928.83969824162762
 21
64.5
 31
0.0
  0
LINE
  5
1CAF
  8
0
 62
     0
 10
870.83069858695637
 20
64.5
 30
0.0
 11
886.82792055812945
 21
64.5
 31
0.0
  0
LINE
  5
1CB0
  8
0
 62
     0
 10
954.82271390372546
 20
64.5
 30
0.0
 11
968.08069858695637
 21
64.5
 31
0.0
  0
LINE
  5
1CB1
  8
0
 62
     0
 10
831.58069858695637
 20
64.5
 30
0.0
 11
844.83069858695546
 21
64.5
 31
0.0
  0
LINE
  5
1CB2
  8
0
 62
     0
 10
972.33069858695319
 20
64.5
 30
0.0
 11
985.58069858695274
 21
64.5
 31
0.0
  0
LINE
  5
1CB3
  8
0
 62
     0
 10
814.07271390372273
 20
64.5
 30
0.0
 11
827.3306985869533
 21
64.5
 31
0.0
  0
LINE
  5
1CB4
  8
0
 62
     0
 10
1011.580698586953
 20
64.5
 30
0.0
 11
1027.5779205581271
 21
64.5
 31
0.0
  0
LINE
  5
1CB5
  8
0
 62
     0
 10
772.07318418770012
 20
64.5
 30
0.0
 11
788.089698241625
 21
64.5
 31
0.0
  0
LINE
  5
1CB6
  8
0
 62
     0
 10
1053.5731841877
 20
64.5
 30
0.0
 11
1069.589698241625
 21
64.5
 31
0.0
  0
LINE
  5
1CB7
  8
0
 62
     0
 10
730.08069858695364
 20
64.5
 30
0.0
 11
746.07792055812695
 21
64.5
 31
0.0
  0
LINE
  5
1CB8
  8
0
 62
     0
 10
1095.5727139037219
 20
64.5
 30
0.0
 11
1108.8306985869531
 21
64.5
 31
0.0
  0
LINE
  5
1CB9
  8
0
 62
     0
 10
690.8306985869533
 20
64.5
 30
0.0
 11
704.08069858695274
 21
64.5
 31
0.0
  0
LINE
  5
1CBA
  8
0
 62
     0
 10
912.82318418770285
 20
66.0
 30
0.0
 11
928.83969824162762
 21
66.0
 31
0.0
  0
LINE
  5
1CBB
  8
0
 62
     0
 10
870.83069858695637
 20
66.0
 30
0.0
 11
886.82792055812945
 21
66.0
 31
0.0
  0
LINE
  5
1CBC
  8
0
 62
     0
 10
954.82271390372546
 20
66.0
 30
0.0
 11
968.08069858695637
 21
66.0
 31
0.0
  0
LINE
  5
1CBD
  8
0
 62
     0
 10
831.58069858695637
 20
66.0
 30
0.0
 11
844.83069858695546
 21
66.0
 31
0.0
  0
LINE
  5
1CBE
  8
0
 62
     0
 10
972.33069858695319
 20
66.0
 30
0.0
 11
985.58069858695274
 21
66.0
 31
0.0
  0
LINE
  5
1CBF
  8
0
 62
     0
 10
814.07271390372273
 20
66.0
 30
0.0
 11
827.3306985869533
 21
66.0
 31
0.0
  0
LINE
  5
1CC0
  8
0
 62
     0
 10
1011.580698586953
 20
66.0
 30
0.0
 11
1027.5779205581271
 21
66.0
 31
0.0
  0
LINE
  5
1CC1
  8
0
 62
     0
 10
772.07318418770012
 20
66.0
 30
0.0
 11
788.089698241625
 21
66.0
 31
0.0
  0
LINE
  5
1CC2
  8
0
 62
     0
 10
1053.5731841877
 20
66.0
 30
0.0
 11
1069.589698241625
 21
66.0
 31
0.0
  0
LINE
  5
1CC3
  8
0
 62
     0
 10
730.08069858695364
 20
66.0
 30
0.0
 11
746.07792055812695
 21
66.0
 31
0.0
  0
LINE
  5
1CC4
  8
0
 62
     0
 10
1095.5727139037219
 20
66.0
 30
0.0
 11
1108.8306985869531
 21
66.0
 31
0.0
  0
LINE
  5
1CC5
  8
0
 62
     0
 10
690.8306985869533
 20
66.0
 30
0.0
 11
704.08069858695274
 21
66.0
 31
0.0
  0
LINE
  5
1CC6
  8
0
 62
     0
 10
912.82318418770285
 20
67.5
 30
0.0
 11
928.83969824162762
 21
67.5
 31
0.0
  0
LINE
  5
1CC7
  8
0
 62
     0
 10
870.83069858695637
 20
67.5
 30
0.0
 11
886.82792055812945
 21
67.5
 31
0.0
  0
LINE
  5
1CC8
  8
0
 62
     0
 10
954.82271390372546
 20
67.5
 30
0.0
 11
968.08069858695637
 21
67.5
 31
0.0
  0
LINE
  5
1CC9
  8
0
 62
     0
 10
831.58069858695637
 20
67.5
 30
0.0
 11
844.83069858695546
 21
67.5
 31
0.0
  0
LINE
  5
1CCA
  8
0
 62
     0
 10
972.33069858695319
 20
67.5
 30
0.0
 11
985.58069858695274
 21
67.5
 31
0.0
  0
LINE
  5
1CCB
  8
0
 62
     0
 10
814.07271390372273
 20
67.5
 30
0.0
 11
827.3306985869533
 21
67.5
 31
0.0
  0
LINE
  5
1CCC
  8
0
 62
     0
 10
1011.580698586953
 20
67.5
 30
0.0
 11
1027.5779205581271
 21
67.5
 31
0.0
  0
LINE
  5
1CCD
  8
0
 62
     0
 10
772.07318418770012
 20
67.5
 30
0.0
 11
788.089698241625
 21
67.5
 31
0.0
  0
LINE
  5
1CCE
  8
0
 62
     0
 10
1053.5731841877
 20
67.5
 30
0.0
 11
1069.589698241625
 21
67.5
 31
0.0
  0
LINE
  5
1CCF
  8
0
 62
     0
 10
730.08069858695364
 20
67.5
 30
0.0
 11
746.07792055812695
 21
67.5
 31
0.0
  0
LINE
  5
1CD0
  8
0
 62
     0
 10
1095.5727139037219
 20
67.5
 30
0.0
 11
1108.8306985869531
 21
67.5
 31
0.0
  0
LINE
  5
1CD1
  8
0
 62
     0
 10
690.8306985869533
 20
67.5
 30
0.0
 11
704.08069858695274
 21
67.5
 31
0.0
  0
LINE
  5
1CD2
  8
0
 62
     0
 10
912.82318418770285
 20
69.0
 30
0.0
 11
928.83969824162762
 21
69.0
 31
0.0
  0
LINE
  5
1CD3
  8
0
 62
     0
 10
870.83069858695637
 20
69.0
 30
0.0
 11
886.82792055812945
 21
69.0
 31
0.0
  0
LINE
  5
1CD4
  8
0
 62
     0
 10
954.82271390372546
 20
69.0
 30
0.0
 11
968.08069858695615
 21
69.0
 31
0.0
  0
LINE
  5
1CD5
  8
0
 62
     0
 10
831.58069858695615
 20
69.0
 30
0.0
 11
844.83069858695546
 21
69.0
 31
0.0
  0
LINE
  5
1CD6
  8
0
 62
     0
 10
972.33069858695319
 20
69.0
 30
0.0
 11
985.58069858695274
 21
69.0
 31
0.0
  0
LINE
  5
1CD7
  8
0
 62
     0
 10
814.07271390372273
 20
69.0
 30
0.0
 11
827.3306985869533
 21
69.0
 31
0.0
  0
LINE
  5
1CD8
  8
0
 62
     0
 10
1011.580698586953
 20
69.0
 30
0.0
 11
1027.5779205581271
 21
69.0
 31
0.0
  0
LINE
  5
1CD9
  8
0
 62
     0
 10
772.07318418770012
 20
69.0
 30
0.0
 11
788.089698241625
 21
69.0
 31
0.0
  0
LINE
  5
1CDA
  8
0
 62
     0
 10
1053.5731841877
 20
69.0
 30
0.0
 11
1069.589698241625
 21
69.0
 31
0.0
  0
LINE
  5
1CDB
  8
0
 62
     0
 10
730.08069858695364
 20
69.0
 30
0.0
 11
746.07792055812695
 21
69.0
 31
0.0
  0
LINE
  5
1CDC
  8
0
 62
     0
 10
1095.5727139037219
 20
69.0
 30
0.0
 11
1108.8306985869531
 21
69.0
 31
0.0
  0
LINE
  5
1CDD
  8
0
 62
     0
 10
690.8306985869533
 20
69.0
 30
0.0
 11
704.08069858695274
 21
69.0
 31
0.0
  0
LINE
  5
1CDE
  8
0
 62
     0
 10
912.82318418770285
 20
70.5
 30
0.0
 11
928.83969824162762
 21
70.5
 31
0.0
  0
LINE
  5
1CDF
  8
0
 62
     0
 10
870.83069858695637
 20
70.5
 30
0.0
 11
886.82792055812945
 21
70.5
 31
0.0
  0
LINE
  5
1CE0
  8
0
 62
     0
 10
954.82271390372546
 20
70.5
 30
0.0
 11
968.08069858695615
 21
70.5
 31
0.0
  0
LINE
  5
1CE1
  8
0
 62
     0
 10
831.58069858695615
 20
70.5
 30
0.0
 11
844.83069858695546
 21
70.5
 31
0.0
  0
LINE
  5
1CE2
  8
0
 62
     0
 10
972.33069858695319
 20
70.5
 30
0.0
 11
985.58069858695274
 21
70.5
 31
0.0
  0
LINE
  5
1CE3
  8
0
 62
     0
 10
814.07271390372273
 20
70.5
 30
0.0
 11
827.3306985869533
 21
70.5
 31
0.0
  0
LINE
  5
1CE4
  8
0
 62
     0
 10
1011.580698586953
 20
70.5
 30
0.0
 11
1027.5779205581271
 21
70.5
 31
0.0
  0
LINE
  5
1CE5
  8
0
 62
     0
 10
772.07318418770012
 20
70.5
 30
0.0
 11
788.089698241625
 21
70.5
 31
0.0
  0
LINE
  5
1CE6
  8
0
 62
     0
 10
1053.5731841877
 20
70.5
 30
0.0
 11
1069.589698241625
 21
70.5
 31
0.0
  0
LINE
  5
1CE7
  8
0
 62
     0
 10
730.08069858695364
 20
70.5
 30
0.0
 11
746.07792055812695
 21
70.5
 31
0.0
  0
LINE
  5
1CE8
  8
0
 62
     0
 10
1095.5727139037219
 20
70.5
 30
0.0
 11
1108.8306985869531
 21
70.5
 31
0.0
  0
LINE
  5
1CE9
  8
0
 62
     0
 10
690.8306985869533
 20
70.5
 30
0.0
 11
704.08069858695274
 21
70.5
 31
0.0
  0
LINE
  5
1CEA
  8
0
 62
     0
 10
912.82318418770285
 20
72.0
 30
0.0
 11
928.83969824162762
 21
72.0
 31
0.0
  0
LINE
  5
1CEB
  8
0
 62
     0
 10
870.83069858695637
 20
72.0
 30
0.0
 11
886.82792055812945
 21
72.0
 31
0.0
  0
LINE
  5
1CEC
  8
0
 62
     0
 10
954.82271390372546
 20
72.0
 30
0.0
 11
968.08069858695615
 21
72.0
 31
0.0
  0
LINE
  5
1CED
  8
0
 62
     0
 10
831.58069858695615
 20
72.0
 30
0.0
 11
844.83069858695546
 21
72.0
 31
0.0
  0
LINE
  5
1CEE
  8
0
 62
     0
 10
972.33069858695319
 20
72.0
 30
0.0
 11
985.58069858695274
 21
72.0
 31
0.0
  0
LINE
  5
1CEF
  8
0
 62
     0
 10
814.07271390372273
 20
72.0
 30
0.0
 11
827.3306985869533
 21
72.0
 31
0.0
  0
LINE
  5
1CF0
  8
0
 62
     0
 10
1011.580698586953
 20
72.0
 30
0.0
 11
1027.5779205581271
 21
72.0
 31
0.0
  0
LINE
  5
1CF1
  8
0
 62
     0
 10
772.07318418770012
 20
72.0
 30
0.0
 11
788.089698241625
 21
72.0
 31
0.0
  0
LINE
  5
1CF2
  8
0
 62
     0
 10
1053.5731841877
 20
72.0
 30
0.0
 11
1069.589698241625
 21
72.0
 31
0.0
  0
LINE
  5
1CF3
  8
0
 62
     0
 10
730.08069858695364
 20
72.0
 30
0.0
 11
746.07792055812695
 21
72.0
 31
0.0
  0
LINE
  5
1CF4
  8
0
 62
     0
 10
1095.5727139037219
 20
72.0
 30
0.0
 11
1108.8306985869531
 21
72.0
 31
0.0
  0
LINE
  5
1CF5
  8
0
 62
     0
 10
690.8306985869533
 20
72.0
 30
0.0
 11
704.08069858695274
 21
72.0
 31
0.0
  0
LINE
  5
1CF6
  8
0
 62
     0
 10
912.82318418770285
 20
73.5
 30
0.0
 11
928.83969824162762
 21
73.5
 31
0.0
  0
LINE
  5
1CF7
  8
0
 62
     0
 10
870.83069858695637
 20
73.5
 30
0.0
 11
886.82792055812945
 21
73.5
 31
0.0
  0
LINE
  5
1CF8
  8
0
 62
     0
 10
954.82271390372546
 20
73.5
 30
0.0
 11
968.08069858695615
 21
73.5
 31
0.0
  0
LINE
  5
1CF9
  8
0
 62
     0
 10
831.58069858695615
 20
73.5
 30
0.0
 11
844.83069858695546
 21
73.5
 31
0.0
  0
LINE
  5
1CFA
  8
0
 62
     0
 10
972.33069858695319
 20
73.5
 30
0.0
 11
985.58069858695274
 21
73.5
 31
0.0
  0
LINE
  5
1CFB
  8
0
 62
     0
 10
814.07271390372273
 20
73.5
 30
0.0
 11
827.33069858695308
 21
73.5
 31
0.0
  0
LINE
  5
1CFC
  8
0
 62
     0
 10
1011.580698586953
 20
73.5
 30
0.0
 11
1027.5779205581271
 21
73.5
 31
0.0
  0
LINE
  5
1CFD
  8
0
 62
     0
 10
772.07318418770012
 20
73.5
 30
0.0
 11
788.089698241625
 21
73.5
 31
0.0
  0
LINE
  5
1CFE
  8
0
 62
     0
 10
1053.5731841877
 20
73.5
 30
0.0
 11
1069.589698241625
 21
73.5
 31
0.0
  0
LINE
  5
1CFF
  8
0
 62
     0
 10
730.08069858695364
 20
73.5
 30
0.0
 11
746.07792055812695
 21
73.5
 31
0.0
  0
LINE
  5
1D00
  8
0
 62
     0
 10
1095.5727139037219
 20
73.5
 30
0.0
 11
1108.8306985869531
 21
73.5
 31
0.0
  0
LINE
  5
1D01
  8
0
 62
     0
 10
690.83069858695319
 20
73.5
 30
0.0
 11
704.08069858695274
 21
73.5
 31
0.0
  0
LINE
  5
1D02
  8
0
 62
     0
 10
912.82318418770285
 20
75.0
 30
0.0
 11
928.83969824162762
 21
75.0
 31
0.0
  0
LINE
  5
1D03
  8
0
 62
     0
 10
870.83069858695637
 20
75.0
 30
0.0
 11
886.82792055812945
 21
75.0
 31
0.0
  0
LINE
  5
1D04
  8
0
 62
     0
 10
954.82271390372546
 20
75.0
 30
0.0
 11
968.08069858695615
 21
75.0
 31
0.0
  0
LINE
  5
1D05
  8
0
 62
     0
 10
831.58069858695615
 20
75.0
 30
0.0
 11
844.83069858695546
 21
75.0
 31
0.0
  0
LINE
  5
1D06
  8
0
 62
     0
 10
972.33069858695319
 20
75.0
 30
0.0
 11
985.58069858695274
 21
75.0
 31
0.0
  0
LINE
  5
1D07
  8
0
 62
     0
 10
814.07271390372273
 20
75.0
 30
0.0
 11
827.33069858695308
 21
75.0
 31
0.0
  0
LINE
  5
1D08
  8
0
 62
     0
 10
1011.580698586953
 20
75.0
 30
0.0
 11
1027.5779205581271
 21
75.0
 31
0.0
  0
LINE
  5
1D09
  8
0
 62
     0
 10
772.07318418770012
 20
75.0
 30
0.0
 11
788.089698241625
 21
75.0
 31
0.0
  0
LINE
  5
1D0A
  8
0
 62
     0
 10
1053.5731841877
 20
75.0
 30
0.0
 11
1069.589698241625
 21
75.0
 31
0.0
  0
LINE
  5
1D0B
  8
0
 62
     0
 10
730.08069858695364
 20
75.0
 30
0.0
 11
746.07792055812695
 21
75.0
 31
0.0
  0
LINE
  5
1D0C
  8
0
 62
     0
 10
1095.5727139037219
 20
75.0
 30
0.0
 11
1108.8306985869531
 21
75.0
 31
0.0
  0
LINE
  5
1D0D
  8
0
 62
     0
 10
690.83069858695319
 20
75.0
 30
0.0
 11
704.08069858695274
 21
75.0
 31
0.0
  0
LINE
  5
1D0E
  8
0
 62
     0
 10
912.82318418770285
 20
76.5
 30
0.0
 11
928.83969824162762
 21
76.5
 31
0.0
  0
LINE
  5
1D0F
  8
0
 62
     0
 10
870.83069858695637
 20
76.5
 30
0.0
 11
886.82792055812945
 21
76.5
 31
0.0
  0
LINE
  5
1D10
  8
0
 62
     0
 10
954.82271390372546
 20
76.5
 30
0.0
 11
968.08069858695615
 21
76.5
 31
0.0
  0
LINE
  5
1D11
  8
0
 62
     0
 10
831.58069858695615
 20
76.5
 30
0.0
 11
844.83069858695546
 21
76.5
 31
0.0
  0
LINE
  5
1D12
  8
0
 62
     0
 10
972.33069858695319
 20
76.5
 30
0.0
 11
985.58069858695274
 21
76.5
 31
0.0
  0
LINE
  5
1D13
  8
0
 62
     0
 10
814.07271390372273
 20
76.5
 30
0.0
 11
827.33069858695308
 21
76.5
 31
0.0
  0
LINE
  5
1D14
  8
0
 62
     0
 10
1011.580698586953
 20
76.5
 30
0.0
 11
1027.5779205581271
 21
76.5
 31
0.0
  0
LINE
  5
1D15
  8
0
 62
     0
 10
772.07318418770012
 20
76.5
 30
0.0
 11
788.089698241625
 21
76.5
 31
0.0
  0
LINE
  5
1D16
  8
0
 62
     0
 10
1053.5731841877
 20
76.5
 30
0.0
 11
1069.589698241625
 21
76.5
 31
0.0
  0
LINE
  5
1D17
  8
0
 62
     0
 10
730.08069858695364
 20
76.5
 30
0.0
 11
746.07792055812695
 21
76.5
 31
0.0
  0
LINE
  5
1D18
  8
0
 62
     0
 10
1095.5727139037219
 20
76.5
 30
0.0
 11
1108.8306985869531
 21
76.5
 31
0.0
  0
LINE
  5
1D19
  8
0
 62
     0
 10
690.83069858695319
 20
76.5
 30
0.0
 11
704.08069858695274
 21
76.5
 31
0.0
  0
LINE
  5
1D1A
  8
0
 62
     0
 10
912.82318418770285
 20
78.0
 30
0.0
 11
928.83969824162762
 21
78.0
 31
0.0
  0
LINE
  5
1D1B
  8
0
 62
     0
 10
870.83069858695637
 20
78.0
 30
0.0
 11
886.82792055812945
 21
78.0
 31
0.0
  0
LINE
  5
1D1C
  8
0
 62
     0
 10
954.82271390372546
 20
78.0
 30
0.0
 11
968.08069858695615
 21
78.0
 31
0.0
  0
LINE
  5
1D1D
  8
0
 62
     0
 10
831.58069858695615
 20
78.0
 30
0.0
 11
844.83069858695546
 21
78.0
 31
0.0
  0
LINE
  5
1D1E
  8
0
 62
     0
 10
972.33069858695319
 20
78.0
 30
0.0
 11
985.58069858695274
 21
78.0
 31
0.0
  0
LINE
  5
1D1F
  8
0
 62
     0
 10
814.07271390372273
 20
78.0
 30
0.0
 11
827.33069858695308
 21
78.0
 31
0.0
  0
LINE
  5
1D20
  8
0
 62
     0
 10
1011.580698586953
 20
78.0
 30
0.0
 11
1027.5779205581271
 21
78.0
 31
0.0
  0
LINE
  5
1D21
  8
0
 62
     0
 10
772.07318418770012
 20
78.0
 30
0.0
 11
788.089698241625
 21
78.0
 31
0.0
  0
LINE
  5
1D22
  8
0
 62
     0
 10
1053.5731841877
 20
78.0
 30
0.0
 11
1069.589698241625
 21
78.0
 31
0.0
  0
LINE
  5
1D23
  8
0
 62
     0
 10
730.08069858695364
 20
78.0
 30
0.0
 11
746.07792055812695
 21
78.0
 31
0.0
  0
LINE
  5
1D24
  8
0
 62
     0
 10
1095.5727139037219
 20
78.0
 30
0.0
 11
1108.8306985869531
 21
78.0
 31
0.0
  0
LINE
  5
1D25
  8
0
 62
     0
 10
690.83069858695319
 20
78.0
 30
0.0
 11
704.08069858695274
 21
78.0
 31
0.0
  0
LINE
  5
1D26
  8
0
 62
     0
 10
912.82318418770285
 20
79.5
 30
0.0
 11
928.83969824162762
 21
79.5
 31
0.0
  0
LINE
  5
1D27
  8
0
 62
     0
 10
870.83069858695637
 20
79.5
 30
0.0
 11
886.82792055812945
 21
79.5
 31
0.0
  0
LINE
  5
1D28
  8
0
 62
     0
 10
954.82271390372546
 20
79.5
 30
0.0
 11
968.08069858695615
 21
79.5
 31
0.0
  0
LINE
  5
1D29
  8
0
 62
     0
 10
831.58069858695615
 20
79.5
 30
0.0
 11
844.83069858695546
 21
79.5
 31
0.0
  0
LINE
  5
1D2A
  8
0
 62
     0
 10
972.33069858695319
 20
79.5
 30
0.0
 11
985.58069858695274
 21
79.5
 31
0.0
  0
LINE
  5
1D2B
  8
0
 62
     0
 10
814.07271390372273
 20
79.5
 30
0.0
 11
827.33069858695308
 21
79.5
 31
0.0
  0
LINE
  5
1D2C
  8
0
 62
     0
 10
1011.580698586953
 20
79.5
 30
0.0
 11
1027.5779205581271
 21
79.5
 31
0.0
  0
LINE
  5
1D2D
  8
0
 62
     0
 10
772.07318418770012
 20
79.5
 30
0.0
 11
788.089698241625
 21
79.5
 31
0.0
  0
LINE
  5
1D2E
  8
0
 62
     0
 10
1053.5731841877
 20
79.5
 30
0.0
 11
1069.589698241625
 21
79.5
 31
0.0
  0
LINE
  5
1D2F
  8
0
 62
     0
 10
730.08069858695364
 20
79.5
 30
0.0
 11
746.07792055812695
 21
79.5
 31
0.0
  0
LINE
  5
1D30
  8
0
 62
     0
 10
1095.5727139037219
 20
79.5
 30
0.0
 11
1108.8306985869531
 21
79.5
 31
0.0
  0
LINE
  5
1D31
  8
0
 62
     0
 10
690.83069858695319
 20
79.5
 30
0.0
 11
704.08069858695274
 21
79.5
 31
0.0
  0
LINE
  5
1D32
  8
0
 62
     0
 10
912.82318418770285
 20
81.0
 30
0.0
 11
928.83969824162762
 21
81.0
 31
0.0
  0
LINE
  5
1D33
  8
0
 62
     0
 10
870.83069858695637
 20
81.0
 30
0.0
 11
886.82792055812945
 21
81.0
 31
0.0
  0
LINE
  5
1D34
  8
0
 62
     0
 10
954.82271390372546
 20
81.0
 30
0.0
 11
968.08069858695615
 21
81.0
 31
0.0
  0
LINE
  5
1D35
  8
0
 62
     0
 10
831.58069858695615
 20
81.0
 30
0.0
 11
844.83069858695546
 21
81.0
 31
0.0
  0
LINE
  5
1D36
  8
0
 62
     0
 10
972.33069858695319
 20
81.0
 30
0.0
 11
985.58069858695274
 21
81.0
 31
0.0
  0
LINE
  5
1D37
  8
0
 62
     0
 10
814.07271390372273
 20
81.0
 30
0.0
 11
827.33069858695308
 21
81.0
 31
0.0
  0
LINE
  5
1D38
  8
0
 62
     0
 10
1011.580698586953
 20
81.0
 30
0.0
 11
1027.5779205581271
 21
81.0
 31
0.0
  0
LINE
  5
1D39
  8
0
 62
     0
 10
772.07318418770012
 20
81.0
 30
0.0
 11
788.089698241625
 21
81.0
 31
0.0
  0
LINE
  5
1D3A
  8
0
 62
     0
 10
1053.5731841877
 20
81.0
 30
0.0
 11
1069.589698241625
 21
81.0
 31
0.0
  0
LINE
  5
1D3B
  8
0
 62
     0
 10
730.08069858695364
 20
81.0
 30
0.0
 11
746.07792055812695
 21
81.0
 31
0.0
  0
LINE
  5
1D3C
  8
0
 62
     0
 10
1095.5727139037219
 20
81.0
 30
0.0
 11
1108.8306985869531
 21
81.0
 31
0.0
  0
LINE
  5
1D3D
  8
0
 62
     0
 10
690.83069858695319
 20
81.0
 30
0.0
 11
704.08069858695274
 21
81.0
 31
0.0
  0
LINE
  5
1D3E
  8
0
 62
     0
 10
912.82318418770285
 20
82.5
 30
0.0
 11
928.83969824162762
 21
82.5
 31
0.0
  0
LINE
  5
1D3F
  8
0
 62
     0
 10
870.83069858695637
 20
82.5
 30
0.0
 11
886.82792055812945
 21
82.5
 31
0.0
  0
LINE
  5
1D40
  8
0
 62
     0
 10
954.82271390372546
 20
82.5
 30
0.0
 11
968.08069858695615
 21
82.5
 31
0.0
  0
LINE
  5
1D41
  8
0
 62
     0
 10
831.58069858695615
 20
82.5
 30
0.0
 11
844.83069858695546
 21
82.5
 31
0.0
  0
LINE
  5
1D42
  8
0
 62
     0
 10
972.33069858695319
 20
82.5
 30
0.0
 11
985.58069858695274
 21
82.5
 31
0.0
  0
LINE
  5
1D43
  8
0
 62
     0
 10
814.07271390372273
 20
82.5
 30
0.0
 11
827.33069858695308
 21
82.5
 31
0.0
  0
LINE
  5
1D44
  8
0
 62
     0
 10
1011.580698586953
 20
82.5
 30
0.0
 11
1027.5779205581271
 21
82.5
 31
0.0
  0
LINE
  5
1D45
  8
0
 62
     0
 10
772.07318418770012
 20
82.5
 30
0.0
 11
788.089698241625
 21
82.5
 31
0.0
  0
LINE
  5
1D46
  8
0
 62
     0
 10
1053.5731841877
 20
82.5
 30
0.0
 11
1069.589698241625
 21
82.5
 31
0.0
  0
LINE
  5
1D47
  8
0
 62
     0
 10
730.08069858695364
 20
82.5
 30
0.0
 11
746.07792055812695
 21
82.5
 31
0.0
  0
LINE
  5
1D48
  8
0
 62
     0
 10
1095.5727139037219
 20
82.5
 30
0.0
 11
1108.8306985869531
 21
82.5
 31
0.0
  0
LINE
  5
1D49
  8
0
 62
     0
 10
690.83069858695319
 20
82.5
 30
0.0
 11
704.08069858695274
 21
82.5
 31
0.0
  0
LINE
  5
1D4A
  8
0
 62
     0
 10
912.82318418770285
 20
84.0
 30
0.0
 11
928.83969824162762
 21
84.0
 31
0.0
  0
LINE
  5
1D4B
  8
0
 62
     0
 10
870.83069858695637
 20
84.0
 30
0.0
 11
886.82792055812945
 21
84.0
 31
0.0
  0
LINE
  5
1D4C
  8
0
 62
     0
 10
954.82271390372546
 20
84.0
 30
0.0
 11
968.08069858695615
 21
84.0
 31
0.0
  0
LINE
  5
1D4D
  8
0
 62
     0
 10
831.58069858695615
 20
84.0
 30
0.0
 11
844.83069858695546
 21
84.0
 31
0.0
  0
LINE
  5
1D4E
  8
0
 62
     0
 10
972.33069858695296
 20
84.0
 30
0.0
 11
985.58069858695274
 21
84.0
 31
0.0
  0
LINE
  5
1D4F
  8
0
 62
     0
 10
814.07271390372273
 20
84.0
 30
0.0
 11
827.33069858695308
 21
84.0
 31
0.0
  0
LINE
  5
1D50
  8
0
 62
     0
 10
1011.580698586953
 20
84.0
 30
0.0
 11
1027.5779205581271
 21
84.0
 31
0.0
  0
LINE
  5
1D51
  8
0
 62
     0
 10
772.07318418770012
 20
84.0
 30
0.0
 11
788.089698241625
 21
84.0
 31
0.0
  0
LINE
  5
1D52
  8
0
 62
     0
 10
1053.5731841877
 20
84.0
 30
0.0
 11
1069.589698241625
 21
84.0
 31
0.0
  0
LINE
  5
1D53
  8
0
 62
     0
 10
730.08069858695364
 20
84.0
 30
0.0
 11
746.07792055812695
 21
84.0
 31
0.0
  0
LINE
  5
1D54
  8
0
 62
     0
 10
1095.5727139037219
 20
84.0
 30
0.0
 11
1108.8306985869531
 21
84.0
 31
0.0
  0
LINE
  5
1D55
  8
0
 62
     0
 10
690.83069858695296
 20
84.0
 30
0.0
 11
704.08069858695274
 21
84.0
 31
0.0
  0
LINE
  5
1D56
  8
0
 62
     0
 10
912.82318418770285
 20
85.5
 30
0.0
 11
928.83969824162762
 21
85.5
 31
0.0
  0
LINE
  5
1D57
  8
0
 62
     0
 10
870.83069858695637
 20
85.5
 30
0.0
 11
886.82792055812945
 21
85.5
 31
0.0
  0
LINE
  5
1D58
  8
0
 62
     0
 10
954.82271390372546
 20
85.5
 30
0.0
 11
968.08069858695615
 21
85.5
 31
0.0
  0
LINE
  5
1D59
  8
0
 62
     0
 10
831.58069858695615
 20
85.5
 30
0.0
 11
844.83069858695546
 21
85.5
 31
0.0
  0
LINE
  5
1D5A
  8
0
 62
     0
 10
972.33069858695296
 20
85.5
 30
0.0
 11
985.58069858695274
 21
85.5
 31
0.0
  0
LINE
  5
1D5B
  8
0
 62
     0
 10
814.07271390372273
 20
85.5
 30
0.0
 11
827.33069858695308
 21
85.5
 31
0.0
  0
LINE
  5
1D5C
  8
0
 62
     0
 10
1011.580698586953
 20
85.5
 30
0.0
 11
1027.5779205581271
 21
85.5
 31
0.0
  0
LINE
  5
1D5D
  8
0
 62
     0
 10
772.07318418770012
 20
85.5
 30
0.0
 11
788.089698241625
 21
85.5
 31
0.0
  0
LINE
  5
1D5E
  8
0
 62
     0
 10
1053.5731841877
 20
85.5
 30
0.0
 11
1069.589698241625
 21
85.5
 31
0.0
  0
LINE
  5
1D5F
  8
0
 62
     0
 10
730.08069858695364
 20
85.5
 30
0.0
 11
746.07792055812695
 21
85.5
 31
0.0
  0
LINE
  5
1D60
  8
0
 62
     0
 10
1095.5727139037219
 20
85.5
 30
0.0
 11
1108.8306985869531
 21
85.5
 31
0.0
  0
LINE
  5
1D61
  8
0
 62
     0
 10
690.83069858695296
 20
85.5
 30
0.0
 11
704.08069858695274
 21
85.5
 31
0.0
  0
LINE
  5
1D62
  8
0
 62
     0
 10
912.82318418770285
 20
87.0
 30
0.0
 11
928.83969824162762
 21
87.0
 31
0.0
  0
LINE
  5
1D63
  8
0
 62
     0
 10
870.83069858695637
 20
87.0
 30
0.0
 11
886.82792055812945
 21
87.0
 31
0.0
  0
LINE
  5
1D64
  8
0
 62
     0
 10
954.82271390372546
 20
87.0
 30
0.0
 11
968.08069858695615
 21
87.0
 31
0.0
  0
LINE
  5
1D65
  8
0
 62
     0
 10
831.58069858695615
 20
87.0
 30
0.0
 11
844.83069858695546
 21
87.0
 31
0.0
  0
LINE
  5
1D66
  8
0
 62
     0
 10
972.33069858695296
 20
87.0
 30
0.0
 11
985.58069858695274
 21
87.0
 31
0.0
  0
LINE
  5
1D67
  8
0
 62
     0
 10
814.07271390372273
 20
87.0
 30
0.0
 11
827.33069858695308
 21
87.0
 31
0.0
  0
LINE
  5
1D68
  8
0
 62
     0
 10
1011.580698586953
 20
87.0
 30
0.0
 11
1027.5779205581271
 21
87.0
 31
0.0
  0
LINE
  5
1D69
  8
0
 62
     0
 10
772.07318418770012
 20
87.0
 30
0.0
 11
788.089698241625
 21
87.0
 31
0.0
  0
LINE
  5
1D6A
  8
0
 62
     0
 10
1053.5731841877
 20
87.0
 30
0.0
 11
1069.589698241625
 21
87.0
 31
0.0
  0
LINE
  5
1D6B
  8
0
 62
     0
 10
730.08069858695364
 20
87.0
 30
0.0
 11
746.07792055812695
 21
87.0
 31
0.0
  0
LINE
  5
1D6C
  8
0
 62
     0
 10
1095.5727139037219
 20
87.0
 30
0.0
 11
1108.8306985869531
 21
87.0
 31
0.0
  0
LINE
  5
1D6D
  8
0
 62
     0
 10
690.83069858695296
 20
87.0
 30
0.0
 11
704.08069858695274
 21
87.0
 31
0.0
  0
LINE
  5
1D6E
  8
0
 62
     0
 10
912.82318418770285
 20
88.499999999999986
 30
0.0
 11
928.83969824162762
 21
88.499999999999986
 31
0.0
  0
LINE
  5
1D6F
  8
0
 62
     0
 10
870.83069858695637
 20
88.499999999999986
 30
0.0
 11
886.82792055812945
 21
88.499999999999986
 31
0.0
  0
LINE
  5
1D70
  8
0
 62
     0
 10
954.82271390372546
 20
88.499999999999986
 30
0.0
 11
968.08069858695615
 21
88.499999999999986
 31
0.0
  0
LINE
  5
1D71
  8
0
 62
     0
 10
831.58069858695615
 20
88.499999999999986
 30
0.0
 11
844.83069858695546
 21
88.499999999999986
 31
0.0
  0
LINE
  5
1D72
  8
0
 62
     0
 10
972.33069858695296
 20
88.499999999999986
 30
0.0
 11
985.58069858695274
 21
88.499999999999986
 31
0.0
  0
LINE
  5
1D73
  8
0
 62
     0
 10
814.07271390372273
 20
88.499999999999986
 30
0.0
 11
827.33069858695308
 21
88.499999999999986
 31
0.0
  0
LINE
  5
1D74
  8
0
 62
     0
 10
1011.580698586953
 20
88.499999999999986
 30
0.0
 11
1027.5779205581271
 21
88.499999999999986
 31
0.0
  0
LINE
  5
1D75
  8
0
 62
     0
 10
772.07318418770012
 20
88.499999999999986
 30
0.0
 11
788.089698241625
 21
88.499999999999986
 31
0.0
  0
LINE
  5
1D76
  8
0
 62
     0
 10
1053.5731841877
 20
88.499999999999986
 30
0.0
 11
1069.589698241625
 21
88.499999999999986
 31
0.0
  0
LINE
  5
1D77
  8
0
 62
     0
 10
730.08069858695364
 20
88.499999999999986
 30
0.0
 11
746.07792055812695
 21
88.499999999999986
 31
0.0
  0
LINE
  5
1D78
  8
0
 62
     0
 10
1095.5727139037219
 20
88.499999999999986
 30
0.0
 11
1108.8306985869531
 21
88.499999999999986
 31
0.0
  0
LINE
  5
1D79
  8
0
 62
     0
 10
690.83069858695296
 20
88.499999999999986
 30
0.0
 11
704.08069858695274
 21
88.499999999999986
 31
0.0
  0
LINE
  5
1D7A
  8
0
 62
     0
 10
912.82318418770285
 20
90.0
 30
0.0
 11
928.83969824162762
 21
90.0
 31
0.0
  0
LINE
  5
1D7B
  8
0
 62
     0
 10
870.83069858695637
 20
90.0
 30
0.0
 11
886.82792055812945
 21
90.0
 31
0.0
  0
LINE
  5
1D7C
  8
0
 62
     0
 10
954.82271390372546
 20
90.0
 30
0.0
 11
968.08069858695615
 21
90.0
 31
0.0
  0
LINE
  5
1D7D
  8
0
 62
     0
 10
831.58069858695615
 20
90.0
 30
0.0
 11
844.83069858695546
 21
90.0
 31
0.0
  0
LINE
  5
1D7E
  8
0
 62
     0
 10
972.33069858695296
 20
90.0
 30
0.0
 11
985.58069858695274
 21
90.0
 31
0.0
  0
LINE
  5
1D7F
  8
0
 62
     0
 10
814.07271390372273
 20
90.0
 30
0.0
 11
827.33069858695308
 21
90.0
 31
0.0
  0
LINE
  5
1D80
  8
0
 62
     0
 10
1011.580698586953
 20
90.0
 30
0.0
 11
1027.5779205581271
 21
90.0
 31
0.0
  0
LINE
  5
1D81
  8
0
 62
     0
 10
772.07318418770012
 20
90.0
 30
0.0
 11
788.089698241625
 21
90.0
 31
0.0
  0
LINE
  5
1D82
  8
0
 62
     0
 10
1053.5731841877
 20
90.0
 30
0.0
 11
1069.589698241625
 21
90.0
 31
0.0
  0
LINE
  5
1D83
  8
0
 62
     0
 10
730.08069858695364
 20
90.0
 30
0.0
 11
746.07792055812695
 21
90.0
 31
0.0
  0
LINE
  5
1D84
  8
0
 62
     0
 10
1095.5727139037219
 20
90.0
 30
0.0
 11
1108.8306985869531
 21
90.0
 31
0.0
  0
LINE
  5
1D85
  8
0
 62
     0
 10
690.83069858695296
 20
90.0
 30
0.0
 11
704.08069858695274
 21
90.0
 31
0.0
  0
LINE
  5
1D86
  8
0
 62
     0
 10
912.82318418770285
 20
91.5
 30
0.0
 11
928.83969824162762
 21
91.5
 31
0.0
  0
LINE
  5
1D87
  8
0
 62
     0
 10
870.83069858695637
 20
91.5
 30
0.0
 11
886.82792055812945
 21
91.5
 31
0.0
  0
LINE
  5
1D88
  8
0
 62
     0
 10
954.82271390372546
 20
91.5
 30
0.0
 11
968.08069858695615
 21
91.5
 31
0.0
  0
LINE
  5
1D89
  8
0
 62
     0
 10
831.58069858695615
 20
91.5
 30
0.0
 11
844.83069858695546
 21
91.5
 31
0.0
  0
LINE
  5
1D8A
  8
0
 62
     0
 10
972.33069858695296
 20
91.5
 30
0.0
 11
985.58069858695274
 21
91.5
 31
0.0
  0
LINE
  5
1D8B
  8
0
 62
     0
 10
814.07271390372273
 20
91.5
 30
0.0
 11
827.33069858695308
 21
91.5
 31
0.0
  0
LINE
  5
1D8C
  8
0
 62
     0
 10
1011.580698586953
 20
91.5
 30
0.0
 11
1027.5779205581271
 21
91.5
 31
0.0
  0
LINE
  5
1D8D
  8
0
 62
     0
 10
772.07318418770012
 20
91.5
 30
0.0
 11
788.089698241625
 21
91.5
 31
0.0
  0
LINE
  5
1D8E
  8
0
 62
     0
 10
1053.5731841877
 20
91.5
 30
0.0
 11
1069.589698241625
 21
91.5
 31
0.0
  0
LINE
  5
1D8F
  8
0
 62
     0
 10
730.08069858695364
 20
91.5
 30
0.0
 11
746.07792055812695
 21
91.5
 31
0.0
  0
LINE
  5
1D90
  8
0
 62
     0
 10
1095.5727139037219
 20
91.5
 30
0.0
 11
1108.8306985869531
 21
91.5
 31
0.0
  0
LINE
  5
1D91
  8
0
 62
     0
 10
690.83069858695296
 20
91.5
 30
0.0
 11
704.08069858695274
 21
91.5
 31
0.0
  0
LINE
  5
1D92
  8
0
 62
     0
 10
912.82318418770285
 20
93.0
 30
0.0
 11
928.83969824162762
 21
93.0
 31
0.0
  0
LINE
  5
1D93
  8
0
 62
     0
 10
870.83069858695637
 20
93.0
 30
0.0
 11
886.82792055812945
 21
93.0
 31
0.0
  0
LINE
  5
1D94
  8
0
 62
     0
 10
954.82271390372546
 20
93.0
 30
0.0
 11
968.08069858695603
 21
93.0
 31
0.0
  0
LINE
  5
1D95
  8
0
 62
     0
 10
831.58069858695603
 20
93.0
 30
0.0
 11
844.83069858695546
 21
93.0
 31
0.0
  0
LINE
  5
1D96
  8
0
 62
     0
 10
972.33069858695296
 20
93.0
 30
0.0
 11
985.58069858695274
 21
93.0
 31
0.0
  0
LINE
  5
1D97
  8
0
 62
     0
 10
814.07271390372273
 20
93.0
 30
0.0
 11
827.33069858695308
 21
93.0
 31
0.0
  0
LINE
  5
1D98
  8
0
 62
     0
 10
1011.580698586953
 20
93.0
 30
0.0
 11
1027.5779205581271
 21
93.0
 31
0.0
  0
LINE
  5
1D99
  8
0
 62
     0
 10
772.07318418770012
 20
93.0
 30
0.0
 11
788.089698241625
 21
93.0
 31
0.0
  0
LINE
  5
1D9A
  8
0
 62
     0
 10
1053.5731841877
 20
93.0
 30
0.0
 11
1069.589698241625
 21
93.0
 31
0.0
  0
LINE
  5
1D9B
  8
0
 62
     0
 10
730.08069858695364
 20
93.0
 30
0.0
 11
746.07792055812695
 21
93.0
 31
0.0
  0
LINE
  5
1D9C
  8
0
 62
     0
 10
1095.5727139037219
 20
93.0
 30
0.0
 11
1108.8306985869531
 21
93.0
 31
0.0
  0
LINE
  5
1D9D
  8
0
 62
     0
 10
690.83069858695296
 20
93.0
 30
0.0
 11
704.08069858695274
 21
93.0
 31
0.0
  0
LINE
  5
1D9E
  8
0
 62
     0
 10
912.82318418770285
 20
94.500000000000014
 30
0.0
 11
928.83969824162762
 21
94.500000000000014
 31
0.0
  0
LINE
  5
1D9F
  8
0
 62
     0
 10
870.83069858695637
 20
94.500000000000014
 30
0.0
 11
886.82792055812945
 21
94.500000000000014
 31
0.0
  0
LINE
  5
1DA0
  8
0
 62
     0
 10
954.82271390372546
 20
94.500000000000014
 30
0.0
 11
968.08069858695603
 21
94.500000000000014
 31
0.0
  0
LINE
  5
1DA1
  8
0
 62
     0
 10
831.58069858695603
 20
94.500000000000014
 30
0.0
 11
844.83069858695546
 21
94.500000000000014
 31
0.0
  0
LINE
  5
1DA2
  8
0
 62
     0
 10
972.33069858695285
 20
94.500000000000014
 30
0.0
 11
985.58069858695274
 21
94.500000000000014
 31
0.0
  0
LINE
  5
1DA3
  8
0
 62
     0
 10
814.07271390372273
 20
94.500000000000014
 30
0.0
 11
827.33069858695285
 21
94.500000000000014
 31
0.0
  0
LINE
  5
1DA4
  8
0
 62
     0
 10
1011.580698586953
 20
94.500000000000014
 30
0.0
 11
1027.5779205581271
 21
94.500000000000014
 31
0.0
  0
LINE
  5
1DA5
  8
0
 62
     0
 10
772.07318418770012
 20
94.500000000000014
 30
0.0
 11
788.089698241625
 21
94.500000000000014
 31
0.0
  0
LINE
  5
1DA6
  8
0
 62
     0
 10
1053.5731841877
 20
94.500000000000014
 30
0.0
 11
1069.589698241625
 21
94.500000000000014
 31
0.0
  0
LINE
  5
1DA7
  8
0
 62
     0
 10
730.08069858695364
 20
94.500000000000014
 30
0.0
 11
746.07792055812695
 21
94.500000000000014
 31
0.0
  0
LINE
  5
1DA8
  8
0
 62
     0
 10
1095.5727139037219
 20
94.500000000000014
 30
0.0
 11
1108.8306985869531
 21
94.500000000000014
 31
0.0
  0
LINE
  5
1DA9
  8
0
 62
     0
 10
690.83069858695285
 20
94.500000000000014
 30
0.0
 11
704.08069858695274
 21
94.500000000000014
 31
0.0
  0
LINE
  5
1DAA
  8
0
 62
     0
 10
912.82318418770285
 20
96.0
 30
0.0
 11
928.83969824162762
 21
96.0
 31
0.0
  0
LINE
  5
1DAB
  8
0
 62
     0
 10
870.83069858695637
 20
96.0
 30
0.0
 11
886.82792055812945
 21
96.0
 31
0.0
  0
LINE
  5
1DAC
  8
0
 62
     0
 10
954.82271390372546
 20
96.0
 30
0.0
 11
968.08069858695603
 21
96.0
 31
0.0
  0
LINE
  5
1DAD
  8
0
 62
     0
 10
831.58069858695603
 20
96.0
 30
0.0
 11
844.83069858695546
 21
96.0
 31
0.0
  0
LINE
  5
1DAE
  8
0
 62
     0
 10
972.33069858695285
 20
96.0
 30
0.0
 11
985.58069858695274
 21
96.0
 31
0.0
  0
LINE
  5
1DAF
  8
0
 62
     0
 10
814.07271390372273
 20
96.0
 30
0.0
 11
827.33069858695285
 21
96.0
 31
0.0
  0
LINE
  5
1DB0
  8
0
 62
     0
 10
1011.580698586953
 20
96.0
 30
0.0
 11
1027.5779205581271
 21
96.0
 31
0.0
  0
LINE
  5
1DB1
  8
0
 62
     0
 10
772.07318418770012
 20
96.0
 30
0.0
 11
788.089698241625
 21
96.0
 31
0.0
  0
LINE
  5
1DB2
  8
0
 62
     0
 10
1053.5731841877
 20
96.0
 30
0.0
 11
1069.589698241625
 21
96.0
 31
0.0
  0
LINE
  5
1DB3
  8
0
 62
     0
 10
730.08069858695364
 20
96.0
 30
0.0
 11
746.07792055812695
 21
96.0
 31
0.0
  0
LINE
  5
1DB4
  8
0
 62
     0
 10
1095.5727139037219
 20
96.0
 30
0.0
 11
1108.8306985869531
 21
96.0
 31
0.0
  0
LINE
  5
1DB5
  8
0
 62
     0
 10
690.83069858695285
 20
96.0
 30
0.0
 11
704.08069858695274
 21
96.0
 31
0.0
  0
LINE
  5
1DB6
  8
0
 62
     0
 10
912.82318418770285
 20
97.5
 30
0.0
 11
928.83969824162762
 21
97.5
 31
0.0
  0
LINE
  5
1DB7
  8
0
 62
     0
 10
870.83069858695637
 20
97.5
 30
0.0
 11
886.82792055812945
 21
97.5
 31
0.0
  0
LINE
  5
1DB8
  8
0
 62
     0
 10
954.82271390372546
 20
97.5
 30
0.0
 11
968.08069858695603
 21
97.5
 31
0.0
  0
LINE
  5
1DB9
  8
0
 62
     0
 10
831.58069858695603
 20
97.5
 30
0.0
 11
844.83069858695546
 21
97.5
 31
0.0
  0
LINE
  5
1DBA
  8
0
 62
     0
 10
972.33069858695285
 20
97.5
 30
0.0
 11
985.58069858695274
 21
97.5
 31
0.0
  0
LINE
  5
1DBB
  8
0
 62
     0
 10
814.07271390372273
 20
97.5
 30
0.0
 11
827.33069858695285
 21
97.5
 31
0.0
  0
LINE
  5
1DBC
  8
0
 62
     0
 10
1011.580698586953
 20
97.5
 30
0.0
 11
1027.5779205581271
 21
97.5
 31
0.0
  0
LINE
  5
1DBD
  8
0
 62
     0
 10
772.07318418770012
 20
97.5
 30
0.0
 11
788.089698241625
 21
97.5
 31
0.0
  0
LINE
  5
1DBE
  8
0
 62
     0
 10
1053.5731841877
 20
97.5
 30
0.0
 11
1069.589698241625
 21
97.5
 31
0.0
  0
LINE
  5
1DBF
  8
0
 62
     0
 10
730.08069858695364
 20
97.5
 30
0.0
 11
746.07792055812695
 21
97.5
 31
0.0
  0
LINE
  5
1DC0
  8
0
 62
     0
 10
1095.5727139037219
 20
97.5
 30
0.0
 11
1108.8306985869531
 21
97.5
 31
0.0
  0
LINE
  5
1DC1
  8
0
 62
     0
 10
690.83069858695285
 20
97.5
 30
0.0
 11
704.08069858695274
 21
97.5
 31
0.0
  0
ENDBLK
  5
1DC3
  8
0
  0
ENDSEC
  0
SECTION
  2
ENTITIES
  0
LINE
  5
5FF
  8
0
 10
483.61280857830798
 20
139.12500450375691
 30
0.0
 11
483.67390095502151
 21
139.12500450375691
 31
0.0
  0
LINE
  5
600
  8
0
 10
483.67390095502151
 20
155.62500450375649
 30
0.0
 11
483.61280857830798
 21
155.62500450375649
 31
0.0
  0
LINE
  5
603
  8
0
 10
624.54390179425366
 20
139.12500450375691
 30
0.0
 11
624.60499607830707
 21
139.12500450375691
 31
0.0
  0
LINE
  5
604
  8
0
 10
624.60499607830707
 20
155.62500450375649
 30
0.0
 11
624.54390179425366
 21
155.62500450375649
 31
0.0
  0
LINE
  5
605
  8
0
 10
624.60499607830707
 20
147.37500450375671
 30
0.0
 11
624.60499607830707
 21
143.54104277955369
 31
0.0
  0
LINE
  5
606
  8
0
 10
624.60499607830707
 20
143.54103833439561
 30
0.0
 11
624.60499607830707
 21
141.9042425732701
 31
0.0
  0
LINE
  5
607
  8
0
 10
624.60499607830707
 20
141.9042400503607
 30
0.0
 11
624.60499607830707
 21
139.661120501602
 31
0.0
  0
LINE
  5
608
  8
0
 10
624.60499607830707
 20
139.66111714643731
 30
0.0
 11
624.60499607830707
 21
139.18515629244769
 31
0.0
  0
LINE
  5
60A
  8
0
 10
624.60499607830707
 20
155.5648527150656
 30
0.0
 11
624.60499607830707
 21
155.08888850591131
 31
0.0
  0
LINE
  5
60B
  8
0
 10
624.60499607830707
 20
155.08888731582149
 30
0.0
 11
624.60499607830707
 21
151.20897385138991
 31
0.0
  0
LINE
  5
60C
  8
0
 10
624.60499607830707
 20
151.2089706731177
 30
0.0
 11
624.60499607830707
 21
147.3750083558391
 31
0.0
  0
LINE
  5
60D
  8
0
 10
624.48390232830798
 20
138.37500450375751
 30
0.0
 11
624.54390232830667
 21
138.37500450375751
 31
0.0
  0
LINE
  5
60E
  8
0
 10
624.54390232830667
 20
156.37500450375751
 30
0.0
 11
624.48390232830798
 21
156.37500450375751
 31
0.0
  0
LINE
  5
60F
  8
0
 10
624.5439023283069
 20
147.37500450375731
 30
0.0
 11
624.5439023283069
 21
145.37231609815049
 31
0.0
  0
LINE
  5
610
  8
0
 10
624.5439023283069
 20
145.37231510866849
 30
0.0
 11
624.5439023283069
 21
143.47005512152739
 31
0.0
  0
LINE
  5
611
  8
0
 10
624.5439023283069
 20
143.47005085169931
 30
0.0
 11
624.5439023283069
 21
141.76359628702869
 31
0.0
  0
LINE
  5
612
  8
0
 10
624.5439023283069
 20
141.76359204160511
 30
0.0
 11
624.5439023283069
 21
140.33852116154509
 31
0.0
  0
LINE
  5
613
  8
0
 10
624.5439023283069
 20
140.33851618560661
 30
0.0
 11
624.5439023283069
 21
139.26628546006199
 31
0.0
  0
LINE
  5
614
  8
0
 10
624.5439023283069
 20
139.26628469263551
 30
0.0
 11
624.5439023283069
 21
138.60065329412089
 31
0.0
  0
LINE
  5
615
  8
0
 10
624.5439023283069
 20
138.60064967398989
 30
0.0
 11
624.5439023283069
 21
138.37500450375731
 31
0.0
  0
LINE
  5
616
  8
0
 10
624.5439023283069
 20
156.37500450375731
 30
0.0
 11
624.5439023283069
 21
156.1493557133937
 31
0.0
  0
LINE
  5
617
  8
0
 10
624.5439023283069
 20
156.1493543651207
 30
0.0
 11
624.5439023283069
 21
155.48372431487911
 31
0.0
  0
LINE
  5
618
  8
0
 10
624.5439023283069
 20
155.4837204299435
 30
0.0
 11
624.5439023283069
 21
154.4114883420639
 31
0.0
  0
LINE
  5
619
  8
0
 10
624.5439023283069
 20
154.41148784596959
 30
0.0
 11
624.5439023283069
 21
151.27996153126151
 31
0.0
  0
LINE
  5
61A
  8
0
 10
624.5439023283069
 20
151.27995815581531
 30
0.0
 11
624.5439023283069
 21
147.3750083506587
 31
0.0
  0
LINE
  5
61B
  8
0
 10
483.61280857830798
 20
139.12500450376129
 30
0.0
 11
483.67390095502151
 21
139.12500450376129
 31
0.0
  0
LINE
  5
61C
  8
0
 10
483.67390095502151
 20
155.62500450376129
 30
0.0
 11
483.61280857830798
 21
155.62500450376129
 31
0.0
  0
LINE
  5
61D
  8
0
 10
483.6128085783065
 20
139.18515629245221
 30
0.0
 11
483.6128085783065
 21
139.661117146435
 31
0.0
  0
LINE
  5
61E
  8
0
 10
483.6128085783065
 20
139.66112050160649
 30
0.0
 11
483.6128085783065
 21
140.58538761013841
 31
0.0
  0
LINE
  5
61F
  8
0
 10
483.6128085783065
 20
140.5853886943101
 30
0.0
 11
483.6128085783065
 21
141.90424005035999
 31
0.0
  0
LINE
  5
620
  8
0
 10
483.6128085783065
 20
141.9042425732745
 30
0.0
 11
483.6128085783065
 21
147.37500450376101
 31
0.0
  0
LINE
  5
621
  8
0
 10
483.6128085783065
 20
147.3750083558391
 30
0.0
 11
483.6128085783065
 21
151.20897067312231
 31
0.0
  0
LINE
  5
622
  8
0
 10
483.6128085783065
 20
151.20897385138949
 30
0.0
 11
483.6128085783065
 21
152.84576498913449
 31
0.0
  0
LINE
  5
623
  8
0
 10
483.6128085783065
 20
152.84576643424771
 30
0.0
 11
483.6128085783065
 21
154.16461703737329
 31
0.0
  0
LINE
  5
624
  8
0
 10
483.6128085783065
 20
154.1646213973838
 30
0.0
 11
483.6128085783065
 21
155.0888873158226
 31
0.0
  0
LINE
  5
625
  8
0
 10
483.6128085783065
 20
155.0888885059158
 30
0.0
 11
483.6128085783065
 21
155.56485271507009
 31
0.0
  0
LINE
  5
627
  8
0
 10
483.67390232830718
 20
138.375004503762
 30
0.0
 11
483.73390232830712
 21
138.375004503762
 31
0.0
  0
LINE
  5
628
  8
0
 10
483.73390232830712
 20
156.375004503762
 30
0.0
 11
483.67390232830718
 21
156.375004503762
 31
0.0
  0
LINE
  5
629
  8
0
 10
483.6739023283065
 20
138.3750045037618
 30
0.0
 11
483.6739023283065
 21
138.6006496739854
 31
0.0
  0
LINE
  5
62A
  8
0
 10
483.6739023283065
 20
138.60065329412541
 30
0.0
 11
483.67390232830638
 21
140.3385161856057
 31
0.0
  0
LINE
  5
62B
  8
0
 10
483.67390232830638
 20
140.33852116154949
 30
0.0
 11
483.67390232830638
 21
141.76359204160451
 31
0.0
  0
LINE
  5
62C
  8
0
 10
483.67390232830638
 20
141.7635962870331
 30
0.0
 11
483.67390232830638
 21
145.37231510866869
 31
0.0
  0
LINE
  5
62D
  8
0
 10
483.67390232830638
 20
145.3723160981549
 30
0.0
 11
483.67390232830638
 21
147.37500450376169
 31
0.0
  0
LINE
  5
62E
  8
0
 10
483.67390232830638
 20
147.37500835065859
 30
0.0
 11
483.67390232830638
 21
149.37769009877809
 31
0.0
  0
LINE
  5
62F
  8
0
 10
483.67390232830638
 20
149.37769290936859
 30
0.0
 11
483.67390232830638
 21
151.2799581558198
 31
0.0
  0
LINE
  5
630
  8
0
 10
483.67390232830638
 20
151.27996153126119
 30
0.0
 11
483.67390232830638
 21
154.41148784597411
 31
0.0
  0
LINE
  5
631
  8
0
 10
483.67390232830638
 20
154.411488342063
 30
0.0
 11
483.6739023283065
 21
156.14935436512221
 31
0.0
  0
LINE
  5
632
  8
0
 10
483.6739023283065
 20
156.14935571339819
 30
0.0
 11
483.6739023283065
 21
156.3750045037618
 31
0.0
  0
LINE
  5
633
  8
0
 10
624.54390179425366
 20
139.12500450375691
 30
0.0
 11
624.60499607830707
 21
139.12500450375691
 31
0.0
  0
LINE
  5
634
  8
0
 10
624.60499607830707
 20
155.62500450375649
 30
0.0
 11
624.54390179425366
 21
155.62500450375649
 31
0.0
  0
LINE
  5
637
  8
0
 10
483.73390232830673
 20
177.37500450375751
 30
0.0
 11
624.48390232830388
 21
177.37500450375751
 31
0.0
  0
LINE
  5
638
  8
0
 10
624.48390232830388
 20
100.00000450375769
 30
0.0
 11
483.73390232830673
 21
100.00000450375769
 31
0.0
  0
LINE
  5
639
  8
0
 10
483.73390232830673
 20
100.00000450375769
 30
0.0
 11
483.73390232830673
 21
177.37500450375751
 31
0.0
  0
LINE
  5
63A
  8
0
 10
624.48390232830388
 20
100.00000450375769
 30
0.0
 11
624.48390232830388
 21
177.37500450375751
 31
0.0
  0
LINE
  5
63B
  8
0
 10
483.73390232830712
 20
100.00000450375769
 30
0.0
 11
625.73390232830695
 21
100.00000450375769
 31
0.0
  0
LINE
  5
63C
  8
0
 10
625.73390232830695
 20
0.0000045037577365
 30
0.0
 11
483.73390232830712
 21
0.0000045037577365
 31
0.0
  0
LINE
  5
63D
  8
0
 10
483.73390232830712
 20
100.00000450375769
 30
0.0
 11
483.73390232830712
 21
0.0000045037577365
 31
0.0
  0
LINE
  5
63E
  8
0
 10
625.73390232830695
 20
0.0000045037577365
 30
0.0
 11
625.73390232830695
 21
100.00000450375769
 31
0.0
  0
LINE
  5
648
  8
0
 10
624.73390232830695
 20
173.62500450375819
 30
0.0
 11
624.48390232830798
 21
173.62500450375819
 31
0.0
  0
LINE
  5
649
  8
0
 10
624.48390232830798
 20
165.62500450375799
 30
0.0
 11
624.73390232830695
 21
165.62500450375799
 31
0.0
  0
LINE
  5
64A
  8
0
 10
624.73390232830695
 20
173.62500450375811
 30
0.0
 11
624.73390232830695
 21
173.488710545641
 31
0.0
  0
LINE
  5
64B
  8
0
 10
624.73390232830695
 20
173.48870780891431
 30
0.0
 11
624.73390232830695
 21
173.08910611889581
 31
0.0
  0
LINE
  5
64C
  8
0
 10
624.73390232830695
 20
173.08910469300091
 30
0.0
 11
624.73390232830695
 21
170.6602806841681
 31
0.0
  0
LINE
  5
64D
  8
0
 10
624.73390232830695
 20
170.6602790478118
 30
0.0
 11
624.73390232830695
 21
169.62500450375799
 31
0.0
  0
LINE
  5
64E
  8
0
 10
624.73390232830695
 20
169.62500064513341
 30
0.0
 11
624.73390232830695
 21
168.58973368684951
 31
0.0
  0
LINE
  5
64F
  8
0
 10
624.73390232830695
 20
168.58972832334791
 30
0.0
 11
624.73390232830695
 21
166.1609074566511
 31
0.0
  0
LINE
  5
650
  8
0
 10
624.73390232830695
 20
166.16090288862031
 30
0.0
 11
624.73390232830695
 21
165.62500450375799
 31
0.0
  0
ARC
  5
651
  8
0
 10
548.98390232830604
 20
40.50000450375812
 30
0.0
 40
1.50000000000001
 50
359.99999999999898
 51
179.99999999999901
  0
ARC
  5
652
  8
0
 10
548.98390232830604
 20
40.50000450375812
 30
0.0
 40
1.499999999999988
 50
180.00000000000071
 51
0.0000000000001527
  0
ARC
  5
653
  8
0
 10
488.48390232830621
 20
29.000004503758142
 30
0.0
 40
1.4999999999999849
 50
359.9999999999996
 51
179.9999999999996
  0
ARC
  5
654
  8
0
 10
488.48390232830621
 20
29.000004503758142
 30
0.0
 40
1.500000000000004
 50
180.0000000000002
 51
359.9999999999992
  0
ARC
  5
655
  8
0
 10
487.10890232830599
 20
6.62500450375813
 30
0.0
 40
0.9999999999999992
 50
359.9999999999996
 51
179.99999999999969
  0
ARC
  5
656
  8
0
 10
487.10890232830599
 20
6.62500450375813
 30
0.0
 40
1.0000000000000011
 50
180.00000000000011
 51
359.99999999999937
  0
ARC
  5
657
  8
0
 10
510.85890232830633
 20
13.500004503758159
 30
0.0
 40
5.0000000000000151
 50
359.99999999999932
 51
179.9999999999996
  0
ARC
  5
658
  8
0
 10
510.85890232830633
 20
13.500004503758159
 30
0.0
 40
4.9999999999999991
 50
180.00000000000031
 51
359.99999999999949
  0
CIRCLE
  5
659
  8
0
 10
506.48390232830633
 20
44.250004503757722
 30
0.0
 40
11.18749999999998
  0
ARC
  5
65A
  8
0
 10
899.8306985869566
 20
147.3750045037566
 30
0.0
 40
8.2500000000000089
 50
179.99999999999969
 51
359.99999999999881
  0
ARC
  5
65B
  8
0
 10
899.8306985869566
 20
147.3750045037566
 30
0.0
 40
8.2500000000000053
 50
359.9999999999996
 51
179.9999999999998
  0
ARC
  5
65C
  8
0
 10
899.8306985869566
 20
147.3750045037566
 30
0.0
 40
7.687499999999992
 50
0.0000000000009414
 51
180.0000000000002
  0
ARC
  5
65D
  8
0
 10
899.8306985869566
 20
147.3750045037566
 30
0.0
 40
7.687499999999992
 50
180.00000000000011
 51
0.0000000000000509
  0
LINE
  5
65E
  8
0
 10
904.95319936094472
 20
144.93314865495921
 30
0.0
 11
904.75825888475413
 21
144.48423992480051
 31
0.0
  0
LINE
  5
65F
  8
0
 10
904.75825888475413
 20
144.48423992480051
 30
0.0
 11
904.30736602761124
 21
144.32699786130851
 31
0.0
  0
LINE
  5
660
  8
0
 10
904.30736602761124
 20
144.32699786130851
 30
0.0
 11
903.98283725777003
 21
144.3912339724196
 31
0.0
  0
LINE
  5
661
  8
0
 10
903.98283725777003
 20
144.3912339724196
 30
0.0
 11
903.74734618634147
 21
144.58394230575291
 31
0.0
  0
LINE
  5
662
  8
0
 10
903.74734618634147
 20
144.58394230575291
 30
0.0
 11
903.55637396411919
 21
145.34187881368939
 31
0.0
  0
LINE
  5
663
  8
0
 10
903.55637396411919
 20
145.34187881368939
 30
0.0
 11
903.7404017418969
 21
146.10576770257831
 31
0.0
  0
LINE
  5
664
  8
0
 10
903.7404017418969
 20
146.10576770257831
 30
0.0
 11
903.97018844824606
 21
146.29549984543539
 31
0.0
  0
LINE
  5
665
  8
0
 10
903.97018844824606
 20
146.29549984543539
 30
0.0
 11
904.29149301173811
 21
146.35874389305451
 31
0.0
  0
LINE
  5
666
  8
0
 10
904.29149301173811
 20
146.35874389305451
 30
0.0
 11
904.75974697999231
 21
146.21539071845129
 31
0.0
  0
LINE
  5
667
  8
0
 10
904.75974697999231
 20
146.21539071845129
 30
0.0
 11
904.95319936094472
 21
145.7902915121021
 31
0.0
  0
LINE
  5
668
  8
0
 10
904.95319936094472
 20
145.7902915121021
 30
0.0
 11
906.09605650380172
 21
145.7902915121021
 31
0.0
  0
LINE
  5
669
  8
0
 10
906.09605650380172
 20
145.7902915121021
 30
0.0
 11
905.93583824983341
 21
146.43798496448301
 31
0.0
  0
LINE
  5
66A
  8
0
 10
905.93583824983341
 20
146.43798496448301
 30
0.0
 11
905.568278726024
 21
146.9167796073402
 31
0.0
  0
LINE
  5
66B
  8
0
 10
905.568278726024
 20
146.9167796073402
 30
0.0
 11
905.00925094824618
 21
147.21253853591159
 31
0.0
  0
LINE
  5
66C
  8
0
 10
905.00925094824618
 20
147.21253853591159
 30
0.0
 11
904.27462793237305
 21
147.31112484543539
 31
0.0
  0
LINE
  5
66D
  8
0
 10
904.27462793237305
 20
147.31112484543539
 30
0.0
 11
903.47663686094461
 21
147.17918040099099
 31
0.0
  0
LINE
  5
66E
  8
0
 10
903.47663686094461
 20
147.17918040099099
 30
0.0
 11
902.86639380538895
 21
146.7833470676577
 31
0.0
  0
LINE
  5
66F
  8
0
 10
902.86639380538895
 20
146.7833470676577
 30
0.0
 11
902.47911701967473
 21
146.15933913114969
 31
0.0
  0
LINE
  5
670
  8
0
 10
902.47911701967473
 20
146.15933913114969
 30
0.0
 11
902.35002475777003
 21
145.3428708771815
 31
0.0
  0
LINE
  5
671
  8
0
 10
902.35002475777003
 20
145.3428708771815
 30
0.0
 11
902.47973705935726
 21
144.52454250416559
 31
0.0
  0
LINE
  5
672
  8
0
 10
902.47973705935726
 20
144.52454250416559
 30
0.0
 11
902.86887396411908
 21
143.90090659146719
 31
0.0
  0
LINE
  5
673
  8
0
 10
902.86887396411908
 20
143.90090659146719
 30
0.0
 11
903.48420134507148
 21
143.5061893295624
 31
0.0
  0
LINE
  5
674
  8
0
 10
903.48420134507148
 20
143.5061893295624
 30
0.0
 11
904.29248507523027
 21
143.37461690892749
 31
0.0
  0
LINE
  5
675
  8
0
 10
904.29248507523027
 20
143.37461690892749
 30
0.0
 11
905.0155753530081
 21
143.47679944861
 31
0.0
  0
LINE
  5
676
  8
0
 10
905.0155753530081
 20
143.47679944861
 30
0.0
 11
905.57175094824606
 21
143.7833470676577
 31
0.0
  0
LINE
  5
677
  8
0
 10
905.57175094824606
 20
143.7833470676577
 30
0.0
 11
905.93918646411919
 21
144.2751625438481
 31
0.0
  0
LINE
  5
678
  8
0
 10
905.93918646411919
 20
144.2751625438481
 30
0.0
 11
906.09605650380172
 21
144.93314865495921
 31
0.0
  0
LINE
  5
679
  8
0
 10
906.09605650380172
 20
144.93314865495921
 30
0.0
 11
904.95319936094472
 21
144.93314865495921
 31
0.0
  0
LINE
  5
67A
  8
0
 10
897.7314719831769
 20
145.70722284388251
 30
0.0
 11
898.90905134825641
 21
145.70722284388251
 31
0.0
  0
LINE
  5
67B
  8
0
 10
898.90905134825641
 20
145.70722284388251
 30
0.0
 11
899.05587674508172
 21
146.21515935181901
 31
0.0
  0
LINE
  5
67C
  8
0
 10
899.05587674508172
 20
146.21515935181901
 30
0.0
 11
900.25924976095484
 21
146.21515935181901
 31
0.0
  0
LINE
  5
67D
  8
0
 10
900.25924976095484
 20
146.21515935181901
 30
0.0
 11
900.40111484031968
 21
145.70722284388251
 31
0.0
  0
LINE
  5
67E
  8
0
 10
900.40111484031968
 20
145.70722284388251
 30
0.0
 11
901.6044878561928
 21
145.70722284388251
 31
0.0
  0
LINE
  5
67F
  8
0
 10
901.6044878561928
 20
145.70722284388251
 30
0.0
 11
900.27512277682774
 21
149.5167466534063
 31
0.0
  0
LINE
  5
680
  8
0
 10
900.27512277682774
 20
149.5167466534063
 30
0.0
 11
899.045956110161
 21
149.5167466534063
 31
0.0
  0
LINE
  5
681
  8
0
 10
899.045956110161
 20
149.5167466534063
 30
0.0
 11
897.7314719831769
 21
145.70722284388251
 31
0.0
  0
LINE
  5
682
  8
0
 10
899.27611484031979
 20
147.04055617721579
 30
0.0
 11
899.66202753873245
 21
148.34412760578721
 31
0.0
  0
LINE
  5
683
  8
0
 10
899.66202753873245
 20
148.34412760578721
 30
0.0
 11
900.03901166571654
 21
147.04055617721579
 31
0.0
  0
LINE
  5
684
  8
0
 10
900.03901166571654
 20
147.04055617721579
 30
0.0
 11
899.27611484031979
 21
147.04055617721579
 31
0.0
  0
LINE
  5
685
  8
0
 10
893.97074079291554
 20
147.4476111530627
 30
0.0
 11
895.67014555482024
 21
147.4476111530627
 31
0.0
  0
LINE
  5
686
  8
0
 10
895.67014555482024
 20
147.4476111530627
 30
0.0
 11
896.43800269767735
 21
147.48630162925321
 31
0.0
  0
LINE
  5
687
  8
0
 10
896.43800269767735
 20
147.48630162925321
 30
0.0
 11
896.85070111037578
 21
147.61824607369761
 31
0.0
  0
LINE
  5
688
  8
0
 10
896.85070111037578
 20
147.61824607369761
 30
0.0
 11
897.25893523735988
 21
148.00118258163411
 31
0.0
  0
LINE
  5
689
  8
0
 10
897.25893523735988
 20
148.00118258163411
 30
0.0
 11
897.39931222148687
 21
148.58848416893571
 31
0.0
  0
LINE
  5
68A
  8
0
 10
897.39931222148687
 20
148.58848416893571
 30
0.0
 11
897.25546301513782
 21
149.15148020068179
 31
0.0
  0
LINE
  5
68B
  8
0
 10
897.25546301513782
 20
149.15148020068179
 30
0.0
 11
896.8120106341853
 21
149.47638099433249
 31
0.0
  0
LINE
  5
68C
  8
0
 10
896.8120106341853
 20
149.47638099433249
 30
0.0
 11
897.15724872942349
 21
149.7938413117929
 31
0.0
  0
LINE
  5
68D
  8
0
 10
897.15724872942349
 20
149.7938413117929
 30
0.0
 11
897.27232809450288
 21
150.24622226417381
 31
0.0
  0
LINE
  5
68E
  8
0
 10
897.27232809450288
 20
150.24622226417381
 30
0.0
 11
897.118558253233
 21
150.80624210544369
 31
0.0
  0
LINE
  5
68F
  8
0
 10
897.118558253233
 20
150.80624210544369
 30
0.0
 11
896.67609793577265
 21
151.14602385147541
 31
0.0
  0
LINE
  5
690
  8
0
 10
896.67609793577265
 20
151.14602385147541
 30
0.0
 11
896.28076063418519
 21
151.2313413117929
 31
0.0
  0
LINE
  5
691
  8
0
 10
896.28076063418519
 20
151.2313413117929
 30
0.0
 11
895.54712968180434
 21
151.25713496258649
 31
0.0
  0
LINE
  5
692
  8
0
 10
895.54712968180434
 20
151.25713496258649
 30
0.0
 11
893.97074079291554
 21
151.25713496258649
 31
0.0
  0
LINE
  5
693
  8
0
 10
893.97074079291554
 20
151.25713496258649
 30
0.0
 11
893.97074079291554
 21
147.4476111530627
 31
0.0
  0
LINE
  5
694
  8
0
 10
895.17708999926492
 20
148.33650004195161
 30
0.0
 11
895.17708999926492
 21
149.03491274036429
 31
0.0
  0
LINE
  5
695
  8
0
 10
895.17708999926492
 20
149.03491274036429
 30
0.0
 11
895.72570111037589
 21
149.03491274036429
 31
0.0
  0
LINE
  5
696
  8
0
 10
895.72570111037589
 20
149.03491274036429
 30
0.0
 11
896.13492730085204
 21
148.9555476609992
 31
0.0
  0
LINE
  5
697
  8
0
 10
896.13492730085204
 20
148.9555476609992
 30
0.0
 11
896.25645507862976
 21
148.68868258163411
 31
0.0
  0
LINE
  5
698
  8
0
 10
896.25645507862976
 20
148.68868258163411
 30
0.0
 11
896.13740745958216
 21
148.4188413117929
 31
0.0
  0
LINE
  5
699
  8
0
 10
896.13740745958216
 20
148.4188413117929
 30
0.0
 11
895.73661380878855
 21
148.33650004195161
 31
0.0
  0
LINE
  5
69A
  8
0
 10
895.73661380878855
 20
148.33650004195161
 30
0.0
 11
895.17708999926492
 21
148.33650004195161
 31
0.0
  0
LINE
  5
69B
  8
0
 10
895.17708999926492
 20
149.733325438777
 30
0.0
 11
895.17708999926492
 21
150.36824607369761
 31
0.0
  0
LINE
  5
69C
  8
0
 10
895.17708999926492
 20
150.36824607369761
 30
0.0
 11
895.51141539609
 21
150.36824607369761
 31
0.0
  0
LINE
  5
69D
  8
0
 10
895.51141539609
 20
150.36824607369761
 30
0.0
 11
896.01984793577265
 21
150.3007857562373
 31
0.0
  0
LINE
  5
69E
  8
0
 10
896.01984793577265
 20
150.3007857562373
 30
0.0
 11
896.12947095164554
 21
150.0507857562373
 31
0.0
  0
LINE
  5
69F
  8
0
 10
896.12947095164554
 20
150.0507857562373
 30
0.0
 11
896.02728841196301
 21
149.80574607369761
 31
0.0
  0
LINE
  5
6A0
  8
0
 10
896.02728841196301
 20
149.80574607369761
 30
0.0
 11
895.6751058722806
 21
149.733325438777
 31
0.0
  0
LINE
  5
6A1
  8
0
 10
895.6751058722806
 20
149.733325438777
 30
0.0
 11
895.17708999926492
 21
149.733325438777
 31
0.0
  0
ARC
  5
6A2
  8
0
 10
899.83069858695626
 20
147.37500450375731
 30
0.0
 40
9.0000000000000213
 50
179.9999999999998
 51
359.99999999999881
  0
ARC
  5
6A3
  8
0
 10
899.83069858695626
 20
147.37500450375731
 30
0.0
 40
9.0000000000000053
 50
359.9999999999996
 51
179.9999999999998
  0
LINE
  5
6A4
  8
0
 10
829.9556985869624
 20
177.37500450375751
 30
0.0
 11
969.70569858695683
 21
177.37500450375751
 31
0.0
  0
LINE
  5
6A5
  8
0
 10
829.9556985869624
 20
100.00000450375769
 30
0.0
 11
829.9556985869624
 21
177.37500450375751
 31
0.0
  0
LINE
  5
6A6
  8
0
 10
969.70569858695683
 20
100.00000450375769
 30
0.0
 11
969.70569858695683
 21
177.37500450375751
 31
0.0
  0
LINE
  5
6A7
  8
0
 10
887.83069858695808
 20
6.0000045037577348
 30
0.0
 11
911.83069858695808
 21
6.0000045037584178
 31
0.0
  0
LINE
  5
6A8
  8
0
 10
887.8306985869558
 20
86.080200527385671
 30
0.0
 11
911.8306985869558
 21
86.080200527385912
 31
0.0
  0
LINE
  5
6A9
  8
0
 10
911.8306985869566
 20
4.0000045037577836
 30
0.0
 11
911.83069858695671
 21
98.375004503758362
 31
0.0
  0
LINE
  5
6AA
  8
0
 10
912.82318418770308
 20
98.375004503758362
 30
0.0
 11
912.82318418770285
 21
4.0000045037577836
 31
0.0
  0
LINE
  5
6AB
  8
0
 10
911.8306985869566
 20
4.0000045037577836
 30
0.0
 11
912.82318418770285
 21
4.0000045037577827
 31
0.0
  0
LINE
  5
6AC
  8
0
 10
912.82318418770308
 20
98.375004503758362
 30
0.0
 11
911.83069858695671
 21
98.375004503758362
 31
0.0
  0
LINE
  5
6AD
  8
0
 10
886.82792055812979
 20
4.0000045037578227
 30
0.0
 11
886.82792055813002
 21
98.375004503758404
 31
0.0
  0
LINE
  5
6AE
  8
0
 10
887.83069858695671
 20
98.375004503758404
 30
0.0
 11
887.83069858695649
 21
4.000004503757828
 31
0.0
  0
LINE
  5
6AF
  8
0
 10
886.82792055812979
 20
4.0000045037578227
 30
0.0
 11
887.83069858695649
 21
4.0000045037578218
 31
0.0
  0
LINE
  5
6B0
  8
0
 10
887.83069858695671
 20
98.375004503758404
 30
0.0
 11
886.82792055813002
 21
98.375004503758404
 31
0.0
  0
LINE
  5
6B1
  8
0
 10
929.83069858695808
 20
6.0000045037577348
 30
0.0
 11
953.83069858695808
 21
6.0000045037577348
 31
0.0
  0
LINE
  5
6B2
  8
0
 10
929.83069858695694
 20
86.080200527385514
 30
0.0
 11
953.83069858695671
 21
86.080200527385514
 31
0.0
  0
LINE
  5
6B3
  8
0
 10
928.83969824162796
 20
4.0000045037577632
 30
0.0
 11
928.83969824162796
 21
98.375004503758333
 31
0.0
  0
LINE
  5
6B4
  8
0
 10
929.83069858695671
 20
98.375004503758333
 30
0.0
 11
929.83069858695649
 21
4.0000045037577632
 31
0.0
  0
LINE
  5
6B5
  8
0
 10
928.83969824162796
 20
4.0000045037577632
 30
0.0
 11
929.83069858695649
 21
4.0000045037577632
 31
0.0
  0
LINE
  5
6B6
  8
0
 10
929.83069858695671
 20
98.375004503758333
 30
0.0
 11
928.83969824162796
 21
98.375004503758333
 31
0.0
  0
LINE
  5
6B7
  8
0
 10
953.83069858695649
 20
4.0000045037577223
 30
0.0
 11
953.83069858695671
 21
98.375004503758291
 31
0.0
  0
LINE
  5
6B8
  8
0
 10
954.8227139037258
 20
98.375004503758291
 30
0.0
 11
954.82271390372568
 21
4.0000045037577214
 31
0.0
  0
LINE
  5
6B9
  8
0
 10
954.82271390372568
 20
4.0000045037577214
 30
0.0
 11
953.83069858695649
 21
4.0000045037577223
 31
0.0
  0
LINE
  5
6BA
  8
0
 10
954.8227139037258
 20
98.375004503758291
 30
0.0
 11
953.83069858695671
 21
98.375004503758291
 31
0.0
  0
LINE
  5
6BB
  8
0
 10
845.83069858695831
 20
6.0000045037573919
 30
0.0
 11
869.83069858695671
 21
6.0000045037577348
 31
0.0
  0
LINE
  5
6BC
  8
0
 10
845.8306985869558
 20
86.080200527385244
 30
0.0
 11
869.83069858695569
 21
86.080200527385514
 31
0.0
  0
LINE
  5
6BD
  8
0
 10
869.83069858695637
 20
4.0000045037578484
 30
0.0
 11
869.83069858695671
 21
98.375004503758404
 31
0.0
  0
LINE
  5
6BE
  8
0
 10
870.83069858695671
 20
98.375004503758404
 30
0.0
 11
870.83069858695649
 21
4.0000045037578484
 31
0.0
  0
LINE
  5
6BF
  8
0
 10
869.83069858695637
 20
4.0000045037578484
 30
0.0
 11
870.83069858695649
 21
4.0000045037578484
 31
0.0
  0
LINE
  5
6C0
  8
0
 10
870.83069858695671
 20
98.375004503758404
 30
0.0
 11
869.83069858695671
 21
98.375004503758404
 31
0.0
  0
LINE
  5
6C1
  8
0
 10
844.83069858695637
 20
4.0000045037578911
 30
0.0
 11
844.83069858695671
 21
98.375004503758475
 31
0.0
  0
LINE
  5
6C2
  8
0
 10
845.83069858695671
 20
98.375004503758475
 30
0.0
 11
845.83069858695649
 21
4.0000045037578911
 31
0.0
  0
LINE
  5
6C3
  8
0
 10
844.83069858695637
 20
4.0000045037578911
 30
0.0
 11
845.83069858695649
 21
4.0000045037578911
 31
0.0
  0
LINE
  5
6C4
  8
0
 10
845.83069858695671
 20
98.375004503758475
 30
0.0
 11
844.83069858695671
 21
98.375004503758475
 31
0.0
  0
LINE
  5
6C5
  8
0
 10
831.58069858695615
 20
98.375004503759627
 30
0.0
 11
831.58069858695615
 21
4.0000045037577321
 31
0.0
  0
LINE
  5
6C6
  8
0
 10
831.58069858695615
 20
4.0000045037577321
 30
0.0
 11
844.83069858695546
 21
4.0000045037577321
 31
0.0
  0
LINE
  5
6C7
  8
0
 10
844.83069858695546
 20
4.0000045037577321
 30
0.0
 11
844.83069858695546
 21
98.375004503759627
 31
0.0
1001
ACAD
1000
ASC_BOUNDS
1002
{
1070
    19
1005
A74
1002
}
  0
LINE
  5
6C8
  8
0
 10
844.83069858695546
 20
98.375004503759627
 30
0.0
 11
831.58069858695615
 21
98.375004503759627
 31
0.0
  0
LINE
  5
6C9
  8
0
 10
886.82792055812945
 20
98.375004503758404
 30
0.0
 11
870.83069858695637
 21
98.375004503758404
 31
0.0
  0
LINE
  5
6CA
  8
0
 10
870.83069858695637
 20
98.375004503758404
 30
0.0
 11
870.83069858695637
 21
4.0000045037578484
 31
0.0
1001
ACAD
1000
ASC_BOUNDS
1002
{
1070
    19
1005
A74
1002
}
  0
LINE
  5
6CB
  8
0
 10
870.83069858695637
 20
4.0000045037578484
 30
0.0
 11
886.82792055812945
 21
4.0000045037578484
 31
0.0
  0
LINE
  5
6CC
  8
0
 10
886.82792055812945
 20
4.0000045037578484
 30
0.0
 11
886.82792055812945
 21
98.375004503758404
 31
0.0
1001
ACAD
1000
ASC_BOUNDS
1002
{
1070
    19
1005
A74
1002
}
  0
LINE
  5
6CD
  8
0
 10
968.08069858695637
 20
98.375004503758404
 30
0.0
 11
954.82271390372546
 21
98.375004503758404
 31
0.0
  0
LINE
  5
6CE
  8
0
 10
954.82271390372546
 20
98.375004503758404
 30
0.0
 11
954.82271390372546
 21
4.0000045037578484
 31
0.0
1001
ACAD
1000
ASC_BOUNDS
1002
{
1070
    19
1005
A74
1002
}
  0
LINE
  5
6CF
  8
0
 10
954.82271390372546
 20
4.0000045037578484
 30
0.0
 11
968.08069858695637
 21
4.0000045037578484
 31
0.0
  0
LINE
  5
6D0
  8
0
 10
968.08069858695637
 20
4.0000045037578484
 30
0.0
 11
968.08069858695637
 21
98.375004503758404
 31
0.0
  0
LINE
  5
6D1
  8
0
 10
928.83969824162762
 20
98.375004503758404
 30
0.0
 11
912.82318418770285
 21
98.375004503758404
 31
0.0
  0
LINE
  5
6D2
  8
0
 10
912.82318418770285
 20
98.375004503758404
 30
0.0
 11
912.82318418770285
 21
4.0000045037578484
 31
0.0
1001
ACAD
1000
ASC_BOUNDS
1002
{
1070
    19
1005
A74
1002
}
  0
LINE
  5
6D3
  8
0
 10
912.82318418770285
 20
4.0000045037578484
 30
0.0
 11
928.83969824162762
 21
4.0000045037578484
 31
0.0
  0
LINE
  5
6D4
  8
0
 10
928.83969824162762
 20
4.0000045037578484
 30
0.0
 11
928.83969824162762
 21
98.375004503758404
 31
0.0
1001
ACAD
1000
ASC_BOUNDS
1002
{
1070
    19
1005
A74
1002
}
  0
LINE
  5
6D5
  8
0
 10
829.95569858695728
 20
100.00000450375769
 30
0.0
 11
969.70569858695717
 21
100.00000450375769
 31
0.0
  0
LINE
  5
6D6
  8
0
 10
969.70569858695717
 20
0.0000045037577365
 30
0.0
 11
829.95569858695728
 21
0.0000045037577365
 31
0.0
  0
LINE
  5
6D7
  8
0
 10
829.95569858695728
 20
0.0000045037577365
 30
0.0
 11
829.95569858695728
 21
100.00000450375769
 31
0.0
  0
LINE
  5
6D8
  8
0
 10
831.58069858695694
 20
4.0000045037565908
 30
0.0
 11
831.58069858695603
 21
98.375004503757125
 31
0.0
1001
ACAD
1000
ASC_BOUNDS
1002
{
1070
    19
1005
A74
1002
}
  0
LINE
  5
6D9
  8
0
 10
831.58069858695603
 20
98.375004503757125
 30
0.0
 11
968.08069858695603
 21
98.375004503758575
 31
0.0
1001
ACAD
1000
ASC_BOUNDS
1002
{
1070
    19
1005
A74
1005
A74
1005
A74
1005
A74
1002
}
  0
LINE
  5
6DA
  8
0
 10
968.08069858695603
 20
98.375004503758575
 30
0.0
 11
968.08069858695694
 21
4.0000045037579977
 31
0.0
1001
ACAD
1000
ASC_BOUNDS
1002
{
1070
    19
1005
A74
1002
}
  0
LINE
  5
6DB
  8
0
 10
968.08069858695694
 20
4.000004503758019
 30
0.0
 11
831.58069858695694
 21
4.0000045037566121
 31
0.0
1001
ACAD
1000
ASC_BOUNDS
1002
{
1070
    19
1005
A74
1005
A74
1005
A74
1005
A74
1002
}
  0
LINE
  5
6DC
  8
0
 10
969.70569858695717
 20
0.0000045037577365
 30
0.0
 11
969.70569858695717
 21
100.00000450375769
 31
0.0
  0
ARC
  5
6DD
  8
0
 10
1040.5806985869519
 20
147.37500450375649
 30
0.0
 40
8.2500000000000089
 50
179.9999999999998
 51
359.99999999999881
  0
ARC
  5
6DE
  8
0
 10
1040.5806985869519
 20
147.37500450375649
 30
0.0
 40
8.25
 50
0.0
 51
179.9999999999998
  0
ARC
  5
6DF
  8
0
 10
1040.5806985869519
 20
147.37500450375649
 30
0.0
 40
7.6874999999999831
 50
0.0000000000009669
 51
180.0000000000002
  0
ARC
  5
6E0
  8
0
 10
1040.5806985869519
 20
147.37500450375649
 30
0.0
 40
7.6875
 50
179.99999999999969
 51
0.0
  0
LINE
  5
6E1
  8
0
 10
1045.7031993609401
 20
144.93314865495921
 30
0.0
 11
1045.508258884749
 21
144.48423992480039
 31
0.0
  0
LINE
  5
6E2
  8
0
 10
1045.508258884749
 20
144.48423992480039
 30
0.0
 11
1045.0573660276059
 21
144.3269978613084
 31
0.0
  0
LINE
  5
6E3
  8
0
 10
1045.0573660276059
 20
144.3269978613084
 30
0.0
 11
1044.7328372577649
 21
144.39123397241951
 31
0.0
  0
LINE
  5
6E4
  8
0
 10
1044.7328372577649
 20
144.39123397241951
 30
0.0
 11
1044.4973461863369
 21
144.5839423057528
 31
0.0
  0
LINE
  5
6E5
  8
0
 10
1044.4973461863369
 20
144.5839423057528
 30
0.0
 11
1044.3063739641141
 21
145.34187881368931
 31
0.0
  0
LINE
  5
6E6
  8
0
 10
1044.3063739641141
 20
145.34187881368931
 30
0.0
 11
1044.4904017418919
 21
146.10576770257819
 31
0.0
  0
LINE
  5
6E7
  8
0
 10
1044.4904017418919
 20
146.10576770257819
 30
0.0
 11
1044.7201884482411
 21
146.2954998454353
 31
0.0
  0
LINE
  5
6E8
  8
0
 10
1044.7201884482411
 20
146.2954998454353
 30
0.0
 11
1045.0414930117331
 21
146.3587438930544
 31
0.0
  0
LINE
  5
6E9
  8
0
 10
1045.0414930117331
 20
146.3587438930544
 30
0.0
 11
1045.5097469799871
 21
146.2153907184512
 31
0.0
  0
LINE
  5
6EA
  8
0
 10
1045.5097469799871
 20
146.2153907184512
 30
0.0
 11
1045.7031993609401
 21
145.79029151210199
 31
0.0
  0
LINE
  5
6EB
  8
0
 10
1045.7031993609401
 20
145.79029151210199
 30
0.0
 11
1046.8460565037969
 21
145.79029151210199
 31
0.0
  0
LINE
  5
6EC
  8
0
 10
1046.8460565037969
 20
145.79029151210199
 30
0.0
 11
1046.6858382498281
 21
146.43798496448301
 31
0.0
  0
LINE
  5
6ED
  8
0
 10
1046.6858382498281
 20
146.43798496448301
 30
0.0
 11
1046.3182787260189
 21
146.91677960734009
 31
0.0
  0
LINE
  5
6EE
  8
0
 10
1046.3182787260189
 20
146.91677960734009
 30
0.0
 11
1045.7592509482411
 21
147.21253853591159
 31
0.0
  0
LINE
  5
6EF
  8
0
 10
1045.7592509482411
 20
147.21253853591159
 30
0.0
 11
1045.024627932368
 21
147.31112484543539
 31
0.0
  0
LINE
  5
6F0
  8
0
 10
1045.024627932368
 20
147.31112484543539
 30
0.0
 11
1044.2266368609401
 21
147.1791804009909
 31
0.0
  0
LINE
  5
6F1
  8
0
 10
1044.2266368609401
 20
147.1791804009909
 30
0.0
 11
1043.616393805384
 21
146.78334706765759
 31
0.0
  0
LINE
  5
6F2
  8
0
 10
1043.616393805384
 20
146.78334706765759
 30
0.0
 11
1043.22911701967
 21
146.15933913114961
 31
0.0
  0
LINE
  5
6F3
  8
0
 10
1043.22911701967
 20
146.15933913114961
 30
0.0
 11
1043.1000247577649
 21
145.34287087718141
 31
0.0
  0
LINE
  5
6F4
  8
0
 10
1043.1000247577649
 20
145.34287087718141
 30
0.0
 11
1043.2297370593519
 21
144.52454250416551
 31
0.0
  0
LINE
  5
6F5
  8
0
 10
1043.2297370593519
 20
144.52454250416551
 30
0.0
 11
1043.6188739641141
 21
143.90090659146711
 31
0.0
  0
LINE
  5
6F6
  8
0
 10
1043.6188739641141
 20
143.90090659146711
 30
0.0
 11
1044.234201345067
 21
143.50618932956229
 31
0.0
  0
LINE
  5
6F7
  8
0
 10
1044.234201345067
 20
143.50618932956229
 30
0.0
 11
1045.0424850752249
 21
143.37461690892741
 31
0.0
  0
LINE
  5
6F8
  8
0
 10
1045.0424850752249
 20
143.37461690892741
 30
0.0
 11
1045.765575353003
 21
143.47679944861
 31
0.0
  0
LINE
  5
6F9
  8
0
 10
1045.765575353003
 20
143.47679944861
 30
0.0
 11
1046.3217509482411
 21
143.78334706765759
 31
0.0
  0
LINE
  5
6FA
  8
0
 10
1046.3217509482411
 20
143.78334706765759
 30
0.0
 11
1046.6891864641141
 21
144.2751625438481
 31
0.0
  0
LINE
  5
6FB
  8
0
 10
1046.6891864641141
 20
144.2751625438481
 30
0.0
 11
1046.8460565037969
 21
144.93314865495921
 31
0.0
  0
LINE
  5
6FC
  8
0
 10
1046.8460565037969
 20
144.93314865495921
 30
0.0
 11
1045.7031993609401
 21
144.93314865495921
 31
0.0
  0
LINE
  5
6FD
  8
0
 10
1038.481471983172
 20
145.70722284388239
 30
0.0
 11
1039.6590513482511
 21
145.70722284388239
 31
0.0
  0
LINE
  5
6FE
  8
0
 10
1039.6590513482511
 20
145.70722284388239
 30
0.0
 11
1039.8058767450771
 21
146.2151593518189
 31
0.0
  0
LINE
  5
6FF
  8
0
 10
1039.8058767450771
 20
146.2151593518189
 30
0.0
 11
1041.0092497609501
 21
146.2151593518189
 31
0.0
  0
LINE
  5
700
  8
0
 10
1041.0092497609501
 20
146.2151593518189
 30
0.0
 11
1041.1511148403149
 21
145.70722284388239
 31
0.0
  0
LINE
  5
701
  8
0
 10
1041.1511148403149
 20
145.70722284388239
 30
0.0
 11
1042.3544878561879
 21
145.70722284388239
 31
0.0
  0
LINE
  5
702
  8
0
 10
1042.3544878561879
 20
145.70722284388239
 30
0.0
 11
1041.0251227768231
 21
149.51674665340619
 31
0.0
  0
LINE
  5
703
  8
0
 10
1041.0251227768231
 20
149.51674665340619
 30
0.0
 11
1039.7959561101561
 21
149.51674665340619
 31
0.0
  0
LINE
  5
704
  8
0
 10
1039.7959561101561
 20
149.51674665340619
 30
0.0
 11
1038.481471983172
 21
145.70722284388239
 31
0.0
  0
LINE
  5
705
  8
0
 10
1040.0261148403149
 20
147.04055617721571
 30
0.0
 11
1040.412027538727
 21
148.34412760578709
 31
0.0
  0
LINE
  5
706
  8
0
 10
1040.412027538727
 20
148.34412760578709
 30
0.0
 11
1040.789011665712
 21
147.04055617721571
 31
0.0
  0
LINE
  5
707
  8
0
 10
1040.789011665712
 20
147.04055617721571
 30
0.0
 11
1040.0261148403149
 21
147.04055617721571
 31
0.0
  0
LINE
  5
708
  8
0
 10
1034.7207407929111
 20
147.44761115306261
 30
0.0
 11
1036.420145554815
 21
147.44761115306261
 31
0.0
  0
LINE
  5
709
  8
0
 10
1036.420145554815
 20
147.44761115306261
 30
0.0
 11
1037.1880026976719
 21
147.48630162925309
 31
0.0
  0
LINE
  5
70A
  8
0
 10
1037.1880026976719
 20
147.48630162925309
 30
0.0
 11
1037.6007011103709
 21
147.61824607369749
 31
0.0
  0
LINE
  5
70B
  8
0
 10
1037.6007011103709
 20
147.61824607369749
 30
0.0
 11
1038.008935237355
 21
148.00118258163411
 31
0.0
  0
LINE
  5
70C
  8
0
 10
1038.008935237355
 20
148.00118258163411
 30
0.0
 11
1038.149312221482
 21
148.58848416893571
 31
0.0
  0
LINE
  5
70D
  8
0
 10
1038.149312221482
 20
148.58848416893571
 30
0.0
 11
1038.005463015133
 21
149.1514802006817
 31
0.0
  0
LINE
  5
70E
  8
0
 10
1038.005463015133
 20
149.1514802006817
 30
0.0
 11
1037.5620106341801
 21
149.47638099433249
 31
0.0
  0
LINE
  5
70F
  8
0
 10
1037.5620106341801
 20
149.47638099433249
 30
0.0
 11
1037.9072487294179
 21
149.79384131179279
 31
0.0
  0
LINE
  5
710
  8
0
 10
1037.9072487294179
 20
149.79384131179279
 30
0.0
 11
1038.0223280944981
 21
150.24622226417381
 31
0.0
  0
LINE
  5
711
  8
0
 10
1038.0223280944981
 20
150.24622226417381
 30
0.0
 11
1037.868558253228
 21
150.8062421054436
 31
0.0
  0
LINE
  5
712
  8
0
 10
1037.868558253228
 20
150.8062421054436
 30
0.0
 11
1037.4260979357671
 21
151.14602385147529
 31
0.0
  0
LINE
  5
713
  8
0
 10
1037.4260979357671
 20
151.14602385147529
 30
0.0
 11
1037.0307606341801
 21
151.23134131179279
 31
0.0
  0
LINE
  5
714
  8
0
 10
1037.0307606341801
 20
151.23134131179279
 30
0.0
 11
1036.2971296817991
 21
151.25713496258649
 31
0.0
  0
LINE
  5
715
  8
0
 10
1036.2971296817991
 20
151.25713496258649
 30
0.0
 11
1034.7207407929111
 21
151.25713496258649
 31
0.0
  0
LINE
  5
716
  8
0
 10
1034.7207407929111
 20
151.25713496258649
 30
0.0
 11
1034.7207407929111
 21
147.44761115306261
 31
0.0
  0
LINE
  5
717
  8
0
 10
1035.92708999926
 20
148.3365000419515
 30
0.0
 11
1035.92708999926
 21
149.03491274036421
 31
0.0
  0
LINE
  5
718
  8
0
 10
1035.92708999926
 20
149.03491274036421
 30
0.0
 11
1036.4757011103709
 21
149.03491274036421
 31
0.0
  0
LINE
  5
719
  8
0
 10
1036.4757011103709
 20
149.03491274036421
 30
0.0
 11
1036.884927300847
 21
148.95554766099909
 31
0.0
  0
LINE
  5
71A
  8
0
 10
1036.884927300847
 20
148.95554766099909
 30
0.0
 11
1037.0064550786251
 21
148.688682581634
 31
0.0
  0
LINE
  5
71B
  8
0
 10
1037.0064550786251
 20
148.688682581634
 30
0.0
 11
1036.8874074595769
 21
148.41884131179279
 31
0.0
  0
LINE
  5
71C
  8
0
 10
1036.8874074595769
 20
148.41884131179279
 30
0.0
 11
1036.4866138087841
 21
148.3365000419515
 31
0.0
  0
LINE
  5
71D
  8
0
 10
1036.4866138087841
 20
148.3365000419515
 30
0.0
 11
1035.92708999926
 21
148.3365000419515
 31
0.0
  0
LINE
  5
71E
  8
0
 10
1035.92708999926
 20
149.73332543877689
 30
0.0
 11
1035.92708999926
 21
150.36824607369761
 31
0.0
  0
LINE
  5
71F
  8
0
 10
1035.92708999926
 20
150.36824607369761
 30
0.0
 11
1036.2614153960851
 21
150.36824607369761
 31
0.0
  0
LINE
  5
720
  8
0
 10
1036.2614153960851
 20
150.36824607369761
 30
0.0
 11
1036.769847935768
 21
150.30078575623719
 31
0.0
  0
LINE
  5
721
  8
0
 10
1036.769847935768
 20
150.30078575623719
 30
0.0
 11
1036.879470951641
 21
150.05078575623719
 31
0.0
  0
LINE
  5
722
  8
0
 10
1036.879470951641
 20
150.05078575623719
 30
0.0
 11
1036.7772884119579
 21
149.80574607369761
 31
0.0
  0
LINE
  5
723
  8
0
 10
1036.7772884119579
 20
149.80574607369761
 30
0.0
 11
1036.425105872275
 21
149.73332543877689
 31
0.0
  0
LINE
  5
724
  8
0
 10
1036.425105872275
 20
149.73332543877689
 30
0.0
 11
1035.92708999926
 21
149.73332543877689
 31
0.0
  0
ARC
  5
725
  8
0
 10
1040.5806985869519
 20
147.3750045037572
 30
0.0
 40
9.0000000000000124
 50
179.9999999999998
 51
359.99999999999881
  0
ARC
  5
726
  8
0
 10
1040.5806985869519
 20
147.3750045037572
 30
0.0
 40
9.0000000000000124
 50
359.99999999999949
 51
179.9999999999998
  0
LINE
  5
727
  8
0
 10
689.20569858695956
 20
177.37500450375751
 30
0.0
 11
828.95569858695376
 21
177.37500450375751
 31
0.0
  0
LINE
  5
728
  8
0
 10
689.20569858695956
 20
100.00000450375769
 30
0.0
 11
689.20569858695956
 21
177.37500450375751
 31
0.0
  0
LINE
  5
729
  8
0
 10
828.95569858695387
 20
100.00000450375769
 30
0.0
 11
828.95569858695387
 21
177.37500450375751
 31
0.0
  0
LINE
  5
72A
  8
0
 10
747.08069858695455
 20
6.0000045037577348
 30
0.0
 11
771.08069858695455
 21
6.0000045037584178
 31
0.0
  0
LINE
  5
72B
  8
0
 10
747.08069858695319
 20
86.080200527385671
 30
0.0
 11
771.08069858695319
 21
86.080200527385912
 31
0.0
  0
LINE
  5
72C
  8
0
 10
771.08069858695376
 20
4.0000045037577836
 30
0.0
 11
771.08069858695387
 21
98.375004503758362
 31
0.0
  0
LINE
  5
72D
  8
0
 10
772.07318418770046
 20
98.375004503758362
 30
0.0
 11
772.07318418770035
 21
4.0000045037577836
 31
0.0
  0
LINE
  5
72E
  8
0
 10
771.08069858695376
 20
4.0000045037577836
 30
0.0
 11
772.07318418770035
 21
4.0000045037577827
 31
0.0
  0
LINE
  5
72F
  8
0
 10
772.07318418770046
 20
98.375004503758362
 30
0.0
 11
771.08069858695387
 21
98.375004503758362
 31
0.0
  0
LINE
  5
730
  8
0
 10
746.07792055812706
 20
4.0000045037578227
 30
0.0
 11
746.07792055812729
 21
98.375004503758404
 31
0.0
  0
LINE
  5
731
  8
0
 10
747.08069858695399
 20
98.375004503758404
 30
0.0
 11
747.08069858695376
 21
4.000004503757828
 31
0.0
  0
LINE
  5
732
  8
0
 10
746.07792055812706
 20
4.0000045037578227
 30
0.0
 11
747.08069858695376
 21
4.0000045037578218
 31
0.0
  0
LINE
  5
733
  8
0
 10
747.08069858695399
 20
98.375004503758404
 30
0.0
 11
746.07792055812729
 21
98.375004503758404
 31
0.0
  0
LINE
  5
734
  8
0
 10
789.08069858695455
 20
6.0000045037577348
 30
0.0
 11
813.08069858695467
 21
6.0000045037577348
 31
0.0
  0
LINE
  5
735
  8
0
 10
789.0806985869541
 20
86.080200527385514
 30
0.0
 11
813.08069858695421
 21
86.080200527385514
 31
0.0
  0
LINE
  5
736
  8
0
 10
788.08969824162523
 20
4.0000045037577632
 30
0.0
 11
788.08969824162546
 21
98.375004503758333
 31
0.0
  0
LINE
  5
737
  8
0
 10
789.0806985869541
 20
98.375004503758333
 30
0.0
 11
789.08069858695387
 21
4.0000045037577632
 31
0.0
  0
LINE
  5
738
  8
0
 10
788.08969824162523
 20
4.0000045037577632
 30
0.0
 11
789.08069858695387
 21
4.0000045037577632
 31
0.0
  0
LINE
  5
739
  8
0
 10
789.0806985869541
 20
98.375004503758333
 30
0.0
 11
788.08969824162546
 21
98.375004503758333
 31
0.0
  0
LINE
  5
73A
  8
0
 10
813.08069858695376
 20
4.0000045037577223
 30
0.0
 11
813.08069858695399
 21
98.375004503758291
 31
0.0
  0
LINE
  5
73B
  8
0
 10
814.07271390372307
 20
98.375004503758291
 30
0.0
 11
814.07271390372307
 21
4.0000045037577214
 31
0.0
  0
LINE
  5
73C
  8
0
 10
814.07271390372307
 20
4.0000045037577214
 30
0.0
 11
813.08069858695376
 21
4.0000045037577223
 31
0.0
  0
LINE
  5
73D
  8
0
 10
814.07271390372307
 20
98.375004503758291
 30
0.0
 11
813.08069858695399
 21
98.375004503758291
 31
0.0
  0
LINE
  5
73E
  8
0
 10
705.08069858695592
 20
6.0000045037573919
 30
0.0
 11
729.08069858695455
 21
6.0000045037577348
 31
0.0
  0
LINE
  5
73F
  8
0
 10
705.08069858695296
 20
86.080200527385244
 30
0.0
 11
729.08069858695296
 21
86.080200527385514
 31
0.0
  0
LINE
  5
740
  8
0
 10
729.08069858695376
 20
4.0000045037578484
 30
0.0
 11
729.08069858695387
 21
98.375004503758404
 31
0.0
  0
LINE
  5
741
  8
0
 10
730.08069858695399
 20
98.375004503758404
 30
0.0
 11
730.08069858695376
 21
4.0000045037578484
 31
0.0
  0
LINE
  5
742
  8
0
 10
729.08069858695376
 20
4.0000045037578484
 30
0.0
 11
730.08069858695376
 21
4.0000045037578484
 31
0.0
  0
LINE
  5
743
  8
0
 10
730.08069858695399
 20
98.375004503758404
 30
0.0
 11
729.08069858695387
 21
98.375004503758404
 31
0.0
  0
LINE
  5
744
  8
0
 10
704.08069858695376
 20
4.0000045037578911
 30
0.0
 11
704.08069858695387
 21
98.375004503758475
 31
0.0
  0
LINE
  5
745
  8
0
 10
705.08069858695399
 20
98.375004503758475
 30
0.0
 11
705.08069858695364
 21
4.0000045037578911
 31
0.0
  0
LINE
  5
746
  8
0
 10
704.08069858695376
 20
4.0000045037578911
 30
0.0
 11
705.08069858695376
 21
4.0000045037578911
 31
0.0
  0
LINE
  5
747
  8
0
 10
705.08069858695399
 20
98.375004503758475
 30
0.0
 11
704.08069858695387
 21
98.375004503758475
 31
0.0
  0
LINE
  5
748
  8
0
 10
690.83069858695364
 20
98.375004503759627
 30
0.0
 11
690.83069858695364
 21
4.0000045037577321
 31
0.0
  0
LINE
  5
749
  8
0
 10
690.83069858695364
 20
4.0000045037577321
 30
0.0
 11
704.08069858695274
 21
4.0000045037577321
 31
0.0
  0
LINE
  5
74A
  8
0
 10
704.08069858695274
 20
4.0000045037577321
 30
0.0
 11
704.08069858695274
 21
98.375004503759627
 31
0.0
1001
ACAD
1000
ASC_BOUNDS
1002
{
1070
    19
1005
A74
1002
}
  0
LINE
  5
74B
  8
0
 10
704.08069858695274
 20
98.375004503759627
 30
0.0
 11
690.83069858695364
 21
98.375004503759627
 31
0.0
  0
LINE
  5
74C
  8
0
 10
746.07792055812695
 20
98.375004503758404
 30
0.0
 11
730.08069858695364
 21
98.375004503758404
 31
0.0
  0
LINE
  5
74D
  8
0
 10
730.08069858695364
 20
98.375004503758404
 30
0.0
 11
730.08069858695364
 21
4.0000045037578484
 31
0.0
1001
ACAD
1000
ASC_BOUNDS
1002
{
1070
    19
1005
A74
1002
}
  0
LINE
  5
74E
  8
0
 10
730.08069858695364
 20
4.0000045037578484
 30
0.0
 11
746.07792055812695
 21
4.0000045037578484
 31
0.0
  0
LINE
  5
74F
  8
0
 10
746.07792055812695
 20
4.0000045037578484
 30
0.0
 11
746.07792055812695
 21
98.375004503758404
 31
0.0
1001
ACAD
1000
ASC_BOUNDS
1002
{
1070
    19
1005
A74
1002
}
  0
LINE
  5
750
  8
0
 10
827.33069858695364
 20
98.375004503758404
 30
0.0
 11
814.07271390372273
 21
98.375004503758404
 31
0.0
  0
LINE
  5
751
  8
0
 10
814.07271390372273
 20
98.375004503758404
 30
0.0
 11
814.07271390372273
 21
4.0000045037578484
 31
0.0
1001
ACAD
1000
ASC_BOUNDS
1002
{
1070
    19
1005
A74
1002
}
  0
LINE
  5
752
  8
0
 10
814.07271390372273
 20
4.0000045037578484
 30
0.0
 11
827.33069858695364
 21
4.0000045037578484
 31
0.0
  0
LINE
  5
753
  8
0
 10
827.33069858695364
 20
4.0000045037578484
 30
0.0
 11
827.33069858695364
 21
98.375004503758404
 31
0.0
  0
LINE
  5
754
  8
0
 10
788.089698241625
 20
98.375004503758404
 30
0.0
 11
772.07318418770012
 21
98.375004503758404
 31
0.0
  0
LINE
  5
755
  8
0
 10
772.07318418770012
 20
98.375004503758404
 30
0.0
 11
772.07318418770012
 21
4.0000045037578484
 31
0.0
1001
ACAD
1000
ASC_BOUNDS
1002
{
1070
    19
1005
A74
1002
}
  0
LINE
  5
756
  8
0
 10
772.07318418770012
 20
4.0000045037578484
 30
0.0
 11
788.089698241625
 21
4.0000045037578484
 31
0.0
  0
LINE
  5
757
  8
0
 10
788.089698241625
 20
4.0000045037578484
 30
0.0
 11
788.089698241625
 21
98.375004503758404
 31
0.0
1001
ACAD
1000
ASC_BOUNDS
1002
{
1070
    19
1005
A74
1002
}
  0
LINE
  5
758
  8
0
 10
689.20569858695421
 20
100.00000450375769
 30
0.0
 11
828.9556985869541
 21
100.00000450375769
 31
0.0
  0
LINE
  5
759
  8
0
 10
828.9556985869541
 20
0.0000045037577365
 30
0.0
 11
689.20569858695421
 21
0.0000045037577365
 31
0.0
  0
LINE
  5
75A
  8
0
 10
689.20569858695421
 20
0.0000045037577365
 30
0.0
 11
689.20569858695421
 21
100.00000450375769
 31
0.0
  0
LINE
  5
75B
  8
0
 10
690.83069858695399
 20
4.0000045037565908
 30
0.0
 11
690.83069858695285
 21
98.375004503757125
 31
0.0
1001
ACAD
1000
ASC_BOUNDS
1002
{
1070
    19
1005
A74
1002
}
  0
LINE
  5
75C
  8
0
 10
690.83069858695285
 20
98.375004503757125
 30
0.0
 11
827.33069858695285
 21
98.375004503758575
 31
0.0
1001
ACAD
1000
ASC_BOUNDS
1002
{
1070
    19
1005
A74
1005
A74
1005
A74
1005
A74
1002
}
  0
LINE
  5
75D
  8
0
 10
827.33069858695285
 20
98.375004503758575
 30
0.0
 11
827.33069858695399
 21
4.0000045037579977
 31
0.0
1001
ACAD
1000
ASC_BOUNDS
1002
{
1070
    19
1005
A74
1002
}
  0
LINE
  5
75E
  8
0
 10
827.33069858695399
 20
4.000004503758019
 30
0.0
 11
690.83069858695399
 21
4.0000045037566121
 31
0.0
1001
ACAD
1000
ASC_BOUNDS
1002
{
1070
    19
1005
A74
1005
A74
1005
A74
1005
A74
1002
}
  0
LINE
  5
75F
  8
0
 10
828.9556985869541
 20
0.0000045037577365
 30
0.0
 11
828.9556985869541
 21
100.00000450375769
 31
0.0
  0
LINE
  5
760
  8
0
 10
970.70569858695956
 20
177.37500450375751
 30
0.0
 11
1110.455698586954
 21
177.37500450375751
 31
0.0
  0
LINE
  5
761
  8
0
 10
970.70569858695956
 20
100.00000450375769
 30
0.0
 11
970.70569858695956
 21
177.37500450375751
 31
0.0
  0
LINE
  5
762
  8
0
 10
1110.455698586954
 20
100.00000450375769
 30
0.0
 11
1110.455698586954
 21
177.37500450375751
 31
0.0
  0
LINE
  5
763
  8
0
 10
1028.5806985869549
 20
6.0000045037577348
 30
0.0
 11
1052.5806985869549
 21
6.0000045037584178
 31
0.0
  0
LINE
  5
764
  8
0
 10
1028.5806985869531
 20
86.080200527385671
 30
0.0
 11
1052.5806985869531
 21
86.080200527385912
 31
0.0
  0
LINE
  5
765
  8
0
 10
1052.580698586954
 20
4.0000045037577836
 30
0.0
 11
1052.580698586954
 21
98.375004503758362
 31
0.0
  0
LINE
  5
766
  8
0
 10
1053.5731841877
 20
98.375004503758362
 30
0.0
 11
1053.5731841877
 21
4.0000045037577836
 31
0.0
  0
LINE
  5
767
  8
0
 10
1052.580698586954
 20
4.0000045037577836
 30
0.0
 11
1053.5731841877
 21
4.0000045037577827
 31
0.0
  0
LINE
  5
768
  8
0
 10
1053.5731841877
 20
98.375004503758362
 30
0.0
 11
1052.580698586954
 21
98.375004503758362
 31
0.0
  0
LINE
  5
769
  8
0
 10
1027.5779205581271
 20
4.0000045037578227
 30
0.0
 11
1027.5779205581271
 21
98.375004503758404
 31
0.0
  0
LINE
  5
76A
  8
0
 10
1028.580698586954
 20
98.375004503758404
 30
0.0
 11
1028.580698586954
 21
4.000004503757828
 31
0.0
  0
LINE
  5
76B
  8
0
 10
1027.5779205581271
 20
4.0000045037578227
 30
0.0
 11
1028.580698586954
 21
4.0000045037578218
 31
0.0
  0
LINE
  5
76C
  8
0
 10
1028.580698586954
 20
98.375004503758404
 30
0.0
 11
1027.5779205581271
 21
98.375004503758404
 31
0.0
  0
LINE
  5
76D
  8
0
 10
1070.5806985869549
 20
6.0000045037577348
 30
0.0
 11
1094.580698586956
 21
6.0000045037577348
 31
0.0
  0
LINE
  5
76E
  8
0
 10
1070.580698586954
 20
86.080200527385514
 30
0.0
 11
1094.580698586954
 21
86.080200527385514
 31
0.0
  0
LINE
  5
76F
  8
0
 10
1069.589698241625
 20
4.0000045037577632
 30
0.0
 11
1069.589698241625
 21
98.375004503758333
 31
0.0
  0
LINE
  5
770
  8
0
 10
1070.580698586954
 20
98.375004503758333
 30
0.0
 11
1070.580698586954
 21
4.0000045037577632
 31
0.0
  0
LINE
  5
771
  8
0
 10
1069.589698241625
 20
4.0000045037577632
 30
0.0
 11
1070.580698586954
 21
4.0000045037577632
 31
0.0
  0
LINE
  5
772
  8
0
 10
1070.580698586954
 20
98.375004503758333
 30
0.0
 11
1069.589698241625
 21
98.375004503758333
 31
0.0
  0
LINE
  5
773
  8
0
 10
1094.580698586954
 20
4.0000045037577223
 30
0.0
 11
1094.580698586954
 21
98.375004503758291
 31
0.0
  0
LINE
  5
774
  8
0
 10
1095.5727139037231
 20
98.375004503758291
 30
0.0
 11
1095.5727139037231
 21
4.0000045037577214
 31
0.0
  0
LINE
  5
775
  8
0
 10
1095.5727139037231
 20
4.0000045037577214
 30
0.0
 11
1094.580698586954
 21
4.0000045037577223
 31
0.0
  0
LINE
  5
776
  8
0
 10
1095.5727139037231
 20
98.375004503758291
 30
0.0
 11
1094.580698586954
 21
98.375004503758291
 31
0.0
  0
LINE
  5
777
  8
0
 10
986.58069858695501
 20
6.0000045037573919
 30
0.0
 11
1010.580698586955
 21
6.0000045037577348
 31
0.0
  0
LINE
  5
778
  8
0
 10
986.58069858695296
 20
86.080200527385244
 30
0.0
 11
1010.580698586953
 21
86.080200527385514
 31
0.0
  0
LINE
  5
779
  8
0
 10
1010.580698586954
 20
4.0000045037578484
 30
0.0
 11
1010.580698586954
 21
98.375004503758404
 31
0.0
  0
LINE
  5
77A
  8
0
 10
1011.580698586954
 20
98.375004503758404
 30
0.0
 11
1011.580698586953
 21
4.0000045037578484
 31
0.0
  0
LINE
  5
77B
  8
0
 10
1010.580698586954
 20
4.0000045037578484
 30
0.0
 11
1011.580698586953
 21
4.0000045037578484
 31
0.0
  0
LINE
  5
77C
  8
0
 10
1011.580698586954
 20
98.375004503758404
 30
0.0
 11
1010.580698586954
 21
98.375004503758404
 31
0.0
  0
LINE
  5
77D
  8
0
 10
985.58069858695376
 20
4.0000045037578911
 30
0.0
 11
985.58069858695399
 21
98.375004503758475
 31
0.0
  0
LINE
  5
77E
  8
0
 10
986.58069858695387
 20
98.375004503758475
 30
0.0
 11
986.58069858695376
 21
4.0000045037578911
 31
0.0
  0
LINE
  5
77F
  8
0
 10
985.58069858695376
 20
4.0000045037578911
 30
0.0
 11
986.58069858695376
 21
4.0000045037578911
 31
0.0
  0
LINE
  5
780
  8
0
 10
986.58069858695387
 20
98.375004503758475
 30
0.0
 11
985.58069858695399
 21
98.375004503758475
 31
0.0
  0
LINE
  5
781
  8
0
 10
972.33069858695364
 20
98.375004503759627
 30
0.0
 11
972.33069858695364
 21
4.0000045037577321
 31
0.0
  0
LINE
  5
782
  8
0
 10
972.33069858695364
 20
4.0000045037577321
 30
0.0
 11
985.58069858695274
 21
4.0000045037577321
 31
0.0
  0
LINE
  5
783
  8
0
 10
985.58069858695274
 20
4.0000045037577321
 30
0.0
 11
985.58069858695274
 21
98.375004503759627
 31
0.0
1001
ACAD
1000
ASC_BOUNDS
1002
{
1070
    19
1005
A74
1002
}
  0
LINE
  5
784
  8
0
 10
985.58069858695274
 20
98.375004503759627
 30
0.0
 11
972.33069858695364
 21
98.375004503759627
 31
0.0
  0
LINE
  5
785
  8
0
 10
1027.5779205581271
 20
98.375004503758404
 30
0.0
 11
1011.580698586953
 21
98.375004503758404
 31
0.0
  0
LINE
  5
786
  8
0
 10
1011.580698586953
 20
98.375004503758404
 30
0.0
 11
1011.580698586953
 21
4.0000045037578484
 31
0.0
1001
ACAD
1000
ASC_BOUNDS
1002
{
1070
    19
1005
A74
1002
}
  0
LINE
  5
787
  8
0
 10
1011.580698586953
 20
4.0000045037578484
 30
0.0
 11
1027.5779205581271
 21
4.0000045037578484
 31
0.0
  0
LINE
  5
788
  8
0
 10
1027.5779205581271
 20
4.0000045037578484
 30
0.0
 11
1027.5779205581271
 21
98.375004503758404
 31
0.0
1001
ACAD
1000
ASC_BOUNDS
1002
{
1070
    19
1005
A74
1002
}
  0
LINE
  5
789
  8
0
 10
1108.8306985869531
 20
98.375004503758404
 30
0.0
 11
1095.5727139037219
 21
98.375004503758404
 31
0.0
  0
LINE
  5
78A
  8
0
 10
1095.5727139037219
 20
98.375004503758404
 30
0.0
 11
1095.5727139037219
 21
4.0000045037578484
 31
0.0
1001
ACAD
1000
ASC_BOUNDS
1002
{
1070
    19
1005
A74
1002
}
  0
LINE
  5
78B
  8
0
 10
1095.5727139037219
 20
4.0000045037578484
 30
0.0
 11
1108.8306985869531
 21
4.0000045037578484
 31
0.0
  0
LINE
  5
78C
  8
0
 10
1108.8306985869531
 20
4.0000045037578484
 30
0.0
 11
1108.8306985869531
 21
98.375004503758404
 31
0.0
  0
LINE
  5
78D
  8
0
 10
1069.589698241625
 20
98.375004503758404
 30
0.0
 11
1053.5731841877
 21
98.375004503758404
 31
0.0
  0
LINE
  5
78E
  8
0
 10
1053.5731841877
 20
98.375004503758404
 30
0.0
 11
1053.5731841877
 21
4.0000045037578484
 31
0.0
1001
ACAD
1000
ASC_BOUNDS
1002
{
1070
    19
1005
A74
1002
}
  0
LINE
  5
78F
  8
0
 10
1053.5731841877
 20
4.0000045037578484
 30
0.0
 11
1069.589698241625
 21
4.0000045037578484
 31
0.0
  0
LINE
  5
790
  8
0
 10
1069.589698241625
 20
4.0000045037578484
 30
0.0
 11
1069.589698241625
 21
98.375004503758404
 31
0.0
1001
ACAD
1000
ASC_BOUNDS
1002
{
1070
    19
1005
A74
1002
}
  0
LINE
  5
791
  8
0
 10
970.70569858695421
 20
100.00000450375769
 30
0.0
 11
1110.455698586954
 21
100.00000450375769
 31
0.0
  0
LINE
  5
792
  8
0
 10
1110.455698586954
 20
0.0000045037577365
 30
0.0
 11
970.70569858695421
 21
0.0000045037577365
 31
0.0
  0
LINE
  5
793
  8
0
 10
970.70569858695421
 20
0.0000045037577365
 30
0.0
 11
970.70569858695421
 21
100.00000450375769
 31
0.0
  0
LINE
  5
794
  8
0
 10
972.33069858695387
 20
4.0000045037565908
 30
0.0
 11
972.33069858695285
 21
98.375004503757125
 31
0.0
1001
ACAD
1000
ASC_BOUNDS
1002
{
1070
    19
1005
A74
1002
}
  0
LINE
  5
795
  8
0
 10
972.33069858695285
 20
98.375004503757125
 30
0.0
 11
1108.8306985869531
 21
98.375004503758575
 31
0.0
1001
ACAD
1000
ASC_BOUNDS
1002
{
1070
    19
1005
A74
1005
A74
1005
A74
1005
A74
1002
}
  0
LINE
  5
796
  8
0
 10
1108.8306985869531
 20
98.375004503758575
 30
0.0
 11
1108.830698586954
 21
4.0000045037579977
 31
0.0
1001
ACAD
1000
ASC_BOUNDS
1002
{
1070
    19
1005
A74
1002
}
  0
LINE
  5
797
  8
0
 10
1108.830698586954
 20
4.000004503758019
 30
0.0
 11
972.33069858695387
 21
4.0000045037566121
 31
0.0
1001
ACAD
1000
ASC_BOUNDS
1002
{
1070
    19
1005
A74
1005
A74
1005
A74
1005
A74
1002
}
  0
LINE
  5
798
  8
0
 10
1110.455698586954
 20
0.0000045037577365
 30
0.0
 11
1110.455698586954
 21
100.00000450375769
 31
0.0
  0
ARC
  5
799
  8
0
 10
759.08069858695205
 20
147.3750045037568
 30
0.0
 40
8.2500000000000053
 50
179.9999999999996
 51
359.99999999999881
  0
ARC
  5
79A
  8
0
 10
759.08069858695205
 20
147.3750045037568
 30
0.0
 40
8.25
 50
359.99999999999937
 51
179.99999999999969
  0
ARC
  5
79B
  8
0
 10
759.08069858695205
 20
147.3750045037568
 30
0.0
 40
7.6875000000000071
 50
0.0000000000005343
 51
180.00000000000011
  0
ARC
  5
79C
  8
0
 10
759.08069858695205
 20
147.3750045037568
 30
0.0
 40
7.6874999999999831
 50
180.00000000000031
 51
359.9999999999996
  0
LINE
  5
79D
  8
0
 10
764.20319936093995
 20
144.93314865495941
 30
0.0
 11
764.00825888474935
 21
144.4842399248007
 31
0.0
  0
LINE
  5
79E
  8
0
 10
764.00825888474935
 20
144.4842399248007
 30
0.0
 11
763.55736602760646
 21
144.3269978613086
 31
0.0
  0
LINE
  5
79F
  8
0
 10
763.55736602760646
 20
144.3269978613086
 30
0.0
 11
763.23283725776525
 21
144.39123397241971
 31
0.0
  0
LINE
  5
7A0
  8
0
 10
763.23283725776525
 20
144.39123397241971
 30
0.0
 11
762.99734618633659
 21
144.58394230575311
 31
0.0
  0
LINE
  5
7A1
  8
0
 10
762.99734618633659
 20
144.58394230575311
 30
0.0
 11
762.80637396411453
 21
145.34187881368959
 31
0.0
  0
LINE
  5
7A2
  8
0
 10
762.80637396411453
 20
145.34187881368959
 30
0.0
 11
762.99040174189236
 21
146.1057677025785
 31
0.0
  0
LINE
  5
7A3
  8
0
 10
762.99040174189236
 20
146.1057677025785
 30
0.0
 11
763.22018844824152
 21
146.29549984543559
 31
0.0
  0
LINE
  5
7A4
  8
0
 10
763.22018844824152
 20
146.29549984543559
 30
0.0
 11
763.54149301173345
 21
146.35874389305459
 31
0.0
  0
LINE
  5
7A5
  8
0
 10
763.54149301173345
 20
146.35874389305459
 30
0.0
 11
764.00974697998754
 21
146.21539071845149
 31
0.0
  0
LINE
  5
7A6
  8
0
 10
764.00974697998754
 20
146.21539071845149
 30
0.0
 11
764.20319936093995
 21
145.7902915121023
 31
0.0
  0
LINE
  5
7A7
  8
0
 10
764.20319936093995
 20
145.7902915121023
 30
0.0
 11
765.34605650379706
 21
145.7902915121023
 31
0.0
  0
LINE
  5
7A8
  8
0
 10
765.34605650379706
 20
145.7902915121023
 30
0.0
 11
765.18583824982875
 21
146.43798496448321
 31
0.0
  0
LINE
  5
7A9
  8
0
 10
765.18583824982875
 20
146.43798496448321
 30
0.0
 11
764.81827872601934
 21
146.91677960734029
 31
0.0
  0
LINE
  5
7AA
  8
0
 10
764.81827872601934
 20
146.91677960734029
 30
0.0
 11
764.2592509482414
 21
147.21253853591179
 31
0.0
  0
LINE
  5
7AB
  8
0
 10
764.2592509482414
 20
147.21253853591179
 30
0.0
 11
763.5246279323685
 21
147.31112484543559
 31
0.0
  0
LINE
  5
7AC
  8
0
 10
763.5246279323685
 20
147.31112484543559
 30
0.0
 11
762.72663686093995
 21
147.17918040099121
 31
0.0
  0
LINE
  5
7AD
  8
0
 10
762.72663686093995
 20
147.17918040099121
 30
0.0
 11
762.1163938053844
 21
146.78334706765779
 31
0.0
  0
LINE
  5
7AE
  8
0
 10
762.1163938053844
 20
146.78334706765779
 30
0.0
 11
761.72911701966996
 21
146.15933913114989
 31
0.0
  0
LINE
  5
7AF
  8
0
 10
761.72911701966996
 20
146.15933913114989
 30
0.0
 11
761.60002475776525
 21
145.34287087718161
 31
0.0
  0
LINE
  5
7B0
  8
0
 10
761.60002475776525
 20
145.34287087718161
 30
0.0
 11
761.7297370593526
 21
144.52454250416579
 31
0.0
  0
LINE
  5
7B1
  8
0
 10
761.7297370593526
 20
144.52454250416579
 30
0.0
 11
762.11887396411453
 21
143.9009065914673
 31
0.0
  0
LINE
  5
7B2
  8
0
 10
762.11887396411453
 20
143.9009065914673
 30
0.0
 11
762.73420134506694
 21
143.5061893295626
 31
0.0
  0
LINE
  5
7B3
  8
0
 10
762.73420134506694
 20
143.5061893295626
 30
0.0
 11
763.54248507522561
 21
143.37461690892769
 31
0.0
  0
LINE
  5
7B4
  8
0
 10
763.54248507522561
 20
143.37461690892769
 30
0.0
 11
764.26557535300344
 21
143.47679944861019
 31
0.0
  0
LINE
  5
7B5
  8
0
 10
764.26557535300344
 20
143.47679944861019
 30
0.0
 11
764.82175094824152
 21
143.78334706765779
 31
0.0
  0
LINE
  5
7B6
  8
0
 10
764.82175094824152
 20
143.78334706765779
 30
0.0
 11
765.18918646411453
 21
144.2751625438483
 31
0.0
  0
LINE
  5
7B7
  8
0
 10
765.18918646411453
 20
144.2751625438483
 30
0.0
 11
765.34605650379706
 21
144.93314865495941
 31
0.0
  0
LINE
  5
7B8
  8
0
 10
765.34605650379706
 20
144.93314865495941
 30
0.0
 11
764.20319936093995
 21
144.93314865495941
 31
0.0
  0
LINE
  5
7B9
  8
0
 10
756.98147198317224
 20
145.70722284388259
 30
0.0
 11
758.15905134825152
 21
145.70722284388259
 31
0.0
  0
LINE
  5
7BA
  8
0
 10
758.15905134825152
 20
145.70722284388259
 30
0.0
 11
758.30587674507694
 21
146.2151593518191
 31
0.0
  0
LINE
  5
7BB
  8
0
 10
758.30587674507694
 20
146.2151593518191
 30
0.0
 11
759.50924976094996
 21
146.2151593518191
 31
0.0
  0
LINE
  5
7BC
  8
0
 10
759.50924976094996
 20
146.2151593518191
 30
0.0
 11
759.65111484031513
 21
145.70722284388259
 31
0.0
  0
LINE
  5
7BD
  8
0
 10
759.65111484031513
 20
145.70722284388259
 30
0.0
 11
760.85448785618803
 21
145.70722284388259
 31
0.0
  0
LINE
  5
7BE
  8
0
 10
760.85448785618803
 20
145.70722284388259
 30
0.0
 11
759.52512277682308
 21
149.51674665340639
 31
0.0
  0
LINE
  5
7BF
  8
0
 10
759.52512277682308
 20
149.51674665340639
 30
0.0
 11
758.29595611015634
 21
149.51674665340639
 31
0.0
  0
LINE
  5
7C0
  8
0
 10
758.29595611015634
 20
149.51674665340639
 30
0.0
 11
756.98147198317224
 21
145.70722284388259
 31
0.0
  0
LINE
  5
7C1
  8
0
 10
758.52611484031513
 20
147.0405561772159
 30
0.0
 11
758.91202753872767
 21
148.34412760578741
 31
0.0
  0
LINE
  5
7C2
  8
0
 10
758.91202753872767
 20
148.34412760578741
 30
0.0
 11
759.289011665712
 21
147.0405561772159
 31
0.0
  0
LINE
  5
7C3
  8
0
 10
759.289011665712
 20
147.0405561772159
 30
0.0
 11
758.52611484031513
 21
147.0405561772159
 31
0.0
  0
LINE
  5
7C4
  8
0
 10
753.22074079291076
 20
147.44761115306289
 30
0.0
 11
754.92014555481546
 21
147.44761115306289
 31
0.0
  0
LINE
  5
7C5
  8
0
 10
754.92014555481546
 20
147.44761115306289
 30
0.0
 11
755.6880026976728
 21
147.48630162925329
 31
0.0
  0
LINE
  5
7C6
  8
0
 10
755.6880026976728
 20
147.48630162925329
 30
0.0
 11
756.10070111037112
 21
147.6182460736978
 31
0.0
  0
LINE
  5
7C7
  8
0
 10
756.10070111037112
 20
147.6182460736978
 30
0.0
 11
756.50893523735522
 21
148.00118258163431
 31
0.0
  0
LINE
  5
7C8
  8
0
 10
756.50893523735522
 20
148.00118258163431
 30
0.0
 11
756.64931222148221
 21
148.58848416893591
 31
0.0
  0
LINE
  5
7C9
  8
0
 10
756.64931222148221
 20
148.58848416893591
 30
0.0
 11
756.50546301513305
 21
149.1514802006819
 31
0.0
  0
LINE
  5
7CA
  8
0
 10
756.50546301513305
 20
149.1514802006819
 30
0.0
 11
756.06201063418064
 21
149.47638099433269
 31
0.0
  0
LINE
  5
7CB
  8
0
 10
756.06201063418064
 20
149.47638099433269
 30
0.0
 11
756.40724872941882
 21
149.79384131179299
 31
0.0
  0
LINE
  5
7CC
  8
0
 10
756.40724872941882
 20
149.79384131179299
 30
0.0
 11
756.52232809449811
 21
150.24622226417401
 31
0.0
  0
LINE
  5
7CD
  8
0
 10
756.52232809449811
 20
150.24622226417401
 30
0.0
 11
756.36855825322823
 21
150.8062421054438
 31
0.0
  0
LINE
  5
7CE
  8
0
 10
756.36855825322823
 20
150.8062421054438
 30
0.0
 11
755.92609793576798
 21
151.1460238514756
 31
0.0
  0
LINE
  5
7CF
  8
0
 10
755.92609793576798
 20
151.1460238514756
 30
0.0
 11
755.53076063418064
 21
151.23134131179299
 31
0.0
  0
LINE
  5
7D0
  8
0
 10
755.53076063418064
 20
151.23134131179299
 30
0.0
 11
754.79712968179979
 21
151.25713496258669
 31
0.0
  0
LINE
  5
7D1
  8
0
 10
754.79712968179979
 20
151.25713496258669
 30
0.0
 11
753.22074079291076
 21
151.25713496258669
 31
0.0
  0
LINE
  5
7D2
  8
0
 10
753.22074079291076
 20
151.25713496258669
 30
0.0
 11
753.22074079291076
 21
147.44761115306289
 31
0.0
  0
LINE
  5
7D3
  8
0
 10
754.42708999926003
 20
148.33650004195181
 30
0.0
 11
754.42708999926003
 21
149.03491274036449
 31
0.0
  0
LINE
  5
7D4
  8
0
 10
754.42708999926003
 20
149.03491274036449
 30
0.0
 11
754.97570111037112
 21
149.03491274036449
 31
0.0
  0
LINE
  5
7D5
  8
0
 10
754.97570111037112
 20
149.03491274036449
 30
0.0
 11
755.38492730084738
 21
148.9555476609994
 31
0.0
  0
LINE
  5
7D6
  8
0
 10
755.38492730084738
 20
148.9555476609994
 30
0.0
 11
755.50645507862509
 21
148.68868258163431
 31
0.0
  0
LINE
  5
7D7
  8
0
 10
755.50645507862509
 20
148.68868258163431
 30
0.0
 11
755.38740745957739
 21
148.41884131179299
 31
0.0
  0
LINE
  5
7D8
  8
0
 10
755.38740745957739
 20
148.41884131179299
 30
0.0
 11
754.98661380878377
 21
148.33650004195181
 31
0.0
  0
LINE
  5
7D9
  8
0
 10
754.98661380878377
 20
148.33650004195181
 30
0.0
 11
754.42708999926003
 21
148.33650004195181
 31
0.0
  0
LINE
  5
7DA
  8
0
 10
754.42708999926003
 20
149.73332543877709
 30
0.0
 11
754.42708999926003
 21
150.3682460736978
 31
0.0
  0
LINE
  5
7DB
  8
0
 10
754.42708999926003
 20
150.3682460736978
 30
0.0
 11
754.76141539608545
 21
150.3682460736978
 31
0.0
  0
LINE
  5
7DC
  8
0
 10
754.76141539608545
 20
150.3682460736978
 30
0.0
 11
755.26984793576798
 21
150.3007857562375
 31
0.0
  0
LINE
  5
7DD
  8
0
 10
755.26984793576798
 20
150.3007857562375
 30
0.0
 11
755.37947095164088
 21
150.0507857562375
 31
0.0
  0
LINE
  5
7DE
  8
0
 10
755.37947095164088
 20
150.0507857562375
 30
0.0
 11
755.27728841195835
 21
149.8057460736978
 31
0.0
  0
LINE
  5
7DF
  8
0
 10
755.27728841195835
 20
149.8057460736978
 30
0.0
 11
754.92510587227594
 21
149.73332543877709
 31
0.0
  0
LINE
  5
7E0
  8
0
 10
754.92510587227594
 20
149.73332543877709
 30
0.0
 11
754.42708999926003
 21
149.73332543877709
 31
0.0
  0
ARC
  5
7E1
  8
0
 10
759.08069858695171
 20
147.3750045037574
 30
0.0
 40
9.0000000000000213
 50
179.9999999999996
 51
359.99999999999869
  0
ARC
  5
7E2
  8
0
 10
759.08069858695171
 20
147.3750045037574
 30
0.0
 40
8.9999999999999964
 50
359.9999999999996
 51
179.9999999999998
  0
LINE
  5
7E3
  8
0
 10
1110.4556985869581
 20
8.5000045037581877
 30
0.0
 11
1110.7056985869569
 21
8.5000045037581877
 31
0.0
  0
LINE
  5
7E4
  8
0
 10
1110.7056985869569
 20
18.50000450375796
 30
0.0
 11
1110.4556985869581
 21
18.50000450375796
 31
0.0
  0
LINE
  5
7E5
  8
0
 10
1110.7056985869569
 20
13.50000450375817
 30
0.0
 11
1110.7056985869569
 21
11.000004727885679
 31
0.0
  0
LINE
  5
7E6
  8
0
 10
1110.7056985869569
 20
11.000004503758181
 30
0.0
 11
1110.7056985869569
 21
9.9644705978254482
 31
0.0
  0
LINE
  5
7E7
  8
0
 10
1110.7056985869569
 20
9.9644703211494576
 30
0.0
 11
1110.7056985869569
 21
9.1698776961388049
 31
0.0
  0
LINE
  5
7E8
  8
0
 10
1110.7056985869569
 20
9.1698774848359879
 30
0.0
 11
1110.7056985869569
 21
8.6703753723128347
 31
0.0
  0
LINE
  5
7E9
  8
0
 10
1110.7056985869569
 20
8.6703752701587877
 30
0.0
 11
1110.7056985869569
 21
8.5000045037581664
 31
0.0
  0
LINE
  5
7EA
  8
0
 10
1110.7056985869569
 20
18.500004503758159
 30
0.0
 11
1110.7056985869569
 21
18.329633635203511
 31
0.0
  0
LINE
  5
7EB
  8
0
 10
1110.7056985869569
 20
18.329633184914609
 30
0.0
 11
1110.7056985869569
 21
17.830131522680361
 31
0.0
  0
LINE
  5
7EC
  8
0
 10
1110.7056985869569
 20
17.83013131137686
 30
0.0
 11
1110.7056985869569
 21
17.035538409690911
 31
0.0
  0
LINE
  5
7ED
  8
0
 10
1110.7056985869569
 20
17.035537982667549
 30
0.0
 11
1110.7056985869569
 21
16.000005025763041
 31
0.0
  0
LINE
  5
7EE
  8
0
 10
1110.7056985869569
 20
16.00000450375817
 30
0.0
 11
1110.7056985869569
 21
13.50000450375817
 31
0.0
  0
ARC
  5
7EF
  8
0
 10
1040.580698586951
 20
169.62500450375771
 30
0.0
 40
3.999999999999976
 50
90.0
 51
270.0
  0
ARC
  5
7F0
  8
0
 10
1040.580698586951
 20
169.62500450375771
 30
0.0
 40
3.9999999999999978
 50
270.0
 51
90.0
  0
ARC
  5
7F1
  8
0
 10
759.08069858694887
 20
169.62500450375799
 30
0.0
 40
3.9999999999999929
 50
90.0
 51
270.0
  0
ARC
  5
7F2
  8
0
 10
759.08069858694887
 20
169.62500450375799
 30
0.0
 40
4.0000000000000044
 50
270.0
 51
90.0
  0
ARC
  5
7F3
  8
0
 10
899.83069858695558
 20
169.62500450375771
 30
0.0
 40
3.999999999999988
 50
90.0
 51
270.0
  0
ARC
  5
7F4
  8
0
 10
899.83069858695558
 20
169.62500450375771
 30
0.0
 40
4.0
 50
270.0
 51
90.0
  0
LINE
  5
7F5
  8
0
 10
688.95569858695615
 20
39.000004503758078
 30
0.0
 11
689.20569858695387
 21
39.000004503758078
 31
0.0
  0
LINE
  5
7F6
  8
0
 10
689.20569858695387
 20
42.000004503758063
 30
0.0
 11
688.95569858695615
 21
42.000004503758063
 31
0.0
  0
LINE
  5
7F7
  8
0
 10
688.95569858695626
 20
27.500004503757971
 30
0.0
 11
689.20569858695421
 21
27.500004503757971
 31
0.0
  0
LINE
  5
7F8
  8
0
 10
689.20569858695421
 20
30.50000450375796
 30
0.0
 11
688.95569858695626
 21
30.50000450375796
 31
0.0
  0
LINE
  5
7F9
  8
0
 10
688.95569858695626
 20
5.6250045037580758
 30
0.0
 11
689.20569858695421
 21
5.6250045037580758
 31
0.0
  0
LINE
  5
7FA
  8
0
 10
689.20569858695421
 20
7.625004503757963
 30
0.0
 11
688.95569858695626
 21
7.625004503757963
 31
0.0
  0
LINE
  5
7FB
  8
0
 10
688.9556985869574
 20
40.50000450375812
 30
0.0
 11
688.9556985869574
 21
40.888233071411911
 31
0.0
  0
LINE
  5
7FC
  8
0
 10
688.9556985869574
 20
40.888233912796231
 30
0.0
 11
688.95569858695728
 21
41.56066467553795
 31
0.0
  0
LINE
  5
7FD
  8
0
 10
688.95569858695728
 20
41.560666008313341
 30
0.0
 11
688.9556985869574
 21
41.799042609434778
 31
0.0
  0
LINE
  5
7FE
  8
0
 10
688.9556985869574
 20
41.799043633233801
 30
0.0
 11
688.9556985869574
 21
42.000004503758127
 31
0.0
  0
LINE
  5
7FF
  8
0
 10
688.9556985869574
 20
39.000004503758127
 30
0.0
 11
688.9556985869574
 21
39.200965374281381
 31
0.0
  0
LINE
  5
800
  8
0
 10
688.9556985869574
 20
39.200966398081484
 30
0.0
 11
688.95569858695728
 21
39.439342999202438
 31
0.0
  0
LINE
  5
801
  8
0
 10
688.95569858695728
 20
39.439344331978312
 30
0.0
 11
688.9556985869574
 21
40.111775094719157
 31
0.0
  0
LINE
  5
802
  8
0
 10
688.9556985869574
 20
40.111775936104351
 30
0.0
 11
688.9556985869574
 21
40.50000450375812
 31
0.0
  0
LINE
  5
803
  8
0
 10
688.95569858695751
 20
29.000005468413558
 30
0.0
 11
688.95569858695751
 21
29.750004503758142
 31
0.0
  0
LINE
  5
804
  8
0
 10
688.95569858695751
 20
29.750005547768129
 30
0.0
 11
688.95569858695751
 21
30.29904168195733
 31
0.0
  0
LINE
  5
805
  8
0
 10
688.95569858695751
 20
30.299042609434789
 30
0.0
 11
688.95569858695751
 21
30.448893243191741
 31
0.0
  0
LINE
  5
806
  8
0
 10
688.95569858695751
 20
30.448893321248359
 30
0.0
 11
688.95569858695751
 21
30.500004503758142
 31
0.0
  0
LINE
  5
807
  8
0
 10
688.95569858695751
 20
27.500004503758142
 30
0.0
 11
688.95569858695751
 21
27.551113789843139
 31
0.0
  0
LINE
  5
808
  8
0
 10
688.95569858695751
 20
27.551115764324539
 30
0.0
 11
688.95569858695751
 21
27.70096639808148
 31
0.0
  0
LINE
  5
809
  8
0
 10
688.95569858695751
 20
27.70096654002537
 30
0.0
 11
688.95569858695751
 21
27.939344110111541
 31
0.0
  0
LINE
  5
80A
  8
0
 10
688.95569858695751
 20
27.939344331978312
 30
0.0
 11
688.95569858695751
 21
29.000004503758131
 31
0.0
  0
LINE
  5
80B
  8
0
 10
688.95569858695751
 20
6.6250045037581291
 30
0.0
 11
688.95569858695751
 21
6.8838235488606498
 31
0.0
  0
LINE
  5
80C
  8
0
 10
688.95569858695751
 20
6.8838238598009589
 30
0.0
 11
688.95569858695751
 21
7.3321111142962136
 31
0.0
  0
LINE
  5
80D
  8
0
 10
688.95569858695751
 20
7.332111284944677
 30
0.0
 11
688.95569858695751
 21
7.4910299075425666
 31
0.0
  0
LINE
  5
80E
  8
0
 10
688.95569858695751
 20
7.4910302776755158
 30
0.0
 11
688.95569858695751
 21
7.5909303300471986
 31
0.0
  0
LINE
  5
80F
  8
0
 10
688.95569858695751
 20
7.5909310142280528
 30
0.0
 11
688.95569858695751
 21
7.62500450375813
 31
0.0
  0
LINE
  5
810
  8
0
 10
688.95569858695751
 20
5.62500450375813
 30
0.0
 11
688.95569858695751
 21
5.6590784673935657
 31
0.0
  0
LINE
  5
811
  8
0
 10
688.95569858695751
 20
5.659078677469064
 30
0.0
 11
688.95569858695751
 21
5.7589790422399183
 31
0.0
  0
LINE
  5
812
  8
0
 10
688.95569858695751
 20
5.7589790999736943
 30
0.0
 11
688.95569858695751
 21
5.917897722571583
 31
0.0
  0
LINE
  5
813
  8
0
 10
688.95569858695751
 20
5.917897786665125
 30
0.0
 11
688.95569858695751
 21
6.12500450375813
 31
0.0
  0
LINE
  5
814
  8
0
 10
688.95569858695751
 20
6.1250047278860302
 30
0.0
 11
688.95569858695751
 21
6.3661853976965928
 31
0.0
  0
LINE
  5
815
  8
0
 10
688.95569858695751
 20
6.3661854586556084
 30
0.0
 11
688.95569858695751
 21
6.625004262593543
 31
0.0
  0
LINE
  5
816
  8
0
 10
688.95569858695615
 20
8.5000045037581877
 30
0.0
 11
689.20569858695387
 21
8.5000045037581877
 31
0.0
  0
LINE
  5
817
  8
0
 10
689.20569858695387
 20
18.50000450375796
 30
0.0
 11
688.95569858695615
 21
18.50000450375796
 31
0.0
  0
LINE
  5
818
  8
0
 10
688.9556985869574
 20
13.50000450375814
 30
0.0
 11
688.9556985869574
 21
16.000004503758142
 31
0.0
  0
LINE
  5
819
  8
0
 10
688.9556985869574
 20
16.00000502576302
 30
0.0
 11
688.9556985869574
 21
17.035537982667542
 31
0.0
  0
LINE
  5
81A
  8
0
 10
688.9556985869574
 20
17.035538409690879
 30
0.0
 11
688.9556985869574
 21
17.830131311376839
 31
0.0
  0
LINE
  5
81B
  8
0
 10
688.9556985869574
 20
17.83013152268035
 30
0.0
 11
688.9556985869574
 21
18.329633184914609
 31
0.0
  0
LINE
  5
81C
  8
0
 10
688.9556985869574
 20
18.329633635203511
 30
0.0
 11
688.9556985869574
 21
18.500004503758159
 31
0.0
  0
LINE
  5
81D
  8
0
 10
688.9556985869574
 20
8.5000045037581664
 30
0.0
 11
688.9556985869574
 21
8.6703752701587788
 31
0.0
  0
LINE
  5
81E
  8
0
 10
688.9556985869574
 20
8.6703753723128241
 30
0.0
 11
688.9556985869574
 21
9.1698774848359719
 31
0.0
  0
LINE
  5
81F
  8
0
 10
688.9556985869574
 20
9.1698776961387871
 30
0.0
 11
688.9556985869574
 21
9.9644703211494363
 31
0.0
  0
LINE
  5
820
  8
0
 10
688.9556985869574
 20
9.9644705978254251
 30
0.0
 11
688.9556985869574
 21
11.00000450375815
 31
0.0
  0
LINE
  5
821
  8
0
 10
688.9556985869574
 20
11.000004727885649
 30
0.0
 11
688.9556985869574
 21
13.50000450375814
 31
0.0
  0
ARC
  5
822
  8
0
 10
210.8749953247513
 20
147.37500450375649
 30
0.0
 40
8.2500000000000089
 50
179.9999999999998
 51
359.99999999999881
  0
ARC
  5
823
  8
0
 10
210.8749953247513
 20
147.37500450375649
 30
0.0
 40
8.2500000000000053
 50
359.9999999999996
 51
179.9999999999998
  0
ARC
  5
824
  8
0
 10
210.8749953247513
 20
147.37500450375649
 30
0.0
 40
7.687499999999992
 50
0.0000000000007761
 51
180.0000000000002
  0
ARC
  5
825
  8
0
 10
210.8749953247513
 20
147.37500450375649
 30
0.0
 40
7.687499999999992
 50
180.0000000000002
 51
0.0000000000000509
  0
LINE
  5
826
  8
0
 10
215.99749609873911
 20
144.9331486549591
 30
0.0
 11
215.8025556225486
 21
144.48423992480039
 31
0.0
  0
LINE
  5
827
  8
0
 10
215.8025556225486
 20
144.48423992480039
 30
0.0
 11
215.35166276540579
 21
144.32699786130831
 31
0.0
  0
LINE
  5
828
  8
0
 10
215.35166276540579
 20
144.32699786130831
 30
0.0
 11
215.0271339955645
 21
144.3912339724194
 31
0.0
  0
LINE
  5
829
  8
0
 10
215.0271339955645
 20
144.3912339724194
 30
0.0
 11
214.79164292413591
 21
144.58394230575269
 31
0.0
  0
LINE
  5
82A
  8
0
 10
214.79164292413591
 20
144.58394230575269
 30
0.0
 11
214.60067070191371
 21
145.34187881368919
 31
0.0
  0
LINE
  5
82B
  8
0
 10
214.60067070191371
 20
145.34187881368919
 30
0.0
 11
214.78469847969151
 21
146.10576770257811
 31
0.0
  0
LINE
  5
82C
  8
0
 10
214.78469847969151
 20
146.10576770257811
 30
0.0
 11
215.0144851860407
 21
146.2954998454353
 31
0.0
  0
LINE
  5
82D
  8
0
 10
215.0144851860407
 20
146.2954998454353
 30
0.0
 11
215.33578974953281
 21
146.3587438930544
 31
0.0
  0
LINE
  5
82E
  8
0
 10
215.33578974953281
 20
146.3587438930544
 30
0.0
 11
215.8040437177867
 21
146.2153907184512
 31
0.0
  0
LINE
  5
82F
  8
0
 10
215.8040437177867
 20
146.2153907184512
 30
0.0
 11
215.99749609873911
 21
145.79029151210199
 31
0.0
  0
LINE
  5
830
  8
0
 10
215.99749609873911
 20
145.79029151210199
 30
0.0
 11
217.1403532415963
 21
145.79029151210199
 31
0.0
  0
LINE
  5
831
  8
0
 10
217.1403532415963
 20
145.79029151210199
 30
0.0
 11
216.98013498762799
 21
146.43798496448289
 31
0.0
  0
LINE
  5
832
  8
0
 10
216.98013498762799
 20
146.43798496448289
 30
0.0
 11
216.6125754638185
 21
146.91677960734009
 31
0.0
  0
LINE
  5
833
  8
0
 10
216.6125754638185
 20
146.91677960734009
 30
0.0
 11
216.0535476860407
 21
147.21253853591151
 31
0.0
  0
LINE
  5
834
  8
0
 10
216.0535476860407
 20
147.21253853591151
 30
0.0
 11
215.31892467016769
 21
147.3111248454353
 31
0.0
  0
LINE
  5
835
  8
0
 10
215.31892467016769
 20
147.3111248454353
 30
0.0
 11
214.52093359873911
 21
147.1791804009909
 31
0.0
  0
LINE
  5
836
  8
0
 10
214.52093359873911
 20
147.1791804009909
 30
0.0
 11
213.91069054318351
 21
146.7833470676575
 31
0.0
  0
LINE
  5
837
  8
0
 10
213.91069054318351
 20
146.7833470676575
 30
0.0
 11
213.52341375746931
 21
146.15933913114961
 31
0.0
  0
LINE
  5
838
  8
0
 10
213.52341375746931
 20
146.15933913114961
 30
0.0
 11
213.3943214955645
 21
145.3428708771813
 31
0.0
  0
LINE
  5
839
  8
0
 10
213.3943214955645
 20
145.3428708771813
 30
0.0
 11
213.52403379715179
 21
144.52454250416551
 31
0.0
  0
LINE
  5
83A
  8
0
 10
213.52403379715179
 20
144.52454250416551
 30
0.0
 11
213.91317070191371
 21
143.90090659146711
 31
0.0
  0
LINE
  5
83B
  8
0
 10
213.91317070191371
 20
143.90090659146711
 30
0.0
 11
214.52849808286609
 21
143.50618932956229
 31
0.0
  0
LINE
  5
83C
  8
0
 10
214.52849808286609
 20
143.50618932956229
 30
0.0
 11
215.3367818130248
 21
143.37461690892741
 31
0.0
  0
LINE
  5
83D
  8
0
 10
215.3367818130248
 20
143.37461690892741
 30
0.0
 11
216.0598720908026
 21
143.47679944860991
 31
0.0
  0
LINE
  5
83E
  8
0
 10
216.0598720908026
 20
143.47679944860991
 30
0.0
 11
216.6160476860407
 21
143.7833470676575
 31
0.0
  0
LINE
  5
83F
  8
0
 10
216.6160476860407
 20
143.7833470676575
 30
0.0
 11
216.98348320191371
 21
144.27516254384801
 31
0.0
  0
LINE
  5
840
  8
0
 10
216.98348320191371
 20
144.27516254384801
 30
0.0
 11
217.1403532415963
 21
144.9331486549591
 31
0.0
  0
LINE
  5
841
  8
0
 10
217.1403532415963
 20
144.9331486549591
 30
0.0
 11
215.99749609873911
 21
144.9331486549591
 31
0.0
  0
LINE
  5
842
  8
0
 10
208.7757687209714
 20
145.70722284388231
 30
0.0
 11
209.9533480860508
 21
145.70722284388231
 31
0.0
  0
LINE
  5
843
  8
0
 10
209.9533480860508
 20
145.70722284388231
 30
0.0
 11
210.10017348287619
 21
146.21515935181881
 31
0.0
  0
LINE
  5
844
  8
0
 10
210.10017348287619
 20
146.21515935181881
 30
0.0
 11
211.3035464987492
 21
146.21515935181881
 31
0.0
  0
LINE
  5
845
  8
0
 10
211.3035464987492
 20
146.21515935181881
 30
0.0
 11
211.44541157811429
 21
145.70722284388231
 31
0.0
  0
LINE
  5
846
  8
0
 10
211.44541157811429
 20
145.70722284388231
 30
0.0
 11
212.6487845939873
 21
145.70722284388231
 31
0.0
  0
LINE
  5
847
  8
0
 10
212.6487845939873
 20
145.70722284388231
 30
0.0
 11
211.31941951462221
 21
149.5167466534061
 31
0.0
  0
LINE
  5
848
  8
0
 10
211.31941951462221
 20
149.5167466534061
 30
0.0
 11
210.09025284795561
 21
149.5167466534061
 31
0.0
  0
LINE
  5
849
  8
0
 10
210.09025284795561
 20
149.5167466534061
 30
0.0
 11
208.7757687209714
 21
145.70722284388231
 31
0.0
  0
LINE
  5
84A
  8
0
 10
210.32041157811429
 20
147.04055617721559
 30
0.0
 11
210.706324276527
 21
148.34412760578709
 31
0.0
  0
LINE
  5
84B
  8
0
 10
210.706324276527
 20
148.34412760578709
 30
0.0
 11
211.0833084035111
 21
147.04055617721559
 31
0.0
  0
LINE
  5
84C
  8
0
 10
211.0833084035111
 20
147.04055617721559
 30
0.0
 11
210.32041157811429
 21
147.04055617721559
 31
0.0
  0
LINE
  5
84D
  8
0
 10
205.01503753071
 20
147.44761115306261
 30
0.0
 11
206.71444229261479
 21
147.44761115306261
 31
0.0
  0
LINE
  5
84E
  8
0
 10
206.71444229261479
 20
147.44761115306261
 30
0.0
 11
207.4822994354719
 21
147.48630162925301
 31
0.0
  0
LINE
  5
84F
  8
0
 10
207.4822994354719
 20
147.48630162925301
 30
0.0
 11
207.89499784817031
 21
147.61824607369749
 31
0.0
  0
LINE
  5
850
  8
0
 10
207.89499784817031
 20
147.61824607369749
 30
0.0
 11
208.30323197515449
 21
148.001182581634
 31
0.0
  0
LINE
  5
851
  8
0
 10
208.30323197515449
 20
148.001182581634
 30
0.0
 11
208.44360895928151
 21
148.58848416893559
 31
0.0
  0
LINE
  5
852
  8
0
 10
208.44360895928151
 20
148.58848416893559
 30
0.0
 11
208.2997597529322
 21
149.15148020068159
 31
0.0
  0
LINE
  5
853
  8
0
 10
208.2997597529322
 20
149.15148020068159
 30
0.0
 11
207.85630737197991
 21
149.4763809943324
 31
0.0
  0
LINE
  5
854
  8
0
 10
207.85630737197991
 20
149.4763809943324
 30
0.0
 11
208.20154546721801
 21
149.7938413117927
 31
0.0
  0
LINE
  5
855
  8
0
 10
208.20154546721801
 20
149.7938413117927
 30
0.0
 11
208.31662483229729
 21
150.2462222641737
 31
0.0
  0
LINE
  5
856
  8
0
 10
208.31662483229729
 20
150.2462222641737
 30
0.0
 11
208.1628549910275
 21
150.80624210544349
 31
0.0
  0
LINE
  5
857
  8
0
 10
208.1628549910275
 20
150.80624210544349
 30
0.0
 11
207.72039467356711
 21
151.14602385147529
 31
0.0
  0
LINE
  5
858
  8
0
 10
207.72039467356711
 20
151.14602385147529
 30
0.0
 11
207.32505737197991
 21
151.2313413117927
 31
0.0
  0
LINE
  5
859
  8
0
 10
207.32505737197991
 20
151.2313413117927
 30
0.0
 11
206.59142641959889
 21
151.25713496258641
 31
0.0
  0
LINE
  5
85A
  8
0
 10
206.59142641959889
 20
151.25713496258641
 30
0.0
 11
205.01503753071
 21
151.25713496258641
 31
0.0
  0
LINE
  5
85B
  8
0
 10
205.01503753071
 20
151.25713496258641
 30
0.0
 11
205.01503753071
 21
147.44761115306261
 31
0.0
  0
LINE
  5
85C
  8
0
 10
206.22138673705919
 20
148.3365000419515
 30
0.0
 11
206.22138673705919
 21
149.03491274036421
 31
0.0
  0
LINE
  5
85D
  8
0
 10
206.22138673705919
 20
149.03491274036421
 30
0.0
 11
206.76999784817031
 21
149.03491274036421
 31
0.0
  0
LINE
  5
85E
  8
0
 10
206.76999784817031
 20
149.03491274036421
 30
0.0
 11
207.17922403864651
 21
148.95554766099909
 31
0.0
  0
LINE
  5
85F
  8
0
 10
207.17922403864651
 20
148.95554766099909
 30
0.0
 11
207.30075181642431
 21
148.688682581634
 31
0.0
  0
LINE
  5
860
  8
0
 10
207.30075181642431
 20
148.688682581634
 30
0.0
 11
207.18170419737669
 21
148.4188413117927
 31
0.0
  0
LINE
  5
861
  8
0
 10
207.18170419737669
 20
148.4188413117927
 30
0.0
 11
206.78091054658299
 21
148.3365000419515
 31
0.0
  0
LINE
  5
862
  8
0
 10
206.78091054658299
 20
148.3365000419515
 30
0.0
 11
206.22138673705919
 21
148.3365000419515
 31
0.0
  0
LINE
  5
863
  8
0
 10
206.22138673705919
 20
149.7333254387768
 30
0.0
 11
206.22138673705919
 21
150.36824607369749
 31
0.0
  0
LINE
  5
864
  8
0
 10
206.22138673705919
 20
150.36824607369749
 30
0.0
 11
206.55571213388461
 21
150.36824607369749
 31
0.0
  0
LINE
  5
865
  8
0
 10
206.55571213388461
 20
150.36824607369749
 30
0.0
 11
207.0641446735672
 21
150.30078575623719
 31
0.0
  0
LINE
  5
866
  8
0
 10
207.0641446735672
 20
150.30078575623719
 30
0.0
 11
207.17376768944021
 21
150.05078575623719
 31
0.0
  0
LINE
  5
867
  8
0
 10
207.17376768944021
 20
150.05078575623719
 30
0.0
 11
207.07158514975771
 21
149.80574607369749
 31
0.0
  0
LINE
  5
868
  8
0
 10
207.07158514975771
 20
149.80574607369749
 30
0.0
 11
206.71940261007509
 21
149.7333254387768
 31
0.0
  0
LINE
  5
869
  8
0
 10
206.71940261007509
 20
149.7333254387768
 30
0.0
 11
206.22138673705919
 21
149.7333254387768
 31
0.0
  0
ARC
  5
86A
  8
0
 10
210.87499532475081
 20
147.37500450375711
 30
0.0
 40
9.0000000000000089
 50
179.9999999999998
 51
359.99999999999898
  0
ARC
  5
86B
  8
0
 10
210.87499532475081
 20
147.37500450375711
 30
0.0
 40
9.0000000000000124
 50
359.9999999999996
 51
179.9999999999998
  0
LINE
  5
86C
  8
0
 10
140.9999953247501
 20
177.37500450375751
 30
0.0
 11
280.74999532474442
 21
177.37500450375751
 31
0.0
  0
LINE
  5
86D
  8
0
 10
280.74999532474442
 20
100.00000450375769
 30
0.0
 11
140.9999953247501
 21
100.00000450375769
 31
0.0
  0
LINE
  5
86E
  8
0
 10
140.9999953247501
 20
177.37500450375751
 30
0.0
 11
140.9999953247501
 21
100.00000450375769
 31
0.0
  0
LINE
  5
86F
  8
0
 10
280.74999532474442
 20
100.00000450375769
 30
0.0
 11
280.74999532474442
 21
177.37500450375751
 31
0.0
  0
LINE
  5
870
  8
0
 10
140.99999532474999
 20
100.00000450375769
 30
0.0
 11
280.74999532474988
 21
100.00000450375769
 31
0.0
  0
LINE
  5
871
  8
0
 10
280.74999532474988
 20
0.0000045037577365
 30
0.0
 11
140.99999532474999
 21
0.0000045037577365
 31
0.0
  0
LINE
  5
872
  8
0
 10
280.74999532474988
 20
100.00000450375769
 30
0.0
 11
280.74999532474988
 21
0.0000045037577365
 31
0.0
  0
LINE
  5
873
  8
0
 10
140.99999532474999
 20
0.0000045037577365
 30
0.0
 11
140.99999532474999
 21
100.00000450375769
 31
0.0
  0
ARC
  5
874
  8
0
 10
351.62499532475368
 20
147.37500450376109
 30
0.0
 40
8.2500000000000124
 50
179.99999999999969
 51
359.99999999999881
  0
ARC
  5
875
  8
0
 10
351.62499532475368
 20
147.37500450376109
 30
0.0
 40
8.2500000000000124
 50
359.9999999999996
 51
179.99999999999969
  0
ARC
  5
876
  8
0
 10
351.62499532475368
 20
147.37500450376109
 30
0.0
 40
7.687499999999976
 50
0.0000000000010114
 51
180.00000000000031
  0
ARC
  5
877
  8
0
 10
351.62499532475368
 20
147.37500450376109
 30
0.0
 40
7.6874999999999831
 50
180.0000000000002
 51
0.0000000000001018
  0
LINE
  5
878
  8
0
 10
356.74749609874169
 20
144.93314865496379
 30
0.0
 11
356.5525556225511
 21
144.484239924805
 31
0.0
  0
LINE
  5
879
  8
0
 10
356.5525556225511
 20
144.484239924805
 30
0.0
 11
356.10166276540821
 21
144.326997861313
 31
0.0
  0
LINE
  5
87A
  8
0
 10
356.10166276540821
 20
144.326997861313
 30
0.0
 11
355.77713399556689
 21
144.39123397242409
 31
0.0
  0
LINE
  5
87B
  8
0
 10
355.77713399556689
 20
144.39123397242409
 30
0.0
 11
355.54164292413839
 21
144.5839423057574
 31
0.0
  0
LINE
  5
87C
  8
0
 10
355.54164292413839
 20
144.5839423057574
 30
0.0
 11
355.3506707019161
 21
145.34187881369391
 31
0.0
  0
LINE
  5
87D
  8
0
 10
355.3506707019161
 20
145.34187881369391
 30
0.0
 11
355.5346984796941
 21
146.1057677025828
 31
0.0
  0
LINE
  5
87E
  8
0
 10
355.5346984796941
 20
146.1057677025828
 30
0.0
 11
355.76448518604309
 21
146.29549984543991
 31
0.0
  0
LINE
  5
87F
  8
0
 10
355.76448518604309
 20
146.29549984543991
 30
0.0
 11
356.08578974953531
 21
146.358743893059
 31
0.0
  0
LINE
  5
880
  8
0
 10
356.08578974953531
 20
146.358743893059
 30
0.0
 11
356.55404371778923
 21
146.21539071845581
 31
0.0
  0
LINE
  5
881
  8
0
 10
356.55404371778923
 20
146.21539071845581
 30
0.0
 11
356.74749609874169
 21
145.79029151210659
 31
0.0
  0
LINE
  5
882
  8
0
 10
356.74749609874169
 20
145.79029151210659
 30
0.0
 11
357.8903532415988
 21
145.79029151210659
 31
0.0
  0
LINE
  5
883
  8
0
 10
357.8903532415988
 20
145.79029151210659
 30
0.0
 11
357.73013498763038
 21
146.43798496448761
 31
0.0
  0
LINE
  5
884
  8
0
 10
357.73013498763038
 20
146.43798496448761
 30
0.0
 11
357.36257546382092
 21
146.91677960734469
 31
0.0
  0
LINE
  5
885
  8
0
 10
357.36257546382092
 20
146.91677960734469
 30
0.0
 11
356.80354768604309
 21
147.2125385359162
 31
0.0
  0
LINE
  5
886
  8
0
 10
356.80354768604309
 20
147.2125385359162
 30
0.0
 11
356.06892467017008
 21
147.31112484543999
 31
0.0
  0
LINE
  5
887
  8
0
 10
356.06892467017008
 20
147.31112484543999
 30
0.0
 11
355.27093359874158
 21
147.17918040099551
 31
0.0
  0
LINE
  5
888
  8
0
 10
355.27093359874158
 20
147.17918040099551
 30
0.0
 11
354.66069054318598
 21
146.78334706766219
 31
0.0
  0
LINE
  5
889
  8
0
 10
354.66069054318598
 20
146.78334706766219
 30
0.0
 11
354.2734137574717
 21
146.1593391311543
 31
0.0
  0
LINE
  5
88A
  8
0
 10
354.2734137574717
 20
146.1593391311543
 30
0.0
 11
354.14432149556689
 21
145.34287087718599
 31
0.0
  0
LINE
  5
88B
  8
0
 10
354.14432149556689
 20
145.34287087718599
 30
0.0
 11
354.27403379715429
 21
144.52454250417011
 31
0.0
  0
LINE
  5
88C
  8
0
 10
354.27403379715429
 20
144.52454250417011
 30
0.0
 11
354.6631707019161
 21
143.90090659147171
 31
0.0
  0
LINE
  5
88D
  8
0
 10
354.6631707019161
 20
143.90090659147171
 30
0.0
 11
355.27849808286851
 21
143.50618932956689
 31
0.0
  0
LINE
  5
88E
  8
0
 10
355.27849808286851
 20
143.50618932956689
 30
0.0
 11
356.0867818130273
 21
143.37461690893201
 31
0.0
  0
LINE
  5
88F
  8
0
 10
356.0867818130273
 20
143.37461690893201
 30
0.0
 11
356.80987209080502
 21
143.47679944861451
 31
0.0
  0
LINE
  5
890
  8
0
 10
356.80987209080502
 20
143.47679944861451
 30
0.0
 11
357.36604768604309
 21
143.78334706766219
 31
0.0
  0
LINE
  5
891
  8
0
 10
357.36604768604309
 20
143.78334706766219
 30
0.0
 11
357.7334832019161
 21
144.2751625438527
 31
0.0
  0
LINE
  5
892
  8
0
 10
357.7334832019161
 20
144.2751625438527
 30
0.0
 11
357.8903532415988
 21
144.93314865496379
 31
0.0
  0
LINE
  5
893
  8
0
 10
357.8903532415988
 20
144.93314865496379
 30
0.0
 11
356.74749609874169
 21
144.93314865496379
 31
0.0
  0
LINE
  5
894
  8
0
 10
349.52576872097387
 20
145.707222843887
 30
0.0
 11
350.70334808605321
 21
145.707222843887
 31
0.0
  0
LINE
  5
895
  8
0
 10
350.70334808605321
 20
145.707222843887
 30
0.0
 11
350.85017348287869
 21
146.2151593518235
 31
0.0
  0
LINE
  5
896
  8
0
 10
350.85017348287869
 20
146.2151593518235
 30
0.0
 11
352.0535464987517
 21
146.2151593518235
 31
0.0
  0
LINE
  5
897
  8
0
 10
352.0535464987517
 20
146.2151593518235
 30
0.0
 11
352.1954115781167
 21
145.707222843887
 31
0.0
  0
LINE
  5
898
  8
0
 10
352.1954115781167
 20
145.707222843887
 30
0.0
 11
353.39878459398972
 21
145.707222843887
 31
0.0
  0
LINE
  5
899
  8
0
 10
353.39878459398972
 20
145.707222843887
 30
0.0
 11
352.06941951462471
 21
149.51674665341079
 31
0.0
  0
LINE
  5
89A
  8
0
 10
352.06941951462471
 20
149.51674665341079
 30
0.0
 11
350.84025284795803
 21
149.51674665341079
 31
0.0
  0
LINE
  5
89B
  8
0
 10
350.84025284795803
 20
149.51674665341079
 30
0.0
 11
349.52576872097387
 21
145.707222843887
 31
0.0
  0
LINE
  5
89C
  8
0
 10
351.07041157811682
 20
147.04055617722031
 30
0.0
 11
351.45632427652941
 21
148.3441276057917
 31
0.0
  0
LINE
  5
89D
  8
0
 10
351.45632427652941
 20
148.3441276057917
 30
0.0
 11
351.83330840351363
 21
147.04055617722031
 31
0.0
  0
LINE
  5
89E
  8
0
 10
351.83330840351363
 20
147.04055617722031
 30
0.0
 11
351.07041157811682
 21
147.04055617722031
 31
0.0
  0
LINE
  5
89F
  8
0
 10
345.7650375307125
 20
147.44761115306719
 30
0.0
 11
347.46444229261721
 21
147.44761115306719
 31
0.0
  0
LINE
  5
8A0
  8
0
 10
347.46444229261721
 20
147.44761115306719
 30
0.0
 11
348.23229943547437
 21
147.4863016292577
 31
0.0
  0
LINE
  5
8A1
  8
0
 10
348.23229943547437
 20
147.4863016292577
 30
0.0
 11
348.64499784817281
 21
147.6182460737021
 31
0.0
  0
LINE
  5
8A2
  8
0
 10
348.64499784817281
 20
147.6182460737021
 30
0.0
 11
349.05323197515702
 21
148.00118258163869
 31
0.0
  0
LINE
  5
8A3
  8
0
 10
349.05323197515702
 20
148.00118258163869
 30
0.0
 11
349.19360895928389
 21
148.58848416894031
 31
0.0
  0
LINE
  5
8A4
  8
0
 10
349.19360895928389
 20
148.58848416894031
 30
0.0
 11
349.04975975293468
 21
149.15148020068631
 31
0.0
  0
LINE
  5
8A5
  8
0
 10
349.04975975293468
 20
149.15148020068631
 30
0.0
 11
348.60630737198233
 21
149.47638099433709
 31
0.0
  0
LINE
  5
8A6
  8
0
 10
348.60630737198233
 20
149.47638099433709
 30
0.0
 11
348.9515454672204
 21
149.79384131179739
 31
0.0
  0
LINE
  5
8A7
  8
0
 10
348.9515454672204
 20
149.79384131179739
 30
0.0
 11
349.06662483229979
 21
150.24622226417841
 31
0.0
  0
LINE
  5
8A8
  8
0
 10
349.06662483229979
 20
150.24622226417841
 30
0.0
 11
348.91285499102997
 21
150.80624210544821
 31
0.0
  0
LINE
  5
8A9
  8
0
 10
348.91285499102997
 20
150.80624210544821
 30
0.0
 11
348.47039467356961
 21
151.1460238514799
 31
0.0
  0
LINE
  5
8AA
  8
0
 10
348.47039467356961
 20
151.1460238514799
 30
0.0
 11
348.07505737198233
 21
151.23134131179739
 31
0.0
  0
LINE
  5
8AB
  8
0
 10
348.07505737198233
 20
151.23134131179739
 30
0.0
 11
347.34142641960131
 21
151.2571349625911
 31
0.0
  0
LINE
  5
8AC
  8
0
 10
347.34142641960131
 20
151.2571349625911
 30
0.0
 11
345.7650375307125
 21
151.2571349625911
 31
0.0
  0
LINE
  5
8AD
  8
0
 10
345.7650375307125
 20
151.2571349625911
 30
0.0
 11
345.7650375307125
 21
147.44761115306719
 31
0.0
  0
LINE
  5
8AE
  8
0
 10
346.97138673706172
 20
148.3365000419561
 30
0.0
 11
346.97138673706172
 21
149.03491274036881
 31
0.0
  0
LINE
  5
8AF
  8
0
 10
346.97138673706172
 20
149.03491274036881
 30
0.0
 11
347.51999784817281
 21
149.03491274036881
 31
0.0
  0
LINE
  5
8B0
  8
0
 10
347.51999784817281
 20
149.03491274036881
 30
0.0
 11
347.92922403864901
 21
148.95554766100369
 31
0.0
  0
LINE
  5
8B1
  8
0
 10
347.92922403864901
 20
148.95554766100369
 30
0.0
 11
348.05075181642673
 21
148.6886825816386
 31
0.0
  0
LINE
  5
8B2
  8
0
 10
348.05075181642673
 20
148.6886825816386
 30
0.0
 11
347.93170419737908
 21
148.41884131179739
 31
0.0
  0
LINE
  5
8B3
  8
0
 10
347.93170419737908
 20
148.41884131179739
 30
0.0
 11
347.53091054658552
 21
148.3365000419561
 31
0.0
  0
LINE
  5
8B4
  8
0
 10
347.53091054658552
 20
148.3365000419561
 30
0.0
 11
346.97138673706172
 21
148.3365000419561
 31
0.0
  0
LINE
  5
8B5
  8
0
 10
346.97138673706172
 20
149.73332543878149
 30
0.0
 11
346.97138673706172
 21
150.36824607370221
 31
0.0
  0
LINE
  5
8B6
  8
0
 10
346.97138673706172
 20
150.36824607370221
 30
0.0
 11
347.3057121338872
 21
150.36824607370221
 31
0.0
  0
LINE
  5
8B7
  8
0
 10
347.3057121338872
 20
150.36824607370221
 30
0.0
 11
347.81414467356961
 21
150.30078575624191
 31
0.0
  0
LINE
  5
8B8
  8
0
 10
347.81414467356961
 20
150.30078575624191
 30
0.0
 11
347.92376768944268
 21
150.05078575624179
 31
0.0
  0
LINE
  5
8B9
  8
0
 10
347.92376768944268
 20
150.05078575624179
 30
0.0
 11
347.82158514976021
 21
149.80574607370221
 31
0.0
  0
LINE
  5
8BA
  8
0
 10
347.82158514976021
 20
149.80574607370221
 30
0.0
 11
347.46940261007762
 21
149.73332543878149
 31
0.0
  0
LINE
  5
8BB
  8
0
 10
347.46940261007762
 20
149.73332543878149
 30
0.0
 11
346.97138673706172
 21
149.73332543878149
 31
0.0
  0
ARC
  5
8BC
  8
0
 10
351.62499532475329
 20
147.3750045037618
 30
0.0
 40
9.0000000000000089
 50
179.9999999999998
 51
359.99999999999881
  0
ARC
  5
8BD
  8
0
 10
351.62499532475329
 20
147.3750045037618
 30
0.0
 40
9.0
 50
0.0
 51
179.99999999999989
  0
LINE
  5
8BE
  8
0
 10
281.749995324753
 20
177.37500450375751
 30
0.0
 11
421.49999532474732
 21
177.37500450375751
 31
0.0
  0
LINE
  5
8BF
  8
0
 10
421.49999532474732
 20
100.00000450375769
 30
0.0
 11
281.749995324753
 21
100.00000450375769
 31
0.0
  0
LINE
  5
8C0
  8
0
 10
281.749995324753
 20
177.37500450375751
 30
0.0
 11
281.749995324753
 21
100.00000450375769
 31
0.0
  0
LINE
  5
8C1
  8
0
 10
421.49999532474732
 20
100.00000450375769
 30
0.0
 11
421.49999532474732
 21
177.37500450375751
 31
0.0
  0
LINE
  5
8C2
  8
0
 10
281.749995324753
 20
100.00000450375769
 30
0.0
 11
421.49999532475277
 21
100.00000450375769
 31
0.0
  0
LINE
  5
8C3
  8
0
 10
421.49999532475277
 20
0.0000045037577365
 30
0.0
 11
281.749995324753
 21
0.0000045037577365
 31
0.0
  0
LINE
  5
8C4
  8
0
 10
421.49999532475277
 20
100.00000450375769
 30
0.0
 11
421.49999532475277
 21
0.0000045037577365
 31
0.0
  0
LINE
  5
8C5
  8
0
 10
281.749995324753
 20
0.0000045037577365
 30
0.0
 11
281.749995324753
 21
100.00000450375769
 31
0.0
  0
LINE
  5
8C6
  8
0
 10
0.2499953247531152
 20
177.37500450375751
 30
0.0
 11
139.9999953247474
 21
177.37500450375751
 31
0.0
  0
LINE
  5
8C7
  8
0
 10
139.9999953247474
 20
100.00000450375769
 30
0.0
 11
0.2499953247531152
 21
100.00000450375769
 31
0.0
  0
LINE
  5
8C8
  8
0
 10
0.2499953247531152
 20
177.37500450375751
 30
0.0
 11
0.2499953247531152
 21
100.00000450375769
 31
0.0
  0
LINE
  5
8C9
  8
0
 10
139.9999953247474
 20
100.00000450375769
 30
0.0
 11
139.9999953247474
 21
177.37500450375751
 31
0.0
  0
LINE
  5
8CA
  8
0
 10
0.2499953247531152
 20
100.00000450375769
 30
0.0
 11
139.99999532475289
 21
100.00000450375769
 31
0.0
  0
LINE
  5
8CB
  8
0
 10
139.99999532475289
 20
0.0000045037577365
 30
0.0
 11
0.2499953247531152
 21
0.0000045037577365
 31
0.0
  0
LINE
  5
8CC
  8
0
 10
139.99999532475289
 20
100.00000450375769
 30
0.0
 11
139.99999532475289
 21
0.0000045037577365
 31
0.0
  0
LINE
  5
8CD
  8
0
 10
0.2499953247531152
 20
0.0000045037577365
 30
0.0
 11
0.2499953247531152
 21
100.00000450375769
 31
0.0
  0
ARC
  5
8CE
  8
0
 10
70.124995324753797
 20
147.3750045037566
 30
0.0
 40
8.25
 50
179.99999999999969
 51
359.99999999999881
  0
ARC
  5
8CF
  8
0
 10
70.124995324753797
 20
147.3750045037566
 30
0.0
 40
8.2499999999999911
 50
359.9999999999996
 51
179.9999999999998
  0
ARC
  5
8D0
  8
0
 10
70.124995324753797
 20
147.3750045037566
 30
0.0
 40
7.6874999999999831
 50
0.0000000000007506
 51
180.0000000000002
  0
ARC
  5
8D1
  8
0
 10
70.124995324753797
 20
147.3750045037566
 30
0.0
 40
7.687499999999992
 50
180.00000000000011
 51
359.9999999999996
  0
LINE
  5
8D2
  8
0
 10
75.247496098741635
 20
144.93314865495921
 30
0.0
 11
75.05255562255121
 21
144.48423992480051
 31
0.0
  0
LINE
  5
8D3
  8
0
 10
75.05255562255121
 20
144.48423992480051
 30
0.0
 11
74.601662765408321
 21
144.32699786130851
 31
0.0
  0
LINE
  5
8D4
  8
0
 10
74.601662765408321
 20
144.32699786130851
 30
0.0
 11
74.277133995566999
 21
144.3912339724196
 31
0.0
  0
LINE
  5
8D5
  8
0
 10
74.277133995566999
 20
144.3912339724196
 30
0.0
 11
74.0416429241385
 21
144.58394230575291
 31
0.0
  0
LINE
  5
8D6
  8
0
 10
74.0416429241385
 20
144.58394230575291
 30
0.0
 11
73.850670701916215
 21
145.34187881368939
 31
0.0
  0
LINE
  5
8D7
  8
0
 10
73.850670701916215
 20
145.34187881368939
 30
0.0
 11
74.034698479694043
 21
146.10576770257831
 31
0.0
  0
LINE
  5
8D8
  8
0
 10
74.034698479694043
 20
146.10576770257831
 30
0.0
 11
74.264485186043203
 21
146.2954998454355
 31
0.0
  0
LINE
  5
8D9
  8
0
 10
74.264485186043203
 20
146.2954998454355
 30
0.0
 11
74.585789749535309
 21
146.35874389305451
 31
0.0
  0
LINE
  5
8DA
  8
0
 10
74.585789749535309
 20
146.35874389305451
 30
0.0
 11
75.054043717789213
 21
146.21539071845129
 31
0.0
  0
LINE
  5
8DB
  8
0
 10
75.054043717789213
 20
146.21539071845129
 30
0.0
 11
75.247496098741635
 21
145.7902915121021
 31
0.0
  0
LINE
  5
8DC
  8
0
 10
75.247496098741635
 20
145.7902915121021
 30
0.0
 11
76.390353241598802
 21
145.7902915121021
 31
0.0
  0
LINE
  5
8DD
  8
0
 10
76.390353241598802
 20
145.7902915121021
 30
0.0
 11
76.230134987630549
 21
146.43798496448301
 31
0.0
  0
LINE
  5
8DE
  8
0
 10
76.230134987630549
 20
146.43798496448301
 30
0.0
 11
75.862575463821031
 21
146.9167796073402
 31
0.0
  0
LINE
  5
8DF
  8
0
 10
75.862575463821031
 20
146.9167796073402
 30
0.0
 11
75.303547686043203
 21
147.21253853591159
 31
0.0
  0
LINE
  5
8E0
  8
0
 10
75.303547686043203
 20
147.21253853591159
 30
0.0
 11
74.56892467017019
 21
147.31112484543539
 31
0.0
  0
LINE
  5
8E1
  8
0
 10
74.56892467017019
 20
147.31112484543539
 30
0.0
 11
73.770933598741635
 21
147.17918040099099
 31
0.0
  0
LINE
  5
8E2
  8
0
 10
73.770933598741635
 20
147.17918040099099
 30
0.0
 11
73.160690543186092
 21
146.7833470676577
 31
0.0
  0
LINE
  5
8E3
  8
0
 10
73.160690543186092
 20
146.7833470676577
 30
0.0
 11
72.773413757471815
 21
146.15933913114969
 31
0.0
  0
LINE
  5
8E4
  8
0
 10
72.773413757471815
 20
146.15933913114969
 30
0.0
 11
72.644321495566999
 21
145.3428708771815
 31
0.0
  0
LINE
  5
8E5
  8
0
 10
72.644321495566999
 20
145.3428708771815
 30
0.0
 11
72.774033797154289
 21
144.52454250416559
 31
0.0
  0
LINE
  5
8E6
  8
0
 10
72.774033797154289
 20
144.52454250416559
 30
0.0
 11
73.163170701916215
 21
143.90090659146719
 31
0.0
  0
LINE
  5
8E7
  8
0
 10
73.163170701916215
 20
143.90090659146719
 30
0.0
 11
73.778498082868623
 21
143.5061893295624
 31
0.0
  0
LINE
  5
8E8
  8
0
 10
73.778498082868623
 20
143.5061893295624
 30
0.0
 11
74.586781813027415
 21
143.37461690892749
 31
0.0
  0
LINE
  5
8E9
  8
0
 10
74.586781813027415
 20
143.37461690892749
 30
0.0
 11
75.309872090805129
 21
143.47679944861
 31
0.0
  0
LINE
  5
8EA
  8
0
 10
75.309872090805129
 20
143.47679944861
 30
0.0
 11
75.866047686043203
 21
143.78334706765759
 31
0.0
  0
LINE
  5
8EB
  8
0
 10
75.866047686043203
 20
143.78334706765759
 30
0.0
 11
76.233483201916215
 21
144.2751625438481
 31
0.0
  0
LINE
  5
8EC
  8
0
 10
76.233483201916215
 20
144.2751625438481
 30
0.0
 11
76.390353241598802
 21
144.93314865495921
 31
0.0
  0
LINE
  5
8ED
  8
0
 10
76.390353241598802
 20
144.93314865495921
 30
0.0
 11
75.247496098741635
 21
144.93314865495921
 31
0.0
  0
LINE
  5
8EE
  8
0
 10
68.025768720973986
 20
145.70722284388251
 30
0.0
 11
69.203348086053325
 21
145.70722284388251
 31
0.0
  0
LINE
  5
8EF
  8
0
 10
69.203348086053325
 20
145.70722284388251
 30
0.0
 11
69.350173482878745
 21
146.21515935181901
 31
0.0
  0
LINE
  5
8F0
  8
0
 10
69.350173482878745
 20
146.21515935181901
 30
0.0
 11
70.553546498751814
 21
146.21515935181901
 31
0.0
  0
LINE
  5
8F1
  8
0
 10
70.553546498751814
 20
146.21515935181901
 30
0.0
 11
70.695411578116818
 21
145.70722284388251
 31
0.0
  0
LINE
  5
8F2
  8
0
 10
70.695411578116818
 20
145.70722284388251
 30
0.0
 11
71.898784593989831
 21
145.70722284388251
 31
0.0
  0
LINE
  5
8F3
  8
0
 10
71.898784593989831
 20
145.70722284388251
 30
0.0
 11
70.569419514624713
 21
149.5167466534063
 31
0.0
  0
LINE
  5
8F4
  8
0
 10
70.569419514624713
 20
149.5167466534063
 30
0.0
 11
69.340252847958141
 21
149.5167466534063
 31
0.0
  0
LINE
  5
8F5
  8
0
 10
69.340252847958141
 20
149.5167466534063
 30
0.0
 11
68.025768720973986
 21
145.70722284388251
 31
0.0
  0
LINE
  5
8F6
  8
0
 10
69.570411578116818
 20
147.04055617721579
 30
0.0
 11
69.956324276529529
 21
148.34412760578721
 31
0.0
  0
LINE
  5
8F7
  8
0
 10
69.956324276529529
 20
148.34412760578721
 30
0.0
 11
70.333308403513627
 21
147.04055617721579
 31
0.0
  0
LINE
  5
8F8
  8
0
 10
70.333308403513627
 20
147.04055617721579
 30
0.0
 11
69.570411578116818
 21
147.04055617721579
 31
0.0
  0
LINE
  5
8F9
  8
0
 10
64.265037530712505
 20
147.4476111530627
 30
0.0
 11
65.964442292617321
 21
147.4476111530627
 31
0.0
  0
LINE
  5
8FA
  8
0
 10
65.964442292617321
 20
147.4476111530627
 30
0.0
 11
66.732299435474431
 21
147.48630162925321
 31
0.0
  0
LINE
  5
8FB
  8
0
 10
66.732299435474431
 20
147.48630162925321
 30
0.0
 11
67.14499784817292
 21
147.61824607369761
 31
0.0
  0
LINE
  5
8FC
  8
0
 10
67.14499784817292
 20
147.61824607369761
 30
0.0
 11
67.553231975157018
 21
148.00118258163411
 31
0.0
  0
LINE
  5
8FD
  8
0
 10
67.553231975157018
 20
148.00118258163411
 30
0.0
 11
67.693608959284006
 21
148.58848416893571
 31
0.0
  0
LINE
  5
8FE
  8
0
 10
67.693608959284006
 20
148.58848416893571
 30
0.0
 11
67.549759752934733
 21
149.15148020068179
 31
0.0
  0
LINE
  5
8FF
  8
0
 10
67.549759752934733
 20
149.15148020068179
 30
0.0
 11
67.106307371982425
 21
149.47638099433249
 31
0.0
  0
LINE
  5
900
  8
0
 10
67.106307371982425
 20
149.47638099433249
 30
0.0
 11
67.451545467220512
 21
149.7938413117929
 31
0.0
  0
LINE
  5
901
  8
0
 10
67.451545467220512
 20
149.7938413117929
 30
0.0
 11
67.566624832299794
 21
150.24622226417381
 31
0.0
  0
LINE
  5
902
  8
0
 10
67.566624832299794
 20
150.24622226417381
 30
0.0
 11
67.412854991030031
 21
150.80624210544369
 31
0.0
  0
LINE
  5
903
  8
0
 10
67.412854991030031
 20
150.80624210544369
 30
0.0
 11
66.970394673569714
 21
151.14602385147541
 31
0.0
  0
LINE
  5
904
  8
0
 10
66.970394673569714
 20
151.14602385147541
 30
0.0
 11
66.575057371982439
 21
151.2313413117929
 31
0.0
  0
LINE
  5
905
  8
0
 10
66.575057371982439
 20
151.2313413117929
 30
0.0
 11
65.841426419601405
 21
151.25713496258649
 31
0.0
  0
LINE
  5
906
  8
0
 10
65.841426419601405
 20
151.25713496258649
 30
0.0
 11
64.265037530712505
 21
151.25713496258649
 31
0.0
  0
LINE
  5
907
  8
0
 10
64.265037530712505
 20
151.25713496258649
 30
0.0
 11
64.265037530712505
 21
147.4476111530627
 31
0.0
  0
LINE
  5
908
  8
0
 10
65.471386737061721
 20
148.33650004195161
 30
0.0
 11
65.471386737061721
 21
149.03491274036429
 31
0.0
  0
LINE
  5
909
  8
0
 10
65.471386737061721
 20
149.03491274036429
 30
0.0
 11
66.01999784817292
 21
149.03491274036429
 31
0.0
  0
LINE
  5
90A
  8
0
 10
66.01999784817292
 20
149.03491274036429
 30
0.0
 11
66.429224038649124
 21
148.9555476609992
 31
0.0
  0
LINE
  5
90B
  8
0
 10
66.429224038649124
 20
148.9555476609992
 30
0.0
 11
66.550751816426782
 21
148.68868258163411
 31
0.0
  0
LINE
  5
90C
  8
0
 10
66.550751816426782
 20
148.68868258163411
 30
0.0
 11
66.43170419737919
 21
148.4188413117929
 31
0.0
  0
LINE
  5
90D
  8
0
 10
66.43170419737919
 20
148.4188413117929
 30
0.0
 11
66.030910546585631
 21
148.33650004195161
 31
0.0
  0
LINE
  5
90E
  8
0
 10
66.030910546585631
 20
148.33650004195161
 30
0.0
 11
65.471386737061721
 21
148.33650004195161
 31
0.0
  0
LINE
  5
90F
  8
0
 10
65.471386737061721
 20
149.733325438777
 30
0.0
 11
65.471386737061721
 21
150.36824607369761
 31
0.0
  0
LINE
  5
910
  8
0
 10
65.471386737061721
 20
150.36824607369761
 30
0.0
 11
65.805712133887141
 21
150.36824607369761
 31
0.0
  0
LINE
  5
911
  8
0
 10
65.805712133887141
 20
150.36824607369761
 30
0.0
 11
66.314144673569729
 21
150.3007857562373
 31
0.0
  0
LINE
  5
912
  8
0
 10
66.314144673569729
 20
150.3007857562373
 30
0.0
 11
66.423767689442684
 21
150.0507857562373
 31
0.0
  0
LINE
  5
913
  8
0
 10
66.423767689442684
 20
150.0507857562373
 30
0.0
 11
66.321585149760153
 21
149.80574607369761
 31
0.0
  0
LINE
  5
914
  8
0
 10
66.321585149760153
 20
149.80574607369761
 30
0.0
 11
65.969402610077623
 21
149.733325438777
 31
0.0
  0
LINE
  5
915
  8
0
 10
65.969402610077623
 20
149.733325438777
 30
0.0
 11
65.471386737061721
 21
149.733325438777
 31
0.0
  0
ARC
  5
916
  8
0
 10
70.124995324753286
 20
147.37500450375731
 30
0.0
 40
9.0
 50
179.99999999999969
 51
359.99999999999881
  0
ARC
  5
917
  8
0
 10
70.124995324753286
 20
147.37500450375731
 30
0.0
 40
9.0000000000000426
 50
359.99999999999937
 51
179.99999999999969
  0
LINE
  5
918
  8
0
 10
-0.0000046752502385
 20
8.5000045037581877
 30
0.0
 11
0.2499953247501025
 21
8.5000045037581877
 31
0.0
  0
LINE
  5
919
  8
0
 10
0.2499953247501025
 20
18.50000450375796
 30
0.0
 11
-0.0000046752502385
 21
18.50000450375796
 31
0.0
  0
LINE
  5
91A
  8
0
 10
-0.0000046752497838
 20
8.5000045037581664
 30
0.0
 11
-0.0000046752497838
 21
8.6703752701587682
 31
0.0
  0
LINE
  5
91B
  8
0
 10
-0.0000046752497838
 20
8.6703753723128134
 30
0.0
 11
-0.0000046752497838
 21
9.9644703211494061
 31
0.0
  0
LINE
  5
91C
  8
0
 10
-0.0000046752497838
 20
9.9644705978253967
 30
0.0
 11
-0.0000046752497838
 21
12.20590927824551
 31
0.0
  0
LINE
  5
91D
  8
0
 10
-0.0000046752497838
 20
12.205909460117921
 30
0.0
 11
-0.0000046752497838
 21
13.500004503758101
 31
0.0
  0
LINE
  5
91E
  8
0
 10
-0.0000046752497838
 20
13.500004503758159
 30
0.0
 11
-0.0000046752497838
 21
14.794099547397551
 31
0.0
  0
LINE
  5
91F
  8
0
 10
-0.0000046752497838
 20
14.79409972927076
 30
0.0
 11
-0.0000046752497838
 21
16.000004503758159
 31
0.0
  0
LINE
  5
920
  8
0
 10
-0.0000046752497838
 20
16.000005025763031
 30
0.0
 11
-0.0000046752496701
 21
18.500004503758159
 31
0.0
  0
LINE
  5
921
  8
0
 10
421.4999953247538
 20
39.000004503758078
 30
0.0
 11
421.7499953247501
 21
39.000004503758078
 31
0.0
  0
LINE
  5
922
  8
0
 10
421.7499953247501
 20
42.000004503758063
 30
0.0
 11
421.4999953247538
 21
42.000004503758063
 31
0.0
  0
LINE
  5
923
  8
0
 10
421.49999532475368
 20
27.500004503757971
 30
0.0
 11
421.74999532474999
 21
27.500004503757971
 31
0.0
  0
LINE
  5
924
  8
0
 10
421.74999532474999
 20
30.50000450375796
 30
0.0
 11
421.49999532475368
 21
30.50000450375796
 31
0.0
  0
LINE
  5
925
  8
0
 10
421.49999532475368
 20
5.6250045037580758
 30
0.0
 11
421.74999532474999
 21
5.6250045037580758
 31
0.0
  0
LINE
  5
926
  8
0
 10
421.74999532474999
 20
7.625004503757963
 30
0.0
 11
421.49999532475368
 21
7.625004503757963
 31
0.0
  0
LINE
  5
927
  8
0
 10
421.74999532475027
 20
42.000004503758127
 30
0.0
 11
421.74999532475027
 21
41.948893243191733
 31
0.0
  0
LINE
  5
928
  8
0
 10
421.74999532475027
 20
41.948892622972288
 30
0.0
 11
421.74999532475027
 21
41.799043633233801
 31
0.0
  0
LINE
  5
929
  8
0
 10
421.74999532475027
 20
41.799042609434792
 30
0.0
 11
421.74999532475027
 21
41.560666008313348
 31
0.0
  0
LINE
  5
92A
  8
0
 10
421.74999532475027
 20
41.56066467553795
 30
0.0
 11
421.74999532475027
 21
40.888233912796238
 31
0.0
  0
LINE
  5
92B
  8
0
 10
421.74999532475027
 20
40.888233071411932
 30
0.0
 11
421.74999532475027
 21
40.500004503758142
 31
0.0
  0
LINE
  5
92C
  8
0
 10
421.74999532475027
 20
40.50000450375812
 30
0.0
 11
421.74999532475027
 21
40.11177593610433
 31
0.0
  0
LINE
  5
92D
  8
0
 10
421.74999532475027
 20
40.111775094719157
 30
0.0
 11
421.74999532475027
 21
39.439344331978312
 31
0.0
  0
LINE
  5
92E
  8
0
 10
421.74999532475027
 20
39.439342999202417
 30
0.0
 11
421.74999532475027
 21
39.200966398081484
 31
0.0
  0
LINE
  5
92F
  8
0
 10
421.74999532475027
 20
39.200965374281381
 30
0.0
 11
421.74999532475027
 21
39.051116384543441
 31
0.0
  0
LINE
  5
930
  8
0
 10
421.74999532475027
 20
39.051115764324521
 30
0.0
 11
421.74999532475027
 21
39.000004503758127
 31
0.0
  0
LINE
  5
931
  8
0
 10
421.74999532475022
 20
30.500004503758142
 30
0.0
 11
421.74999532475022
 21
30.44889332124837
 31
0.0
  0
LINE
  5
932
  8
0
 10
421.74999532475022
 20
30.448893243191751
 30
0.0
 11
421.74999532475022
 21
29.75000554776814
 31
0.0
  0
LINE
  5
933
  8
0
 10
421.74999532475022
 20
29.750004503758142
 30
0.0
 11
421.74999532475022
 21
29.388233071411928
 31
0.0
  0
LINE
  5
934
  8
0
 10
421.74999532475022
 20
29.388231991884851
 30
0.0
 11
421.74999532475022
 21
29.00000546841358
 31
0.0
  0
LINE
  5
935
  8
0
 10
421.74999532475022
 20
29.000004503758131
 30
0.0
 11
421.74999532475022
 21
28.611776083844109
 31
0.0
  0
LINE
  5
936
  8
0
 10
421.74999532475022
 20
28.611775936104351
 30
0.0
 11
421.74999532475022
 21
28.250005400270229
 31
0.0
  0
LINE
  5
937
  8
0
 10
421.74999532475022
 20
28.250004503758142
 30
0.0
 11
421.74999532475022
 21
27.939344331978312
 31
0.0
  0
LINE
  5
938
  8
0
 10
421.74999532475022
 20
27.939344110111541
 30
0.0
 11
421.74999532475022
 21
27.551115764324539
 31
0.0
  0
LINE
  5
939
  8
0
 10
421.74999532475022
 20
27.551113789843139
 30
0.0
 11
421.74999532475022
 21
27.500004503758142
 31
0.0
  0
LINE
  5
93A
  8
0
 10
421.74999532475022
 20
7.62500450375813
 30
0.0
 11
421.74999532475022
 21
7.5909310142280564
 31
0.0
  0
LINE
  5
93B
  8
0
 10
421.74999532475022
 20
7.5909303300472004
 30
0.0
 11
421.74999532475022
 21
7.4910302776755184
 31
0.0
  0
LINE
  5
93C
  8
0
 10
421.74999532475022
 20
7.491029907542571
 30
0.0
 11
421.74999532475022
 21
7.3321112849446823
 31
0.0
  0
LINE
  5
93D
  8
0
 10
421.74999532475022
 20
7.3321111142962181
 30
0.0
 11
421.74999532475022
 21
6.8838238598009669
 31
0.0
  0
LINE
  5
93E
  8
0
 10
421.74999532475022
 20
6.8838235488606561
 30
0.0
 11
421.74999532475022
 21
6.6250045037581371
 31
0.0
  0
LINE
  5
93F
  8
0
 10
421.74999532475022
 20
6.6250042625935386
 30
0.0
 11
421.74999532475022
 21
6.3661854586556057
 31
0.0
  0
LINE
  5
940
  8
0
 10
421.74999532475022
 20
6.3661853976970209
 30
0.0
 11
421.74999532475022
 21
6.1250047278860258
 31
0.0
  0
LINE
  5
941
  8
0
 10
421.74999532475022
 20
6.1250045037581273
 30
0.0
 11
421.74999532475022
 21
5.9178977866651188
 31
0.0
  0
LINE
  5
942
  8
0
 10
421.74999532475022
 20
5.9178977225715803
 30
0.0
 11
421.74999532475022
 21
5.7589790999736907
 31
0.0
  0
LINE
  5
943
  8
0
 10
421.74999532475022
 20
5.7589790422399139
 30
0.0
 11
421.74999532475022
 21
5.6590786774690622
 31
0.0
  0
LINE
  5
944
  8
0
 10
421.74999532475022
 20
5.6590784673935657
 30
0.0
 11
421.74999532475022
 21
5.62500450375813
 31
0.0
  0
LINE
  5
945
  8
0
 10
421.49999532475368
 20
8.5000045037581877
 30
0.0
 11
421.7499953247501
 21
8.5000045037581877
 31
0.0
  0
LINE
  5
946
  8
0
 10
421.7499953247501
 20
18.50000450375796
 30
0.0
 11
421.49999532475368
 21
18.50000450375796
 31
0.0
  0
LINE
  5
947
  8
0
 10
421.74999532475027
 20
18.500004503758159
 30
0.0
 11
421.74999532475027
 21
16.000005025763059
 31
0.0
  0
LINE
  5
948
  8
0
 10
421.74999532475027
 20
16.000004503758181
 30
0.0
 11
421.74999532475027
 21
14.794099729270791
 31
0.0
  0
LINE
  5
949
  8
0
 10
421.74999532475027
 20
14.79409954739757
 30
0.0
 11
421.74999532475027
 21
13.5000045037582
 31
0.0
  0
LINE
  5
94A
  8
0
 10
421.74999532475027
 20
13.500004503758131
 30
0.0
 11
421.74999532475027
 21
12.20590946011796
 31
0.0
  0
LINE
  5
94B
  8
0
 10
421.74999532475027
 20
12.20590927824553
 30
0.0
 11
421.74999532475027
 21
9.9644705978254162
 31
0.0
  0
LINE
  5
94C
  8
0
 10
421.74999532475027
 20
9.9644703211494257
 30
0.0
 11
421.74999532475027
 21
8.6703753723128205
 31
0.0
  0
LINE
  5
94D
  8
0
 10
421.74999532475027
 20
8.6703752701587771
 30
0.0
 11
421.74999532475027
 21
8.5000045037581664
 31
0.0
  0
LINE
  5
94E
  8
0
 10
483.6739009550202
 20
466.07160827560642
 30
0.0
 11
483.61280857830633
 21
466.07160827560642
 31
0.0
  0
LINE
  5
94F
  8
0
 10
483.61280857830633
 20
449.57160827560642
 30
0.0
 11
483.6739009550202
 21
449.57160827560642
 31
0.0
  0
LINE
  5
950
  8
0
 10
483.6128085783065
 20
449.57160827560563
 30
0.0
 11
483.6128085783065
 21
450.5165939266011
 31
0.0
  0
LINE
  5
951
  8
0
 10
483.6128085783065
 20
450.51659606396669
 30
0.0
 11
483.6128085783065
 21
454.89611669056029
 31
0.0
  0
LINE
  5
952
  8
0
 10
483.6128085783065
 20
454.89611795750471
 30
0.0
 11
483.6128085783065
 21
456.82718066349918
 31
0.0
  0
LINE
  5
953
  8
0
 10
483.6128085783065
 20
456.8271813629209
 30
0.0
 11
483.6128085783065
 21
458.81603577515898
 31
0.0
  0
LINE
  5
954
  8
0
 10
483.6128085783065
 20
458.81603588771208
 30
0.0
 11
483.6128085783065
 21
462.50814243613769
 31
0.0
  0
LINE
  5
955
  8
0
 10
483.6128085783065
 20
462.50814303031189
 30
0.0
 11
483.6128085783065
 21
465.12661995884031
 31
0.0
  0
LINE
  5
956
  8
0
 10
483.6128085783065
 20
465.12662048724462
 30
0.0
 11
483.6128085783065
 21
465.83187826937058
 31
0.0
  0
LINE
  5
957
  8
0
 10
483.6128085783065
 20
465.83188005394351
 30
0.0
 11
483.6128085783065
 21
466.07160827560563
 31
0.0
  0
LINE
  5
958
  8
0
 10
483.73390232830678
 20
466.82160827560767
 30
0.0
 11
483.6739023283065
 21
466.82160827560767
 31
0.0
  0
LINE
  5
959
  8
0
 10
483.6739023283065
 20
448.82160827560767
 30
0.0
 11
483.7339023283065
 21
448.82160827560767
 31
0.0
  0
LINE
  5
95A
  8
0
 10
483.67390232830638
 20
448.82160827560608
 30
0.0
 11
483.67390232830638
 21
449.7128869502219
 31
0.0
  0
LINE
  5
95B
  8
0
 10
483.67390232830638
 20
449.71288846448442
 30
0.0
 11
483.67390232830638
 21
450.78512422360421
 31
0.0
  0
LINE
  5
95C
  8
0
 10
483.67390232830638
 20
450.78512493339389
 30
0.0
 11
483.67390232830638
 21
452.21019983851733
 31
0.0
  0
LINE
  5
95D
  8
0
 10
483.67390232830638
 20
452.2102000588776
 30
0.0
 11
483.67390232830638
 21
453.91665410477901
 31
0.0
  0
LINE
  5
95E
  8
0
 10
483.67390232830638
 20
453.91665462354808
 30
0.0
 11
483.67390232830638
 21
455.81891967927999
 31
0.0
  0
LINE
  5
95F
  8
0
 10
483.67390232830638
 20
455.81891986999932
 30
0.0
 11
483.6739023283065
 21
457.82160713037888
 31
0.0
  0
LINE
  5
960
  8
0
 10
483.6739023283065
 20
457.82160827560608
 30
0.0
 11
483.6739023283065
 21
459.8242966812129
 31
0.0
  0
LINE
  5
961
  8
0
 10
483.6739023283065
 20
459.8242974823487
 30
0.0
 11
483.6739023283065
 21
461.72656192766419
 31
0.0
  0
LINE
  5
962
  8
0
 10
483.6739023283065
 20
461.72656307527279
 30
0.0
 11
483.6739023283065
 21
463.43301649233479
 31
0.0
  0
LINE
  5
963
  8
0
 10
483.6739023283065
 20
463.43301736612659
 30
0.0
 11
483.6739023283065
 21
464.85809161781839
 31
0.0
  0
LINE
  5
964
  8
0
 10
483.6739023283065
 20
464.85809302017969
 30
0.0
 11
483.6739023283065
 21
465.93032717059208
 31
0.0
  0
LINE
  5
965
  8
0
 10
483.6739023283065
 20
465.93032808672803
 30
0.0
 11
483.6739023283065
 21
466.82160827560608
 31
0.0
  0
LINE
  5
966
  8
0
 10
624.54390179425366
 20
449.57160827560642
 30
0.0
 11
624.60499607830752
 21
449.57160827560642
 31
0.0
  0
LINE
  5
967
  8
0
 10
624.60499607830752
 20
466.07160827560779
 30
0.0
 11
624.54390179425366
 21
466.07160827560779
 31
0.0
  0
LINE
  5
968
  8
0
 10
624.60499607830707
 20
466.07160827560648
 30
0.0
 11
624.60499607830707
 21
465.83188005394442
 31
0.0
  0
LINE
  5
969
  8
0
 10
624.60499607830707
 20
465.83187826937137
 30
0.0
 11
624.60499607830707
 21
465.12662048724548
 31
0.0
  0
LINE
  5
96A
  8
0
 10
624.60499607830707
 20
465.12661995883968
 30
0.0
 11
624.60499607830707
 21
462.50814303031268
 31
0.0
  0
LINE
  5
96B
  8
0
 10
624.60499607830707
 20
462.50814243613848
 30
0.0
 11
624.60499607830707
 21
461.84865448724861
 31
0.0
  0
LINE
  5
96C
  8
0
 10
624.60499607830707
 20
453.79456264667368
 30
0.0
 11
624.60499607830707
 21
450.5165960639676
 31
0.0
  0
LINE
  5
96D
  8
0
 10
624.60499607830707
 20
450.5165939265998
 30
0.0
 11
624.60499607830707
 21
449.57160827560648
 31
0.0
  0
LINE
  5
96E
  8
0
 10
624.48390232830695
 20
448.82160827560767
 30
0.0
 11
624.54390232830735
 21
448.82160827560767
 31
0.0
  0
LINE
  5
96F
  8
0
 10
624.54390232830735
 20
466.82160827560767
 30
0.0
 11
624.48390232830695
 21
466.82160827560767
 31
0.0
  0
LINE
  5
970
  8
0
 10
624.5439023283069
 20
466.82160827560602
 30
0.0
 11
624.5439023283069
 21
465.9303280867278
 31
0.0
  0
LINE
  5
971
  8
0
 10
624.5439023283069
 20
465.93032717059191
 30
0.0
 11
624.5439023283069
 21
464.85809302017952
 31
0.0
  0
LINE
  5
972
  8
0
 10
624.5439023283069
 20
464.85809161781827
 30
0.0
 11
624.5439023283069
 21
463.43301736612648
 31
0.0
  0
LINE
  5
973
  8
0
 10
624.5439023283069
 20
463.43301649233467
 30
0.0
 11
624.5439023283069
 21
461.82760302204417
 31
0.0
  0
LINE
  5
974
  8
0
 10
624.5439023283069
 20
453.8156141541732
 30
0.0
 11
624.5439023283069
 21
452.21020005887738
 31
0.0
  0
LINE
  5
975
  8
0
 10
624.5439023283069
 20
452.21019983851721
 30
0.0
 11
624.5439023283069
 21
450.78512493339372
 31
0.0
  0
LINE
  5
976
  8
0
 10
624.5439023283069
 20
450.7851242236041
 30
0.0
 11
624.5439023283069
 21
449.71288846448431
 31
0.0
  0
LINE
  5
977
  8
0
 10
624.5439023283069
 20
449.71288695022179
 30
0.0
 11
624.5439023283069
 21
448.82160827560602
 31
0.0
  0
LINE
  5
978
  8
0
 10
483.73390232830678
 20
527.69660827560676
 30
0.0
 11
483.73390232830678
 21
387.94660827561262
 31
0.0
  0
LINE
  5
979
  8
0
 10
483.73390232830678
 20
387.94660827561262
 30
0.0
 11
624.48390232830388
 21
387.94660827561222
 31
0.0
  0
LINE
  5
97A
  8
0
 10
624.48390232830388
 20
387.94660827561222
 30
0.0
 11
624.48390232830411
 21
527.69660827560654
 31
0.0
  0
LINE
  5
97B
  8
0
 10
624.48390232830411
 20
527.69660827560654
 30
0.0
 11
483.73390232830678
 21
527.69660827560676
 31
0.0
  0
LINE
  5
97C
  8
0
 10
622.85890232830695
 20
526.07160827560688
 30
0.0
 11
622.85890232830684
 21
389.57160827560688
 31
0.0
1001
ACAD
1000
ASC_BOUNDS
1002
{
1070
    19
1005
A34
1002
}
  0
LINE
  5
97D
  8
0
 10
622.85890232830684
 20
389.57160827560688
 30
0.0
 11
485.3589023283069
 21
389.57160827560722
 31
0.0
1001
ACAD
1000
ASC_BOUNDS
1002
{
1070
    19
1005
A34
1002
}
  0
LINE
  5
97E
  8
0
 10
485.3589023283069
 20
389.57160827560722
 30
0.0
 11
485.35890232830712
 21
526.07160827560699
 31
0.0
1001
ACAD
1000
ASC_BOUNDS
1002
{
1070
    19
1005
A34
1002
}
  0
LINE
  5
97F
  8
0
 10
485.35890232830712
 20
526.07160827560699
 30
0.0
 11
622.85890232830695
 21
526.07160827560688
 31
0.0
1001
ACAD
1000
ASC_BOUNDS
1002
{
1070
    19
1005
A34
1002
}
  0
LINE
  5
980
  8
0
 10
624.48390232830411
 20
387.9466082756071
 30
0.0
 11
625.73390232830695
 21
387.9466082756071
 31
0.0
  0
LINE
  5
981
  8
0
 10
625.73390232830695
 20
387.9466082756071
 30
0.0
 11
625.73390232830695
 21
527.69660827560676
 31
0.0
  0
LINE
  5
982
  8
0
 10
625.73390232830695
 20
527.69660827560676
 30
0.0
 11
624.48390232830411
 21
527.69660827560676
 31
0.0
  0
LINE
  5
983
  8
0
 10
483.6739009550202
 20
325.32160827560432
 30
0.0
 11
483.61280857830633
 21
325.32160827560432
 31
0.0
  0
LINE
  5
984
  8
0
 10
483.61280857830633
 20
308.82160827560421
 30
0.0
 11
483.6739009550202
 21
308.82160827560421
 31
0.0
  0
LINE
  5
985
  8
0
 10
483.6128085783065
 20
308.82160827560318
 30
0.0
 11
483.6128085783065
 21
309.7665960639643
 31
0.0
  0
LINE
  5
986
  8
0
 10
483.6128085783065
 20
309.76659629391969
 30
0.0
 11
483.6128085783065
 21
310.89639087691722
 31
0.0
  0
LINE
  5
987
  8
0
 10
483.6128085783065
 20
310.8963946031916
 30
0.0
 11
483.6128085783065
 21
312.38507311978231
 31
0.0
  0
LINE
  5
988
  8
0
 10
483.6128085783065
 20
312.38507411507118
 30
0.0
 11
483.6128085783065
 21
314.14611265253109
 31
0.0
  0
LINE
  5
989
  8
0
 10
483.6128085783065
 20
314.14611795750233
 30
0.0
 11
483.6128085783065
 21
316.07717747412943
 31
0.0
  0
LINE
  5
98A
  8
0
 10
483.6128085783065
 20
316.07718066349679
 30
0.0
 11
483.6128085783065
 21
318.06603482613059
 31
0.0
  0
LINE
  5
98B
  8
0
 10
483.6128085783065
 20
318.06603588770957
 30
0.0
 11
483.6128085783065
 21
319.99709859370421
 31
0.0
  0
LINE
  5
98C
  8
0
 10
483.6128085783065
 20
319.99709947541203
 30
0.0
 11
483.61280857830661
 21
324.37661683049578
 31
0.0
  0
LINE
  5
98D
  8
0
 10
483.61280857830661
 20
324.37662048724218
 30
0.0
 11
483.61280857830661
 21
325.08187826936819
 31
0.0
  0
LINE
  5
98E
  8
0
 10
483.61280857830661
 20
325.08188385003251
 30
0.0
 11
483.61280857830661
 21
325.32160827560318
 31
0.0
  0
LINE
  5
98F
  8
0
 10
483.73390232830678
 20
326.07160827560563
 30
0.0
 11
483.6739023283065
 21
326.07160827560563
 31
0.0
  0
LINE
  5
990
  8
0
 10
483.6739023283065
 20
308.07160827560563
 30
0.0
 11
483.73390232830678
 21
308.07160827560563
 31
0.0
  0
LINE
  5
991
  8
0
 10
483.6739023283065
 20
308.07160827560369
 30
0.0
 11
483.6739023283065
 21
308.29725308343842
 31
0.0
  0
LINE
  5
992
  8
0
 10
483.6739023283065
 20
308.29725706596741
 30
0.0
 11
483.6739023283065
 21
308.96288846448198
 31
0.0
  0
LINE
  5
993
  8
0
 10
483.6739023283065
 20
308.96288908319968
 30
0.0
 11
483.6739023283065
 21
310.03511974376028
 31
0.0
  0
LINE
  5
994
  8
0
 10
483.6739023283065
 20
310.0351249333915
 30
0.0
 11
483.6739023283065
 21
311.46019561183431
 31
0.0
  0
LINE
  5
995
  8
0
 10
483.6739023283065
 20
311.46020005887522
 30
0.0
 11
483.6739023283065
 21
315.06891869216958
 31
0.0
  0
LINE
  5
996
  8
0
 10
483.6739023283065
 20
315.06891986999688
 30
0.0
 11
483.6739023283065
 21
317.07160827560381
 31
0.0
  0
LINE
  5
997
  8
0
 10
483.6739023283065
 20
317.0716119390047
 30
0.0
 11
483.6739023283065
 21
320.97656192766181
 31
0.0
  0
LINE
  5
998
  8
0
 10
483.6739023283065
 20
320.97656510907723
 30
0.0
 11
483.6739023283065
 21
322.68301633961067
 31
0.0
  0
LINE
  5
999
  8
0
 10
483.6739023283065
 20
322.68301649233229
 30
0.0
 11
483.6739023283065
 21
324.10809161781589
 31
0.0
  0
LINE
  5
99A
  8
0
 10
483.6739023283065
 20
324.10809190021882
 30
0.0
 11
483.6739023283065
 21
325.1803240530819
 31
0.0
  0
LINE
  5
99B
  8
0
 10
483.6739023283065
 20
325.18032808672552
 30
0.0
 11
483.6739023283065
 21
326.07160827560369
 31
0.0
  0
LINE
  5
99C
  8
0
 10
624.54390179425366
 20
590.32160827560324
 30
0.0
 11
624.60499607830684
 21
590.32160827560324
 31
0.0
  0
LINE
  5
99D
  8
0
 10
624.60499607830684
 20
606.82160827560301
 30
0.0
 11
624.54390179425366
 21
606.82160827560301
 31
0.0
  0
LINE
  5
99E
  8
0
 10
624.60499607830707
 20
606.82160827560165
 30
0.0
 11
624.60499607830707
 21
605.87662465224582
 31
0.0
  0
LINE
  5
99F
  8
0
 10
624.60499607830707
 20
605.87662048724064
 30
0.0
 11
624.60499607830707
 21
603.25814723477549
 31
0.0
  0
LINE
  5
9A0
  8
0
 10
624.60499607830707
 20
603.25814243613388
 30
0.0
 11
624.60499607830707
 21
602.59864977572227
 31
0.0
  0
LINE
  5
9A1
  8
0
 10
624.60499607830707
 20
594.54456076206327
 30
0.0
 11
624.60499607830707
 21
592.39639460319029
 31
0.0
  0
LINE
  5
9A2
  8
0
 10
624.60499607830707
 20
592.39639310885957
 30
0.0
 11
624.60499607830707
 21
591.26659785808977
 31
0.0
  0
LINE
  5
9A3
  8
0
 10
624.60499607830707
 20
591.26659606396277
 30
0.0
 11
624.60499607830707
 21
590.32160827560176
 31
0.0
  0
LINE
  5
9A4
  8
0
 10
624.48390232830695
 20
589.57160827560187
 30
0.0
 11
624.54390232830735
 21
589.57160827560187
 31
0.0
  0
LINE
  5
9A5
  8
0
 10
624.54390232830735
 20
607.57160827560176
 30
0.0
 11
624.48390232830695
 21
607.57160827560176
 31
0.0
  0
LINE
  5
9A6
  8
0
 10
624.5439023283069
 20
607.57160827560108
 30
0.0
 11
624.5439023283069
 21
607.34597034021101
 31
0.0
  0
LINE
  5
9A7
  8
0
 10
624.5439023283069
 20
607.34595948523759
 30
0.0
 11
624.5439023283069
 21
606.68033163281655
 31
0.0
  0
LINE
  5
9A8
  8
0
 10
624.5439023283069
 20
606.68032808672297
 30
0.0
 11
624.5439023283069
 21
605.60809161781356
 31
0.0
  0
LINE
  5
9A9
  8
0
 10
624.5439023283069
 20
605.60808845962731
 30
0.0
 11
624.5439023283069
 21
604.1830164923299
 31
0.0
  0
LINE
  5
9AA
  8
0
 10
624.5439023283069
 20
604.18301280986861
 30
0.0
 11
624.5439023283069
 21
602.57759796853088
 31
0.0
  0
LINE
  5
9AB
  8
0
 10
624.5439023283069
 20
594.56561213276768
 30
0.0
 11
624.5439023283069
 21
592.96020005887272
 31
0.0
  0
LINE
  5
9AC
  8
0
 10
624.5439023283069
 20
592.96019772517639
 30
0.0
 11
624.5439023283069
 21
591.53512493338906
 31
0.0
  0
LINE
  5
9AD
  8
0
 10
624.5439023283069
 20
591.53512198368287
 30
0.0
 11
624.5439023283069
 21
590.46289064195423
 31
0.0
  0
LINE
  5
9AE
  8
0
 10
624.5439023283069
 20
590.46288846447953
 30
0.0
 11
624.5439023283069
 21
589.79725706596491
 31
0.0
  0
LINE
  5
9AF
  8
0
 10
624.5439023283069
 20
589.79725688209919
 30
0.0
 11
624.5439023283069
 21
589.57160827560119
 31
0.0
  0
LINE
  5
9B0
  8
0
 10
483.73390232830678
 20
386.94660827560392
 30
0.0
 11
483.73390232830673
 21
247.19660827560961
 31
0.0
  0
LINE
  5
9B1
  8
0
 10
483.73390232830673
 20
247.19660827560961
 30
0.0
 11
624.48390232830366
 21
247.19660827560929
 31
0.0
  0
LINE
  5
9B2
  8
0
 10
624.48390232830366
 20
247.19660827560929
 30
0.0
 11
624.48390232830411
 21
386.94660827560358
 31
0.0
  0
LINE
  5
9B3
  8
0
 10
624.48390232830411
 20
386.94660827560358
 30
0.0
 11
483.73390232830678
 21
386.94660827560392
 31
0.0
  0
LINE
  5
9B4
  8
0
 10
622.85890232830695
 20
385.32160827560392
 30
0.0
 11
622.85890232830673
 21
248.82160827560409
 31
0.0
1001
ACAD
1000
ASC_BOUNDS
1002
{
1070
    19
1005
A34
1002
}
  0
LINE
  5
9B5
  8
0
 10
622.85890232830673
 20
248.82160827560409
 30
0.0
 11
485.35890232830678
 21
248.82160827560429
 31
0.0
1001
ACAD
1000
ASC_BOUNDS
1002
{
1070
    19
1005
A34
1002
}
  0
LINE
  5
9B6
  8
0
 10
485.35890232830678
 20
248.82160827560429
 30
0.0
 11
485.35890232830701
 21
385.32160827560432
 31
0.0
1001
ACAD
1000
ASC_BOUNDS
1002
{
1070
    19
1005
A34
1002
}
  0
LINE
  5
9B7
  8
0
 10
485.35890232830701
 20
385.32160827560432
 30
0.0
 11
622.85890232830695
 21
385.32160827560392
 31
0.0
1001
ACAD
1000
ASC_BOUNDS
1002
{
1070
    19
1005
A34
1002
}
  0
LINE
  5
9B8
  8
0
 10
624.48390232830343
 20
247.19660827560409
 30
0.0
 11
625.73390232830695
 21
247.19660827560409
 31
0.0
  0
LINE
  5
9B9
  8
0
 10
625.73390232830695
 20
247.19660827560409
 30
0.0
 11
625.73390232830718
 21
386.94660827560392
 31
0.0
  0
LINE
  5
9BA
  8
0
 10
625.73390232830718
 20
386.94660827560392
 30
0.0
 11
624.48390232830388
 21
386.94660827560392
 31
0.0
  0
LINE
  5
9BB
  8
0
 10
483.73390232830752
 20
668.44660827560381
 30
0.0
 11
483.73390232830752
 21
528.69660827560949
 31
0.0
  0
LINE
  5
9BC
  8
0
 10
483.73390232830752
 20
528.69660827560949
 30
0.0
 11
624.48390232830445
 21
528.69660827560938
 31
0.0
  0
LINE
  5
9BD
  8
0
 10
624.48390232830445
 20
528.69660827560938
 30
0.0
 11
624.48390232830479
 21
668.44660827560369
 31
0.0
  0
LINE
  5
9BE
  8
0
 10
624.48390232830479
 20
668.44660827560369
 30
0.0
 11
483.73390232830752
 21
668.44660827560381
 31
0.0
  0
LINE
  5
9BF
  8
0
 10
622.85890232830775
 20
666.82160827560392
 30
0.0
 11
622.85890232830752
 21
530.32160827560404
 31
0.0
1001
ACAD
1000
ASC_BOUNDS
1002
{
1070
    19
1005
A34
1002
}
  0
LINE
  5
9C0
  8
0
 10
622.85890232830752
 20
530.32160827560404
 30
0.0
 11
485.35890232830758
 21
530.32160827560415
 31
0.0
1001
ACAD
1000
ASC_BOUNDS
1002
{
1070
    19
1005
A34
1002
}
  0
LINE
  5
9C1
  8
0
 10
485.35890232830758
 20
530.32160827560415
 30
0.0
 11
485.35890232830781
 21
666.82160827560426
 31
0.0
1001
ACAD
1000
ASC_BOUNDS
1002
{
1070
    19
1005
A34
1002
}
  0
LINE
  5
9C2
  8
0
 10
485.35890232830781
 20
666.82160827560426
 30
0.0
 11
622.85890232830775
 21
666.82160827560392
 31
0.0
1001
ACAD
1000
ASC_BOUNDS
1002
{
1070
    19
1005
A34
1002
}
  0
LINE
  5
9C3
  8
0
 10
624.48390232830434
 20
528.69660827560404
 30
0.0
 11
625.73390232830752
 21
528.69660827560404
 31
0.0
  0
LINE
  5
9C4
  8
0
 10
625.73390232830752
 20
528.69660827560404
 30
0.0
 11
625.73390232830764
 21
668.44660827560381
 31
0.0
  0
LINE
  5
9C5
  8
0
 10
625.73390232830764
 20
668.44660827560381
 30
0.0
 11
624.48390232830479
 21
668.44660827560381
 31
0.0
  0
LINE
  5
9C6
  8
0
 10
515.85890232830695
 20
668.44660827560688
 30
0.0
 11
515.85890232830695
 21
668.69660827560722
 31
0.0
  0
LINE
  5
9C7
  8
0
 10
505.85890232830718
 20
668.69660827560722
 30
0.0
 11
505.85890232830718
 21
668.44660827560688
 31
0.0
  0
LINE
  5
9C8
  8
0
 10
505.8589023283069
 20
668.69660827560665
 30
0.0
 11
506.02926787954181
 21
668.69660827560665
 31
0.0
  0
LINE
  5
9C9
  8
0
 10
506.02927319686148
 20
668.69660827560665
 30
0.0
 11
506.52877530938468
 21
668.69660827560665
 31
0.0
  0
LINE
  5
9CA
  8
0
 10
506.52877630622379
 20
668.69660827560665
 30
0.0
 11
510.85890039899931
 21
668.69660827560665
 31
0.0
  0
LINE
  5
9CB
  8
0
 10
510.8589023283069
 20
668.69660827560665
 30
0.0
 11
512.15299755381955
 21
668.69660827560665
 31
0.0
  0
LINE
  5
9CC
  8
0
 10
512.15299835858025
 20
668.69660827560665
 30
0.0
 11
514.39443623423972
 21
668.69660827560665
 31
0.0
  0
LINE
  5
9CD
  8
0
 10
514.39443845501228
 20
668.69660827560665
 30
0.0
 11
515.18902934722905
 21
668.69660827560665
 31
0.0
  0
LINE
  5
9CE
  8
0
 10
515.18903026070075
 20
668.69660827560665
 30
0.0
 11
515.85890232830695
 21
668.69660827560665
 31
0.0
  0
LINE
  5
9DA
  8
0
 10
624.73390232830707
 20
602.57160827560097
 30
0.0
 11
624.48390232830695
 21
602.57160827560097
 31
0.0
  0
LINE
  5
9DB
  8
0
 10
624.48390232830695
 20
594.57160827560142
 30
0.0
 11
624.73390232830707
 21
594.57160827560142
 31
0.0
  0
LINE
  5
9DC
  8
0
 10
624.73390232830695
 20
321.07160827560062
 30
0.0
 11
624.48390232830695
 21
321.07160827560062
 31
0.0
  0
LINE
  5
9DD
  8
0
 10
624.48390232830695
 20
313.0716082755996
 30
0.0
 11
624.73390232830695
 21
313.0716082755996
 31
0.0
  0
LINE
  5
9DE
  8
0
 10
624.73390232830707
 20
461.82160827560551
 30
0.0
 11
624.48390232830695
 21
461.82160827560551
 31
0.0
  0
LINE
  5
9DF
  8
0
 10
624.48390232830695
 20
453.82160827560602
 30
0.0
 11
624.73390232830707
 21
453.82160827560602
 31
0.0
  0
LINE
  5
9E0
  8
0
 10
624.73390232830707
 20
598.57160809154448
 30
0.0
 11
624.73390232830707
 21
597.53633209519057
 31
0.0
  0
LINE
  5
9E1
  8
0
 10
624.73390232830707
 20
597.53632966071075
 30
0.0
 11
624.73390232830707
 21
596.57160827560074
 31
0.0
  0
LINE
  5
9E2
  8
0
 10
624.73390232830707
 20
596.57160390036051
 30
0.0
 11
624.73390232830707
 21
595.74318115085453
 31
0.0
  0
LINE
  5
9E3
  8
0
 10
624.73390232830707
 20
595.74317738482455
 30
0.0
 11
624.73390232830707
 21
595.10750666046295
 31
0.0
  0
LINE
  5
9E4
  8
0
 10
624.73390232830707
 20
595.10750369190725
 30
0.0
 11
624.73390232830707
 21
594.57160827560074
 31
0.0
  0
LINE
  5
9E5
  8
0
 10
624.73390232830707
 20
602.57160827560074
 30
0.0
 11
624.73390232830707
 21
602.43532154124625
 31
0.0
  0
LINE
  5
9E6
  8
0
 10
624.73390232830707
 20
602.43531158075689
 30
0.0
 11
624.73390232830707
 21
602.03571238244558
 31
0.0
  0
LINE
  5
9E7
  8
0
 10
624.73390232830707
 20
602.03570989073842
 30
0.0
 11
624.73390232830707
 21
601.40003874245326
 31
0.0
  0
LINE
  5
9E8
  8
0
 10
624.73390232830707
 20
601.40003540034695
 30
0.0
 11
624.73390232830707
 21
600.57161225244488
 31
0.0
  0
LINE
  5
9E9
  8
0
 10
624.73390232830707
 20
600.57160827560074
 30
0.0
 11
624.73390232830707
 21
599.60688650891655
 31
0.0
  0
LINE
  5
9EA
  8
0
 10
624.73390232830707
 20
599.60688445601056
 30
0.0
 11
624.73390232830707
 21
598.57160827560074
 31
0.0
  0
LINE
  5
9EB
  8
0
 10
624.73390232830695
 20
317.07160827559869
 30
0.0
 11
624.73390232830695
 21
316.03633355376098
 31
0.0
  0
LINE
  5
9EC
  8
0
 10
624.73390232830695
 20
316.0363320951887
 30
0.0
 11
624.73390232830695
 21
315.07160827559869
 31
0.0
  0
LINE
  5
9ED
  8
0
 10
624.73390232830695
 20
315.07160807640241
 30
0.0
 11
624.73390232830695
 21
313.20790497044243
 31
0.0
  0
LINE
  5
9EE
  8
0
 10
624.73390232830695
 20
313.20790187188032
 30
0.0
 11
624.73390232830695
 21
313.07160827559869
 31
0.0
  0
LINE
  5
9EF
  8
0
 10
624.73390232830695
 20
321.07160827559881
 30
0.0
 11
624.73390232830695
 21
320.53571738082968
 31
0.0
  0
LINE
  5
9F0
  8
0
 10
624.73390232830695
 20
320.5357098907366
 30
0.0
 11
624.73390232830695
 21
318.10688445600891
 31
0.0
  0
LINE
  5
9F1
  8
0
 10
624.73390232830695
 20
318.10687891472372
 30
0.0
 11
624.73390232830695
 21
317.07161195016829
 31
0.0
  0
LINE
  5
9F2
  8
0
 10
624.73390232830695
 20
457.82160712688813
 30
0.0
 11
624.73390232830695
 21
456.78633209519518
 31
0.0
  0
LINE
  5
9F3
  8
0
 10
624.73390232830695
 20
456.78633166056989
 30
0.0
 11
624.73390232830695
 21
454.99318115085902
 31
0.0
  0
LINE
  5
9F4
  8
0
 10
624.73390232830695
 20
454.99317960664098
 30
0.0
 11
624.73390232830695
 21
454.35750666046749
 31
0.0
  0
LINE
  5
9F5
  8
0
 10
624.73390232830695
 20
454.35750619110331
 30
0.0
 11
624.73390232830695
 21
453.95790497044902
 31
0.0
  0
LINE
  5
9F6
  8
0
 10
624.73390232830695
 20
453.95790376829899
 30
0.0
 11
624.73390232830695
 21
453.82160827560517
 31
0.0
  0
LINE
  5
9F7
  8
0
 10
624.73390232830695
 20
461.82160827560517
 30
0.0
 11
624.73390232830695
 21
461.68531395564241
 31
0.0
  0
LINE
  5
9F8
  8
0
 10
624.73390232830695
 20
461.68531158076149
 30
0.0
 11
624.73390232830695
 21
461.2857111328459
 31
0.0
  0
LINE
  5
9F9
  8
0
 10
624.73390232830695
 20
461.28570989074302
 30
0.0
 11
624.73390232830695
 21
458.85688550898578
 31
0.0
  0
LINE
  5
9FA
  8
0
 10
624.73390232830695
 20
458.85688445601528
 30
0.0
 11
624.73390232830695
 21
457.82160827560517
 31
0.0
  0
LINE
  5
9FB
  8
0
 10
550.48390232830639
 20
246.94660827560821
 30
0.0
 11
550.48390232830639
 21
247.19660827560469
 31
0.0
  0
LINE
  5
9FC
  8
0
 10
547.48390232830604
 20
247.19660827560469
 30
0.0
 11
547.48390232830604
 21
246.94660827560821
 31
0.0
  0
LINE
  5
9FD
  8
0
 10
489.98390232830621
 20
246.9466082756083
 30
0.0
 11
489.98390232830621
 21
247.19660827560469
 31
0.0
  0
LINE
  5
9FE
  8
0
 10
486.98390232830621
 20
247.19660827560469
 30
0.0
 11
486.98390232830621
 21
246.9466082756083
 31
0.0
  0
LINE
  5
9FF
  8
0
 10
486.10890232830633
 20
247.19660827560469
 30
0.0
 11
486.10890232830633
 21
246.9466082756083
 31
0.0
  0
LINE
  5
A00
  8
0
 10
550.48390232830604
 20
246.94660827560671
 30
0.0
 11
550.43279209402294
 21
246.94660827560671
 31
0.0
  0
LINE
  5
A01
  8
0
 10
550.4327910677398
 20
246.94660827560671
 30
0.0
 11
550.04456250008604
 21
246.94660827560671
 31
0.0
  0
LINE
  5
A02
  8
0
 10
550.04456224411888
 20
246.94660827560671
 30
0.0
 11
548.5956737606524
 21
246.94660827560671
 31
0.0
  0
LINE
  5
A03
  8
0
 10
548.59567291927283
 20
246.94660827560671
 30
0.0
 11
547.92324215652638
 21
246.94660827560671
 31
0.0
  0
LINE
  5
A04
  8
0
 10
547.9232408237566
 20
246.94660827560671
 30
0.0
 11
547.68486422262947
 21
246.94660827560671
 31
0.0
  0
LINE
  5
A05
  8
0
 10
547.68486319883687
 20
246.94660827560671
 30
0.0
 11
547.53501420909527
 21
246.94660827560671
 31
0.0
  0
LINE
  5
A06
  8
0
 10
547.5350135888724
 20
246.94660827560671
 30
0.0
 11
547.48390232830604
 21
246.94660827560671
 31
0.0
  0
LINE
  5
A07
  8
0
 10
489.9839023283061
 20
246.94660827560671
 30
0.0
 11
489.78294043398279
 21
246.94660827560671
 31
0.0
  0
LINE
  5
A08
  8
0
 10
489.78294029204301
 20
246.94660827560671
 30
0.0
 11
489.23390441633239
 21
246.94660827560671
 31
0.0
  0
LINE
  5
A09
  8
0
 10
489.2339023283061
 20
246.94660827560671
 30
0.0
 11
488.87213373720869
 21
246.94660827560671
 31
0.0
  0
LINE
  5
A0A
  8
0
 10
488.87213089595991
 20
246.94660827560671
 30
0.0
 11
488.48390425762318
 21
246.94660827560671
 31
0.0
  0
LINE
  5
A0B
  8
0
 10
488.48390232830621
 20
246.94660827560671
 30
0.0
 11
488.0956748401839
 21
246.94660827560671
 31
0.0
  0
LINE
  5
A0C
  8
0
 10
488.09567376065229
 20
246.94660827560671
 30
0.0
 11
487.18486422262953
 21
246.94660827560671
 31
0.0
  0
LINE
  5
A0D
  8
0
 10
487.18486194924031
 20
246.94660827560671
 30
0.0
 11
487.03501358887257
 21
246.94660827560671
 31
0.0
  0
LINE
  5
A0E
  8
0
 10
487.03501351082582
 20
246.94660827560671
 30
0.0
 11
486.9839023283061
 21
246.94660827560671
 31
0.0
  0
LINE
  5
A0F
  8
0
 10
486.98280147413209
 20
246.94660827560671
 30
0.0
 11
486.85008328320339
 21
246.94660827560671
 31
0.0
  0
LINE
  5
A10
  8
0
 10
486.85008272228578
 20
246.94660827560671
 30
0.0
 11
486.60890412133671
 21
246.94660827560671
 31
0.0
  0
LINE
  5
A11
  8
0
 10
486.60890232830587
 20
246.94660827560671
 30
0.0
 11
486.40179554711949
 21
246.94660827560671
 31
0.0
  0
LINE
  5
A12
  8
0
 10
486.40179465860871
 20
246.94660827560671
 30
0.0
 11
486.24287692452151
 21
246.94660827560671
 31
0.0
  0
LINE
  5
A13
  8
0
 10
486.24287624199559
 20
246.94660827560671
 30
0.0
 11
486.14297650201689
 21
246.94660827560671
 31
0.0
  0
LINE
  5
A14
  8
0
 10
486.14297392144789
 20
246.94660827560671
 30
0.0
 11
486.10890232830587
 21
246.94660827560671
 31
0.0
  0
LINE
  5
A15
  8
0
 10
515.85890232830661
 20
246.94660827560821
 30
0.0
 11
515.85890232830661
 21
247.19660827560469
 31
0.0
  0
LINE
  5
A16
  8
0
 10
505.85890232830639
 20
247.19660827560469
 30
0.0
 11
505.85890232830639
 21
246.94660827560821
 31
0.0
  0
LINE
  5
A17
  8
0
 10
515.85890232830627
 20
246.94660827560671
 30
0.0
 11
515.18903026070132
 21
246.94660827560671
 31
0.0
  0
LINE
  5
A18
  8
0
 10
515.1890293472286
 20
246.94660827560671
 30
0.0
 11
514.39443845501216
 21
246.94660827560671
 31
0.0
  0
LINE
  5
A19
  8
0
 10
514.39443623423904
 20
246.94660827560671
 30
0.0
 11
512.15299835858036
 21
246.94660827560671
 31
0.0
  0
LINE
  5
A1A
  8
0
 10
512.15299755381886
 20
246.94660827560671
 30
0.0
 11
510.85890232830633
 21
246.94660827560671
 31
0.0
  0
LINE
  5
A1B
  8
0
 10
510.8589003989992
 20
246.94660827560671
 30
0.0
 11
506.52877630622362
 21
246.94660827560671
 31
0.0
  0
LINE
  5
A1C
  8
0
 10
506.52877530938412
 20
246.94660827560671
 30
0.0
 11
506.02927319686103
 21
246.94660827560671
 31
0.0
  0
LINE
  5
A1D
  8
0
 10
506.02926787954198
 20
246.94660827560671
 30
0.0
 11
505.85890232830633
 21
246.94660827560671
 31
0.0
  0
INSERT
  5
A34
  8
0
  6
CONTINUOUS
  2
*X4
 10
0.0
 20
0.0
 30
0.0
1001
GRADIENTCOLOR1ACI
1070
     5
1001
GRADIENTCOLOR2ACI
1070
     2
1001
ACAD
1000
HATCH
1002
{
1070
    19
1000
ANSI31
1040
12.0
1040
2.3561944901923439
1000
ASC_BOUNDS
1070
     3
1070
     1
1070
     4
1005
9B4
1005
9B5
1005
9B6
1005
9B7
1070
     1
1070
     4
1005
97C
1005
97D
1005
97E
1005
97F
1070
     1
1070
     4
1005
9BF
1005
9C0
1005
9C1
1005
9C2
1000
ASC_SEEDPOINT
1011
530.23272696442473
1021
0.0
1031
0.0
1021
625.37402673687302
1031
0.0
1000
R14_HATCH_DATA
1000
A34
1011
1.0
1021
0.0
1031
0.0
1021
0.0
1031
0.0
1011
0.0
1021
0.0
1031
0.0
1021
1.0
1031
0.0
1011
0.0
1021
0.0
1031
0.0
1021
0.0
1031
1.0
1040
0.0
1010
0.0
1020
0.0
1030
1.0
1000
ANSI31
1070
     0
1070
     1
1071
        3
1071
        7
1070
     0
1070
     1
1071
        4
1040
485.35890232830781
1040
666.82160827560426
1040
485.35890232830758
1040
530.32160827560415
1040
622.85890232830752
1040
530.32160827560404
1040
622.85890232830775
1040
666.82160827560392
1071
        4
1005
9C2
1005
9C1
1005
9C0
1005
9BF
1071
        7
1070
     0
1070
     1
1071
        4
1040
622.85890232830684
1040
389.57160827560688
1040
622.85890232830695
1040
526.07160827560688
1040
485.35890232830712
1040
526.07160827560699
1040
485.3589023283069
1040
389.57160827560722
1071
        4
1005
97F
1005
97E
1005
97D
1005
97C
1071
        7
1070
     0
1070
     1
1071
        4
1040
485.35890232830701
1040
385.32160827560432
1040
485.35890232830678
1040
248.82160827560429
1040
622.85890232830673
1040
248.82160827560401
1040
622.85890232830695
1040
385.32160827560392
1071
        4
1005
9B7
1005
9B6
1005
9B5
1005
9B4
1070
     1
1070
     1
1040
2.3561944901923439
1040
12.0
1070
     0
1070
     1
1040
3.1415926535897931
1040
0.0
1040
22.75
1040
-0.0000000000000002
1040
-1.5
1070
     0
1040
0.7272599590228328
1071
        3
1040
530.23272696442473
1040
625.37402673687302
1040
0.0
1040
546.6328421200933
1040
447.25385618088848
1040
0.0
1040
537.17389856781801
1040
340.34664225488592
1040
0.0
1002
}
  0
INSERT
  5
A74
  8
0
  6
CONTINUOUS
  2
*X5
 10
0.0
 20
0.0
 30
0.0
1001
GRADIENTCOLOR1ACI
1070
     5
1001
GRADIENTCOLOR2ACI
1070
     2
1001
ACAD
1000
HATCH
1002
{
1070
    19
1000
NET
1040
12.0
1040
0.0
1000
ASC_BOUNDS
1070
    12
1070
     1
1070
     4
1005
796
1005
797
1005
78A
1005
795
1070
     1
1070
     4
1005
790
1005
797
1005
78E
1005
795
1070
     1
1070
     4
1005
788
1005
797
1005
786
1005
795
1070
     1
1070
     4
1005
783
1005
797
1005
794
1005
795
1070
     1
1070
     4
1005
6DA
1005
6DB
1005
6CE
1005
6D9
1070
     1
1070
     4
1005
6D4
1005
6DB
1005
6D2
1005
6D9
1070
     1
1070
     4
1005
6CC
1005
6DB
1005
6CA
1005
6D9
1070
     1
1070
     4
1005
6C7
1005
6DB
1005
6D8
1005
6D9
1070
     1
1070
     4
1005
75D
1005
75E
1005
751
1005
75C
1070
     1
1070
     4
1005
757
1005
75E
1005
755
1005
75C
1070
     1
1070
     4
1005
74F
1005
75E
1005
74D
1005
75C
1070
     1
1070
     4
1005
74A
1005
75E
1005
75B
1005
75C
1000
ASC_SEEDPOINT
1011
696.98598017503616
1021
0.0
1031
0.0
1021
76.835345770751246
1031
0.0
1000
R14_HATCH_DATA
1000
A74
1011
1.0
1021
0.0
1031
0.0
1021
0.0
1031
0.0
1011
0.0
1021
0.0
1031
0.0
1021
1.0
1031
0.0
1011
0.0
1021
0.0
1031
0.0
1021
0.0
1031
1.0
1040
0.0
1010
0.0
1020
0.0
1030
1.0
1000
NET
1070
     0
1070
     1
1071
       12
1071
        7
1070
     0
1070
     1
1071
        4
1040
704.08069858695274
1040
98.375004503757282
1040
690.83069858695285
1040
98.375004503757125
1040
690.83069858695399
1040
4.000004503756613
1040
704.08069858695274
1040
4.0000045037567551
1071
        4
1005
75C
1005
75B
1005
75E
1005
74A
1071
        7
1070
     0
1070
     1
1071
        4
1040
746.07792055812695
1040
98.375004503757694
1040
730.08069858695364
1040
98.375004503757566
1040
730.08069858695364
1040
4.0000045037570109
1040
746.07792055812695
1040
4.0000045037571823
1071
        4
1005
75C
1005
74D
1005
75E
1005
74F
1071
        7
1070
     0
1070
     1
1071
        4
1040
788.089698241625
1040
98.375004503758163
1040
772.07318418770012
1040
98.375004503757992
1040
772.07318418770012
1040
4.0000045037574523
1040
788.089698241625
1040
4.0000045037576077
1071
        4
1005
75C
1005
755
1005
75E
1005
757
1071
        7
1070
     0
1070
     1
1071
        4
1040
827.33069858695285
1040
98.375004503758575
1040
814.07271390372273
1040
98.375004503758433
1040
814.07271390372273
1040
4.0000045037578777
1040
827.33069858695399
1040
4.0000045037580199
1071
        4
1005
75C
1005
751
1005
75E
1005
75D
1071
        7
1070
     0
1070
     1
1071
        4
1040
844.83069858695546
1040
98.375004503757282
1040
831.58069858695603
1040
98.375004503757125
1040
831.58069858695694
1040
4.000004503756613
1040
844.83069858695546
1040
4.0000045037567551
1071
        4
1005
6D9
1005
6D8
1005
6DB
1005
6C7
1071
        7
1070
     0
1070
     1
1071
        4
1040
886.82792055812945
1040
98.375004503757722
1040
870.83069858695637
1040
98.375004503757566
1040
870.83069858695637
1040
4.0000045037570109
1040
886.82792055812945
1040
4.0000045037571681
1071
        4
1005
6D9
1005
6CA
1005
6DB
1005
6CC
1071
        7
1070
     0
1070
     1
1071
        4
1040
928.83969824162762
1040
98.375004503758163
1040
912.82318418770285
1040
98.375004503757992
1040
912.82318418770285
1040
4.0000045037574523
1040
928.83969824162762
1040
4.0000045037576077
1071
        4
1005
6D9
1005
6D2
1005
6DB
1005
6D4
1071
        7
1070
     0
1070
     1
1071
        4
1040
968.08069858695603
1040
98.375004503758575
1040
954.82271390372546
1040
98.375004503758433
1040
954.82271390372546
1040
4.0000045037578777
1040
968.08069858695694
1040
4.0000045037580199
1071
        4
1005
6D9
1005
6CE
1005
6DB
1005
6DA
1071
        7
1070
     0
1070
     1
1071
        4
1040
985.58069858695274
1040
98.375004503757282
1040
972.33069858695285
1040
98.375004503757125
1040
972.33069858695387
1040
4.000004503756613
1040
985.58069858695274
1040
4.0000045037567551
1071
        4
1005
795
1005
794
1005
797
1005
783
1071
        7
1070
     0
1070
     1
1071
        4
1040
1027.5779205581271
1040
98.375004503757722
1040
1011.580698586953
1040
98.375004503757566
1040
1011.580698586953
1040
4.0000045037570109
1040
1027.5779205581271
1040
4.0000045037571681
1071
        4
1005
795
1005
786
1005
797
1005
788
1071
        7
1070
     0
1070
     1
1071
        4
1040
1069.589698241625
1040
98.375004503758163
1040
1053.5731841877
1040
98.375004503757992
1040
1053.5731841877
1040
4.0000045037574523
1040
1069.589698241625
1040
4.0000045037576077
1071
        4
1005
795
1005
78E
1005
797
1005
790
1071
        7
1070
     0
1070
     1
1071
        4
1040
1108.8306985869531
1040
98.375004503758575
1040
1095.5727139037219
1040
98.375004503758433
1040
1095.5727139037219
1040
4.0000045037578777
1040
1108.830698586954
1040
4.0000045037580199
1071
        4
1005
795
1005
78A
1005
797
1005
796
1070
     1
1070
     1
1040
0.0
1040
12.0
1070
     0
1070
     2
1040
0.0
1040
0.0
1040
0.0
1040
0.0
1040
1.5
1070
     0
1040
1.5707963267948959
1040
0.0
1040
0.0
1040
-1.5
1040
0.0000000000000001
1070
     0
1040
0.1793331784912051
1071
       12
1040
696.98598017503616
1040
76.835345770751246
1040
0.0
1040
738.4319375253026
1040
80.601343307939942
1040
0.0
1040
779.33963579362126
1040
72.172683811432307
1040
0.0
1040
818.8119765100804
1040
67.868686409792872
1040
0.0
1040
837.29220767038032
1040
66.434022123212117
1040
0.0
1040
878.73816502064619
1040
63.564690522119008
1040
0.0
1040
922.51657839268455
1040
59.081360841639928
1040
0.0
1040
961.76596377382828
1040
56.750627121494972
1040
0.0
1040
980.24619493412763
1040
58.364625200881157
1040
0.0
1040
1019.718535650587
1040
57.10929319314004
1040
0.0
1040
1062.779272926801
1040
54.419295384852603
1040
0.0
1040
1102.4310306571369
1040
53.701963241562218
1040
0.0
1002
}
  0
ENDSEC
  0
EOF
