  0
SECTION
  2
HEADER
  9
$ACADVER
  1
AC1009
  9
$INSBASE
 10
0.0
 20
0.0
 30
0.0
  9
$EXTMIN
 10
-0.0117589326498546
 20
-0.0027120989543619
 30
-0.0000000000000129
  9
$EXTMAX
 10
281.8610525381028
 20
161.7961699568495
 30
0.0000000000000024
  9
$LIMMIN
 10
0.0
 20
0.0
  9
$LIMMAX
 10
12.0
 20
9.0
  9
$ORTHOMODE
 70
     1
  9
$REGENMODE
 70
     1
  9
$FILLMODE
 70
     1
  9
$QTEXTMODE
 70
     0
  9
$MIRRTEXT
 70
     0
  9
$DRAGMODE
 70
     2
  9
$LTSCALE
 40
1.0
  9
$OSMODE
 70
    37
  9
$ATTMODE
 70
     1
  9
$TEXTSIZE
 40
0.2
  9
$TRACEWID
 40
0.05
  9
$TEXTSTYLE
  7
ROMANS
  9
$CLAYER
  8
0
  9
$CELTYPE
  6
BYLAYER
  9
$CECOLOR
 62
   256
  9
$DIMSCALE
 40
1.0
  9
$DIMASZ
 40
0.09375
  9
$DIMEXO
 40
0.0625
  9
$DIMDLI
 40
0.375
  9
$DIMRND
 40
0.0
  9
$DIMDLE
 40
0.0
  9
$DIMEXE
 40
0.03125
  9
$DIMTP
 40
0.0
  9
$DIMTM
 40
0.0
  9
$DIMTXT
 40
0.09375
  9
$DIMCEN
 40
0.09375
  9
$DIMTSZ
 40
0.0
  9
$DIMTOL
 70
     0
  9
$DIMLIM
 70
     0
  9
$DIMTIH
 70
     0
  9
$DIMTOH
 70
     0
  9
$DIMSE1
 70
     0
  9
$DIMSE2
 70
     0
  9
$DIMTAD
 70
     0
  9
$DIMZIN
 70
     0
  9
$DIMBLK
  1

  9
$DIMASO
 70
     1
  9
$DIMSHO
 70
     1
  9
$DIMPOST
  1

  9
$DIMAPOST
  1

  9
$DIMALT
 70
     0
  9
$DIMALTD
 70
     2
  9
$DIMALTF
 40
25.399999999999999
  9
$DIMLFAC
 40
1.0
  9
$DIMTOFL
 70
     0
  9
$DIMTVP
 40
0.0
  9
$DIMTIX
 70
     0
  9
$DIMSOXD
 70
     0
  9
$DIMSAH
 70
     0
  9
$DIMBLK1
  1

  9
$DIMBLK2
  1

  9
$DIMSTYLE
  2
BAC
  9
$DIMCLRD
 70
     0
  9
$DIMCLRE
 70
     6
  9
$DIMCLRT
 70
     0
  9
$DIMTFAC
 40
1.0
  9
$DIMGAP
 40
0.0625
  9
$LUNITS
 70
     5
  9
$LUPREC
 70
     6
  9
$SKETCHINC
 40
0.1
  9
$FILLETRAD
 40
0.0
  9
$AUNITS
 70
     0
  9
$AUPREC
 70
     0
  9
$MENU
  1
.
  9
$ELEVATION
 40
0.0
  9
$PELEVATION
 40
0.0
  9
$THICKNESS
 40
0.0
  9
$LIMCHECK
 70
     0
  9
$BLIPMODE
 70
     0
  9
$CHAMFERA
 40
0.5
  9
$CHAMFERB
 40
0.5
  9
$SKPOLY
 70
     0
  9
$TDCREATE
 40
2456826.7030828591
  9
$TDUPDATE
 40
2456827.5641002781
  9
$TDINDWG
 40
0.0085240856
  9
$TDUSRTIMER
 40
0.0085236343
  9
$USRTIMER
 70
     1
  9
$ANGBASE
 50
0.0
  9
$ANGDIR
 70
     0
  9
$PDMODE
 70
     0
  9
$PDSIZE
 40
0.0
  9
$PLINEWID
 40
0.0
  9
$COORDS
 70
     1
  9
$SPLFRAME
 70
     0
  9
$SPLINETYPE
 70
     6
  9
$SPLINESEGS
 70
     8
  9
$ATTDIA
 70
     0
  9
$ATTREQ
 70
     1
  9
$HANDLING
 70
     1
  9
$HANDSEED
  5
251D
  9
$SURFTAB1
 70
     6
  9
$SURFTAB2
 70
     6
  9
$SURFTYPE
 70
     6
  9
$SURFU
 70
     6
  9
$SURFV
 70
     6
  9
$UCSNAME
  2

  9
$UCSORG
 10
0.0
 20
0.0
 30
0.0
  9
$UCSXDIR
 10
1.0
 20
0.0
 30
0.0
  9
$UCSYDIR
 10
0.0
 20
1.0
 30
0.0
  9
$PUCSNAME
  2

  9
$PUCSORG
 10
0.0
 20
0.0
 30
0.0
  9
$PUCSXDIR
 10
1.0
 20
0.0
 30
0.0
  9
$PUCSYDIR
 10
0.0
 20
1.0
 30
0.0
  9
$USERI1
 70
     0
  9
$USERI2
 70
     0
  9
$USERI3
 70
     0
  9
$USERI4
 70
     0
  9
$USERI5
 70
     0
  9
$USERR1
 40
0.0
  9
$USERR2
 40
0.0
  9
$USERR3
 40
0.0
  9
$USERR4
 40
0.0
  9
$USERR5
 40
0.0
  9
$WORLDVIEW
 70
     1
  9
$SHADEDGE
 70
     3
  9
$SHADEDIF
 70
    70
  9
$TILEMODE
 70
     1
  9
$MAXACTVP
 70
    48
  9
$PLIMCHECK
 70
     0
  9
$PEXTMIN
 10
1.0000000000000000E+020
 20
1.0000000000000000E+020
 30
1.0000000000000000E+020
  9
$PEXTMAX
 10
-1.0000000000000000E+020
 20
-1.0000000000000000E+020
 30
-1.0000000000000000E+020
  9
$PLIMMIN
 10
0.0
 20
0.0
  9
$PLIMMAX
 10
12.0
 20
9.0
  9
$UNITMODE
 70
     0
  9
$VISRETAIN
 70
     1
  9
$PLINEGEN
 70
     0
  9
$PSLTSCALE
 70
     1
  0
ENDSEC
  0
SECTION
  2
TABLES
  0
TABLE
  2
VPORT
 70
     1
  0
VPORT
  2
*ACTIVE
 70
     0
 10
0.0
 20
0.0
 11
1.0
 21
1.0
 12
140.9246468027265
 22
80.896728928947596
 13
0.0
 23
0.0
 14
0.5
 24
0.5
 15
0.5
 25
0.5
 16
0.0
 26
0.0
 36
1.0
 17
0.0
 27
0.0
 37
0.0
 40
162.87514956393559
 41
1.7702552719200879
 42
50.0
 43
0.0
 44
0.0
 50
0.0
 51
0.0
 71
     0
 72
   100
 73
     1
 74
     1
 75
     0
 76
     0
 77
     0
 78
     0
  0
ENDTAB
  0
TABLE
  2
LTYPE
 70
     2
  0
LTYPE
  2
CONTINUOUS
 70
     0
  3
Solid line
 72
    65
 73
     0
 40
0.0
  0
LTYPE
  2
PHANTOM2
 70
     0
  3
Phantom (.5x) ___ _ _ ___ _ _ ___ _ _ ___ _ _
 72
    65
 73
     6
 40
1.25
 49
0.625
 49
-0.125
 49
0.125
 49
-0.125
 49
0.125
 49
-0.125
  0
ENDTAB
  0
TABLE
  2
LAYER
 70
     1
  0
LAYER
  2
0
 70
     0
 62
     7
  6
CONTINUOUS
  0
ENDTAB
  0
TABLE
  2
STYLE
 70
     3
  0
STYLE
  2
STANDARD
 70
     0
 40
0.0
 41
1.0
 50
0.0
 71
     0
 42
0.2
  3
txt
  4

  0
STYLE
  2
ANNOTATIVE
 70
     0
 40
0.0
 41
1.0
 50
0.0
 71
     0
 42
0.2
  3
txt
  4

  0
STYLE
  2
ROMANS
 70
     0
 40
0.0
 41
0.75
 50
0.0
 71
     0
 42
0.2
  3
romans.shx
  4

  0
ENDTAB
  0
TABLE
  2
VIEW
 70
     0
  0
ENDTAB
  0
TABLE
  2
UCS
 70
     0
  0
ENDTAB
  0
TABLE
  2
APPID
 70
    16
  0
APPID
  2
ACAD
 70
     0
  0
APPID
  2
ACADANNOTATIVE
 70
     0
  0
APPID
  2
ACAD_MLEADERVER
 70
     0
  0
APPID
  2
ACAD_DSTYLE_DIMJAG
 70
     0
  0
APPID
  2
ACAD_DSTYLE_DIMTALN
 70
     0
  0
APPID
  2
ACAD_PSEXT
 70
     0
  0
APPID
  2
ACADANNOPO
 70
     0
  0
APPID
  2
MCAD_NO_VIS
 70
     0
  0
APPID
  2
ACAD_TEMP_GRAPHIC
 70
     0
  0
APPID
  2
ACATTRIBSERVICES
 70
     0
  0
APPID
  2
DESIGNERASSEMBLIES
 70
     0
  0
APPID
  2
ACAD_DSTYLE_DIMBREAK
 70
     0
  0
APPID
  2
ACAD_NAV_VCDISPLAY
 70
     0
  0
APPID
  2
ACAD_EXEMPT_FROM_CAD_STANDARDS
 70
     0
  0
APPID
  2
GRADIENTCOLOR1ACI
 70
     0
  0
APPID
  2
GRADIENTCOLOR2ACI
 70
     0
  0
ENDTAB
  0
TABLE
  2
DIMSTYLE
 70
     3
  0
DIMSTYLE
  2
STANDARD
 70
     0
  3

  4

  5

  6

  7

 40
1.0
 41
0.18
 42
0.0625
 43
0.38
 44
0.18
 45
0.0
 46
0.0
 47
0.0
 48
0.0
140
0.18
141
0.09
142
0.0
143
25.399999999999999
144
1.0
145
0.0
146
1.0
147
0.09
 71
     0
 72
     0
 73
     1
 74
     1
 75
     0
 76
     0
 77
     0
 78
     0
170
     0
171
     2
172
     0
173
     0
174
     0
175
     0
176
     0
177
     0
178
     0
  0
DIMSTYLE
  2
ANNOTATIVE
 70
     0
  3

  4

  5

  6

  7

 40
1.0
 41
0.18
 42
0.0625
 43
0.38
 44
0.18
 45
0.0
 46
0.0
 47
0.0
 48
0.0
140
0.18
141
0.09
142
0.0
143
25.399999999999999
144
1.0
145
0.0
146
1.0
147
0.09
 71
     0
 72
     0
 73
     1
 74
     1
 75
     0
 76
     0
 77
     0
 78
     0
170
     0
171
     2
172
     0
173
     0
174
     0
175
     0
176
     0
177
     0
178
     0
  0
DIMSTYLE
  2
BAC
 70
     0
  3

  4

  5

  6

  7

 40
1.0
 41
0.09375
 42
0.0625
 43
0.375
 44
0.03125
 45
0.0
 46
0.0
 47
0.0
 48
0.0
140
0.09375
141
0.09375
142
0.0
143
25.399999999999999
144
1.0
145
0.0
146
1.0
147
0.0625
 71
     0
 72
     0
 73
     0
 74
     0
 75
     0
 76
     0
 77
     0
 78
     0
170
     0
171
     2
172
     0
173
     0
174
     0
175
     0
176
     0
177
     6
178
     0
  0
ENDTAB
  0
ENDSEC
  0
SECTION
  2
BLOCKS
  0
BLOCK
  8
0
  2
$MODEL_SPACE
 70
     0
 10
0.0
 20
0.0
 30
0.0
  3
$MODEL_SPACE
  1

  0
ENDBLK
  5
2432
  8
0
  0
BLOCK
 67
     1
  8
0
  2
$PAPER_SPACE
 70
     0
 10
0.0
 20
0.0
 30
0.0
  3
$PAPER_SPACE
  1

  0
ENDBLK
  5
242E
 67
     1
  8
0
  0
BLOCK
  8
0
  2
*X3
 70
     1
 10
0.0
 20
0.0
 30
0.0
  3
*X3
  1

  0
LINE
  5
2294
  8
0
 62
     0
 10
168.01216392996531
 20
48.281353561263813
 30
0.0
 11
160.6720482913104
 21
55.621469199918742
 31
0.0
  0
LINE
  5
2295
  8
0
 62
     0
 10
169.58991292384579
 20
44.582284223823699
 30
0.0
 11
157.49746244187361
 21
56.674734705795871
 31
0.0
  0
LINE
  5
2296
  8
0
 62
     0
 10
171.15434868788191
 20
40.896528116227941
 30
0.0
 11
155.0660945934797
 21
56.984782210630229
 31
0.0
  0
LINE
  5
2297
  8
0
 62
     0
 10
172.71878445191791
 20
37.21077200863229
 30
0.0
 11
152.9946650151627
 21
56.934891445387557
 31
0.0
  0
LINE
  5
2298
  8
0
 62
     0
 10
174.283220215954
 20
33.525015901036532
 30
0.0
 11
151.16023239255159
 21
56.648003724439022
 31
0.0
  0
LINE
  5
2299
  8
0
 62
     0
 10
175.84765597999009
 20
29.839259793440789
 30
0.0
 11
149.50491685937149
 21
56.181998914059321
 31
0.0
  0
LINE
  5
229A
  8
0
 62
     0
 10
177.4120917440261
 20
26.153503685845099
 30
0.0
 11
147.9966537798428
 21
55.568941650028528
 31
0.0
  0
LINE
  5
229B
  8
0
 62
     0
 10
178.97652750806211
 20
22.467747578249352
 30
0.0
 11
146.61625637608279
 21
54.828018710228903
 31
0.0
  0
LINE
  5
229C
  8
0
 62
     0
 10
180.54096327209831
 20
18.78199147065364
 30
0.0
 11
145.352042493694
 21
53.970912249058067
 31
0.0
  0
LINE
  5
229D
  8
0
 62
     0
 10
182.05266560855171
 20
15.148968790640479
 30
0.0
 11
144.19731601098701
 21
53.004318388205462
 31
0.0
  0
LINE
  5
229E
  8
0
 62
     0
 10
182.38409576920509
 20
12.69621828642755
 30
0.0
 11
143.14915793341279
 21
51.931156122219988
 31
0.0
  0
LINE
  5
229F
  8
0
 62
     0
 10
182.0660446380424
 20
10.892949074030501
 30
0.0
 11
142.20795012322921
 21
50.751043588843899
 31
0.0
  0
LINE
  5
22A0
  8
0
 62
     0
 10
181.41033491977279
 20
9.4273384487404712
 30
0.0
 11
141.3774358961123
 21
49.460237472401182
 31
0.0
  0
LINE
  5
22A1
  8
0
 62
     0
 10
180.5005922258201
 20
8.2157607991335055
 30
0.0
 11
140.66534136262089
 21
48.051011662332918
 31
0.0
  0
LINE
  5
22A2
  8
0
 62
     0
 10
179.36050248785801
 20
7.2345301935361022
 30
0.0
 11
140.08481958678971
 21
46.51021309460446
 31
0.0
  0
LINE
  5
22A3
  8
0
 62
     0
 10
177.9780070254908
 20
6.4957053123436594
 30
0.0
 11
139.6574422927485
 21
44.816270045086092
 31
0.0
  0
LINE
  5
22A4
  8
0
 62
     0
 10
176.29388341042409
 20
6.058508583850708
 30
0.0
 11
139.4197149223547
 21
42.932677071920253
 31
0.0
  0
LINE
  5
22A5
  8
0
 62
     0
 10
174.113591438599
 20
6.1174802121160479
 30
0.0
 11
139.43944111230951
 21
40.791630538405713
 31
0.0
  0
LINE
  5
22A6
  8
0
 62
     0
 10
167.5592834582182
 20
10.550467848937361
 30
0.0
 11
139.86953004013901
 21
38.240221267016608
 31
0.0
  0
LINE
  5
22A7
  8
0
 62
     0
 10
150.61527520337299
 20
25.373155760222971
 30
0.0
 11
141.28491181362429
 21
34.703519149971697
 31
0.0
  0
LINE
  5
22A8
  8
0
 62
     0
 10
178.44942781219541
 20
6.7036375357181708
 30
0.0
 11
181.68704843808129
 21
9.9412581616040541
 31
0.0
  0
LINE
  5
22A9
  8
0
 62
     0
 10
175.62850647163691
 20
6.0040365387193901
 30
0.0
 11
182.38664943507999
 21
12.76217950216247
 31
0.0
  0
LINE
  5
22AA
  8
0
 62
     0
 10
173.70832115912481
 20
6.2051715697669447
 30
0.0
 11
182.18551440403249
 21
14.6823648146746
 31
0.0
  0
LINE
  5
22AB
  8
0
 62
     0
 10
172.1678597273424
 20
6.7860304815440591
 30
0.0
 11
181.62049100985121
 21
16.23866176405285
 31
0.0
  0
LINE
  5
22AC
  8
0
 62
     0
 10
170.89499343582381
 20
7.6344845335851801
 30
0.0
 11
180.98838660422479
 21
17.727877701986181
 31
0.0
  0
LINE
  5
22AD
  8
0
 62
     0
 10
169.76237920932141
 20
8.6231906506424991
 30
0.0
 11
180.35628219859839
 21
19.217093639919511
 31
0.0
  0
LINE
  5
22AE
  8
0
 62
     0
 10
168.6308901421402
 20
9.6130219270208634
 30
0.0
 11
179.7241777929722
 21
20.70630957785281
 31
0.0
  0
LINE
  5
22AF
  8
0
 62
     0
 10
167.49940107495891
 20
10.60285320339923
 30
0.0
 11
179.09207338734581
 21
22.195525515786098
 31
0.0
  0
LINE
  5
22B0
  8
0
 62
     0
 10
166.3679120077777
 20
11.59268447977766
 30
0.0
 11
178.4599689817195
 21
23.684741453719461
 31
0.0
  0
LINE
  5
22B1
  8
0
 62
     0
 10
165.2364229405965
 20
12.58251575615602
 30
0.0
 11
177.82786457609319
 21
25.173957391652781
 31
0.0
  0
LINE
  5
22B2
  8
0
 62
     0
 10
164.10493387341521
 20
13.57234703253442
 30
0.0
 11
177.1957601704668
 21
26.66317332958608
 31
0.0
  0
LINE
  5
22B3
  8
0
 62
     0
 10
162.97344480623391
 20
14.56217830891279
 30
0.0
 11
176.56365576484041
 21
28.152389267519371
 31
0.0
  0
LINE
  5
22B4
  8
0
 62
     0
 10
161.84195573905271
 20
15.55200958529119
 30
0.0
 11
175.93155135921421
 21
29.641605205452692
 31
0.0
  0
LINE
  5
22B5
  8
0
 62
     0
 10
160.71046667187139
 20
16.541840861669581
 30
0.0
 11
175.2994469535879
 21
31.130821143386019
 31
0.0
  0
LINE
  5
22B6
  8
0
 62
     0
 10
159.57897760469021
 20
17.531672138047981
 30
0.0
 11
174.66734254796151
 21
32.62003708131931
 31
0.0
  0
LINE
  5
22B7
  8
0
 62
     0
 10
158.447488537509
 20
18.521503414426348
 30
0.0
 11
174.0352381423352
 21
34.109253019252641
 31
0.0
  0
LINE
  5
22B8
  8
0
 62
     0
 10
157.31599947032771
 20
19.511334690804741
 30
0.0
 11
173.4031337367089
 21
35.598468957185929
 31
0.0
  0
LINE
  5
22B9
  8
0
 62
     0
 10
156.1845104031465
 20
20.501165967183141
 30
0.0
 11
172.77102933108259
 21
37.087684895119253
 31
0.0
  0
LINE
  5
22BA
  8
0
 62
     0
 10
155.05302133596521
 20
21.490997243561509
 30
0.0
 11
172.13892492545631
 21
38.576900833052612
 31
0.0
  0
LINE
  5
22BB
  8
0
 62
     0
 10
153.92153226878401
 20
22.48082851993993
 30
0.0
 11
171.50682051982989
 21
40.0661167709859
 31
0.0
  0
LINE
  5
22BC
  8
0
 62
     0
 10
152.79004320160271
 20
23.470659796318301
 30
0.0
 11
170.87471611420349
 21
41.555332708919181
 31
0.0
  0
LINE
  5
22BD
  8
0
 62
     0
 10
151.65855413442139
 20
24.460491072696669
 30
0.0
 11
170.2426117085773
 21
43.044548646852533
 31
0.0
  0
LINE
  5
22BE
  8
0
 62
     0
 10
150.52706506724019
 20
25.450322349075091
 30
0.0
 11
169.61050730295091
 21
44.533764584785843
 31
0.0
  0
LINE
  5
22BF
  8
0
 62
     0
 10
149.39557600005901
 20
26.440153625453458
 30
0.0
 11
168.9784028973246
 21
46.022980522719152
 31
0.0
  0
LINE
  5
22C0
  8
0
 62
     0
 10
148.26408693287769
 20
27.429984901831858
 30
0.0
 11
168.34629849169829
 21
47.512196460652447
 31
0.0
  0
LINE
  5
22C1
  8
0
 62
     0
 10
147.1325978656964
 20
28.419816178210251
 30
0.0
 11
167.67634760725909
 21
48.96356591977289
 31
0.0
  0
LINE
  5
22C2
  8
0
 62
     0
 10
146.00110879851519
 20
29.409647454588612
 30
0.0
 11
166.88763029863239
 21
50.296168954705813
 31
0.0
  0
LINE
  5
22C3
  8
0
 62
     0
 10
144.8696197313339
 20
30.399478730967019
 30
0.0
 11
165.9859322238492
 21
51.515791223482232
 31
0.0
  0
LINE
  5
22C4
  8
0
 62
     0
 10
143.76317226199049
 20
31.414351605183391
 30
0.0
 11
164.97633436861659
 21
52.6275137118093
 31
0.0
  0
LINE
  5
22C5
  8
0
 62
     0
 10
142.75778291783229
 20
32.530282604584642
 30
0.0
 11
163.86040336921531
 21
53.632903055967653
 31
0.0
  0
LINE
  5
22C6
  8
0
 62
     0
 10
141.86042385945171
 20
33.7542438897637
 30
0.0
 11
162.63644208403619
 21
54.530262114348233
 31
0.0
  0
LINE
  5
22C7
  8
0
 62
     0
 10
141.07632784113889
 20
35.091468215010572
 30
0.0
 11
161.29921775878941
 21
55.314358132661027
 31
0.0
  0
LINE
  5
22C8
  8
0
 62
     0
 10
140.41516611918641
 20
36.551626836617658
 30
0.0
 11
159.83905913718209
 21
55.975519854613538
 31
0.0
  0
LINE
  5
22C9
  8
0
 62
     0
 10
139.89298578169951
 20
38.15076684269048
 30
0.0
 11
158.2399191311095
 21
56.497700192100382
 31
0.0
  0
LINE
  5
22CA
  8
0
 62
     0
 10
139.53625412305959
 20
39.915355527610139
 30
0.0
 11
156.47533044618979
 21
56.854431850740347
 31
0.0
  0
LINE
  5
22CB
  8
0
 62
     0
 10
139.39108270153619
 20
41.891504449646398
 30
0.0
 11
154.4991815241535
 21
56.99960327226367
 31
0.0
  0
LINE
  5
22CC
  8
0
 62
     0
 10
139.54852305026921
 20
44.170265141939012
 30
0.0
 11
152.22042083186091
 21
56.842162923530779
 31
0.0
  0
LINE
  5
22CD
  8
0
 62
     0
 10
140.24398271297071
 20
46.98704514820021
 30
0.0
 11
149.40364082559969
 21
56.146703260829199
 31
0.0
  0
ENDBLK
  5
22CF
  8
0
  0
BLOCK
  8
0
  2
*X5
 70
     1
 10
0.0
 20
0.0
 30
0.0
  3
*X5
  1

  0
LINE
  5
2303
  8
0
 62
     0
 10
281.37191842234961
 20
55.65754910677402
 30
0.0
 11
280.029471907247
 21
56.999995621876678
 31
0.0
  0
LINE
  5
2304
  8
0
 62
     0
 10
281.37191842234961
 20
53.536228763214339
 30
0.0
 11
277.90815156368728
 21
56.999995621876621
 31
0.0
  0
LINE
  5
2305
  8
0
 62
     0
 10
281.37191842234961
 20
51.414908419654687
 30
0.0
 11
275.78683122012762
 21
56.9999956218767
 31
0.0
  0
LINE
  5
2306
  8
0
 62
     0
 10
281.37191842234949
 20
49.293588076095112
 30
0.0
 11
273.85690696195007
 21
56.80859953649459
 31
0.0
  0
LINE
  5
2307
  8
0
 62
     0
 10
281.37191842234949
 20
47.172267732535452
 30
0.0
 11
273.85690696195007
 21
54.687279192934938
 31
0.0
  0
LINE
  5
2308
  8
0
 62
     0
 10
281.37191842234961
 20
45.050947388975771
 30
0.0
 11
273.85690696195007
 21
52.56595884937532
 31
0.0
  0
LINE
  5
2309
  8
0
 62
     0
 10
281.37191842234949
 20
42.92962704541614
 30
0.0
 11
273.85690696195007
 21
50.444638505815611
 31
0.0
  0
LINE
  5
230A
  8
0
 62
     0
 10
281.37191842234961
 20
40.808306701856488
 30
0.0
 11
273.85690696195007
 21
48.323318162255973
 31
0.0
  0
LINE
  5
230B
  8
0
 62
     0
 10
281.37191842234961
 20
38.686986358296849
 30
0.0
 11
273.8569069619503
 21
46.201997818696242
 31
0.0
  0
LINE
  5
230C
  8
0
 62
     0
 10
281.37191842234949
 20
36.565666014737253
 30
0.0
 11
273.85690696195047
 21
44.080677475136333
 31
0.0
  0
LINE
  5
230D
  8
0
 62
     0
 10
281.37191842234949
 20
34.444345671177587
 30
0.0
 11
273.85690696195047
 21
41.959357131576688
 31
0.0
  0
LINE
  5
230E
  8
0
 62
     0
 10
281.37191842234961
 20
32.323025327617891
 30
0.0
 11
273.85690696195047
 21
39.838036788017043
 31
0.0
  0
LINE
  5
230F
  8
0
 62
     0
 10
281.37191842234949
 20
30.201704984058299
 30
0.0
 11
273.85690696195047
 21
37.716716444457433
 31
0.0
  0
LINE
  5
2310
  8
0
 62
     0
 10
281.37191842234949
 20
28.080384640498671
 30
0.0
 11
273.85690696195047
 21
35.595396100897773
 31
0.0
  0
LINE
  5
2311
  8
0
 62
     0
 10
280.33098636749338
 20
26.999996351795179
 30
0.0
 11
273.85690696195047
 21
33.474075757338142
 31
0.0
  0
LINE
  5
2312
  8
0
 62
     0
 10
278.20966602393378
 20
26.999996351795179
 30
0.0
 11
273.85690696195047
 21
31.352755413778478
 31
0.0
  0
LINE
  5
2313
  8
0
 62
     0
 10
276.08834568037412
 20
26.999996351795119
 30
0.0
 11
273.85690696195047
 21
29.231435070218819
 31
0.0
  0
LINE
  5
2314
  8
0
 62
     0
 10
273.9670253368144
 20
26.999996351795179
 30
0.0
 11
273.85690696195041
 21
27.11011472665928
 31
0.0
  0
LINE
  5
2315
  8
0
 62
     0
 10
240.6069069619501
 20
56.117474039540411
 30
0.0
 11
239.7243846632044
 21
56.999996338286017
 31
0.0
  0
LINE
  5
2316
  8
0
 62
     0
 10
240.6069069619501
 20
53.996153695980752
 30
0.0
 11
237.6030643196448
 21
56.999996338286003
 31
0.0
  0
LINE
  5
2317
  8
0
 62
     0
 10
240.6069069619501
 20
51.874833352421092
 30
0.0
 11
235.4817439760852
 21
56.999996338286003
 31
0.0
  0
LINE
  5
2318
  8
0
 62
     0
 10
240.6069069619501
 20
49.753513008861532
 30
0.0
 11
233.3604236325256
 21
56.999996338286039
 31
0.0
  0
LINE
  5
2319
  8
0
 62
     0
 10
240.6069069619501
 20
47.632192665301837
 30
0.0
 11
233.10225173370739
 21
55.136847893544562
 31
0.0
  0
LINE
  5
231A
  8
0
 62
     0
 10
240.60690696195019
 20
45.510872321742099
 30
0.0
 11
233.10225162630141
 21
53.015527657390891
 31
0.0
  0
LINE
  5
231B
  8
0
 62
     0
 10
240.60690696195019
 20
43.389551978182467
 30
0.0
 11
233.1022515188954
 21
50.894207421237297
 31
0.0
  0
LINE
  5
231C
  8
0
 62
     0
 10
240.6069069619501
 20
41.268231634622808
 30
0.0
 11
233.10225141148939
 21
48.772887185083619
 31
0.0
  0
LINE
  5
231D
  8
0
 62
     0
 10
240.6069069619501
 20
39.146911291063219
 30
0.0
 11
233.10225130408341
 21
46.65156694892999
 31
0.0
  0
LINE
  5
231E
  8
0
 62
     0
 10
240.60690696195019
 20
37.025590947503559
 30
0.0
 11
233.1022511966774
 21
44.530246712776382
 31
0.0
  0
LINE
  5
231F
  8
0
 62
     0
 10
240.60690696195019
 20
34.904270603943928
 30
0.0
 11
233.10225108927131
 21
42.408926476622781
 31
0.0
  0
LINE
  5
2320
  8
0
 62
     0
 10
240.60690696195019
 20
32.782950260384268
 30
0.0
 11
233.1022509818653
 21
40.287606240469103
 31
0.0
  0
LINE
  5
2321
  8
0
 62
     0
 10
240.6069069619501
 20
30.661629916824609
 30
0.0
 11
233.10225087445929
 21
38.166286004315417
 31
0.0
  0
LINE
  5
2322
  8
0
 62
     0
 10
240.6069069619501
 20
28.540309573264999
 30
0.0
 11
233.10225076705331
 21
36.044965768161852
 31
0.0
  0
LINE
  5
2323
  8
0
 62
     0
 10
240.6069069619501
 20
26.41898922970535
 30
0.0
 11
233.1022506596473
 21
33.923645532008237
 31
0.0
  0
LINE
  5
2324
  8
0
 62
     0
 10
240.6069069619501
 20
24.297668886145718
 30
0.0
 11
233.10225055224129
 21
31.80232529585459
 31
0.0
  0
LINE
  5
2325
  8
0
 62
     0
 10
240.60690696195019
 20
22.176348542586052
 30
0.0
 11
233.10225044483539
 21
29.68100505970088
 31
0.0
  0
LINE
  5
2326
  8
0
 62
     0
 10
240.6069069619501
 20
20.055028199026388
 30
0.0
 11
233.1022503374293
 21
27.559684823547268
 31
0.0
  0
LINE
  5
2327
  8
0
 62
     0
 10
240.6069069619501
 20
17.933707855466789
 30
0.0
 11
233.1022502300232
 21
25.438364587393671
 31
0.0
  0
LINE
  5
2328
  8
0
 62
     0
 10
240.6069069619501
 20
15.81238751190716
 30
0.0
 11
233.10225012261719
 21
23.317044351240039
 31
0.0
  0
LINE
  5
2329
  8
0
 62
     0
 10
240.60690696195019
 20
13.691067168347439
 30
0.0
 11
233.1022500152113
 21
21.195724115086339
 31
0.0
  0
LINE
  5
232A
  8
0
 62
     0
 10
240.6069069619501
 20
11.56974682478784
 30
0.0
 11
233.1022499078052
 21
19.07440387893277
 31
0.0
  0
LINE
  5
232B
  8
0
 62
     0
 10
240.60690696195019
 20
9.4484264812281822
 30
0.0
 11
233.10224980039919
 21
16.953083642779148
 31
0.0
  0
LINE
  5
232C
  8
0
 62
     0
 10
240.60690696195019
 20
7.3271061376685207
 30
0.0
 11
233.1022497387257
 21
14.83176336089295
 31
0.0
  0
LINE
  5
232D
  8
0
 62
     0
 10
239.8126971341801
 20
5.9999956218789219
 30
0.0
 11
233.1022497387257
 21
12.71044301733332
 31
0.0
  0
LINE
  5
232E
  8
0
 62
     0
 10
237.6913767906205
 20
5.9999956218789219
 30
0.0
 11
233.1022497387257
 21
10.58912267377368
 31
0.0
  0
LINE
  5
232F
  8
0
 62
     0
 10
235.57005644706089
 20
5.9999956218789219
 30
0.0
 11
233.1022497387257
 21
8.4678023302140542
 31
0.0
  0
LINE
  5
2330
  8
0
 62
     0
 10
233.4487361035012
 20
5.9999956218789219
 30
0.0
 11
233.1022497387257
 21
6.346481986654366
 31
0.0
  0
LINE
  5
2331
  8
0
 62
     0
 10
281.29797048209372
 20
26.999996351795211
 30
0.0
 11
281.37191842234961
 21
27.073944292051038
 31
0.0
  0
LINE
  5
2332
  8
0
 62
     0
 10
279.17665013853411
 20
26.999996351795179
 30
0.0
 11
281.37191842234949
 21
29.19526463561067
 31
0.0
  0
LINE
  5
2333
  8
0
 62
     0
 10
277.0553297949744
 20
26.999996351795229
 30
0.0
 11
281.37191842234949
 21
31.316584979170269
 31
0.0
  0
LINE
  5
2334
  8
0
 62
     0
 10
274.93400945141491
 20
26.999996351795229
 30
0.0
 11
281.37191842234949
 21
33.437905322729932
 31
0.0
  0
LINE
  5
2335
  8
0
 62
     0
 10
273.85690696195047
 20
28.04421420589043
 30
0.0
 11
281.37191842234961
 21
35.559225666289557
 31
0.0
  0
LINE
  5
2336
  8
0
 62
     0
 10
273.8569069619503
 20
30.16553454945009
 30
0.0
 11
281.37191842234961
 21
37.680546009849223
 31
0.0
  0
LINE
  5
2337
  8
0
 62
     0
 10
273.8569069619503
 20
32.286854893009753
 30
0.0
 11
281.37191842234961
 21
39.80186635340889
 31
0.0
  0
LINE
  5
2338
  8
0
 62
     0
 10
273.85690696195041
 20
34.408175236569321
 30
0.0
 11
281.37191842234949
 21
41.923186696968507
 31
0.0
  0
LINE
  5
2339
  8
0
 62
     0
 10
273.85690696195041
 20
36.52949558012898
 30
0.0
 11
281.37191842234961
 21
44.044507040528167
 31
0.0
  0
LINE
  5
233A
  8
0
 62
     0
 10
273.85690696195041
 20
38.65081592368864
 30
0.0
 11
281.37191842234949
 21
46.165827384087763
 31
0.0
  0
LINE
  5
233B
  8
0
 62
     0
 10
273.85690696195047
 20
40.772136267248271
 30
0.0
 11
281.37191842234961
 21
48.287147727647401
 31
0.0
  0
LINE
  5
233C
  8
0
 62
     0
 10
239.0847663165811
 20
5.9999956218789521
 30
0.0
 11
240.60690696195019
 21
7.5221362672480421
 31
0.0
  0
LINE
  5
233D
  8
0
 62
     0
 10
273.85690696195047
 20
42.893456610807931
 30
0.0
 11
281.37191842234961
 21
50.408468071207068
 31
0.0
  0
LINE
  5
233E
  8
0
 62
     0
 10
236.96344597302149
 20
5.9999956218789521
 30
0.0
 11
240.60690696195019
 21
9.6434566108077036
 31
0.0
  0
LINE
  5
233F
  8
0
 62
     0
 10
273.8569069619503
 20
45.014776954367591
 30
0.0
 11
281.37191842234961
 21
52.52978841476672
 31
0.0
  0
LINE
  5
2340
  8
0
 62
     0
 10
234.8421256294618
 20
5.999995621879008
 30
0.0
 11
240.60690696195019
 21
11.76477695436733
 31
0.0
  0
LINE
  5
2341
  8
0
 62
     0
 10
273.85690696195007
 20
47.136097297926881
 30
0.0
 11
281.37191842234961
 21
54.651108758326352
 31
0.0
  0
LINE
  5
2342
  8
0
 62
     0
 10
233.1022497387257
 20
6.3814400747025104
 30
0.0
 11
240.60690696195019
 21
13.886097297926961
 31
0.0
  0
LINE
  5
2343
  8
0
 62
     0
 10
273.85690696195007
 20
49.257417641486541
 30
0.0
 11
281.37191842234949
 21
56.772429101886033
 31
0.0
  0
LINE
  5
2344
  8
0
 62
     0
 10
233.1022497387257
 20
8.5027604182621701
 30
0.0
 11
240.60690696195019
 21
16.007417641486601
 31
0.0
  0
LINE
  5
2345
  8
0
 62
     0
 10
273.85690696195007
 20
51.378737985046143
 30
0.0
 11
279.47816459878072
 21
56.999995621876742
 31
0.0
  0
LINE
  5
2346
  8
0
 62
     0
 10
233.1022497387257
 20
10.6240807618218
 30
0.0
 11
240.60690696195019
 21
18.12873798504625
 31
0.0
  0
LINE
  5
2347
  8
0
 62
     0
 10
273.85690696195002
 20
53.500058328605789
 30
0.0
 11
277.35684425522101
 21
56.9999956218767
 31
0.0
  0
LINE
  5
2348
  8
0
 62
     0
 10
233.1022497387257
 20
12.745401105381429
 30
0.0
 11
240.60690696195019
 21
20.250058328605888
 31
0.0
  0
LINE
  5
2349
  8
0
 62
     0
 10
273.85690696195002
 20
55.621378672165378
 30
0.0
 11
275.2355239116614
 21
56.9999956218767
 31
0.0
  0
LINE
  5
234A
  8
0
 62
     0
 10
233.1022497387257
 20
14.866721448941091
 30
0.0
 11
240.60690696195019
 21
22.371378672165491
 31
0.0
  0
LINE
  5
234B
  8
0
 62
     0
 10
233.10224980216921
 20
16.988041855944171
 30
0.0
 11
240.60690696195019
 21
24.492699015725151
 31
0.0
  0
LINE
  5
234C
  8
0
 62
     0
 10
233.10224990957531
 20
19.109362306909841
 30
0.0
 11
240.60690696195019
 21
26.614019359284772
 31
0.0
  0
LINE
  5
234D
  8
0
 62
     0
 10
233.10225001698129
 20
21.23068275787551
 30
0.0
 11
240.6069069619501
 21
28.735339702844438
 31
0.0
  0
LINE
  5
234E
  8
0
 62
     0
 10
233.1022501243873
 20
23.352003208841161
 30
0.0
 11
240.60690696195019
 21
30.856660046404102
 31
0.0
  0
LINE
  5
234F
  8
0
 62
     0
 10
233.10225023179331
 20
25.47332365980683
 30
0.0
 11
240.60690696195019
 21
32.97798038996369
 31
0.0
  0
LINE
  5
2350
  8
0
 62
     0
 10
233.10225033919929
 20
27.594644110772521
 30
0.0
 11
240.60690696195019
 21
35.09930073352335
 31
0.0
  0
LINE
  5
2351
  8
0
 62
     0
 10
233.10225044660541
 20
29.715964561738161
 30
0.0
 11
240.60690696195019
 21
37.220621077083003
 31
0.0
  0
LINE
  5
2352
  8
0
 62
     0
 10
233.10225055401139
 20
31.83728501270383
 30
0.0
 11
240.6069069619501
 21
39.34194142064257
 31
0.0
  0
LINE
  5
2353
  8
0
 62
     0
 10
233.1022506614174
 20
33.958605463669471
 30
0.0
 11
240.6069069619501
 21
41.46326176420223
 31
0.0
  0
LINE
  5
2354
  8
0
 62
     0
 10
233.10225076882341
 20
36.079925914635169
 30
0.0
 11
240.60690696195019
 21
43.584582107761889
 31
0.0
  0
LINE
  5
2355
  8
0
 62
     0
 10
233.10225087622931
 20
38.201246365600838
 30
0.0
 11
240.60690696195019
 21
45.705902451321521
 31
0.0
  0
LINE
  5
2356
  8
0
 62
     0
 10
233.10225098363551
 20
40.322566816566457
 30
0.0
 11
240.6069069619501
 21
47.827222794881109
 31
0.0
  0
LINE
  5
2357
  8
0
 62
     0
 10
233.1022510910415
 20
42.443887267532169
 30
0.0
 11
240.6069069619501
 21
49.948543138440783
 31
0.0
  0
LINE
  5
2358
  8
0
 62
     0
 10
233.1022511984475
 20
44.565207718497781
 30
0.0
 11
240.6069069619501
 21
52.0698634820004
 31
0.0
  0
LINE
  5
2359
  8
0
 62
     0
 10
233.1022513058536
 20
46.686528169463472
 30
0.0
 11
240.6069069619501
 21
54.191183825560017
 31
0.0
  0
LINE
  5
235A
  8
0
 62
     0
 10
233.10225141325949
 20
48.807848620429112
 30
0.0
 11
240.6069069619501
 21
56.31250416911967
 31
0.0
  0
LINE
  5
235B
  8
0
 62
     0
 10
233.10225152066559
 20
50.929169071394782
 30
0.0
 11
239.1730787875569
 21
56.999996338286067
 31
0.0
  0
LINE
  5
235C
  8
0
 62
     0
 10
233.1022516280716
 20
53.050489522360436
 30
0.0
 11
237.05175844399719
 21
56.999996338286067
 31
0.0
  0
LINE
  5
235D
  8
0
 62
     0
 10
233.10225173547761
 20
55.171809973326098
 30
0.0
 11
234.93043810043761
 21
56.999996338286103
 31
0.0
  0
ENDBLK
  5
235F
  8
0
  0
BLOCK
  8
0
  2
*X7
 70
     1
 10
0.0
 20
0.0
 30
0.0
  3
*X7
  1

  0
LINE
  5
246A
  8
0
 62
     0
 10
101.2656903519232
 20
115.2868792073139
 30
0.0
 11
133.39069035192321
 21
115.2868792073138
 31
0.0
  0
LINE
  5
246B
  8
0
 62
     0
 10
101.2656903519232
 20
116.7868792073138
 30
0.0
 11
133.39069035192321
 21
116.7868792073138
 31
0.0
  0
LINE
  5
246C
  8
0
 62
     0
 10
101.2656903519232
 20
118.2868792073138
 30
0.0
 11
133.39069035192321
 21
118.2868792073138
 31
0.0
  0
LINE
  5
246D
  8
0
 62
     0
 10
101.2656903519232
 20
119.7868792073139
 30
0.0
 11
133.39069035192321
 21
119.7868792073138
 31
0.0
  0
LINE
  5
246E
  8
0
 62
     0
 10
101.2656903519232
 20
121.2868792073138
 30
0.0
 11
133.39069035192321
 21
121.2868792073138
 31
0.0
  0
LINE
  5
246F
  8
0
 62
     0
 10
101.2656903519232
 20
122.7868792073139
 30
0.0
 11
133.39069035192321
 21
122.7868792073138
 31
0.0
  0
LINE
  5
2470
  8
0
 62
     0
 10
101.2656903519232
 20
124.2868792073138
 30
0.0
 11
133.39069035192321
 21
124.2868792073138
 31
0.0
  0
LINE
  5
2471
  8
0
 62
     0
 10
101.2656903519232
 20
125.7868792073139
 30
0.0
 11
133.39069035192321
 21
125.7868792073138
 31
0.0
  0
LINE
  5
2472
  8
0
 62
     0
 10
101.2656903519232
 20
127.2868792073138
 30
0.0
 11
133.39069035192321
 21
127.2868792073138
 31
0.0
  0
LINE
  5
2473
  8
0
 62
     0
 10
101.2656903519232
 20
128.78687920731389
 30
0.0
 11
133.39069035192321
 21
128.7868792073138
 31
0.0
  0
LINE
  5
2474
  8
0
 62
     0
 10
101.2656903519232
 20
130.28687920731389
 30
0.0
 11
133.39069035192321
 21
130.2868792073138
 31
0.0
  0
LINE
  5
2475
  8
0
 62
     0
 10
101.2656903519232
 20
131.78687920731389
 30
0.0
 11
133.39069035192321
 21
131.7868792073138
 31
0.0
  0
LINE
  5
2476
  8
0
 62
     0
 10
101.2656903519232
 20
133.28687920731389
 30
0.0
 11
133.39069035192321
 21
133.2868792073138
 31
0.0
  0
LINE
  5
2477
  8
0
 62
     0
 10
101.2656903519232
 20
134.78687920731389
 30
0.0
 11
133.39069035192321
 21
134.7868792073138
 31
0.0
  0
LINE
  5
2478
  8
0
 62
     0
 10
101.2656903519232
 20
136.28687920731389
 30
0.0
 11
133.39069035192321
 21
136.2868792073138
 31
0.0
  0
LINE
  5
2479
  8
0
 62
     0
 10
101.2656903519232
 20
137.78687920731389
 30
0.0
 11
133.3906903519233
 21
137.7868792073138
 31
0.0
  0
LINE
  5
247A
  8
0
 62
     0
 10
101.2656903519232
 20
139.28687920731389
 30
0.0
 11
133.3906903519233
 21
139.2868792073138
 31
0.0
  0
LINE
  5
247B
  8
0
 62
     0
 10
101.2656903519232
 20
140.78687920731389
 30
0.0
 11
133.3906903519233
 21
140.7868792073138
 31
0.0
  0
LINE
  5
247C
  8
0
 62
     0
 10
101.2656903519232
 20
142.28687920731389
 30
0.0
 11
133.3906903519233
 21
142.2868792073138
 31
0.0
  0
LINE
  5
247D
  8
0
 62
     0
 10
101.2656903519232
 20
143.78687920731389
 30
0.0
 11
133.3906903519233
 21
143.7868792073138
 31
0.0
  0
LINE
  5
247E
  8
0
 62
     0
 10
101.2656903519232
 20
145.28687920731389
 30
0.0
 11
133.3906903519233
 21
145.2868792073138
 31
0.0
  0
LINE
  5
247F
  8
0
 62
     0
 10
101.2656903519232
 20
146.7868792073138
 30
0.0
 11
133.3906903519233
 21
146.7868792073138
 31
0.0
  0
LINE
  5
2480
  8
0
 62
     0
 10
101.2656903519232
 20
148.28687920731389
 30
0.0
 11
133.3906903519233
 21
148.2868792073138
 31
0.0
  0
LINE
  5
2481
  8
0
 62
     0
 10
101.2656903519232
 20
149.78687920731389
 30
0.0
 11
133.39069035192321
 21
149.7868792073138
 31
0.0
  0
LINE
  5
2482
  8
0
 62
     0
 10
101.2656903519232
 20
151.28687920731389
 30
0.0
 11
133.39069035192321
 21
151.2868792073138
 31
0.0
  0
LINE
  5
2483
  8
0
 62
     0
 10
101.2656903519232
 20
152.78687920731389
 30
0.0
 11
133.3906903519233
 21
152.7868792073138
 31
0.0
  0
LINE
  5
2484
  8
0
 62
     0
 10
101.2656903519232
 20
154.28687920731389
 30
0.0
 11
133.3906903519233
 21
154.2868792073138
 31
0.0
  0
LINE
  5
2485
  8
0
 62
     0
 10
101.2656903519232
 20
155.78687920731389
 30
0.0
 11
133.3906903519233
 21
155.7868792073138
 31
0.0
  0
LINE
  5
2486
  8
0
 62
     0
 10
101.2656903519232
 20
157.28687920731389
 30
0.0
 11
133.3906903519233
 21
157.2868792073138
 31
0.0
  0
LINE
  5
2487
  8
0
 62
     0
 10
101.2656903519233
 20
158.78687920731389
 30
0.0
 11
133.3906903519233
 21
158.7868792073138
 31
0.0
  0
ENDBLK
  5
2489
  8
0
  0
BLOCK
  8
0
  2
*X8
 70
     1
 10
0.0
 20
0.0
 30
0.0
  3
*X8
  1

  0
LINE
  5
248B
  8
0
 62
     0
 10
180.0757149921038
 20
113.03222920050089
 30
0.0
 11
181.8342714103054
 21
114.7907856187025
 31
0.0
  0
LINE
  5
248C
  8
0
 62
     0
 10
177.95439464854419
 20
113.03222920050101
 30
0.0
 11
181.8342714103054
 21
116.9121059622622
 31
0.0
  0
LINE
  5
248D
  8
0
 62
     0
 10
175.83307430498459
 20
113.03222920050101
 30
0.0
 11
181.8342714103054
 21
119.03342630582181
 31
0.0
  0
LINE
  5
248E
  8
0
 62
     0
 10
173.71175396142499
 20
113.03222920050111
 30
0.0
 11
181.21641118464939
 21
120.53688642372541
 31
0.0
  0
LINE
  5
248F
  8
0
 62
     0
 10
171.5904336178653
 20
113.03222920050111
 30
0.0
 11
179.09509084108981
 21
120.53688642372551
 31
0.0
  0
LINE
  5
2490
  8
0
 62
     0
 10
169.46911327430581
 20
113.03222920050111
 30
0.0
 11
176.97377049753021
 21
120.5368864237256
 31
0.0
  0
LINE
  5
2491
  8
0
 62
     0
 10
167.3477929307461
 20
113.03222920050111
 30
0.0
 11
174.85245015397041
 21
120.53688642372541
 31
0.0
  0
LINE
  5
2492
  8
0
 62
     0
 10
165.22647258718649
 20
113.03222920050111
 30
0.0
 11
172.73112981041081
 21
120.53688642372541
 31
0.0
  0
LINE
  5
2493
  8
0
 62
     0
 10
163.10515224362689
 20
113.03222920050111
 30
0.0
 11
170.6098094668512
 21
120.53688642372541
 31
0.0
  0
LINE
  5
2494
  8
0
 62
     0
 10
160.9838319000672
 20
113.03222920050111
 30
0.0
 11
168.48848912329129
 21
120.53688642372521
 31
0.0
  0
LINE
  5
2495
  8
0
 62
     0
 10
158.86251155650751
 20
113.03222920050111
 30
0.0
 11
166.3671687797316
 21
120.53688642372521
 31
0.0
  0
LINE
  5
2496
  8
0
 62
     0
 10
156.74119121294791
 20
113.03222920050111
 30
0.0
 11
164.245848436172
 21
120.53688642372521
 31
0.0
  0
LINE
  5
2497
  8
0
 62
     0
 10
154.61987086938831
 20
113.03222920050111
 30
0.0
 11
162.12452809261239
 21
120.53688642372521
 31
0.0
  0
LINE
  5
2498
  8
0
 62
     0
 10
152.49855052582859
 20
113.03222920050111
 30
0.0
 11
160.00320774905271
 21
120.53688642372521
 31
0.0
  0
LINE
  5
2499
  8
0
 62
     0
 10
150.37723018226899
 20
113.03222920050111
 30
0.0
 11
157.8818874054931
 21
120.53688642372521
 31
0.0
  0
LINE
  5
249A
  8
0
 62
     0
 10
148.25590983870941
 20
113.03222920050111
 30
0.0
 11
155.76056706193339
 21
120.53688642372521
 31
0.0
  0
LINE
  5
249B
  8
0
 62
     0
 10
146.1345894951497
 20
113.03222920050111
 30
0.0
 11
153.63924671837381
 21
120.53688642372521
 31
0.0
  0
LINE
  5
249C
  8
0
 62
     0
 10
144.01326915159001
 20
113.03222920050111
 30
0.0
 11
151.51792637481421
 21
120.53688642372521
 31
0.0
  0
LINE
  5
249D
  8
0
 62
     0
 10
141.89194880803041
 20
113.03222920050111
 30
0.0
 11
149.39660603125449
 21
120.53688642372521
 31
0.0
  0
LINE
  5
249E
  8
0
 62
     0
 10
139.77062846447069
 20
113.03222920050111
 30
0.0
 11
147.2752856876948
 21
120.53688642372521
 31
0.0
  0
LINE
  5
249F
  8
0
 62
     0
 10
139.3906903519233
 20
114.7736114315133
 30
0.0
 11
145.1539653441352
 21
120.53688642372521
 31
0.0
  0
LINE
  5
24A0
  8
0
 62
     0
 10
139.39069035192341
 20
116.8949317750731
 30
0.0
 11
143.0326450005756
 21
120.53688642372521
 31
0.0
  0
LINE
  5
24A1
  8
0
 62
     0
 10
139.3906903519235
 20
119.01625211863281
 30
0.0
 11
140.91132465701591
 21
120.53688642372521
 31
0.0
  0
LINE
  5
24A2
  8
0
 62
     0
 10
139.39069035192321
 20
113.3407315229307
 30
0.0
 11
139.69919267435279
 21
113.03222920050111
 31
0.0
  0
LINE
  5
24A3
  8
0
 62
     0
 10
139.3906903519233
 20
115.4620518664902
 30
0.0
 11
141.82051301791239
 21
113.03222920050111
 31
0.0
  0
LINE
  5
24A4
  8
0
 62
     0
 10
139.39069035192341
 20
117.5833722100498
 30
0.0
 11
143.94183336147211
 21
113.03222920050111
 31
0.0
  0
LINE
  5
24A5
  8
0
 62
     0
 10
139.3906903519235
 20
119.70469255360931
 30
0.0
 11
146.06315370503171
 21
113.03222920050111
 31
0.0
  0
LINE
  5
24A6
  8
0
 62
     0
 10
140.67981682536731
 20
120.53688642372509
 30
0.0
 11
148.1844740485914
 21
113.03222920050111
 31
0.0
  0
LINE
  5
24A7
  8
0
 62
     0
 10
142.80113716892691
 20
120.53688642372521
 30
0.0
 11
150.305794392151
 21
113.03222920050111
 31
0.0
  0
LINE
  5
24A8
  8
0
 62
     0
 10
144.9224575124866
 20
120.53688642372521
 30
0.0
 11
152.4271147357106
 21
113.03222920050111
 31
0.0
  0
LINE
  5
24A9
  8
0
 62
     0
 10
147.0437778560462
 20
120.53688642372521
 30
0.0
 11
154.54843507927029
 21
113.03222920050111
 31
0.0
  0
LINE
  5
24AA
  8
0
 62
     0
 10
149.16509819960589
 20
120.53688642372521
 30
0.0
 11
156.66975542282989
 21
113.03222920050111
 31
0.0
  0
LINE
  5
24AB
  8
0
 62
     0
 10
151.2864185431655
 20
120.53688642372521
 30
0.0
 11
158.7910757663895
 21
113.03222920050111
 31
0.0
  0
LINE
  5
24AC
  8
0
 62
     0
 10
153.4077388867251
 20
120.53688642372521
 30
0.0
 11
160.91239610994921
 21
113.03222920050111
 31
0.0
  0
LINE
  5
24AD
  8
0
 62
     0
 10
155.52905923028479
 20
120.53688642372521
 30
0.0
 11
163.0337164535089
 21
113.03222920050111
 31
0.0
  0
LINE
  5
24AE
  8
0
 62
     0
 10
157.65037957384439
 20
120.53688642372521
 30
0.0
 11
165.1550367970685
 21
113.03222920050111
 31
0.0
  0
LINE
  5
24AF
  8
0
 62
     0
 10
159.77169991740399
 20
120.53688642372521
 30
0.0
 11
167.27635714062811
 21
113.03222920050111
 31
0.0
  0
LINE
  5
24B0
  8
0
 62
     0
 10
161.89302026096371
 20
120.53688642372521
 30
0.0
 11
169.3976774841878
 21
113.03222920050111
 31
0.0
  0
LINE
  5
24B1
  8
0
 62
     0
 10
164.01434060452331
 20
120.53688642372521
 30
0.0
 11
171.5189978277474
 21
113.03222920050111
 31
0.0
  0
LINE
  5
24B2
  8
0
 62
     0
 10
166.135660948083
 20
120.53688642372509
 30
0.0
 11
173.64031817130709
 21
113.03222920050101
 31
0.0
  0
LINE
  5
24B3
  8
0
 62
     0
 10
168.2569812916426
 20
120.53688642372521
 30
0.0
 11
175.7616385148668
 21
113.03222920050101
 31
0.0
  0
LINE
  5
24B4
  8
0
 62
     0
 10
170.37830163520201
 20
120.53688642372541
 30
0.0
 11
177.88295885842649
 21
113.03222920050101
 31
0.0
  0
LINE
  5
24B5
  8
0
 62
     0
 10
172.4996219787617
 20
120.53688642372541
 30
0.0
 11
180.00427920198621
 21
113.03222920050089
 31
0.0
  0
LINE
  5
24B6
  8
0
 62
     0
 10
174.6209423223213
 20
120.53688642372541
 30
0.0
 11
181.8342714103054
 21
113.3235573357412
 31
0.0
  0
LINE
  5
24B7
  8
0
 62
     0
 10
176.74226266588079
 20
120.53688642372551
 30
0.0
 11
181.8342714103054
 21
115.4448776793009
 31
0.0
  0
LINE
  5
24B8
  8
0
 62
     0
 10
178.8635830094405
 20
120.53688642372551
 30
0.0
 11
181.8342714103054
 21
117.5661980228606
 31
0.0
  0
LINE
  5
24B9
  8
0
 62
     0
 10
180.98490335300019
 20
120.53688642372541
 30
0.0
 11
181.8342714103054
 21
119.68751836642021
 31
0.0
  0
ENDBLK
  5
24BB
  8
0
  0
BLOCK
  8
0
  2
*X9
 70
     1
 10
0.0
 20
0.0
 30
0.0
  3
*X9
  1

  0
LINE
  5
24BD
  8
0
 62
     0
 10
167.7973636263371
 20
153.78688642372521
 30
0.0
 11
169.39068962200719
 21
155.38021241939521
 31
0.0
  0
LINE
  5
24BE
  8
0
 62
     0
 10
165.67604328277741
 20
153.78688642372521
 30
0.0
 11
169.3906896220071
 21
157.50153276295481
 31
0.0
  0
LINE
  5
24BF
  8
0
 62
     0
 10
163.55472293921781
 20
153.78688642372521
 30
0.0
 11
169.39068962200719
 21
159.6228531065145
 31
0.0
  0
LINE
  5
24C0
  8
0
 62
     0
 10
161.43340259565821
 20
153.78688642372521
 30
0.0
 11
168.9484140560576
 21
161.30189788412449
 31
0.0
  0
LINE
  5
24C1
  8
0
 62
     0
 10
159.31208225209849
 20
153.78688642372521
 30
0.0
 11
166.82709371249791
 21
161.3018978841246
 31
0.0
  0
LINE
  5
24C2
  8
0
 62
     0
 10
157.19076190853889
 20
153.78688642372521
 30
0.0
 11
164.70577336893831
 21
161.3018978841246
 31
0.0
  0
LINE
  5
24C3
  8
0
 62
     0
 10
155.06944156497929
 20
153.78688642372521
 30
0.0
 11
162.58445302537859
 21
161.3018978841246
 31
0.0
  0
LINE
  5
24C4
  8
0
 62
     0
 10
152.9481212214196
 20
153.78688642372521
 30
0.0
 11
160.46313268181899
 21
161.30189788412449
 31
0.0
  0
LINE
  5
24C5
  8
0
 62
     0
 10
150.82680087785999
 20
153.78688642372521
 30
0.0
 11
158.34181233825939
 21
161.30189788412449
 31
0.0
  0
LINE
  5
24C6
  8
0
 62
     0
 10
148.70548053430031
 20
153.78688642372521
 30
0.0
 11
156.22049199469981
 21
161.3018978841246
 31
0.0
  0
LINE
  5
24C7
  8
0
 62
     0
 10
146.5841601907407
 20
153.78688642372521
 30
0.0
 11
154.0991716511401
 21
161.30189788412449
 31
0.0
  0
LINE
  5
24C8
  8
0
 62
     0
 10
144.46283984718099
 20
153.78688642372521
 30
0.0
 11
151.97785130758041
 21
161.3018978841246
 31
0.0
  0
LINE
  5
24C9
  8
0
 62
     0
 10
142.34151950362141
 20
153.78688642372521
 30
0.0
 11
149.85653096402081
 21
161.3018978841246
 31
0.0
  0
LINE
  5
24CA
  8
0
 62
     0
 10
140.22019916006181
 20
153.78688642372521
 30
0.0
 11
147.73521062046109
 21
161.3018978841246
 31
0.0
  0
LINE
  5
24CB
  8
0
 62
     0
 10
139.39069035192551
 20
155.0786979591486
 30
0.0
 11
145.61389027690149
 21
161.30189788412449
 31
0.0
  0
LINE
  5
24CC
  8
0
 62
     0
 10
139.39069035192551
 20
157.20001830270829
 30
0.0
 11
143.49256993334191
 21
161.3018978841246
 31
0.0
  0
LINE
  5
24CD
  8
0
 62
     0
 10
139.39069035192551
 20
159.32133864626789
 30
0.0
 11
141.3712495897822
 21
161.30189788412449
 31
0.0
  0
LINE
  5
24CE
  8
0
 62
     0
 10
139.3906903519256
 20
155.7671383941211
 30
0.0
 11
141.37094232232161
 21
153.78688642372509
 31
0.0
  0
LINE
  5
24CF
  8
0
 62
     0
 10
139.3906903519256
 20
157.88845873768079
 30
0.0
 11
143.49226266588121
 21
153.78688642372521
 31
0.0
  0
LINE
  5
24D0
  8
0
 62
     0
 10
139.3906903519256
 20
160.0097790812404
 30
0.0
 11
145.61358300944079
 21
153.78688642372521
 31
0.0
  0
LINE
  5
24D1
  8
0
 62
     0
 10
140.21989189260111
 20
161.30189788412449
 30
0.0
 11
147.73490335300039
 21
153.78688642372521
 31
0.0
  0
LINE
  5
24D2
  8
0
 62
     0
 10
142.34121223616069
 20
161.3018978841246
 30
0.0
 11
149.85622369656011
 21
153.78688642372521
 31
0.0
  0
LINE
  5
24D3
  8
0
 62
     0
 10
144.4625325797204
 20
161.30189788412449
 30
0.0
 11
151.97754404011971
 21
153.78688642372521
 31
0.0
  0
LINE
  5
24D4
  8
0
 62
     0
 10
146.58385292328001
 20
161.3018978841246
 30
0.0
 11
154.09886438367931
 21
153.78688642372521
 31
0.0
  0
LINE
  5
24D5
  8
0
 62
     0
 10
148.70517326683969
 20
161.30189788412449
 30
0.0
 11
156.220184727239
 21
153.78688642372521
 31
0.0
  0
LINE
  5
24D6
  8
0
 62
     0
 10
150.8264936103993
 20
161.30189788412449
 30
0.0
 11
158.3415050707986
 21
153.78688642372521
 31
0.0
  0
LINE
  5
24D7
  8
0
 62
     0
 10
152.9478139539589
 20
161.30189788412449
 30
0.0
 11
160.46282541435829
 21
153.78688642372521
 31
0.0
  0
LINE
  5
24D8
  8
0
 62
     0
 10
155.06913429751859
 20
161.30189788412449
 30
0.0
 11
162.5841457579179
 21
153.78688642372521
 31
0.0
  0
LINE
  5
24D9
  8
0
 62
     0
 10
157.19045464107819
 20
161.3018978841246
 30
0.0
 11
164.70546610147761
 21
153.78688642372521
 31
0.0
  0
LINE
  5
24DA
  8
0
 62
     0
 10
159.31177498463779
 20
161.30189788412449
 30
0.0
 11
166.82678644503719
 21
153.78688642372521
 31
0.0
  0
LINE
  5
24DB
  8
0
 62
     0
 10
161.43309532819751
 20
161.3018978841246
 30
0.0
 11
168.9481067885969
 21
153.78688642372521
 31
0.0
  0
LINE
  5
24DC
  8
0
 62
     0
 10
163.55441567175711
 20
161.30189788412449
 30
0.0
 11
169.3906896220071
 21
155.4656239338745
 31
0.0
  0
LINE
  5
24DD
  8
0
 62
     0
 10
165.67573601531669
 20
161.3018978841246
 30
0.0
 11
169.39068962200719
 21
157.58694427743421
 31
0.0
  0
LINE
  5
24DE
  8
0
 62
     0
 10
167.7970563588764
 20
161.3018978841246
 30
0.0
 11
169.39068962200719
 21
159.7082646209939
 31
0.0
  0
ENDBLK
  5
24E0
  8
0
  0
ENDSEC
  0
SECTION
  2
ENTITIES
  0
LINE
  5
3B4
  8
0
 10
144.51437390968039
 20
30.71024923266658
 30
0.0
 11
170.7817426788767
 21
7.7314473069114831
 31
0.0
  0
LINE
  5
3B8
  8
0
 10
181.83427141030529
 20
15.735002595187311
 30
0.0
 11
168.19836404845611
 21
47.860724850400473
 31
0.0
  0
ARC
  5
3BC
  8
0
 10
154.39069035192321
 20
41.999995621876707
 30
0.0
 40
14.999999999999989
 50
90.0
 51
228.8204325076108
1001
ACAD
1000
ASC_BOUNDS
1002
{
1070
    19
1005
778
1002
}
  0
ARC
  5
3BD
  8
0
 10
154.39069035192321
 20
41.999995621876707
 30
0.0
 40
14.99999999999998
 50
22.999013650744448
 51
90.0
1001
ACAD
1000
ASC_BOUNDS
1002
{
1070
    19
1005
778
1002
}
  0
ARC
  5
3BE
  8
0
 10
175.39069035192321
 20
12.99999562187622
 30
0.0
 40
6.9999999999999991
 50
228.82043250761069
 51
270.0
1001
ACAD
1000
ASC_BOUNDS
1002
{
1070
    19
1005
778
1002
}
  0
ARC
  5
3BF
  8
0
 10
175.39069035192321
 20
12.99999562187622
 30
0.0
 40
6.9999999999999938
 50
270.0
 51
22.99901365074443
1001
ACAD
1000
ASC_BOUNDS
1002
{
1070
    19
1005
778
1002
}
  0
LINE
  5
3C3
  8
0
 10
144.51437390968039
 20
30.710249232666239
 30
0.0
 11
170.7817426788767
 21
7.7314473069111429
 31
0.0
1001
ACAD
1000
ASC_BOUNDS
1002
{
1070
    19
1005
778
1002
}
  0
LINE
  5
3C7
  8
0
 10
181.83427141030529
 20
15.735002595186961
 30
0.0
 11
168.19836404845611
 21
47.860724850400111
 31
0.0
1001
ACAD
1000
ASC_BOUNDS
1002
{
1070
    19
1005
778
1002
}
  0
LINE
  5
3CF
  8
0
 10
135.01569035192321
 20
61.999995621876757
 30
0.0
 11
135.01569035192321
 21
5.9999956218783854
 31
0.0
  0
LINE
  5
3D0
  8
0
 10
99.640690351923183
 20
5.9999956218783854
 30
0.0
 11
99.640690351923183
 21
61.999995621876757
 31
0.0
  0
LINE
  5
3D1
  8
0
 10
135.01569035192321
 20
5.9999956218783854
 30
0.0
 11
99.640690351923183
 21
5.9999956218783854
 31
0.0
  0
LINE
  5
3D2
  8
0
 10
99.640690351923183
 20
61.999995621876757
 30
0.0
 11
135.01569035192321
 21
61.999995621876757
 31
0.0
  0
LINE
  5
3D3
  8
0
 10
138.01569035192321
 20
5.9999956218756312
 30
0.0
 11
154.39069035192321
 21
12.063233822294681
 31
0.0
  0
ARC
  5
3D4
  8
0
 10
151.39069035192341
 20
35.874995621876039
 30
0.0
 40
24.0
 50
277.18075578145829
 51
298.24546486686108
  0
ARC
  5
3D5
  8
0
 10
151.39069035192341
 20
35.874995621876039
 30
0.0
 40
24.000000000000011
 50
350.22165411406451
 51
116.9718973845703
  0
LINE
  5
3D6
  8
0
 10
140.50540823723139
 20
57.264493822711977
 30
0.0
 11
135.01569035192321
 21
49.999995621876018
 31
0.0
  0
LINE
  5
3D7
  8
0
 10
99.640690351923311
 20
-0.0000043781246172
 30
0.0
 11
99.640690351923183
 21
5.9999956218778001
 31
0.0
  0
LINE
  5
3D8
  8
0
 10
184.39069035192321
 20
5.9999956218789752
 30
0.0
 11
184.39069035192321
 21
-0.0000043781234457
 31
0.0
  0
LINE
  5
3D9
  8
0
 10
99.640690351923311
 20
-0.0000043781246172
 30
0.0
 11
184.39069035192321
 21
-0.0000043781234452
 31
0.0
  0
LINE
  5
3DA
  8
0
 10
184.39069035192321
 20
5.9999956218789752
 30
0.0
 11
99.640690351923183
 21
5.9999956218778001
 31
0.0
  0
ARC
  5
3DB
  8
0
 10
117.32819035192441
 20
43.999995621874803
 30
0.0
 40
8.2500000000000089
 50
179.9999999999998
 51
359.99999999999881
  0
ARC
  5
3DC
  8
0
 10
117.32819035192441
 20
43.999995621874803
 30
0.0
 40
8.2500000000000089
 50
359.9999999999996
 51
179.99999999999969
  0
ARC
  5
3DD
  8
0
 10
117.32819035192441
 20
43.999995621874803
 30
0.0
 40
7.6874999999999929
 50
0.0000000000007252
 51
180.0000000000002
  0
ARC
  5
3DE
  8
0
 10
117.32819035192441
 20
43.999995621874803
 30
0.0
 40
7.6874999999999929
 50
180.0000000000002
 51
0.0000000000000509
  0
LINE
  5
3DF
  8
0
 10
122.4506911259123
 20
41.558139773077428
 30
0.0
 11
122.2557506497219
 21
41.109231042918687
 31
0.0
  0
LINE
  5
3E0
  8
0
 10
122.2557506497219
 20
41.109231042918687
 30
0.0
 11
121.804857792579
 21
40.951988979426609
 31
0.0
  0
LINE
  5
3E1
  8
0
 10
121.804857792579
 20
40.951988979426609
 30
0.0
 11
121.48032902273761
 21
41.016225090537752
 31
0.0
  0
LINE
  5
3E2
  8
0
 10
121.48032902273761
 20
41.016225090537752
 30
0.0
 11
121.24483795130899
 21
41.20893342387108
 31
0.0
  0
LINE
  5
3E3
  8
0
 10
121.24483795130899
 20
41.20893342387108
 30
0.0
 11
121.05386572908679
 21
41.966869931807572
 31
0.0
  0
LINE
  5
3E4
  8
0
 10
121.05386572908679
 20
41.966869931807572
 30
0.0
 11
121.2378935068644
 21
42.730758820696472
 31
0.0
  0
LINE
  5
3E5
  8
0
 10
121.2378935068644
 20
42.730758820696472
 30
0.0
 11
121.4676802132139
 21
42.920490963553618
 31
0.0
  0
LINE
  5
3E6
  8
0
 10
121.4676802132139
 20
42.920490963553618
 30
0.0
 11
121.788984776706
 21
42.983735011172627
 31
0.0
  0
LINE
  5
3E7
  8
0
 10
121.788984776706
 20
42.983735011172627
 30
0.0
 11
122.25723874495991
 21
42.840381836569478
 31
0.0
  0
LINE
  5
3E8
  8
0
 10
122.25723874495991
 20
42.840381836569478
 30
0.0
 11
122.4506911259123
 21
42.415282630220283
 31
0.0
  0
LINE
  5
3E9
  8
0
 10
122.4506911259123
 20
42.415282630220283
 30
0.0
 11
123.5935482687694
 21
42.415282630220283
 31
0.0
  0
LINE
  5
3EA
  8
0
 10
123.5935482687694
 20
42.415282630220283
 30
0.0
 11
123.4333300148012
 21
43.062976082601217
 31
0.0
  0
LINE
  5
3EB
  8
0
 10
123.4333300148012
 20
43.062976082601217
 30
0.0
 11
123.0657704909915
 21
43.541770725458342
 31
0.0
  0
LINE
  5
3EC
  8
0
 10
123.0657704909915
 20
43.541770725458342
 30
0.0
 11
122.506742713214
 21
43.837529654029801
 31
0.0
  0
LINE
  5
3ED
  8
0
 10
122.506742713214
 20
43.837529654029801
 30
0.0
 11
121.7721196973409
 21
43.936115963553618
 31
0.0
  0
LINE
  5
3EE
  8
0
 10
121.7721196973409
 20
43.936115963553618
 30
0.0
 11
120.9741286259123
 21
43.804171519109182
 31
0.0
  0
LINE
  5
3EF
  8
0
 10
120.9741286259123
 20
43.804171519109182
 30
0.0
 11
120.3638855703566
 21
43.408338185775811
 31
0.0
  0
LINE
  5
3F0
  8
0
 10
120.3638855703566
 20
43.408338185775811
 30
0.0
 11
119.97660878464239
 21
42.78433024926791
 31
0.0
  0
LINE
  5
3F1
  8
0
 10
119.97660878464239
 20
42.78433024926791
 30
0.0
 11
119.84751652273749
 21
41.967861995299657
 31
0.0
  0
LINE
  5
3F2
  8
0
 10
119.84751652273749
 20
41.967861995299657
 30
0.0
 11
119.977228824325
 21
41.149533622283769
 31
0.0
  0
LINE
  5
3F3
  8
0
 10
119.977228824325
 20
41.149533622283769
 30
0.0
 11
120.36636572908679
 21
40.525897709585358
 31
0.0
  0
LINE
  5
3F4
  8
0
 10
120.36636572908679
 20
40.525897709585358
 30
0.0
 11
120.9816931100392
 21
40.131180447680592
 31
0.0
  0
LINE
  5
3F5
  8
0
 10
120.9816931100392
 20
40.131180447680592
 30
0.0
 11
121.78997684019799
 21
39.999608027045682
 31
0.0
  0
LINE
  5
3F6
  8
0
 10
121.78997684019799
 20
39.999608027045682
 30
0.0
 11
122.5130671179756
 21
40.101790566728212
 31
0.0
  0
LINE
  5
3F7
  8
0
 10
122.5130671179756
 20
40.101790566728212
 30
0.0
 11
123.0692427132139
 21
40.408338185775847
 31
0.0
  0
LINE
  5
3F8
  8
0
 10
123.0692427132139
 20
40.408338185775847
 30
0.0
 11
123.43667822908689
 21
40.900153661966321
 31
0.0
  0
LINE
  5
3F9
  8
0
 10
123.43667822908689
 20
40.900153661966321
 30
0.0
 11
123.5935482687694
 21
41.558139773077428
 31
0.0
  0
LINE
  5
3FA
  8
0
 10
123.5935482687694
 20
41.558139773077428
 30
0.0
 11
122.4506911259123
 21
41.558139773077428
 31
0.0
  0
LINE
  5
3FB
  8
0
 10
115.22896374814469
 20
42.332213962000601
 30
0.0
 11
116.406543113224
 21
42.332213962000601
 31
0.0
  0
LINE
  5
3FC
  8
0
 10
116.406543113224
 20
42.332213962000601
 30
0.0
 11
116.5533685100493
 21
42.840150469937129
 31
0.0
  0
LINE
  5
3FD
  8
0
 10
116.5533685100493
 20
42.840150469937129
 30
0.0
 11
117.75674152592229
 21
42.840150469937129
 31
0.0
  0
LINE
  5
3FE
  8
0
 10
117.75674152592229
 20
42.840150469937129
 30
0.0
 11
117.8986066052873
 21
42.332213962000601
 31
0.0
  0
LINE
  5
3FF
  8
0
 10
117.8986066052873
 20
42.332213962000601
 30
0.0
 11
119.1019796211606
 21
42.332213962000601
 31
0.0
  0
LINE
  5
400
  8
0
 10
119.1019796211606
 20
42.332213962000601
 30
0.0
 11
117.77261454179531
 21
46.141737771524433
 31
0.0
  0
LINE
  5
401
  8
0
 10
117.77261454179531
 20
46.141737771524433
 30
0.0
 11
116.54344787512881
 21
46.141737771524433
 31
0.0
  0
LINE
  5
402
  8
0
 10
116.54344787512881
 20
46.141737771524433
 30
0.0
 11
115.22896374814469
 21
42.332213962000601
 31
0.0
  0
LINE
  5
403
  8
0
 10
116.7736066052873
 20
43.665547295333958
 30
0.0
 11
117.15951930369999
 21
44.96911872390536
 31
0.0
  0
LINE
  5
404
  8
0
 10
117.15951930369999
 20
44.96911872390536
 30
0.0
 11
117.53650343068421
 21
43.665547295333958
 31
0.0
  0
LINE
  5
405
  8
0
 10
117.53650343068421
 20
43.665547295333958
 30
0.0
 11
116.7736066052873
 21
43.665547295333958
 31
0.0
  0
LINE
  5
406
  8
0
 10
111.4682325578831
 20
44.072602271180877
 30
0.0
 11
113.1676373197879
 21
44.072602271180877
 31
0.0
  0
LINE
  5
407
  8
0
 10
113.1676373197879
 20
44.072602271180877
 30
0.0
 11
113.935494462645
 21
44.111292747371358
 31
0.0
  0
LINE
  5
408
  8
0
 10
113.935494462645
 20
44.111292747371358
 30
0.0
 11
114.3481928753435
 21
44.243237191815822
 31
0.0
  0
LINE
  5
409
  8
0
 10
114.3481928753435
 20
44.243237191815822
 30
0.0
 11
114.7564270023276
 21
44.626173699752322
 31
0.0
  0
LINE
  5
40A
  8
0
 10
114.7564270023276
 20
44.626173699752322
 30
0.0
 11
114.8968039864546
 21
45.213475287053903
 31
0.0
  0
LINE
  5
40B
  8
0
 10
114.8968039864546
 20
45.213475287053903
 30
0.0
 11
114.7529547801055
 21
45.776471318799928
 31
0.0
  0
LINE
  5
40C
  8
0
 10
114.7529547801055
 20
45.776471318799928
 30
0.0
 11
114.3095023991529
 21
46.101372112450711
 31
0.0
  0
LINE
  5
40D
  8
0
 10
114.3095023991529
 20
46.101372112450711
 30
0.0
 11
114.65474049439101
 21
46.418832429911049
 31
0.0
  0
LINE
  5
40E
  8
0
 10
114.65474049439101
 20
46.418832429911049
 30
0.0
 11
114.7698198594705
 21
46.871213382291998
 31
0.0
  0
LINE
  5
40F
  8
0
 10
114.7698198594705
 20
46.871213382291998
 30
0.0
 11
114.6160500182006
 21
47.431233223561847
 31
0.0
  0
LINE
  5
410
  8
0
 10
114.6160500182006
 20
47.431233223561847
 30
0.0
 11
114.17358970074039
 21
47.771014969593587
 31
0.0
  0
LINE
  5
411
  8
0
 10
114.17358970074039
 20
47.771014969593587
 30
0.0
 11
113.7782523991529
 21
47.856332429911049
 31
0.0
  0
LINE
  5
412
  8
0
 10
113.7782523991529
 20
47.856332429911049
 30
0.0
 11
113.044621446772
 21
47.882126080704687
 31
0.0
  0
LINE
  5
413
  8
0
 10
113.044621446772
 20
47.882126080704687
 30
0.0
 11
111.4682325578831
 21
47.882126080704687
 31
0.0
  0
LINE
  5
414
  8
0
 10
111.4682325578831
 20
47.882126080704687
 30
0.0
 11
111.4682325578831
 21
44.072602271180877
 31
0.0
  0
LINE
  5
415
  8
0
 10
112.6745817642325
 20
44.96149116006977
 30
0.0
 11
112.6745817642325
 21
45.659903858482458
 31
0.0
  0
LINE
  5
416
  8
0
 10
112.6745817642325
 20
45.659903858482458
 30
0.0
 11
113.2231928753435
 21
45.659903858482458
 31
0.0
  0
LINE
  5
417
  8
0
 10
113.2231928753435
 20
45.659903858482458
 30
0.0
 11
113.6324190658196
 21
45.580538779117397
 31
0.0
  0
LINE
  5
418
  8
0
 10
113.6324190658196
 20
45.580538779117397
 30
0.0
 11
113.7539468435974
 21
45.313673699752307
 31
0.0
  0
LINE
  5
419
  8
0
 10
113.7539468435974
 20
45.313673699752307
 30
0.0
 11
113.6348992245498
 21
45.043832429911042
 31
0.0
  0
LINE
  5
41A
  8
0
 10
113.6348992245498
 20
45.043832429911042
 30
0.0
 11
113.2341055737563
 21
44.96149116006977
 31
0.0
  0
LINE
  5
41B
  8
0
 10
113.2341055737563
 20
44.96149116006977
 30
0.0
 11
112.6745817642325
 21
44.96149116006977
 31
0.0
  0
LINE
  5
41C
  8
0
 10
112.6745817642325
 20
46.358316556895169
 30
0.0
 11
112.6745817642325
 21
46.993237191815808
 31
0.0
  0
LINE
  5
41D
  8
0
 10
112.6745817642325
 20
46.993237191815808
 30
0.0
 11
113.00890716105781
 21
46.993237191815808
 31
0.0
  0
LINE
  5
41E
  8
0
 10
113.00890716105781
 20
46.993237191815808
 30
0.0
 11
113.51733970074039
 21
46.925776874355499
 31
0.0
  0
LINE
  5
41F
  8
0
 10
113.51733970074039
 20
46.925776874355499
 30
0.0
 11
113.62696271661341
 21
46.675776874355492
 31
0.0
  0
LINE
  5
420
  8
0
 10
113.62696271661341
 20
46.675776874355492
 30
0.0
 11
113.5247801769308
 21
46.430737191815822
 31
0.0
  0
LINE
  5
421
  8
0
 10
113.5247801769308
 20
46.430737191815822
 30
0.0
 11
113.1725976372484
 21
46.358316556895169
 31
0.0
  0
LINE
  5
422
  8
0
 10
113.1725976372484
 20
46.358316556895169
 30
0.0
 11
112.6745817642325
 21
46.358316556895169
 31
0.0
  0
ARC
  5
423
  8
0
 10
117.32819035192389
 20
43.99999562187547
 30
0.0
 40
9.0000000000000195
 50
179.9999999999998
 51
359.99999999999881
  0
ARC
  5
424
  8
0
 10
117.32819035192389
 20
43.99999562187547
 30
0.0
 40
9.0000000000000142
 50
359.9999999999996
 51
179.9999999999998
  0
LINE
  5
425
  8
0
 10
97.390690351923183
 20
1.5624956218761661
 30
0.0
 11
99.640690351923183
 21
1.5624956218761661
 31
0.0
  0
LINE
  5
426
  8
0
 10
99.640690351923183
 20
7.5624956218763311
 30
0.0
 11
97.390690351923183
 21
7.5624956218763311
 31
0.0
  0
LINE
  5
427
  8
0
 10
97.390690351923183
 20
46.999995621876309
 30
0.0
 11
99.640690351923183
 21
46.999995621876309
 31
0.0
  0
LINE
  5
428
  8
0
 10
99.640690351923183
 20
52.99999562187633
 30
0.0
 11
97.390690351923183
 21
52.99999562187633
 31
0.0
  0
LINE
  5
429
  8
0
 10
97.390690351923183
 20
4.562495742458327
 30
0.0
 11
97.390690351923183
 21
6.683815879708157
 31
0.0
  0
LINE
  5
42A
  8
0
 10
97.390690351923183
 20
6.6838159654359801
 30
0.0
 11
97.390690351923183
 21
7.1605717457244786
 31
0.0
  0
LINE
  5
42B
  8
0
 10
97.390690351923183
 20
7.1605718332296551
 30
0.0
 11
97.390690351923183
 21
7.4602731007435459
 31
0.0
  0
LINE
  5
42C
  8
0
 10
97.390690351923183
 20
7.4602732568571319
 30
0.0
 11
97.390690351923183
 21
7.5624956218763453
 31
0.0
  0
LINE
  5
42D
  8
0
 10
97.390690351923183
 20
1.5624956218763471
 30
0.0
 11
97.390690351923183
 21
1.664718105422557
 31
0.0
  0
LINE
  5
42E
  8
0
 10
97.390690351923183
 20
1.664718143009142
 30
0.0
 11
97.390690351923183
 21
1.964419393523158
 31
0.0
  0
LINE
  5
42F
  8
0
 10
97.390690351923183
 20
1.964419410523031
 30
0.0
 11
97.390690351923183
 21
2.441175251175284
 31
0.0
  0
LINE
  5
430
  8
0
 10
97.390690351923183
 20
2.4411752783166998
 30
0.0
 11
97.390690351923183
 21
3.7860384286848681
 31
0.0
  0
LINE
  5
431
  8
0
 10
97.390690351923183
 20
3.7860384865687791
 30
0.0
 11
97.390690351923183
 21
4.5624956218763364
 31
0.0
  0
LINE
  5
432
  8
0
 10
97.390690351923183
 20
49.99999755118823
 30
0.0
 11
97.390690351923183
 21
51.499995621876309
 31
0.0
  0
LINE
  5
433
  8
0
 10
97.390690351923183
 20
51.499997709897443
 30
0.0
 11
97.390690351923183
 21
52.121314601060703
 31
0.0
  0
LINE
  5
434
  8
0
 10
97.390690351923183
 20
52.121315965435969
 30
0.0
 11
97.390690351923183
 21
52.59806997827522
 31
0.0
  0
LINE
  5
435
  8
0
 10
97.390690351923183
 20
52.59807183322966
 30
0.0
 11
97.390690351923183
 21
52.897773100743528
 31
0.0
  0
LINE
  5
436
  8
0
 10
97.390690351923183
 20
52.897773256857107
 30
0.0
 11
97.390690351923183
 21
52.99999562187633
 31
0.0
  0
LINE
  5
437
  8
0
 10
97.390690351923183
 20
46.999995621876309
 30
0.0
 11
97.390690351923183
 21
47.102214194048017
 31
0.0
  0
LINE
  5
438
  8
0
 10
97.390690351923183
 20
47.102218143009097
 30
0.0
 11
97.390690351923183
 21
47.401919410523021
 31
0.0
  0
LINE
  5
439
  8
0
 10
97.390690351923183
 20
47.401919694411141
 30
0.0
 11
97.390690351923183
 21
47.878674834584046
 31
0.0
  0
LINE
  5
43A
  8
0
 10
97.390690351923183
 20
47.878675278316713
 30
0.0
 11
97.390690351923183
 21
49.999995621876323
 31
0.0
  0
ARC
  5
43B
  8
0
 10
108.2656903519235
 20
19.99999562187622
 30
0.0
 40
0.5000000000000036
 50
0.0
 51
180.0
  0
ARC
  5
43C
  8
0
 10
108.2656903519235
 20
19.99999562187622
 30
0.0
 40
0.5000000000000056
 50
180.0000000000002
 51
359.99999999999937
  0
ARC
  5
43D
  8
0
 10
107.2656903519233
 20
11.62499562187622
 30
0.0
 40
1.0
 50
359.9999999999992
 51
179.9999999999994
  0
ARC
  5
43E
  8
0
 10
107.2656903519233
 20
11.62499562187622
 30
0.0
 40
1.0000000000000011
 50
180.00000000000011
 51
359.9999999999992
  0
ARC
  5
43F
  8
0
 10
127.3906903519235
 20
2.6249956218762232
 30
0.0
 40
1.0000000000000011
 50
359.9999999999992
 51
179.9999999999994
  0
ARC
  5
440
  8
0
 10
127.3906903519235
 20
2.6249956218762232
 30
0.0
 40
0.9999999999999992
 50
180.0000000000004
 51
359.99999999999949
  0
CIRCLE
  5
44C
  8
0
 10
119.2031903519235
 20
19.87499562187622
 30
0.0
 40
8.4999999999999876
  0
LINE
  5
44F
  8
0
 10
233.10224973872559
 20
15.71170713663841
 30
0.0
 11
233.10224973872559
 21
15.735002595187311
 31
0.0
  0
LINE
  5
450
  8
0
 10
233.10224973872559
 20
15.735002595187311
 30
0.0
 11
233.1022518280418
 21
56.999996338286422
 31
0.0
  0
LINE
  5
451
  8
0
 10
240.60690696195019
 20
31.80273942369638
 30
0.0
 11
240.6069069619501
 21
15.735002595187289
 31
0.0
  0
LINE
  5
452
  8
0
 10
240.6069069619501
 20
15.7350025951873
 30
0.0
 11
240.6069069619501
 21
15.71170713663842
 31
0.0
  0
LINE
  5
454
  8
0
 10
240.60690696195019
 20
56.999996338286422
 30
0.0
 11
233.1022518280418
 21
56.999996338286422
 31
0.0
  0
LINE
  5
455
  8
0
 10
281.37191842234938
 20
41.99999562187665
 30
0.0
 11
281.37191842234938
 21
39.395272956872716
 31
0.0
  0
LINE
  5
456
  8
0
 10
281.37191842234938
 20
39.395271665143312
 30
0.0
 11
281.37191842234938
 21
36.869693471991631
 31
0.0
  0
LINE
  5
457
  8
0
 10
281.37191842234938
 20
36.869692191960148
 30
0.0
 11
281.37191842234938
 21
30.509329209302081
 31
0.0
  0
LINE
  5
458
  8
0
 10
281.37191842234938
 20
30.509328975091989
 30
0.0
 11
281.37191842234938
 21
27.90460631008802
 31
0.0
  0
LINE
  5
459
  8
0
 10
281.37191842234938
 20
27.904604976312651
 30
0.0
 11
281.37191842234938
 21
27.227879326693522
 31
0.0
  0
LINE
  5
45A
  8
0
 10
281.37191842234938
 20
27.227878596774708
 30
0.0
 11
281.37191842234938
 21
26.999995621876621
 31
0.0
  0
LINE
  5
45B
  8
0
 10
281.37191842234938
 20
56.9999956218766
 30
0.0
 11
281.37191842234938
 21
56.772111917059711
 31
0.0
  0
LINE
  5
45C
  8
0
 10
281.37191842234938
 20
56.772110240881617
 30
0.0
 11
281.37191842234938
 21
56.095386267439501
 31
0.0
  0
LINE
  5
45D
  8
0
 10
281.37191842234938
 20
56.095384933665251
 30
0.0
 11
281.37191842234938
 21
54.99037915615407
 31
0.0
  0
LINE
  5
45E
  8
0
 10
281.37191842234938
 20
54.990376678643209
 30
0.0
 11
281.37191842234938
 21
53.49066519024904
 31
0.0
  0
LINE
  5
45F
  8
0
 10
281.37191842234938
 20
53.490662268661289
 30
0.0
 11
281.37191842234938
 21
47.130299051792143
 31
0.0
  0
LINE
  5
460
  8
0
 10
281.37191842234938
 20
47.130297771761668
 30
0.0
 11
281.37191842234938
 21
44.604719578609128
 31
0.0
  0
LINE
  5
461
  8
0
 10
281.37191842234938
 20
44.60471828688059
 30
0.0
 11
281.37191842234938
 21
41.99999562187665
 31
0.0
  0
LINE
  5
462
  8
0
 10
254.6069069619505
 20
15.99999562187633
 30
0.0
 11
240.6069069619501
 21
15.99999562187633
 31
0.0
  0
LINE
  5
463
  8
0
 10
240.60690696195019
 20
5.9999956218763151
 30
0.0
 11
240.60690696195019
 21
6.1703664904309692
 31
0.0
  0
LINE
  5
464
  8
0
 10
254.6069069619505
 20
15.99999562187628
 30
0.0
 11
254.6069069619505
 21
15.82962532958433
 31
0.0
  0
LINE
  5
465
  8
0
 10
254.6069069619505
 20
15.82962475332163
 30
0.0
 11
254.6069069619505
 21
15.33012355426491
 31
0.0
  0
LINE
  5
466
  8
0
 10
254.6069069619505
 20
15.330122640798489
 30
0.0
 11
254.6069069619505
 21
14.535530082211681
 31
0.0
  0
LINE
  5
467
  8
0
 10
254.6069069619505
 20
14.53552952780904
 30
0.0
 11
254.6069069619505
 21
12.294090847388921
 31
0.0
  0
LINE
  5
468
  8
0
 10
254.6069069619505
 20
12.29409019962319
 30
0.0
 11
254.6069069619505
 21
10.99999586304015
 31
0.0
  0
LINE
  5
469
  8
0
 10
254.6069069619505
 20
10.99999562187632
 30
0.0
 11
254.6069069619501
 21
9.7059003963637185
 31
0.0
  0
LINE
  5
46A
  8
0
 10
254.6069069619501
 20
9.7059000915721594
 30
0.0
 11
254.6069069619501
 21
8.4999956218763142
 31
0.0
  0
LINE
  5
46B
  8
0
 10
254.6069069619501
 20
8.4999953608734664
 30
0.0
 11
254.6069069619501
 21
6.6698686029541152
 31
0.0
  0
LINE
  5
46C
  8
0
 10
254.6069069619501
 20
6.669868314287922
 30
0.0
 11
254.6069069619505
 21
5.9999956218762946
 31
0.0
  0
LINE
  5
472
  8
0
 10
233.10224973872559
 20
5.999995621876228
 30
0.0
 11
233.10224973872559
 21
6.2385147896607771
 31
0.0
  0
LINE
  5
473
  8
0
 10
233.10224973872559
 20
6.2385148378527511
 30
0.0
 11
233.10224973872559
 21
6.9378173912525591
 31
0.0
  0
LINE
  5
474
  8
0
 10
233.10224973872559
 20
6.937817795385155
 30
0.0
 11
233.10224973872559
 21
8.05024815357039
 31
0.0
  0
LINE
  5
475
  8
0
 10
233.10224973872559
 20
8.0502482825656116
 30
0.0
 11
233.10224973872559
 21
9.4999956218762236
 31
0.0
  0
LINE
  5
476
  8
0
 10
233.10224973872559
 20
9.4999958460043263
 30
0.0
 11
233.10224973872559
 21
11.18826230615857
 31
0.0
  0
LINE
  5
477
  8
0
 10
233.10224973872559
 20
11.188262607369589
 30
0.0
 11
233.10224973872559
 21
12.999995621876201
 31
0.0
  0
LINE
  5
478
  8
0
 10
233.10224973872559
 20
12.99999610420419
 30
0.0
 11
233.10224973872559
 21
14.811728869329359
 31
0.0
  0
LINE
  5
479
  8
0
 10
233.10224973872559
 20
14.811728937593861
 30
0.0
 11
233.10224973872559
 21
15.73468310272542
 31
0.0
  0
LINE
  5
47A
  8
0
 10
240.6069069619501
 20
15.734683102725461
 30
0.0
 11
240.6069069619501
 21
14.811728937593889
 31
0.0
  0
LINE
  5
47B
  8
0
 10
240.6069069619501
 20
14.8117288693294
 30
0.0
 11
240.6069069619501
 21
12.99999610420422
 31
0.0
  0
LINE
  5
47C
  8
0
 10
240.6069069619501
 20
12.99999562187625
 30
0.0
 11
240.6069069619501
 21
11.18826260736976
 31
0.0
  0
LINE
  5
47D
  8
0
 10
240.6069069619501
 20
11.188262306158601
 30
0.0
 11
240.6069069619501
 21
9.4999958460043512
 31
0.0
  0
LINE
  5
47E
  8
0
 10
240.6069069619501
 20
9.4999956218762502
 30
0.0
 11
240.60690696195019
 21
8.0502482825656312
 31
0.0
  0
LINE
  5
47F
  8
0
 10
240.60690696195019
 20
8.0502481535704113
 30
0.0
 11
240.60690696195019
 21
6.9378177953851621
 31
0.0
  0
LINE
  5
480
  8
0
 10
240.60690696195019
 20
6.937817391252568
 30
0.0
 11
240.6069069619501
 21
6.2385148378527484
 31
0.0
  0
LINE
  5
481
  8
0
 10
240.6069069619501
 20
6.2385147896607762
 30
0.0
 11
240.60690696195019
 21
5.9999956218762147
 31
0.0
  0
LINE
  5
484
  8
0
 10
233.1022497387257
 20
15.711707136638109
 30
0.0
 11
233.1022497387257
 21
15.73500259518697
 31
0.0
  0
LINE
  5
485
  8
0
 10
233.1022497387257
 20
15.735002595186961
 30
0.0
 11
233.1022518280418
 21
56.999996338286067
 31
0.0
1001
ACAD
1000
ASC_BOUNDS
1002
{
1070
    19
1005
7F8
1002
}
  0
LINE
  5
486
  8
0
 10
240.60690696195019
 20
31.802739423696138
 30
0.0
 11
240.60690696195019
 21
15.73500259518695
 31
0.0
1001
ACAD
1000
ASC_BOUNDS
1002
{
1070
    19
1005
7F8
1002
}
  0
LINE
  5
487
  8
0
 10
240.60690696195019
 20
15.735002595186961
 30
0.0
 11
240.60690696195019
 21
15.711707136638109
 31
0.0
1001
ACAD
1000
ASC_BOUNDS
1002
{
1070
    19
1005
7F8
1002
}
  0
LINE
  5
489
  8
0
 10
240.6069069619501
 20
56.999996338286067
 30
0.0
 11
233.1022518280418
 21
56.999996338286067
 31
0.0
1001
ACAD
1000
ASC_BOUNDS
1002
{
1070
    19
1005
7F8
1002
}
  0
LINE
  5
48A
  8
0
 10
281.37191842234961
 20
41.999995621876302
 30
0.0
 11
281.37191842234961
 21
39.395272956872368
 31
0.0
1001
ACAD
1000
ASC_BOUNDS
1002
{
1070
    19
1005
7F8
1002
}
  0
LINE
  5
48B
  8
0
 10
281.37191842234961
 20
39.395271665143262
 30
0.0
 11
281.37191842234961
 21
36.869693471991312
 31
0.0
1001
ACAD
1000
ASC_BOUNDS
1002
{
1070
    19
1005
7F8
1002
}
  0
LINE
  5
48C
  8
0
 10
281.37191842234961
 20
36.869692191960077
 30
0.0
 11
281.37191842234961
 21
30.509329209302152
 31
0.0
1001
ACAD
1000
ASC_BOUNDS
1002
{
1070
    19
1005
7F8
1002
}
  0
LINE
  5
48D
  8
0
 10
281.37191842234961
 20
30.509328975091648
 30
0.0
 11
281.37191842234961
 21
27.904606310087679
 31
0.0
1001
ACAD
1000
ASC_BOUNDS
1002
{
1070
    19
1005
7F8
1002
}
  0
LINE
  5
48E
  8
0
 10
281.37191842234961
 20
27.904604976312669
 30
0.0
 11
281.37191842234961
 21
27.227879326693181
 31
0.0
1001
ACAD
1000
ASC_BOUNDS
1002
{
1070
    19
1005
7F8
1002
}
  0
LINE
  5
48F
  8
0
 10
281.37191842234961
 20
27.227878596774939
 30
0.0
 11
281.37191842234961
 21
26.99999562187628
 31
0.0
1001
ACAD
1000
ASC_BOUNDS
1002
{
1070
    19
1005
7F8
1002
}
  0
LINE
  5
490
  8
0
 10
281.37191842234961
 20
56.9999956218767
 30
0.0
 11
281.37191842234961
 21
56.772111917059391
 31
0.0
1001
ACAD
1000
ASC_BOUNDS
1002
{
1070
    19
1005
7F8
1002
}
  0
LINE
  5
491
  8
0
 10
281.37191842234961
 20
56.772110240881567
 30
0.0
 11
281.37191842234961
 21
56.095386267439721
 31
0.0
1001
ACAD
1000
ASC_BOUNDS
1002
{
1070
    19
1005
7F8
1002
}
  0
LINE
  5
492
  8
0
 10
281.37191842234961
 20
56.095384933664889
 30
0.0
 11
281.37191842234961
 21
54.99037915615407
 31
0.0
1001
ACAD
1000
ASC_BOUNDS
1002
{
1070
    19
1005
7F8
1002
}
  0
LINE
  5
493
  8
0
 10
281.37191842234961
 20
54.99037667864286
 30
0.0
 11
281.37191842234961
 21
53.490665190249189
 31
0.0
1001
ACAD
1000
ASC_BOUNDS
1002
{
1070
    19
1005
7F8
1002
}
  0
LINE
  5
494
  8
0
 10
281.37191842234961
 20
53.490662268660962
 30
0.0
 11
281.37191842234961
 21
47.13029905179225
 31
0.0
1001
ACAD
1000
ASC_BOUNDS
1002
{
1070
    19
1005
7F8
1002
}
  0
LINE
  5
495
  8
0
 10
281.37191842234961
 20
47.130297771761327
 30
0.0
 11
281.37191842234961
 21
44.604719578609057
 31
0.0
1001
ACAD
1000
ASC_BOUNDS
1002
{
1070
    19
1005
7F8
1002
}
  0
LINE
  5
496
  8
0
 10
281.37191842234961
 20
44.604718286880249
 30
0.0
 11
281.37191842234961
 21
41.999995621876302
 31
0.0
1001
ACAD
1000
ASC_BOUNDS
1002
{
1070
    19
1005
7F8
1002
}
  0
LINE
  5
497
  8
0
 10
254.60690696195081
 20
15.99999562187582
 30
0.0
 11
240.6069069619501
 21
15.99999562187582
 31
0.0
  0
LINE
  5
498
  8
0
 10
240.60690696195019
 20
5.999995621875974
 30
0.0
 11
240.60690696195019
 21
6.1703664904306299
 31
0.0
  0
LINE
  5
499
  8
0
 10
254.6069069619505
 20
15.99999562187595
 30
0.0
 11
254.6069069619505
 21
15.82962532958485
 31
0.0
  0
LINE
  5
49A
  8
0
 10
254.6069069619505
 20
15.829624753321291
 30
0.0
 11
254.6069069619505
 21
15.330123554264951
 31
0.0
  0
LINE
  5
49B
  8
0
 10
254.6069069619505
 20
15.33012264079815
 30
0.0
 11
254.6069069619505
 21
14.53553008221167
 31
0.0
  0
LINE
  5
49C
  8
0
 10
254.6069069619505
 20
14.5355295278087
 30
0.0
 11
254.6069069619505
 21
12.294090847388579
 31
0.0
  0
LINE
  5
49D
  8
0
 10
254.6069069619505
 20
12.29409019962312
 30
0.0
 11
254.6069069619505
 21
10.999995863040249
 31
0.0
  0
LINE
  5
49E
  8
0
 10
254.6069069619505
 20
10.99999562187597
 30
0.0
 11
254.6069069619505
 21
9.7059003963633756
 31
0.0
  0
LINE
  5
49F
  8
0
 10
254.6069069619505
 20
9.7059000915721203
 30
0.0
 11
254.6069069619505
 21
8.4999956218759785
 31
0.0
  0
LINE
  5
4A0
  8
0
 10
254.6069069619505
 20
8.4999953608734398
 30
0.0
 11
254.6069069619505
 21
6.6698686029537724
 31
0.0
  0
LINE
  5
4A1
  8
0
 10
254.6069069619505
 20
6.669868314287954
 30
0.0
 11
254.6069069619505
 21
5.99999562187595
 31
0.0
  0
LINE
  5
4A7
  8
0
 10
233.1022497387257
 20
5.999995621875887
 30
0.0
 11
233.1022497387257
 21
6.2385147896610071
 31
0.0
1001
ACAD
1000
ASC_BOUNDS
1002
{
1070
    19
1005
7F8
1002
}
  0
LINE
  5
4A8
  8
0
 10
233.1022497387257
 20
6.23851483785241
 30
0.0
 11
233.1022497387257
 21
6.937817391252783
 31
0.0
1001
ACAD
1000
ASC_BOUNDS
1002
{
1070
    19
1005
7F8
1002
}
  0
LINE
  5
4A9
  8
0
 10
233.1022497387257
 20
6.9378177953848121
 30
0.0
 11
233.1022497387257
 21
8.0502481535700472
 31
0.0
1001
ACAD
1000
ASC_BOUNDS
1002
{
1070
    19
1005
7F8
1002
}
  0
LINE
  5
4AA
  8
0
 10
233.1022497387257
 20
8.0502482825655264
 30
0.0
 11
233.1022497387257
 21
9.4999956218758808
 31
0.0
1001
ACAD
1000
ASC_BOUNDS
1002
{
1070
    19
1005
7F8
1002
}
  0
LINE
  5
4AB
  8
0
 10
233.1022497387257
 20
9.4999958460042482
 30
0.0
 11
233.1022497387257
 21
11.18826230615822
 31
0.0
1001
ACAD
1000
ASC_BOUNDS
1002
{
1070
    19
1005
7F8
1002
}
  0
LINE
  5
4AC
  8
0
 10
233.1022497387257
 20
11.188262607369669
 30
0.0
 11
233.1022497387257
 21
12.99999562187587
 31
0.0
1001
ACAD
1000
ASC_BOUNDS
1002
{
1070
    19
1005
7F8
1002
}
  0
LINE
  5
4AD
  8
0
 10
233.1022497387257
 20
12.99999610420428
 30
0.0
 11
233.1022497387257
 21
14.811728869329309
 31
0.0
1001
ACAD
1000
ASC_BOUNDS
1002
{
1070
    19
1005
7F8
1002
}
  0
LINE
  5
4AE
  8
0
 10
233.1022497387257
 20
14.81172893759352
 30
0.0
 11
233.1022497387257
 21
15.734683102725331
 31
0.0
1001
ACAD
1000
ASC_BOUNDS
1002
{
1070
    19
1005
7F8
1002
}
  0
LINE
  5
4AF
  8
0
 10
240.60690696195019
 20
15.734683102725381
 30
0.0
 11
240.60690696195019
 21
14.81172893759355
 31
0.0
1001
ACAD
1000
ASC_BOUNDS
1002
{
1070
    19
1005
7F8
1002
}
  0
LINE
  5
4B0
  8
0
 10
240.60690696195019
 20
14.811728869329331
 30
0.0
 11
240.60690696195019
 21
12.999996104204319
 31
0.0
1001
ACAD
1000
ASC_BOUNDS
1002
{
1070
    19
1005
7F8
1002
}
  0
LINE
  5
4B1
  8
0
 10
240.60690696195019
 20
12.9999956218759
 30
0.0
 11
240.60690696195019
 21
11.188262607369699
 31
0.0
1001
ACAD
1000
ASC_BOUNDS
1002
{
1070
    19
1005
7F8
1002
}
  0
LINE
  5
4B2
  8
0
 10
240.60690696195019
 20
11.18826230615826
 30
0.0
 11
240.60690696195019
 21
9.4999958460042784
 31
0.0
1001
ACAD
1000
ASC_BOUNDS
1002
{
1070
    19
1005
7F8
1002
}
  0
LINE
  5
4B3
  8
0
 10
240.60690696195019
 20
9.4999956218759074
 30
0.0
 11
240.60690696195019
 21
8.0502482825655388
 31
0.0
1001
ACAD
1000
ASC_BOUNDS
1002
{
1070
    19
1005
7F8
1002
}
  0
LINE
  5
4B4
  8
0
 10
240.60690696195019
 20
8.0502481535700703
 30
0.0
 11
240.60690696195019
 21
6.937817795384821
 31
0.0
1001
ACAD
1000
ASC_BOUNDS
1002
{
1070
    19
1005
7F8
1002
}
  0
LINE
  5
4B5
  8
0
 10
240.60690696195019
 20
6.937817391252791
 30
0.0
 11
240.60690696195019
 21
6.2385148378524073
 31
0.0
1001
ACAD
1000
ASC_BOUNDS
1002
{
1070
    19
1005
7F8
1002
}
  0
LINE
  5
4B6
  8
0
 10
240.60690696195019
 20
6.2385147896612914
 30
0.0
 11
240.60690696195019
 21
5.9999956218758754
 31
0.0
1001
ACAD
1000
ASC_BOUNDS
1002
{
1070
    19
1005
7F8
1002
}
  0
LINE
  5
4B7
  8
0
 10
281.8569069619507
 20
5.9999956218783854
 30
0.0
 11
281.8569069619507
 21
61.999995621876757
 31
0.0
  0
LINE
  5
4B8
  8
0
 10
281.8569069619507
 20
61.999995621876757
 30
0.0
 11
232.6069069619509
 21
61.999995621876757
 31
0.0
  0
LINE
  5
4B9
  8
0
 10
232.6069069619509
 20
61.999995621876757
 30
0.0
 11
232.6069069619509
 21
5.9999956218783854
 31
0.0
  0
LINE
  5
4BA
  8
0
 10
273.85690696195007
 20
59.87499562187633
 30
0.0
 11
240.6069069619501
 21
59.874995621875968
 31
0.0
  0
LINE
  5
4BB
  8
0
 10
240.60690696195019
 20
31.798906030523689
 30
0.0
 11
240.60690696195019
 21
34.659597779518322
 31
0.0
1001
ACAD
1000
ASC_BOUNDS
1002
{
1070
    19
1005
7F8
1002
}
  0
LINE
  5
4BC
  8
0
 10
240.60690696195019
 20
34.659598899176011
 30
0.0
 11
240.60690696195019
 21
38.003810069481133
 31
0.0
1001
ACAD
1000
ASC_BOUNDS
1002
{
1070
    19
1005
7F8
1002
}
  0
LINE
  5
4BD
  8
0
 10
240.60690696195019
 20
38.003810321520902
 30
0.0
 11
240.60690696195019
 21
44.50403413652797
 31
0.0
1001
ACAD
1000
ASC_BOUNDS
1002
{
1070
    19
1005
7F8
1002
}
  0
LINE
  5
4BE
  8
0
 10
240.60690696195019
 20
44.504034441784263
 30
0.0
 11
240.6069069619501
 21
56.9999956218767
 31
0.0
1001
ACAD
1000
ASC_BOUNDS
1002
{
1070
    19
1005
7F8
1002
}
  0
LINE
  5
4BF
  8
0
 10
240.6069069619501
 20
56.999996338286067
 30
0.0
 11
240.6069069619501
 21
59.803300472759382
 31
0.0
  0
LINE
  5
4C0
  8
0
 10
240.6069069619501
 20
59.803301010496803
 30
0.0
 11
240.6069069619501
 21
52.859499264442739
 31
0.0
  0
LINE
  5
4C1
  8
0
 10
240.6069069619501
 20
52.859500404808372
 30
0.0
 11
240.6069069619501
 21
55.052005381181097
 31
0.0
  0
LINE
  5
4C2
  8
0
 10
240.6069069619501
 20
55.052007361102973
 30
0.0
 11
240.6069069619501
 21
59.261164509904319
 31
0.0
  0
LINE
  5
4C3
  8
0
 10
240.6069069619501
 20
59.261165295067727
 30
0.0
 11
240.60690696195019
 21
59.783862301781092
 31
0.0
  0
LINE
  5
4C4
  8
0
 10
240.60690696195019
 20
59.783862707193848
 30
0.0
 11
240.60690696195019
 21
59.84217105786076
 31
0.0
  0
LINE
  5
4C5
  8
0
 10
273.85690696195007
 20
59.842171057861073
 30
0.0
 11
273.85690696195007
 21
59.783862707193641
 31
0.0
  0
LINE
  5
4C6
  8
0
 10
273.85690696195007
 20
59.783862301781447
 30
0.0
 11
273.85690696195007
 21
59.261165295067677
 31
0.0
  0
LINE
  5
4C7
  8
0
 10
273.85690696195007
 20
59.261164509904702
 30
0.0
 11
273.85690696195007
 21
55.052007361103414
 31
0.0
1001
ACAD
1000
ASC_BOUNDS
1002
{
1070
    19
1005
7F8
1002
}
  0
LINE
  5
4C8
  8
0
 10
273.85690696195007
 20
55.05200538118126
 30
0.0
 11
273.85690696195007
 21
52.859500404808337
 31
0.0
1001
ACAD
1000
ASC_BOUNDS
1002
{
1070
    19
1005
7F8
1002
}
  0
LINE
  5
4C9
  8
0
 10
273.85690696195007
 20
52.85949926444318
 30
0.0
 11
273.85690696195007
 21
50.337096634554889
 31
0.0
1001
ACAD
1000
ASC_BOUNDS
1002
{
1070
    19
1005
7F8
1002
}
  0
LINE
  5
4CA
  8
0
 10
273.85690696195007
 20
50.337096096817781
 30
0.0
 11
273.85690696195007
 21
47.533791962344182
 31
0.0
1001
ACAD
1000
ASC_BOUNDS
1002
{
1070
    19
1005
7F8
1002
}
  0
LINE
  5
4CB
  8
0
 10
273.85690696195007
 20
47.533791245935099
 30
0.0
 11
273.85690696195047
 21
44.50403444178442
 31
0.0
1001
ACAD
1000
ASC_BOUNDS
1002
{
1070
    19
1005
7F8
1002
}
  0
LINE
  5
4CC
  8
0
 10
273.85690696195047
 20
44.504034136528453
 30
0.0
 11
273.85690696195047
 21
38.003810321520973
 31
0.0
1001
ACAD
1000
ASC_BOUNDS
1002
{
1070
    19
1005
7F8
1002
}
  0
LINE
  5
4CD
  8
0
 10
273.85690696195047
 20
38.003810069481617
 30
0.0
 11
273.85690696195047
 21
34.659598899176501
 31
0.0
1001
ACAD
1000
ASC_BOUNDS
1002
{
1070
    19
1005
7F8
1002
}
  0
LINE
  5
4CE
  8
0
 10
273.85690696195047
 20
34.659597779518549
 30
0.0
 11
273.85690696195047
 21
31.338994741270682
 31
0.0
1001
ACAD
1000
ASC_BOUNDS
1002
{
1070
    19
1005
7F8
1002
}
  0
LINE
  5
4CF
  8
0
 10
273.85690696195047
 20
31.33899441093503
 30
0.0
 11
273.85690696195047
 21
28.106494678950849
 31
0.0
1001
ACAD
1000
ASC_BOUNDS
1002
{
1070
    19
1005
7F8
1002
}
  0
LINE
  5
4D0
  8
0
 10
273.85690696195047
 20
28.106493350517301
 30
0.0
 11
273.85690696195047
 21
19.54966069657582
 31
0.0
1001
ACAD
1000
ASC_BOUNDS
1002
{
1070
    19
1005
7F8
1002
}
  0
LINE
  5
4D1
  8
0
 10
273.85690696195047
 20
19.549660077227301
 30
0.0
 11
273.85690696195047
 21
17.262393927953099
 31
0.0
  0
LINE
  5
4D2
  8
0
 10
273.85690696195047
 20
17.262393858676919
 30
0.0
 11
273.85690696195047
 21
15.33664526347297
 31
0.0
  0
LINE
  5
4D3
  8
0
 10
273.85690696195047
 20
15.3366450097051
 30
0.0
 11
273.85690696195047
 21
13.80981909278962
 31
0.0
  0
LINE
  5
4D4
  8
0
 10
273.85690696195047
 20
13.80981857155952
 30
0.0
 11
273.85690696195047
 21
12.063233822295
 31
0.0
  0
LINE
  5
4D5
  8
0
 10
273.85690696195047
 20
12.06323382229502
 30
0.0
 11
273.85690696195093
 21
5.9999956218759669
 31
0.0
  0
LINE
  5
4D6
  8
0
 10
273.85690696195047
 20
12.063233822294981
 30
0.0
 11
254.60690582630849
 21
12.06323382229478
 31
0.0
  0
LINE
  5
4D7
  8
0
 10
232.6069069619509
 20
-0.0000043781234452
 30
0.0
 11
281.85690696195093
 21
-0.0000043781234459
 31
0.0
  0
LINE
  5
4D8
  8
0
 10
281.85690696195093
 20
-0.0000043781234457
 30
0.0
 11
281.85690696195093
 21
5.9999956218789752
 31
0.0
  0
LINE
  5
4D9
  8
0
 10
281.85690696195093
 20
5.9999956218789752
 30
0.0
 11
232.6069069619509
 21
5.9999956218789752
 31
0.0
1001
ACAD
1000
ASC_BOUNDS
1002
{
1070
    19
1005
7F8
1002
}
  0
LINE
  5
4DA
  8
0
 10
232.6069069619509
 20
5.9999956218789752
 30
0.0
 11
232.6069069619509
 21
-0.0000043781234457
 31
0.0
  0
LINE
  5
4DD
  8
0
 10
49.249992783588361
 20
5.9999956218783854
 30
0.0
 11
49.249992783588361
 21
61.999995621876757
 31
0.0
  0
LINE
  5
4DE
  8
0
 10
49.249992783588361
 20
61.999995621876757
 30
0.0
 11
-0.0000072164116318
 21
61.999995621876757
 31
0.0
  0
LINE
  5
4DF
  8
0
 10
-0.0000072164116318
 20
61.999995621876757
 30
0.0
 11
-0.0000072164116318
 21
5.9999956218783854
 31
0.0
  0
LINE
  5
4E0
  8
0
 10
-0.0000072164116318
 20
5.9999956218783854
 30
0.0
 11
5.1260282245877971
 21
5.9999956218783854
 31
0.0
  0
LINE
  5
4E1
  8
0
 10
10.37395734258916
 20
5.9999956218783854
 30
0.0
 11
49.249992783588361
 21
5.9999956218783854
 31
0.0
  0
LINE
  5
4E2
  8
0
 10
49.249992783588141
 20
-0.0000043781246172
 30
0.0
 11
49.249992783588141
 21
5.9999956218778001
 31
0.0
  0
LINE
  5
4E3
  8
0
 10
49.249992783588141
 20
5.9999956218778001
 30
0.0
 11
10.37395734258962
 21
5.9999956218778001
 31
0.0
  0
LINE
  5
4E4
  8
0
 10
5.1260282245875679
 20
5.9999956218778001
 30
0.0
 11
-0.0000072164118592
 21
5.9999956218778001
 31
0.0
  0
LINE
  5
4E5
  8
0
 10
-0.0000072164118592
 20
5.9999956218778001
 30
0.0
 11
-0.0000072164118592
 21
-0.0000043781246181
 31
0.0
  0
LINE
  5
4E6
  8
0
 10
-0.0000072164118592
 20
-0.0000043781246178
 30
0.0
 11
49.249992783588141
 21
-0.0000043781246172
 31
0.0
  0
ARC
  5
4E7
  8
0
 10
7.7499927835883682
 20
4.5624956218763444
 30
0.0
 40
3.000000000000008
 50
359.9999999999992
 51
179.9999999999994
  0
ARC
  5
4E8
  8
0
 10
7.7499927835883682
 20
4.5624956218763444
 30
0.0
 40
3.0000000000000062
 50
180.00000000000011
 51
359.9999999999992
  0
ARC
  5
4E9
  8
0
 10
24.624992783588599
 20
49.999995621876323
 30
0.0
 40
3.0000000000000062
 50
359.9999999999992
 51
179.9999999999992
  0
ARC
  5
4EA
  8
0
 10
24.624992783588599
 20
49.999995621876323
 30
0.0
 40
2.9999999999999911
 50
180.0000000000004
 51
359.99999999999949
  0
LINE
  5
4ED
  8
0
 10
181.83427141030529
 20
113.03222920050089
 30
0.0
 11
168.19836404845631
 21
113.03222920050089
 31
0.0
  0
LINE
  5
4EE
  8
0
 10
168.19836404845631
 20
113.03222920050089
 30
0.0
 11
168.15421459388881
 21
113.03222920050089
 31
0.0
  0
LINE
  5
4EF
  8
0
 10
175.35989525457691
 20
120.53688642372541
 30
0.0
 11
181.83427141030529
 21
120.53688642372541
 31
0.0
  0
LINE
  5
4F0
  8
0
 10
181.83427141030529
 20
120.53688642372541
 30
0.0
 11
181.83427141030529
 21
113.03222920050089
 31
0.0
  0
LINE
  5
500
  8
0
 10
180.39069035192369
 20
120.53688642372541
 30
0.0
 11
180.39069035192369
 21
134.53688642372541
 31
0.0
  0
LINE
  5
501
  8
0
 10
175.39069035192381
 20
134.53688642372541
 30
0.0
 11
176.68478492967481
 21
134.53688642372541
 31
0.0
  0
LINE
  5
502
  8
0
 10
176.68478557743629
 20
134.53688642372541
 30
0.0
 11
178.9262242578564
 21
134.53688642372541
 31
0.0
  0
LINE
  5
503
  8
0
 10
178.92622481226419
 20
134.53688642372541
 30
0.0
 11
179.72081737084591
 21
134.53688642372541
 31
0.0
  0
LINE
  5
504
  8
0
 10
179.720818284318
 20
134.53688642372541
 30
0.0
 11
180.22031948336891
 21
134.53688642372541
 31
0.0
  0
LINE
  5
505
  8
0
 10
180.2203200596407
 20
134.53688642372541
 30
0.0
 11
180.39069035192369
 21
134.53688642372541
 31
0.0
  0
LINE
  5
506
  8
0
 10
175.35954084560359
 20
134.53688642372541
 30
0.0
 11
175.3906898696001
 21
134.53688642372541
 31
0.0
  0
LINE
  5
507
  8
0
 10
154.39069035192341
 20
113.03222920050089
 30
0.0
 11
151.78596768691941
 21
113.03222920050089
 31
0.0
  0
LINE
  5
508
  8
0
 10
151.78596736874721
 20
113.03222920050089
 30
0.0
 11
149.26038820203831
 21
113.03222920050089
 31
0.0
  0
LINE
  5
509
  8
0
 10
149.26038791207219
 20
113.03222920050089
 30
0.0
 11
146.89069035192341
 21
113.03222920050089
 31
0.0
  0
LINE
  5
50A
  8
0
 10
146.89068984716519
 20
113.03222920050089
 30
0.0
 11
144.74887657205429
 21
113.03222920050089
 31
0.0
  0
LINE
  5
50B
  8
0
 10
144.74887620662531
 20
113.03222920050089
 30
0.0
 11
142.90002370513869
 21
113.03222920050089
 31
0.0
  0
LINE
  5
50C
  8
0
 10
142.9000234588255
 20
113.03222920050089
 30
0.0
 11
140.29530104013469
 21
113.03222920050089
 31
0.0
  0
LINE
  5
50D
  8
0
 10
140.2953009682131
 20
113.03222920050089
 30
0.0
 11
139.6185744516047
 21
113.03222920050089
 31
0.0
  0
LINE
  5
50E
  8
0
 10
139.6185740567401
 20
113.03222920050089
 30
0.0
 11
139.3906903519233
 21
113.03222920050089
 31
0.0
  0
LINE
  5
50F
  8
0
 10
168.19792721593481
 20
113.03222920050089
 30
0.0
 11
167.3810716267551
 21
113.03222920050089
 31
0.0
  0
LINE
  5
510
  8
0
 10
167.38107140868999
 20
113.03222920050089
 30
0.0
 11
164.03250459113599
 21
113.03222920050089
 31
0.0
  0
LINE
  5
511
  8
0
 10
164.0325044972214
 20
113.03222920050089
 30
0.0
 11
156.9954130917211
 21
113.03222920050089
 31
0.0
  0
LINE
  5
512
  8
0
 10
156.9954130169273
 20
113.03222920050089
 30
0.0
 11
154.39069059156139
 21
113.03222920050089
 31
0.0
  0
LINE
  5
519
  8
0
 10
181.8342714103054
 20
113.03222920050089
 30
0.0
 11
168.19836404845631
 21
113.03222920050111
 31
0.0
1001
ACAD
1000
ASC_BOUNDS
1002
{
1070
    19
1005
796
1002
}
  0
LINE
  5
51A
  8
0
 10
168.19836404845631
 20
113.03222920050111
 30
0.0
 11
168.15421459388909
 21
113.03222920050111
 31
0.0
  0
LINE
  5
51B
  8
0
 10
175.35989525457691
 20
120.5368864237256
 30
0.0
 11
181.8342714103054
 21
120.53688642372541
 31
0.0
1001
ACAD
1000
ASC_BOUNDS
1002
{
1070
    19
1005
796
1002
}
  0
LINE
  5
51C
  8
0
 10
181.8342714103054
 20
120.53688642372541
 30
0.0
 11
181.8342714103054
 21
113.03222920050089
 31
0.0
1001
ACAD
1000
ASC_BOUNDS
1002
{
1070
    19
1005
796
1002
}
  0
LINE
  5
52C
  8
0
 10
180.39069035192369
 20
120.53688642372541
 30
0.0
 11
180.39069035192369
 21
134.5368864237256
 31
0.0
  0
LINE
  5
52D
  8
0
 10
175.39069035192381
 20
134.5368864237256
 30
0.0
 11
176.68478492967481
 21
134.5368864237256
 31
0.0
  0
LINE
  5
52E
  8
0
 10
176.6847855774364
 20
134.5368864237256
 30
0.0
 11
178.9262242578564
 21
134.5368864237256
 31
0.0
  0
LINE
  5
52F
  8
0
 10
178.9262248122638
 20
134.5368864237256
 30
0.0
 11
179.72081737084591
 21
134.5368864237256
 31
0.0
  0
LINE
  5
530
  8
0
 10
179.720818284318
 20
134.5368864237256
 30
0.0
 11
180.22031948336891
 21
134.53688642372541
 31
0.0
  0
LINE
  5
531
  8
0
 10
180.2203200596407
 20
134.53688642372541
 30
0.0
 11
180.39069035192369
 21
134.53688642372541
 31
0.0
  0
LINE
  5
532
  8
0
 10
175.35954084560359
 20
134.5368864237256
 30
0.0
 11
175.3906898696001
 21
134.5368864237256
 31
0.0
  0
LINE
  5
533
  8
0
 10
154.39069035192341
 20
113.03222920050111
 30
0.0
 11
151.78596768691949
 21
113.03222920050111
 31
0.0
1001
ACAD
1000
ASC_BOUNDS
1002
{
1070
    19
1005
796
1002
}
  0
LINE
  5
534
  8
0
 10
151.78596736874721
 20
113.03222920050111
 30
0.0
 11
149.26038820203831
 21
113.03222920050111
 31
0.0
1001
ACAD
1000
ASC_BOUNDS
1002
{
1070
    19
1005
796
1002
}
  0
LINE
  5
535
  8
0
 10
149.26038791207219
 20
113.03222920050111
 30
0.0
 11
146.89069035192341
 21
113.03222920050111
 31
0.0
1001
ACAD
1000
ASC_BOUNDS
1002
{
1070
    19
1005
796
1002
}
  0
LINE
  5
536
  8
0
 10
146.89068984716519
 20
113.03222920050111
 30
0.0
 11
144.74887657205429
 21
113.03222920050111
 31
0.0
1001
ACAD
1000
ASC_BOUNDS
1002
{
1070
    19
1005
796
1002
}
  0
LINE
  5
537
  8
0
 10
144.7488762066254
 20
113.03222920050111
 30
0.0
 11
142.90002370513869
 21
113.03222920050111
 31
0.0
1001
ACAD
1000
ASC_BOUNDS
1002
{
1070
    19
1005
796
1002
}
  0
LINE
  5
538
  8
0
 10
142.9000234588253
 20
113.03222920050111
 30
0.0
 11
140.2953010401348
 21
113.03222920050111
 31
0.0
1001
ACAD
1000
ASC_BOUNDS
1002
{
1070
    19
1005
796
1002
}
  0
LINE
  5
539
  8
0
 10
140.2953009682131
 20
113.03222920050111
 30
0.0
 11
139.6185744516047
 21
113.03222920050111
 31
0.0
1001
ACAD
1000
ASC_BOUNDS
1002
{
1070
    19
1005
796
1002
}
  0
LINE
  5
53A
  8
0
 10
139.6185740567401
 20
113.03222920050111
 30
0.0
 11
139.3906903519233
 21
113.03222920050111
 31
0.0
1001
ACAD
1000
ASC_BOUNDS
1002
{
1070
    19
1005
796
1002
}
  0
LINE
  5
53B
  8
0
 10
168.1979272159345
 20
113.03222920050111
 30
0.0
 11
167.3810716267551
 21
113.03222920050111
 31
0.0
1001
ACAD
1000
ASC_BOUNDS
1002
{
1070
    19
1005
796
1002
}
  0
LINE
  5
53C
  8
0
 10
167.38107140868999
 20
113.03222920050111
 30
0.0
 11
164.03250459113599
 21
113.03222920050111
 31
0.0
1001
ACAD
1000
ASC_BOUNDS
1002
{
1070
    19
1005
796
1002
}
  0
LINE
  5
53D
  8
0
 10
164.0325044972214
 20
113.03222920050111
 30
0.0
 11
156.9954130917211
 21
113.03222920050111
 31
0.0
1001
ACAD
1000
ASC_BOUNDS
1002
{
1070
    19
1005
796
1002
}
  0
LINE
  5
53E
  8
0
 10
156.99541301692739
 20
113.03222920050111
 30
0.0
 11
154.39069059156139
 21
113.03222920050111
 31
0.0
1001
ACAD
1000
ASC_BOUNDS
1002
{
1070
    19
1005
796
1002
}
  0
LINE
  5
543
  8
0
 10
135.01569035192341
 20
161.7868864237256
 30
0.0
 11
135.01569035192321
 21
112.5368864237256
 31
0.0
  0
LINE
  5
544
  8
0
 10
99.640690351923183
 20
112.5368864237257
 30
0.0
 11
99.640690351923382
 21
161.7868864237256
 31
0.0
  0
LINE
  5
545
  8
0
 10
99.640690351923382
 20
161.7868864237256
 30
0.0
 11
135.01569035192341
 21
161.7868864237256
 31
0.0
  0
LINE
  5
546
  8
0
 10
101.2656903519233
 20
160.1618864237256
 30
0.0
 11
133.3906903519233
 21
160.1618864237256
 31
0.0
1001
ACAD
1000
ASC_BOUNDS
1002
{
1070
    19
1005
76D
1002
}
  0
LINE
  5
547
  8
0
 10
133.3906903519233
 20
160.1618864237256
 30
0.0
 11
133.39069035192321
 21
114.1618864237256
 31
0.0
1001
ACAD
1000
ASC_BOUNDS
1002
{
1070
    19
1005
76D
1002
}
  0
LINE
  5
548
  8
0
 10
133.39069035192321
 20
114.1618864237256
 30
0.0
 11
101.2656903519232
 21
114.1618864237256
 31
0.0
1001
ACAD
1000
ASC_BOUNDS
1002
{
1070
    19
1005
76D
1002
}
  0
LINE
  5
549
  8
0
 10
101.2656903519232
 20
114.1618864237256
 30
0.0
 11
101.2656903519233
 21
160.1618864237256
 31
0.0
1001
ACAD
1000
ASC_BOUNDS
1002
{
1070
    19
1005
76D
1002
}
  0
LINE
  5
54A
  8
0
 10
99.640690351923183
 20
112.5368864237257
 30
0.0
 11
135.01569035192321
 21
112.5368864237256
 31
0.0
  0
LINE
  5
54B
  8
0
 10
175.39069035192361
 20
120.53688642372541
 30
0.0
 11
175.39069035192361
 21
153.78688642372541
 31
0.0
  0
LINE
  5
54C
  8
0
 10
175.35989582074231
 20
120.53688642372541
 30
0.0
 11
175.29609034957409
 21
120.53688642372541
 31
0.0
1001
ACAD
1000
ASC_BOUNDS
1002
{
1070
    19
1005
796
1002
}
  0
LINE
  5
54D
  8
0
 10
175.2960902380847
 20
120.53688642372541
 30
0.0
 11
173.78577227436031
 21
120.53688642372541
 31
0.0
1001
ACAD
1000
ASC_BOUNDS
1002
{
1070
    19
1005
796
1002
}
  0
LINE
  5
54E
  8
0
 10
173.78577193265039
 20
120.53688642372541
 30
0.0
 11
172.3685950279494
 21
120.53688642372541
 31
0.0
1001
ACAD
1000
ASC_BOUNDS
1002
{
1070
    19
1005
796
1002
}
  0
LINE
  5
54F
  8
0
 10
172.36859492292709
 20
120.53688642372541
 30
0.0
 11
170.5439576933644
 21
120.53688642372541
 31
0.0
1001
ACAD
1000
ASC_BOUNDS
1002
{
1070
    19
1005
796
1002
}
  0
LINE
  5
550
  8
0
 10
170.54395751312191
 20
120.53688642372541
 30
0.0
 11
168.34730074479509
 21
120.53688642372521
 31
0.0
1001
ACAD
1000
ASC_BOUNDS
1002
{
1070
    19
1005
796
1002
}
  0
LINE
  5
551
  8
0
 10
168.34730056653169
 20
120.53688642372521
 30
0.0
 11
153.48021041225439
 21
120.53688642372521
 31
0.0
1001
ACAD
1000
ASC_BOUNDS
1002
{
1070
    19
1005
796
1002
}
  0
LINE
  5
552
  8
0
 10
153.48021009199061
 20
120.53688642372521
 30
0.0
 11
146.81595995152679
 21
120.53688642372521
 31
0.0
1001
ACAD
1000
ASC_BOUNDS
1002
{
1070
    19
1005
796
1002
}
  0
LINE
  5
553
  8
0
 10
146.8159595497269
 20
120.53688642372521
 30
0.0
 11
140.50540823723151
 21
120.53688642372521
 31
0.0
1001
ACAD
1000
ASC_BOUNDS
1002
{
1070
    19
1005
796
1002
}
  0
LINE
  5
554
  8
0
 10
140.50540823723139
 20
120.53688642372521
 30
0.0
 11
135.01569035192341
 21
120.53688642372541
 31
0.0
1001
ACAD
1000
ASC_BOUNDS
1002
{
1070
    19
1005
796
1002
}
  0
LINE
  5
555
  8
0
 10
135.01569035192341
 20
153.78688642372541
 30
0.0
 11
140.50540823723139
 21
153.78688642372521
 31
0.0
  0
LINE
  5
556
  8
0
 10
140.50540823723139
 20
153.78688642372521
 30
0.0
 11
146.81595954972681
 21
153.78688642372521
 31
0.0
  0
LINE
  5
557
  8
0
 10
146.81595995152671
 20
153.78688642372521
 30
0.0
 11
153.4802100919905
 21
153.78688642372521
 31
0.0
  0
LINE
  5
558
  8
0
 10
153.48021041225419
 20
153.78688642372521
 30
0.0
 11
168.34730056653169
 21
153.78688642372521
 31
0.0
  0
LINE
  5
559
  8
0
 10
168.34730074479501
 20
153.78688642372521
 30
0.0
 11
170.54395751312171
 21
153.78688642372521
 31
0.0
  0
LINE
  5
55A
  8
0
 10
170.54395769336429
 20
153.78688642372521
 30
0.0
 11
172.36859492292709
 21
153.78688642372541
 31
0.0
  0
LINE
  5
55B
  8
0
 10
172.36859502794931
 20
153.78688642372541
 30
0.0
 11
173.78577193265031
 21
153.78688642372541
 31
0.0
  0
LINE
  5
55C
  8
0
 10
173.78577227436031
 20
153.78688642372541
 30
0.0
 11
175.2960902380847
 21
153.78688642372541
 31
0.0
  0
LINE
  5
55D
  8
0
 10
175.296090349574
 20
153.78688642372541
 30
0.0
 11
175.35989582074231
 21
153.78688642372541
 31
0.0
  0
LINE
  5
55F
  8
0
 10
184.3906903519233
 20
161.78688642372609
 30
0.0
 11
184.3906903519233
 21
112.5368864237261
 31
0.0
  0
LINE
  5
560
  8
0
 10
184.3906903519233
 20
112.5368864237261
 30
0.0
 11
135.01569035192321
 21
112.5368864237261
 31
0.0
  0
LINE
  5
561
  8
0
 10
184.3906903519233
 20
161.78688642372609
 30
0.0
 11
135.01569035192341
 21
161.78688642372609
 31
0.0
  0
LINE
  5
562
  8
0
 10
97.390690351923226
 20
151.0368864237256
 30
0.0
 11
99.640690351923197
 21
151.0368864237256
 31
0.0
  0
LINE
  5
563
  8
0
 10
99.640690351923197
 20
157.0368864237256
 30
0.0
 11
97.390690351923226
 21
157.0368864237256
 31
0.0
  0
LINE
  5
564
  8
0
 10
97.390690351923226
 20
134.16188642372541
 30
0.0
 11
99.640690351923197
 21
134.16188642372541
 31
0.0
  0
LINE
  5
565
  8
0
 10
99.640690351923197
 20
140.1618864237256
 30
0.0
 11
97.390690351923226
 21
140.1618864237256
 31
0.0
  0
LINE
  5
566
  8
0
 10
97.390690351923311
 20
151.0368864237256
 30
0.0
 11
97.390690351923311
 21
151.91556542446429
 31
0.0
  0
LINE
  5
567
  8
0
 10
97.390690351923311
 20
151.91556608016609
 30
0.0
 11
97.390690351923311
 21
152.5368851805105
 31
0.0
  0
LINE
  5
568
  8
0
 10
97.390690351923311
 20
152.5368864237256
 30
0.0
 11
97.390690351923311
 21
153.26042928841821
 31
0.0
  0
LINE
  5
569
  8
0
 10
97.390690351923311
 20
153.2604294061077
 30
0.0
 11
97.390690351923311
 21
154.0368852750066
 31
0.0
  0
LINE
  5
56A
  8
0
 10
97.390690351923311
 20
154.0368864237256
 30
0.0
 11
97.390690351923311
 21
154.81334355903309
 31
0.0
  0
LINE
  5
56B
  8
0
 10
97.390690351923311
 20
154.8133440510795
 30
0.0
 11
97.390690351923311
 21
155.5368864237256
 31
0.0
  0
LINE
  5
56C
  8
0
 10
97.390690351923311
 20
155.53688674652651
 30
0.0
 11
97.390690351923311
 21
156.63496263507901
 31
0.0
  0
LINE
  5
56D
  8
0
 10
97.390690351923311
 20
156.6349631946465
 30
0.0
 11
97.390690351923311
 21
157.0368864237256
 31
0.0
  0
LINE
  5
56E
  8
0
 10
97.390690351923311
 20
134.16188642372541
 30
0.0
 11
97.390690351923311
 21
134.56381021237209
 31
0.0
  0
LINE
  5
56F
  8
0
 10
97.390690351923311
 20
134.5638103463757
 30
0.0
 11
97.390690351923311
 21
135.04056542446429
 31
0.0
  0
LINE
  5
570
  8
0
 10
97.390690351923311
 20
135.04056608016589
 30
0.0
 11
97.390690351923311
 21
135.6618851805105
 31
0.0
  0
LINE
  5
571
  8
0
 10
97.390690351923311
 20
135.66188642372541
 30
0.0
 11
97.390690351923311
 21
136.3854292884179
 31
0.0
  0
LINE
  5
572
  8
0
 10
97.390690351923311
 20
136.3854294061077
 30
0.0
 11
97.390690351923311
 21
137.1618852750068
 31
0.0
  0
LINE
  5
573
  8
0
 10
97.390690351923311
 20
137.16188642372541
 30
0.0
 11
97.390690351923311
 21
137.93834355903289
 31
0.0
  0
LINE
  5
574
  8
0
 10
97.390690351923311
 20
137.93834405107961
 30
0.0
 11
97.390690351923311
 21
139.28320676728501
 31
0.0
  0
LINE
  5
575
  8
0
 10
97.390690351923311
 20
139.28320810995839
 30
0.0
 11
97.390690351923311
 21
139.75996263507881
 31
0.0
  0
LINE
  5
576
  8
0
 10
97.390690351923311
 20
139.75996319464679
 30
0.0
 11
97.390690351923311
 21
140.16188642372541
 31
0.0
  0
LINE
  5
75F
  8
0
 10
139.3906903519233
 20
113.03222920050111
 30
0.0
 11
139.39069035192361
 21
120.53688642372521
 31
0.0
1001
ACAD
1000
ASC_BOUNDS
1002
{
1070
    19
1005
796
1002
}
  0
INSERT
  5
76D
  8
0
  6
CONTINUOUS
  2
*X7
 10
0.0
 20
0.0
 30
0.0
1001
GRADIENTCOLOR1ACI
1070
     5
1001
GRADIENTCOLOR2ACI
1070
     2
1001
ACAD
1000
HATCH
1002
{
1070
    19
1000
ANSI31
1040
12.0
1040
-0.7853981633974485
1000
ASC_BOUNDS
1070
     1
1070
     1
1070
     4
1005
548
1005
549
1005
546
1005
547
1000
ASC_SEEDPOINT
1011
121.1118259832343
1021
0.0
1031
0.0
1021
150.34506087424069
1031
0.0
1000
R14_HATCH_DATA
1000
76D
1011
1.0
1021
0.0
1031
0.0
1021
0.0
1031
0.0
1011
0.0
1021
0.0
1031
0.0
1021
1.0
1031
0.0
1011
0.0
1021
0.0
1031
0.0
1021
0.0
1031
1.0
1040
0.0
1010
0.0
1020
0.0
1030
1.0
1000
ANSI31
1070
     0
1070
     1
1071
        1
1071
        7
1070
     0
1070
     1
1071
        4
1040
101.2656903519233
1040
160.1618864237256
1040
101.2656903519232
1040
114.1618864237256
1040
133.39069035192321
1040
114.1618864237256
1040
133.3906903519233
1040
160.1618864237256
1071
        4
1005
547
1005
546
1005
549
1005
548
1070
     1
1070
     1
1040
-0.7853981633974485
1040
12.0
1070
     0
1070
     1
1040
6.2831853071795853
1040
-59.669201725194483
1040
161.786879207314
1040
0.0000000000000005
1040
1.5
1070
     0
1040
0.1395833736446756
1071
        1
1040
121.1118259832343
1040
150.34506087424069
1040
0.0
1002
}
  0
INSERT
  5
778
  8
0
  6
CONTINUOUS
  2
*X3
 10
0.0
 20
0.0
 30
0.0
1001
GRADIENTCOLOR1ACI
1070
     5
1001
GRADIENTCOLOR2ACI
1070
     2
1001
ACAD
1000
HATCH
1002
{
1070
    19
1000
NET
1040
12.0
1040
0.7853981633974483
1000
ASC_BOUNDS
1070
     1
1070
     1
1070
     6
1005
3C7
1005
3BF
1005
3BE
1005
3C3
1005
3BC
1005
3BD
1000
ASC_SEEDPOINT
1011
156.00242439638961
1021
0.0
1031
0.0
1021
37.26470811852549
1031
0.0
1000
R14_HATCH_DATA
1000
778
1011
1.0
1021
0.0
1031
0.0
1021
0.0
1031
0.0
1011
0.0
1021
0.0
1031
0.0
1021
1.0
1031
0.0
1011
0.0
1021
0.0
1031
0.0
1021
0.0
1031
1.0
1040
0.0
1010
0.0
1020
0.0
1030
1.0
1000
NET
1070
     0
1070
     1
1071
        1
1071
        7
1070
     1
1070
     1
1071
        6
1040
168.19836404845611
1040
47.860724850400473
1040
0.3009705327358349
1040
154.39069035192321
1040
56.999995621876678
1040
0.6925647357577091
1040
144.51437390968039
1040
30.710249232666548
1040
0.0
1040
170.78174267887661
1040
7.7314473069115053
1040
0.1816387035292113
1040
175.39069035192321
1040
5.9999956218762227
1040
0.5373138358438943
1040
181.83427141030529
1040
15.73500259518732
1040
0.0
1071
        6
1005
3BD
1005
3BC
1005
3C3
1005
3BE
1005
3BF
1005
3C7
1070
     1
1070
     1
1040
0.7853981633974483
1040
12.0
1070
     0
1070
     2
1040
0.7853981633974483
1040
-150.694901944588
1040
0.0
1040
-1.0606601717798201
1040
1.0606601717798201
1070
     0
1040
2.3561944901923431
1040
-150.694901944588
1040
0.0
1040
-1.0606601717798201
1040
-1.0606601717798201
1070
     0
1040
0.2285445596822872
1071
        1
1040
156.00242439638961
1040
37.26470811852549
1040
0.0
1002
}
  0
INSERT
  5
796
  8
0
  6
CONTINUOUS
  2
*X8
 10
0.0
 20
0.0
 30
0.0
1001
GRADIENTCOLOR1ACI
1070
     5
1001
GRADIENTCOLOR2ACI
1070
     2
1001
ACAD
1000
HATCH
1002
{
1070
    19
1000
NET
1040
12.0
1040
-0.7853981633974485
1000
ASC_BOUNDS
1070
     1
1070
     1
1070
    25
1005
519
1005
53B
1005
53C
1005
53D
1005
53E
1005
533
1005
534
1005
535
1005
536
1005
537
1005
538
1005
539
1005
53A
1005
75F
1005
554
1005
553
1005
552
1005
551
1005
550
1005
54F
1005
54E
1005
54D
1005
54C
1005
51B
1005
51C
1000
ASC_SEEDPOINT
1011
172.35863720040939
1021
0.0
1031
0.0
1021
114.7808607535582
1031
0.0
1000
R14_HATCH_DATA
1000
796
1011
1.0
1021
0.0
1031
0.0
1021
0.0
1031
0.0
1011
0.0
1021
0.0
1031
0.0
1021
1.0
1031
0.0
1011
0.0
1021
0.0
1031
0.0
1021
0.0
1031
1.0
1040
0.0
1010
0.0
1020
0.0
1030
1.0
1000
NET
1070
     0
1070
     1
1071
        1
1071
        7
1070
     0
1070
     1
1071
       25
1040
181.8342714103054
1040
113.03222920050089
1040
181.8342714103054
1040
120.53688642372541
1040
175.35989525457691
1040
120.5368864237256
1040
175.29609034957409
1040
120.53688642372541
1040
173.78577227436031
1040
120.53688642372541
1040
172.3685950279494
1040
120.53688642372541
1040
170.5439576933644
1040
120.53688642372541
1040
168.34730074479509
1040
120.53688642372521
1040
153.48021041225439
1040
120.53688642372521
1040
146.81595995152679
1040
120.53688642372521
1040
140.50540823723151
1040
120.53688642372521
1040
139.39069035192361
1040
120.53688642372521
1040
139.3906903519233
1040
113.03222920050111
1040
139.6185740567401
1040
113.03222920050111
1040
140.2953009682131
1040
113.03222920050111
1040
142.9000234588253
1040
113.03222920050111
1040
144.7488762066254
1040
113.03222920050111
1040
146.89068984716519
1040
113.03222920050111
1040
149.26038791207219
1040
113.03222920050111
1040
151.78596736874721
1040
113.03222920050111
1040
154.39069035192341
1040
113.03222920050111
1040
156.99541301692739
1040
113.03222920050111
1040
164.0325044972214
1040
113.03222920050111
1040
167.38107140868999
1040
113.03222920050111
1040
168.1979272159345
1040
113.03222920050111
1071
       25
1005
51C
1005
51B
1005
54C
1005
54D
1005
54E
1005
54F
1005
550
1005
551
1005
552
1005
553
1005
554
1005
75F
1005
53A
1005
539
1005
538
1005
537
1005
536
1005
535
1005
534
1005
533
1005
53E
1005
53D
1005
53C
1005
53B
1005
519
1070
     1
1070
     1
1040
-0.7853981633974485
1040
12.0
1070
     0
1070
     2
1040
5.4977871437821371
1040
-59.669201725194483
1040
161.786879207314
1040
1.0606601717798201
1040
1.060660171779819
1070
     0
1040
0.7853981633974465
1040
-59.669201725194483
1040
161.786879207314
1040
-1.060660171779819
1040
1.0606601717798201
1070
     0
1040
0.370926444589617
1071
        1
1040
172.35863720040939
1040
114.7808607535582
1040
0.0
1002
}
  0
LINE
  5
798
  8
0
 10
273.85690696195007
 20
56.9999956218767
 30
0.0
 11
281.37191842234961
 21
56.9999956218767
 31
0.0
1001
ACAD
1000
ASC_BOUNDS
1002
{
1070
    19
1005
7F8
1002
}
  0
LINE
  5
799
  8
0
 10
273.85690696195007
 20
26.9999963517952
 30
0.0
 11
281.37191842234938
 21
26.9999963517952
 31
0.0
1001
ACAD
1000
ASC_BOUNDS
1002
{
1070
    19
1005
7F8
1002
}
  0
INSERT
  5
7F8
  8
0
  6
CONTINUOUS
  2
*X5
 10
0.0
 20
0.0
 30
0.0
1001
GRADIENTCOLOR1ACI
1070
     5
1001
GRADIENTCOLOR2ACI
1070
     2
1001
ACAD
1000
HATCH
1002
{
1070
    19
1000
NET
1040
12.0
1040
0.7853981633974483
1000
ASC_BOUNDS
1070
     2
1070
     1
1070
    25
1005
496
1005
48A
1005
48B
1005
48C
1005
48D
1005
48E
1005
48F
1005
799
1005
4D0
1005
4CF
1005
4CE
1005
4CD
1005
4CC
1005
4CB
1005
4CA
1005
4C9
1005
4C8
1005
4C7
1005
798
1005
490
1005
491
1005
492
1005
493
1005
494
1005
495
1070
     1
1070
    25
1005
4BD
1005
4BC
1005
4BB
1005
486
1005
487
1005
4AF
1005
4B0
1005
4B1
1005
4B2
1005
4B3
1005
4B4
1005
4B5
1005
4B6
1005
4D9
1005
4A7
1005
4A8
1005
4A9
1005
4AA
1005
4AB
1005
4AC
1005
4AD
1005
4AE
1005
485
1005
489
1005
4BE
1000
ASC_SEEDPOINT
1011
237.7693399524448
1021
0.0
1031
0.0
1021
41.701441295913128
1031
0.0
1000
R14_HATCH_DATA
1000
7F8
1011
1.0
1021
0.0
1031
0.0
1021
0.0
1031
0.0
1011
0.0
1021
0.0
1031
0.0
1021
1.0
1031
0.0
1011
0.0
1021
0.0
1031
0.0
1021
0.0
1031
1.0
1040
0.0
1010
0.0
1020
0.0
1030
1.0
1000
NET
1070
     0
1070
     1
1071
        2
1071
        7
1070
     0
1070
     1
1071
       25
1040
240.60690696195019
1040
44.50403413652797
1040
240.6069069619501
1040
56.999996338286067
1040
233.1022518280418
1040
56.999996338286067
1040
233.1022497387257
1040
15.735002595186961
1040
233.1022497387257
1040
14.81172893759352
1040
233.1022497387257
1040
12.99999610420428
1040
233.1022497387257
1040
11.188262607369669
1040
233.1022497387257
1040
9.4999958460042535
1040
233.1022497387257
1040
8.0502482825655264
1040
233.1022497387257
1040
6.937817795384813
1040
233.1022497387257
1040
6.23851483785241
1040
233.1022497387257
1040
5.9999956218789698
1040
240.60690696195019
1040
5.9999956218789663
1040
240.60690696195019
1040
6.238514789661294
1040
240.60690696195019
1040
6.9378173912527901
1040
240.60690696195019
1040
8.0502481535700632
1040
240.60690696195019
1040
9.4999956218759074
1040
240.60690696195019
1040
11.18826230615826
1040
240.60690696195019
1040
12.9999956218759
1040
240.60690696195019
1040
14.811728869329331
1040
240.60690696195019
1040
15.734683102725381
1040
240.60690696195019
1040
15.735002595186961
1040
240.60690696195019
1040
31.802739423696138
1040
240.60690696195019
1040
34.659597779518322
1040
240.60690696195019
1040
38.003810069481133
1071
       25
1005
4BE
1005
489
1005
485
1005
4AE
1005
4AD
1005
4AC
1005
4AB
1005
4AA
1005
4A9
1005
4A8
1005
4A7
1005
4D9
1005
4B6
1005
4B5
1005
4B4
1005
4B3
1005
4B2
1005
4B1
1005
4B0
1005
4AF
1005
487
1005
486
1005
4BB
1005
4BC
1005
4BD
1071
        7
1070
     0
1070
     1
1071
       25
1040
281.37191842234961
1040
44.604718286880249
1040
281.37191842234961
1040
47.130297771761327
1040
281.37191842234961
1040
53.490662268660962
1040
281.37191842234961
1040
54.99037667864286
1040
281.37191842234961
1040
56.095384933664889
1040
281.37191842234961
1040
56.772110240881567
1040
281.37191842234961
1040
56.9999956218767
1040
273.85690696195007
1040
56.9999956218767
1040
273.85690696195007
1040
55.052007361103414
1040
273.85690696195007
1040
52.859500404808337
1040
273.85690696195007
1040
50.337096634554889
1040
273.85690696195007
1040
47.533791962344182
1040
273.85690696195047
1040
44.50403444178442
1040
273.85690696195047
1040
38.003810321520973
1040
273.85690696195047
1040
34.659598899176501
1040
273.85690696195047
1040
31.338994741270682
1040
273.85690696195047
1040
28.106494678950849
1040
273.85690696195047
1040
26.9999963517952
1040
281.37191842234961
1040
26.999996351795179
1040
281.37191842234961
1040
27.227878596774939
1040
281.37191842234961
1040
27.904604976312669
1040
281.37191842234961
1040
30.509328975091648
1040
281.37191842234961
1040
36.869692191960077
1040
281.37191842234961
1040
39.395271665143262
1040
281.37191842234961
1040
41.999995621876302
1071
       25
1005
495
1005
494
1005
493
1005
492
1005
491
1005
490
1005
798
1005
4C7
1005
4C8
1005
4C9
1005
4CA
1005
4CB
1005
4CC
1005
4CD
1005
4CE
1005
4CF
1005
4D0
1005
799
1005
48F
1005
48E
1005
48D
1005
48C
1005
48B
1005
48A
1005
496
1070
     1
1070
     1
1040
0.7853981633974483
1040
12.0
1070
     0
1070
     2
1040
0.7853981633974483
1040
-256.94022866757467
1040
0.0
1040
-1.0606601717798201
1040
1.0606601717798201
1070
     0
1040
2.3561944901923431
1040
-256.94022866757467
1040
0.0
1040
-1.0606601717798201
1040
-1.0606601717798201
1070
     0
1040
0.1043669097854219
1071
        2
1040
237.7693399524448
1040
41.701441295913128
1040
0.0
1040
277.86557634620613
1040
43.684412944015662
1040
0.0
1002
}
  0
LINE
  5
7F9
  8
0
 10
154.3906903519258
 20
161.30189788412429
 30
0.0
 11
156.99541301692969
 21
161.30189788412429
 31
0.0
  0
LINE
  5
7FA
  8
0
 10
156.99541430865909
 20
161.30189788412429
 30
0.0
 11
159.52099250181061
 21
161.30189788412429
 31
0.0
  0
LINE
  5
7FB
  8
0
 10
159.52099378184221
 20
161.30189788412429
 30
0.0
 11
165.8813567645002
 21
161.30189788412429
 31
0.0
  0
LINE
  5
7FC
  8
0
 10
165.8813569987104
 20
161.30189788412429
 30
0.0
 11
168.48607966371441
 21
161.30189788412429
 31
0.0
  0
LINE
  5
7FD
  8
0
 10
168.48608099748981
 20
161.30189788412429
 30
0.0
 11
169.16280664710879
 21
161.30189788412429
 31
0.0
  0
LINE
  5
7FE
  8
0
 10
169.1628073770276
 20
161.30189788412429
 30
0.0
 11
169.3906903519258
 21
161.30189788412429
 31
0.0
  0
LINE
  5
7FF
  8
0
 10
139.3906903519258
 20
161.30189788412429
 30
0.0
 11
139.6185740567426
 21
161.30189788412429
 31
0.0
  0
LINE
  5
800
  8
0
 10
139.61857573292079
 20
161.30189788412429
 30
0.0
 11
140.2952997063629
 21
161.30189788412429
 31
0.0
  0
LINE
  5
801
  8
0
 10
140.2953010401371
 20
161.30189788412429
 30
0.0
 11
141.4003068176483
 21
161.30189788412429
 31
0.0
  0
LINE
  5
802
  8
0
 10
141.4003092951591
 20
161.30189788412429
 30
0.0
 11
142.9000207835534
 21
161.30189788412429
 31
0.0
  0
LINE
  5
803
  8
0
 10
142.90002370514111
 20
161.30189788412429
 30
0.0
 11
149.2603869220103
 21
161.30189788412429
 31
0.0
  0
LINE
  5
804
  8
0
 10
149.2603882020407
 20
161.30189788412429
 30
0.0
 11
151.7859663951933
 21
161.30189788412429
 31
0.0
  0
LINE
  5
805
  8
0
 10
151.78596768692179
 20
161.30189788412429
 30
0.0
 11
154.3906903519258
 21
161.30189788412429
 31
0.0
  0
LINE
  5
806
  8
0
 10
154.39069035192591
 20
161.30189788412449
 30
0.0
 11
156.99541301693
 21
161.30189788412449
 31
0.0
  0
LINE
  5
807
  8
0
 10
156.99541430865909
 20
161.30189788412449
 30
0.0
 11
159.52099250181101
 21
161.30189788412449
 31
0.0
  0
LINE
  5
808
  8
0
 10
159.52099378184221
 20
161.30189788412449
 30
0.0
 11
165.8813567645002
 21
161.30189788412449
 31
0.0
  0
LINE
  5
809
  8
0
 10
165.8813569987108
 20
161.30189788412449
 30
0.0
 11
168.48607966371469
 21
161.30189788412449
 31
0.0
  0
LINE
  5
80A
  8
0
 10
168.48608099748981
 20
161.30189788412449
 30
0.0
 11
169.16280664710911
 21
161.30189788412449
 31
0.0
  0
LINE
  5
80B
  8
0
 10
169.16280737702749
 20
161.30189788412449
 30
0.0
 11
169.39069035192611
 21
161.30189788412449
 31
0.0
  0
LINE
  5
80C
  8
0
 10
139.3906903519256
 20
161.30189788412449
 30
0.0
 11
139.618574056743
 21
161.30189788412449
 31
0.0
  0
LINE
  5
80D
  8
0
 10
139.61857573292079
 20
161.30189788412449
 30
0.0
 11
140.2952997063627
 21
161.30189788412449
 31
0.0
  0
LINE
  5
80E
  8
0
 10
140.29530104013739
 20
161.30189788412449
 30
0.0
 11
141.4003068176483
 21
161.30189788412449
 31
0.0
  0
LINE
  5
80F
  8
0
 10
141.40030929515959
 20
161.30189788412449
 30
0.0
 11
142.9000207835532
 21
161.30189788412449
 31
0.0
  0
LINE
  5
810
  8
0
 10
142.90002370514139
 20
161.30189788412449
 30
0.0
 11
149.2603869220101
 21
161.30189788412449
 31
0.0
  0
LINE
  5
811
  8
0
 10
149.2603882020411
 20
161.30189788412449
 30
0.0
 11
151.7859663951933
 21
161.30189788412449
 31
0.0
  0
LINE
  5
812
  8
0
 10
151.78596768692191
 20
161.30189788412449
 30
0.0
 11
154.39069035192591
 21
161.30189788412449
 31
0.0
  0
LINE
  5
81B
  8
0
 10
139.3906903519256
 20
153.78688642372521
 30
0.0
 11
139.3906903519256
 21
161.30189788412449
 31
0.0
  0
LINE
  5
81C
  8
0
 10
169.39068962200719
 20
153.78688642372501
 30
0.0
 11
169.39068962200719
 21
161.30189788412429
 31
0.0
  0
INSERT
  5
835
  8
0
  6
CONTINUOUS
  2
*X9
 10
0.0
 20
0.0
 30
0.0
1001
GRADIENTCOLOR1ACI
1070
     5
1001
GRADIENTCOLOR2ACI
1070
     2
1001
ACAD
1000
HATCH
1002
{
1070
    19
1000
NET
1040
12.0
1040
-0.7853981633974485
1000
R14_HATCH_DATA
1000
835
1011
1.0
1021
0.0
1031
0.0
1021
0.0
1031
0.0
1011
0.0
1021
0.0
1031
0.0
1021
1.0
1031
0.0
1011
0.0
1021
0.0
1031
0.0
1021
0.0
1031
1.0
1040
0.0
1010
0.0
1020
0.0
1030
1.0
1000
NET
1070
     0
1070
     0
1071
        1
1071
        7
1070
     0
1070
     1
1071
       20
1040
168.34730056653169
1040
153.78688642372521
1040
169.39068962200719
1040
153.78688642372521
1040
169.39068962200719
1040
161.30189788412449
1040
169.16280737702749
1040
161.30189788412449
1040
168.48608099748981
1040
161.30189788412449
1040
165.8813569987108
1040
161.30189788412449
1040
159.52099378184221
1040
161.30189788412449
1040
156.99541430865909
1040
161.30189788412449
1040
154.39069035192591
1040
161.30189788412449
1040
151.78596768692191
1040
161.30189788412449
1040
149.2603882020411
1040
161.30189788412449
1040
142.90002370514139
1040
161.30189788412449
1040
141.40030929515959
1040
161.30189788412449
1040
140.29530104013739
1040
161.30189788412449
1040
139.61857573292079
1040
161.30189788412449
1040
139.3906903519256
1040
161.30189788412449
1040
139.3906903519256
1040
153.78688642372521
1040
140.50540823723139
1040
153.78688642372521
1040
146.81595954972681
1040
153.78688642372521
1040
153.4802100919905
1040
153.78688642372521
1071
        0
1070
     1
1070
     1
1040
-0.7853981633974485
1040
12.0
1070
     0
1070
     2
1040
5.4977871437821371
1040
-59.669201725194483
1040
161.786879207314
1040
1.0606601717798201
1040
1.060660171779819
1070
     0
1040
0.7853981633974465
1040
-59.669201725194483
1040
161.786879207314
1040
-1.060660171779819
1040
1.0606601717798201
1070
     0
1040
0.0698074535299957
1071
        1
1040
164.272814914458
1040
157.9097515644998
1040
0.0
1002
}
  0
ENDSEC
  0
EOF
