  0
SECTION
  2
HEADER
  9
$ACADVER
  1
AC1009
  9
$INSBASE
 10
0.0
 20
0.0
 30
0.0
  9
$EXTMIN
 10
-0.0040174231539822
 20
-0.0139243257892758
 30
-0.0000000349181948
  9
$EXTMAX
 10
271.52369699877403
 20
177.974444850791
 30
0.0000000814935747
  9
$LIMMIN
 10
0.0
 20
0.0
  9
$LIMMAX
 10
12.0
 20
9.0
  9
$ORTHOMODE
 70
     1
  9
$REGENMODE
 70
     1
  9
$FILLMODE
 70
     1
  9
$QTEXTMODE
 70
     0
  9
$MIRRTEXT
 70
     0
  9
$DRAGMODE
 70
     2
  9
$LTSCALE
 40
1.0
  9
$OSMODE
 70
    37
  9
$ATTMODE
 70
     1
  9
$TEXTSIZE
 40
0.2
  9
$TRACEWID
 40
0.05
  9
$TEXTSTYLE
  7
ROMANS
  9
$CLAYER
  8
0
  9
$CELTYPE
  6
BYLAYER
  9
$CECOLOR
 62
   256
  9
$DIMSCALE
 40
1.0
  9
$DIMASZ
 40
0.09375
  9
$DIMEXO
 40
0.0625
  9
$DIMDLI
 40
0.375
  9
$DIMRND
 40
0.0
  9
$DIMDLE
 40
0.0
  9
$DIMEXE
 40
0.03125
  9
$DIMTP
 40
0.0
  9
$DIMTM
 40
0.0
  9
$DIMTXT
 40
0.09375
  9
$DIMCEN
 40
0.09375
  9
$DIMTSZ
 40
0.0
  9
$DIMTOL
 70
     0
  9
$DIMLIM
 70
     0
  9
$DIMTIH
 70
     0
  9
$DIMTOH
 70
     0
  9
$DIMSE1
 70
     0
  9
$DIMSE2
 70
     0
  9
$DIMTAD
 70
     0
  9
$DIMZIN
 70
     0
  9
$DIMBLK
  1

  9
$DIMASO
 70
     1
  9
$DIMSHO
 70
     1
  9
$DIMPOST
  1

  9
$DIMAPOST
  1

  9
$DIMALT
 70
     0
  9
$DIMALTD
 70
     2
  9
$DIMALTF
 40
25.399999999999999
  9
$DIMLFAC
 40
1.0
  9
$DIMTOFL
 70
     0
  9
$DIMTVP
 40
0.0
  9
$DIMTIX
 70
     0
  9
$DIMSOXD
 70
     0
  9
$DIMSAH
 70
     0
  9
$DIMBLK1
  1

  9
$DIMBLK2
  1

  9
$DIMSTYLE
  2
BAC
  9
$DIMCLRD
 70
     0
  9
$DIMCLRE
 70
     6
  9
$DIMCLRT
 70
     0
  9
$DIMTFAC
 40
1.0
  9
$DIMGAP
 40
0.0625
  9
$LUNITS
 70
     5
  9
$LUPREC
 70
     6
  9
$SKETCHINC
 40
0.1
  9
$FILLETRAD
 40
0.0
  9
$AUNITS
 70
     0
  9
$AUPREC
 70
     0
  9
$MENU
  1
.
  9
$ELEVATION
 40
0.0
  9
$PELEVATION
 40
0.0
  9
$THICKNESS
 40
0.0
  9
$LIMCHECK
 70
     0
  9
$BLIPMODE
 70
     0
  9
$CHAMFERA
 40
0.5
  9
$CHAMFERB
 40
0.5
  9
$SKPOLY
 70
     0
  9
$TDCREATE
 40
2456826.7030828591
  9
$TDUPDATE
 40
2456827.5645389468
  9
$TDINDWG
 40
0.0057017593
  9
$TDUSRTIMER
 40
0.005701331
  9
$USRTIMER
 70
     1
  9
$ANGBASE
 50
0.0
  9
$ANGDIR
 70
     0
  9
$PDMODE
 70
     0
  9
$PDSIZE
 40
0.0
  9
$PLINEWID
 40
0.0
  9
$COORDS
 70
     1
  9
$SPLFRAME
 70
     0
  9
$SPLINETYPE
 70
     6
  9
$SPLINESEGS
 70
     8
  9
$ATTDIA
 70
     0
  9
$ATTREQ
 70
     1
  9
$HANDLING
 70
     1
  9
$HANDSEED
  5
24BB
  9
$SURFTAB1
 70
     6
  9
$SURFTAB2
 70
     6
  9
$SURFTYPE
 70
     6
  9
$SURFU
 70
     6
  9
$SURFV
 70
     6
  9
$UCSNAME
  2

  9
$UCSORG
 10
0.0
 20
0.0
 30
0.0
  9
$UCSXDIR
 10
1.0
 20
0.0
 30
0.0
  9
$UCSYDIR
 10
0.0
 20
1.0
 30
0.0
  9
$PUCSNAME
  2

  9
$PUCSORG
 10
0.0
 20
0.0
 30
0.0
  9
$PUCSXDIR
 10
1.0
 20
0.0
 30
0.0
  9
$PUCSYDIR
 10
0.0
 20
1.0
 30
0.0
  9
$USERI1
 70
     0
  9
$USERI2
 70
     0
  9
$USERI3
 70
     0
  9
$USERI4
 70
     0
  9
$USERI5
 70
     0
  9
$USERR1
 40
0.0
  9
$USERR2
 40
0.0
  9
$USERR3
 40
0.0
  9
$USERR4
 40
0.0
  9
$USERR5
 40
0.0
  9
$WORLDVIEW
 70
     1
  9
$SHADEDGE
 70
     3
  9
$SHADEDIF
 70
    70
  9
$TILEMODE
 70
     1
  9
$MAXACTVP
 70
    48
  9
$PLIMCHECK
 70
     0
  9
$PEXTMIN
 10
1.0000000000000000E+020
 20
1.0000000000000000E+020
 30
1.0000000000000000E+020
  9
$PEXTMAX
 10
-1.0000000000000000E+020
 20
-1.0000000000000000E+020
 30
-1.0000000000000000E+020
  9
$PLIMMIN
 10
0.0
 20
0.0
  9
$PLIMMAX
 10
12.0
 20
9.0
  9
$UNITMODE
 70
     0
  9
$VISRETAIN
 70
     1
  9
$PLINEGEN
 70
     0
  9
$PSLTSCALE
 70
     1
  0
ENDSEC
  0
SECTION
  2
TABLES
  0
TABLE
  2
VPORT
 70
     1
  0
VPORT
  2
*ACTIVE
 70
     0
 10
0.0
 20
0.0
 11
1.0
 21
1.0
 12
135.75983978780999
 22
88.980260262500863
 13
0.0
 23
0.0
 14
0.5
 24
0.5
 15
0.5
 25
0.5
 16
0.0
 26
0.0
 36
1.0
 17
0.0
 27
0.0
 37
0.0
 40
179.17232728640229
 41
1.7702552719200879
 42
50.0
 43
0.0
 44
0.0
 50
0.0
 51
0.0
 71
     0
 72
   100
 73
     1
 74
     1
 75
     0
 76
     0
 77
     0
 78
     0
  0
ENDTAB
  0
TABLE
  2
LTYPE
 70
     2
  0
LTYPE
  2
CONTINUOUS
 70
     0
  3
Solid line
 72
    65
 73
     0
 40
0.0
  0
LTYPE
  2
PHANTOM2
 70
     0
  3
Phantom (.5x) ___ _ _ ___ _ _ ___ _ _ ___ _ _
 72
    65
 73
     6
 40
1.25
 49
0.625
 49
-0.125
 49
0.125
 49
-0.125
 49
0.125
 49
-0.125
  0
ENDTAB
  0
TABLE
  2
LAYER
 70
     1
  0
LAYER
  2
0
 70
     0
 62
     7
  6
CONTINUOUS
  0
ENDTAB
  0
TABLE
  2
STYLE
 70
     3
  0
STYLE
  2
STANDARD
 70
     0
 40
0.0
 41
1.0
 50
0.0
 71
     0
 42
0.2
  3
txt
  4

  0
STYLE
  2
ANNOTATIVE
 70
     0
 40
0.0
 41
1.0
 50
0.0
 71
     0
 42
0.2
  3
txt
  4

  0
STYLE
  2
ROMANS
 70
     0
 40
0.0
 41
0.75
 50
0.0
 71
     0
 42
0.2
  3
romans.shx
  4

  0
ENDTAB
  0
TABLE
  2
VIEW
 70
     0
  0
ENDTAB
  0
TABLE
  2
UCS
 70
     0
  0
ENDTAB
  0
TABLE
  2
APPID
 70
    16
  0
APPID
  2
ACAD
 70
     0
  0
APPID
  2
ACADANNOTATIVE
 70
     0
  0
APPID
  2
ACAD_MLEADERVER
 70
     0
  0
APPID
  2
ACAD_DSTYLE_DIMJAG
 70
     0
  0
APPID
  2
ACAD_DSTYLE_DIMTALN
 70
     0
  0
APPID
  2
ACAD_PSEXT
 70
     0
  0
APPID
  2
ACADANNOPO
 70
     0
  0
APPID
  2
MCAD_NO_VIS
 70
     0
  0
APPID
  2
ACAD_TEMP_GRAPHIC
 70
     0
  0
APPID
  2
ACATTRIBSERVICES
 70
     0
  0
APPID
  2
DESIGNERASSEMBLIES
 70
     0
  0
APPID
  2
ACAD_DSTYLE_DIMBREAK
 70
     0
  0
APPID
  2
ACAD_NAV_VCDISPLAY
 70
     0
  0
APPID
  2
ACAD_EXEMPT_FROM_CAD_STANDARDS
 70
     0
  0
APPID
  2
GRADIENTCOLOR1ACI
 70
     0
  0
APPID
  2
GRADIENTCOLOR2ACI
 70
     0
  0
ENDTAB
  0
TABLE
  2
DIMSTYLE
 70
     3
  0
DIMSTYLE
  2
STANDARD
 70
     0
  3

  4

  5

  6

  7

 40
1.0
 41
0.18
 42
0.0625
 43
0.38
 44
0.18
 45
0.0
 46
0.0
 47
0.0
 48
0.0
140
0.18
141
0.09
142
0.0
143
25.399999999999999
144
1.0
145
0.0
146
1.0
147
0.09
 71
     0
 72
     0
 73
     1
 74
     1
 75
     0
 76
     0
 77
     0
 78
     0
170
     0
171
     2
172
     0
173
     0
174
     0
175
     0
176
     0
177
     0
178
     0
  0
DIMSTYLE
  2
ANNOTATIVE
 70
     0
  3

  4

  5

  6

  7

 40
1.0
 41
0.18
 42
0.0625
 43
0.38
 44
0.18
 45
0.0
 46
0.0
 47
0.0
 48
0.0
140
0.18
141
0.09
142
0.0
143
25.399999999999999
144
1.0
145
0.0
146
1.0
147
0.09
 71
     0
 72
     0
 73
     1
 74
     1
 75
     0
 76
     0
 77
     0
 78
     0
170
     0
171
     2
172
     0
173
     0
174
     0
175
     0
176
     0
177
     0
178
     0
  0
DIMSTYLE
  2
BAC
 70
     0
  3

  4

  5

  6

  7

 40
1.0
 41
0.09375
 42
0.0625
 43
0.375
 44
0.03125
 45
0.0
 46
0.0
 47
0.0
 48
0.0
140
0.09375
141
0.09375
142
0.0
143
25.399999999999999
144
1.0
145
0.0
146
1.0
147
0.0625
 71
     0
 72
     0
 73
     0
 74
     0
 75
     0
 76
     0
 77
     0
 78
     0
170
     0
171
     2
172
     0
173
     0
174
     0
175
     0
176
     0
177
     6
178
     0
  0
ENDTAB
  0
ENDSEC
  0
SECTION
  2
BLOCKS
  0
BLOCK
  8
0
  2
$MODEL_SPACE
 70
     0
 10
0.0
 20
0.0
 30
0.0
  3
$MODEL_SPACE
  1

  0
ENDBLK
  5
23D0
  8
0
  0
BLOCK
 67
     1
  8
0
  2
$PAPER_SPACE
 70
     0
 10
0.0
 20
0.0
 30
0.0
  3
$PAPER_SPACE
  1

  0
ENDBLK
  5
23CC
 67
     1
  8
0
  0
BLOCK
  8
0
  2
*X3
 70
     1
 10
0.0
 20
0.0
 30
0.0
  3
*X3
  1

  0
LINE
  5
2232
  8
0
 62
     0
 10
163.1039016367327
 20
48.281353561263813
 30
0.0
 11
155.76378599807771
 21
55.621469199918742
 31
0.0
  0
LINE
  5
2233
  8
0
 62
     0
 10
164.68165063061321
 20
44.582284223823699
 30
0.0
 11
152.589200148641
 21
56.674734705795871
 31
0.0
  0
LINE
  5
2234
  8
0
 62
     0
 10
166.24608639464921
 20
40.896528116227941
 30
0.0
 11
150.15783230024701
 21
56.984782210630229
 31
0.0
  0
LINE
  5
2235
  8
0
 62
     0
 10
167.8105221586853
 20
37.21077200863229
 30
0.0
 11
148.08640272193
 21
56.934891445387557
 31
0.0
  0
LINE
  5
2236
  8
0
 62
     0
 10
169.37495792272131
 20
33.525015901036532
 30
0.0
 11
146.25197009931901
 21
56.648003724439022
 31
0.0
  0
LINE
  5
2237
  8
0
 62
     0
 10
170.9393936867574
 20
29.839259793440821
 30
0.0
 11
144.59665456613899
 21
56.181998914059321
 31
0.0
  0
LINE
  5
2238
  8
0
 62
     0
 10
172.5038294507934
 20
26.15350368584512
 30
0.0
 11
143.08839148661019
 21
55.568941650028528
 31
0.0
  0
LINE
  5
2239
  8
0
 62
     0
 10
174.06826521482949
 20
22.467747578249401
 30
0.0
 11
141.70799408285009
 21
54.828018710228903
 31
0.0
  0
LINE
  5
223A
  8
0
 62
     0
 10
175.63270097886561
 20
18.781991470653711
 30
0.0
 11
140.44378020046139
 21
53.970912249058067
 31
0.0
  0
LINE
  5
223B
  8
0
 62
     0
 10
177.1444033153191
 20
15.148968790640479
 30
0.0
 11
139.28905371775431
 21
53.004318388205462
 31
0.0
  0
LINE
  5
223C
  8
0
 62
     0
 10
177.47583347597251
 20
12.69621828642755
 30
0.0
 11
138.24089564018021
 21
51.931156122219988
 31
0.0
  0
LINE
  5
223D
  8
0
 62
     0
 10
177.1577823448099
 20
10.892949074030501
 30
0.0
 11
137.2996878299966
 21
50.751043588843899
 31
0.0
  0
LINE
  5
223E
  8
0
 62
     0
 10
176.5020726265403
 20
9.4273384487404712
 30
0.0
 11
136.46917360287969
 21
49.460237472401182
 31
0.0
  0
LINE
  5
223F
  8
0
 62
     0
 10
175.5923299325876
 20
8.2157607991335055
 30
0.0
 11
135.75707906938831
 21
48.051011662332918
 31
0.0
  0
LINE
  5
2240
  8
0
 62
     0
 10
174.45224019462529
 20
7.2345301935361022
 30
0.0
 11
135.1765572935571
 21
46.51021309460446
 31
0.0
  0
LINE
  5
2241
  8
0
 62
     0
 10
173.0697447322581
 20
6.4957053123436594
 30
0.0
 11
134.74917999951589
 21
44.816270045086092
 31
0.0
  0
LINE
  5
2242
  8
0
 62
     0
 10
171.3856211171915
 20
6.058508583850708
 30
0.0
 11
134.51145262912209
 21
42.932677071920253
 31
0.0
  0
LINE
  5
2243
  8
0
 62
     0
 10
169.20532914536651
 20
6.1174802121160479
 30
0.0
 11
134.5311788190769
 21
40.791630538405713
 31
0.0
  0
LINE
  5
2244
  8
0
 62
     0
 10
162.65102116498551
 20
10.550467848937361
 30
0.0
 11
134.9612677469064
 21
38.240221267016608
 31
0.0
  0
LINE
  5
2245
  8
0
 62
     0
 10
145.70701291014041
 20
25.373155760222971
 30
0.0
 11
136.37664952039171
 21
34.703519149971697
 31
0.0
  0
LINE
  5
2246
  8
0
 62
     0
 10
173.5411655189628
 20
6.7036375357181708
 30
0.0
 11
176.7787861448486
 21
9.9412581616040541
 31
0.0
  0
LINE
  5
2247
  8
0
 62
     0
 10
170.7202441784043
 20
6.0040365387193901
 30
0.0
 11
177.47838714184741
 21
12.76217950216247
 31
0.0
  0
LINE
  5
2248
  8
0
 62
     0
 10
168.8000588658922
 20
6.2051715697669447
 30
0.0
 11
177.27725211079991
 21
14.6823648146746
 31
0.0
  0
LINE
  5
2249
  8
0
 62
     0
 10
167.25959743410971
 20
6.7860304815440591
 30
0.0
 11
176.7122287166186
 21
16.23866176405285
 31
0.0
  0
LINE
  5
224A
  8
0
 62
     0
 10
165.9867311425912
 20
7.6344845335851801
 30
0.0
 11
176.0801243109922
 21
17.727877701986181
 31
0.0
  0
LINE
  5
224B
  8
0
 62
     0
 10
164.85411691608891
 20
8.6231906506424991
 30
0.0
 11
175.4480199053659
 21
19.217093639919511
 31
0.0
  0
LINE
  5
224C
  8
0
 62
     0
 10
163.72262784890759
 20
9.6130219270208634
 30
0.0
 11
174.81591549973959
 21
20.70630957785281
 31
0.0
  0
LINE
  5
224D
  8
0
 62
     0
 10
162.5911387817263
 20
10.60285320339923
 30
0.0
 11
174.1838110941132
 21
22.195525515786098
 31
0.0
  0
LINE
  5
224E
  8
0
 62
     0
 10
161.45964971454509
 20
11.59268447977766
 30
0.0
 11
173.5517066884868
 21
23.684741453719461
 31
0.0
  0
LINE
  5
224F
  8
0
 62
     0
 10
160.3281606473638
 20
12.58251575615602
 30
0.0
 11
172.91960228286061
 21
25.173957391652781
 31
0.0
  0
LINE
  5
2250
  8
0
 62
     0
 10
159.1966715801826
 20
13.57234703253442
 30
0.0
 11
172.2874978772343
 21
26.66317332958608
 31
0.0
  0
LINE
  5
2251
  8
0
 62
     0
 10
158.0651825130013
 20
14.56217830891279
 30
0.0
 11
171.65539347160791
 21
28.152389267519371
 31
0.0
  0
LINE
  5
2252
  8
0
 62
     0
 10
156.9336934458201
 20
15.55200958529119
 30
0.0
 11
171.0232890659816
 21
29.641605205452692
 31
0.0
  0
LINE
  5
2253
  8
0
 62
     0
 10
155.80220437863881
 20
16.541840861669581
 30
0.0
 11
170.39118466035529
 21
31.130821143386019
 31
0.0
  0
LINE
  5
2254
  8
0
 62
     0
 10
154.6707153114576
 20
17.531672138047981
 30
0.0
 11
169.7590802547289
 21
32.62003708131931
 31
0.0
  0
LINE
  5
2255
  8
0
 62
     0
 10
153.53922624427631
 20
18.521503414426348
 30
0.0
 11
169.12697584910259
 21
34.109253019252641
 31
0.0
  0
LINE
  5
2256
  8
0
 62
     0
 10
152.4077371770951
 20
19.511334690804741
 30
0.0
 11
168.49487144347631
 21
35.598468957185929
 31
0.0
  0
LINE
  5
2257
  8
0
 62
     0
 10
151.27624810991389
 20
20.501165967183141
 30
0.0
 11
167.86276703785001
 21
37.087684895119253
 31
0.0
  0
LINE
  5
2258
  8
0
 62
     0
 10
150.1447590427326
 20
21.490997243561509
 30
0.0
 11
167.2306626322237
 21
38.576900833052612
 31
0.0
  0
LINE
  5
2259
  8
0
 62
     0
 10
149.01326997555131
 20
22.48082851993993
 30
0.0
 11
166.59855822659731
 21
40.0661167709859
 31
0.0
  0
LINE
  5
225A
  8
0
 62
     0
 10
147.8817809083701
 20
23.470659796318301
 30
0.0
 11
165.966453820971
 21
41.555332708919181
 31
0.0
  0
LINE
  5
225B
  8
0
 62
     0
 10
146.75029184118881
 20
24.460491072696669
 30
0.0
 11
165.33434941534469
 21
43.044548646852533
 31
0.0
  0
LINE
  5
225C
  8
0
 62
     0
 10
145.61880277400761
 20
25.450322349075091
 30
0.0
 11
164.7022450097183
 21
44.533764584785843
 31
0.0
  0
LINE
  5
225D
  8
0
 62
     0
 10
144.48731370682631
 20
26.440153625453458
 30
0.0
 11
164.07014060409199
 21
46.022980522719152
 31
0.0
  0
LINE
  5
225E
  8
0
 62
     0
 10
143.35582463964511
 20
27.429984901831858
 30
0.0
 11
163.43803619846571
 21
47.512196460652447
 31
0.0
  0
LINE
  5
225F
  8
0
 62
     0
 10
142.22433557246379
 20
28.419816178210251
 30
0.0
 11
162.76808531402651
 21
48.96356591977289
 31
0.0
  0
LINE
  5
2260
  8
0
 62
     0
 10
141.09284650528249
 20
29.409647454588612
 30
0.0
 11
161.97936800539981
 21
50.296168954705813
 31
0.0
  0
LINE
  5
2261
  8
0
 62
     0
 10
139.9613574381012
 20
30.399478730967019
 30
0.0
 11
161.07766993061651
 21
51.515791223482232
 31
0.0
  0
LINE
  5
2262
  8
0
 62
     0
 10
138.85490996875799
 20
31.414351605183391
 30
0.0
 11
160.06807207538401
 21
52.6275137118093
 31
0.0
  0
LINE
  5
2263
  8
0
 62
     0
 10
137.84952062459971
 20
32.530282604584642
 30
0.0
 11
158.95214107598269
 21
53.632903055967653
 31
0.0
  0
LINE
  5
2264
  8
0
 62
     0
 10
136.9521615662191
 20
33.7542438897637
 30
0.0
 11
157.72817979080349
 21
54.530262114348233
 31
0.0
  0
LINE
  5
2265
  8
0
 62
     0
 10
136.16806554790631
 20
35.091468215010572
 30
0.0
 11
156.39095546555669
 21
55.314358132661027
 31
0.0
  0
LINE
  5
2266
  8
0
 62
     0
 10
135.5069038259538
 20
36.551626836617658
 30
0.0
 11
154.93079684394971
 21
55.975519854613538
 31
0.0
  0
LINE
  5
2267
  8
0
 62
     0
 10
134.9847234884669
 20
38.15076684269048
 30
0.0
 11
153.33165683787681
 21
56.497700192100382
 31
0.0
  0
LINE
  5
2268
  8
0
 62
     0
 10
134.62799182982701
 20
39.915355527610139
 30
0.0
 11
151.56706815295709
 21
56.854431850740347
 31
0.0
  0
LINE
  5
2269
  8
0
 62
     0
 10
134.48282040830361
 20
41.891504449646398
 30
0.0
 11
149.5909192309208
 21
56.99960327226367
 31
0.0
  0
LINE
  5
226A
  8
0
 62
     0
 10
134.64026075703649
 20
44.170265141939012
 30
0.0
 11
147.3121585386283
 21
56.842162923530779
 31
0.0
  0
LINE
  5
226B
  8
0
 62
     0
 10
135.3357204197381
 20
46.98704514820021
 30
0.0
 11
144.49537853236711
 21
56.146703260829199
 31
0.0
  0
ENDBLK
  5
226D
  8
0
  0
BLOCK
  8
0
  2
*X5
 70
     1
 10
0.0
 20
0.0
 30
0.0
  3
*X5
  1

  0
LINE
  5
22A1
  8
0
 62
     0
 10
271.02169447238509
 20
55.65754910677402
 30
0.0
 11
269.67924795728248
 21
56.999995621876678
 31
0.0
  0
LINE
  5
22A2
  8
0
 62
     0
 10
271.02169447238509
 20
53.536228763214339
 30
0.0
 11
267.55792761372288
 21
56.999995621876621
 31
0.0
  0
LINE
  5
22A3
  8
0
 62
     0
 10
271.02169447238509
 20
51.414908419654687
 30
0.0
 11
265.43660727016322
 21
56.9999956218767
 31
0.0
  0
LINE
  5
22A4
  8
0
 62
     0
 10
271.02169447238509
 20
49.293588076095112
 30
0.0
 11
263.50668301198567
 21
56.80859953649459
 31
0.0
  0
LINE
  5
22A5
  8
0
 62
     0
 10
271.02169447238509
 20
47.172267732535452
 30
0.0
 11
263.50668301198567
 21
54.687279192934938
 31
0.0
  0
LINE
  5
22A6
  8
0
 62
     0
 10
271.02169447238509
 20
45.050947388975771
 30
0.0
 11
263.50668301198567
 21
52.56595884937532
 31
0.0
  0
LINE
  5
22A7
  8
0
 62
     0
 10
271.02169447238509
 20
42.92962704541614
 30
0.0
 11
263.50668301198567
 21
50.444638505815611
 31
0.0
  0
LINE
  5
22A8
  8
0
 62
     0
 10
271.02169447238509
 20
40.808306701856488
 30
0.0
 11
263.50668301198567
 21
48.323318162255973
 31
0.0
  0
LINE
  5
22A9
  8
0
 62
     0
 10
271.02169447238509
 20
38.686986358296849
 30
0.0
 11
263.50668301198567
 21
46.20199781869627
 31
0.0
  0
LINE
  5
22AA
  8
0
 62
     0
 10
271.02169447238509
 20
36.565666014737253
 30
0.0
 11
263.50668301198601
 21
44.080677475136397
 31
0.0
  0
LINE
  5
22AB
  8
0
 62
     0
 10
271.02169447238509
 20
34.444345671177587
 30
0.0
 11
263.50668301198601
 21
41.95935713157678
 31
0.0
  0
LINE
  5
22AC
  8
0
 62
     0
 10
271.02169447238509
 20
32.323025327617891
 30
0.0
 11
263.50668301198601
 21
39.838036788017121
 31
0.0
  0
LINE
  5
22AD
  8
0
 62
     0
 10
271.02169447238509
 20
30.201704984058299
 30
0.0
 11
263.50668301198601
 21
37.716716444457489
 31
0.0
  0
LINE
  5
22AE
  8
0
 62
     0
 10
271.02169447238509
 20
28.080384640498671
 30
0.0
 11
263.50668301198601
 21
35.59539610089783
 31
0.0
  0
LINE
  5
22AF
  8
0
 62
     0
 10
269.98076241752898
 20
26.999996351795179
 30
0.0
 11
263.50668301198601
 21
33.47407575733817
 31
0.0
  0
LINE
  5
22B0
  8
0
 62
     0
 10
267.85944207396938
 20
26.999996351795179
 30
0.0
 11
263.50668301198601
 21
31.352755413778478
 31
0.0
  0
LINE
  5
22B1
  8
0
 62
     0
 10
265.73812173040972
 20
26.999996351795119
 30
0.0
 11
263.50668301198601
 21
29.231435070218879
 31
0.0
  0
LINE
  5
22B2
  8
0
 62
     0
 10
263.61680138685011
 20
26.999996351795179
 30
0.0
 11
263.50668301198601
 21
27.11011472665928
 31
0.0
  0
LINE
  5
22B3
  8
0
 62
     0
 10
230.2566830119857
 20
56.117474039540411
 30
0.0
 11
229.37416071324009
 21
56.999996338286017
 31
0.0
  0
LINE
  5
22B4
  8
0
 62
     0
 10
230.2566830119857
 20
53.996153695980752
 30
0.0
 11
227.2528403696804
 21
56.999996338286003
 31
0.0
  0
LINE
  5
22B5
  8
0
 62
     0
 10
230.2566830119857
 20
51.874833352421092
 30
0.0
 11
225.1315200261208
 21
56.999996338286003
 31
0.0
  0
LINE
  5
22B6
  8
0
 62
     0
 10
230.2566830119857
 20
49.753513008861532
 30
0.0
 11
223.01019968256119
 21
56.999996338286039
 31
0.0
  0
LINE
  5
22B7
  8
0
 62
     0
 10
230.2566830119857
 20
47.632192665301837
 30
0.0
 11
222.75202778374299
 21
55.136847893544562
 31
0.0
  0
LINE
  5
22B8
  8
0
 62
     0
 10
230.2566830119857
 20
45.510872321742099
 30
0.0
 11
222.75202767633701
 21
53.015527657390891
 31
0.0
  0
LINE
  5
22B9
  8
0
 62
     0
 10
230.2566830119857
 20
43.389551978182467
 30
0.0
 11
222.75202756893091
 21
50.894207421237297
 31
0.0
  0
LINE
  5
22BA
  8
0
 62
     0
 10
230.2566830119857
 20
41.268231634622808
 30
0.0
 11
222.75202746152499
 21
48.772887185083619
 31
0.0
  0
LINE
  5
22BB
  8
0
 62
     0
 10
230.2566830119857
 20
39.146911291063219
 30
0.0
 11
222.75202735411889
 21
46.65156694892999
 31
0.0
  0
LINE
  5
22BC
  8
0
 62
     0
 10
230.2566830119857
 20
37.025590947503559
 30
0.0
 11
222.752027246713
 21
44.530246712776382
 31
0.0
  0
LINE
  5
22BD
  8
0
 62
     0
 10
230.2566830119857
 20
34.904270603943928
 30
0.0
 11
222.7520271393069
 21
42.408926476622781
 31
0.0
  0
LINE
  5
22BE
  8
0
 62
     0
 10
230.2566830119857
 20
32.782950260384268
 30
0.0
 11
222.75202703190089
 21
40.287606240469103
 31
0.0
  0
LINE
  5
22BF
  8
0
 62
     0
 10
230.2566830119857
 20
30.661629916824609
 30
0.0
 11
222.752026924495
 21
38.166286004315417
 31
0.0
  0
LINE
  5
22C0
  8
0
 62
     0
 10
230.2566830119857
 20
28.540309573264999
 30
0.0
 11
222.7520268170889
 21
36.044965768161852
 31
0.0
  0
LINE
  5
22C1
  8
0
 62
     0
 10
230.2566830119857
 20
26.41898922970535
 30
0.0
 11
222.75202670968289
 21
33.923645532008237
 31
0.0
  0
LINE
  5
22C2
  8
0
 62
     0
 10
230.2566830119857
 20
24.297668886145718
 30
0.0
 11
222.7520266022768
 21
31.80232529585459
 31
0.0
  0
LINE
  5
22C3
  8
0
 62
     0
 10
230.2566830119857
 20
22.176348542586052
 30
0.0
 11
222.75202649487099
 21
29.68100505970088
 31
0.0
  0
LINE
  5
22C4
  8
0
 62
     0
 10
230.2566830119857
 20
20.055028199026388
 30
0.0
 11
222.75202638746481
 21
27.559684823547268
 31
0.0
  0
LINE
  5
22C5
  8
0
 62
     0
 10
230.2566830119857
 20
17.933707855466789
 30
0.0
 11
222.75202628005891
 21
25.438364587393671
 31
0.0
  0
LINE
  5
22C6
  8
0
 62
     0
 10
230.2566830119857
 20
15.81238751190716
 30
0.0
 11
222.7520261726529
 21
23.317044351240039
 31
0.0
  0
LINE
  5
22C7
  8
0
 62
     0
 10
230.2566830119857
 20
13.691067168347439
 30
0.0
 11
222.75202606524689
 21
21.195724115086339
 31
0.0
  0
LINE
  5
22C8
  8
0
 62
     0
 10
230.2566830119857
 20
11.56974682478784
 30
0.0
 11
222.7520259578408
 21
19.07440387893277
 31
0.0
  0
LINE
  5
22C9
  8
0
 62
     0
 10
230.2566830119857
 20
9.4484264812281822
 30
0.0
 11
222.75202585043479
 21
16.953083642779148
 31
0.0
  0
LINE
  5
22CA
  8
0
 62
     0
 10
230.2566830119857
 20
7.3271061376685207
 30
0.0
 11
222.75202578876139
 21
14.83176336089295
 31
0.0
  0
LINE
  5
22CB
  8
0
 62
     0
 10
229.4624731842157
 20
5.9999956218789219
 30
0.0
 11
222.7520257887613
 21
12.71044301733332
 31
0.0
  0
LINE
  5
22CC
  8
0
 62
     0
 10
227.34115284065609
 20
5.9999956218789219
 30
0.0
 11
222.75202578876139
 21
10.58912267377368
 31
0.0
  0
LINE
  5
22CD
  8
0
 62
     0
 10
225.21983249709649
 20
5.9999956218789219
 30
0.0
 11
222.7520257887613
 21
8.4678023302140542
 31
0.0
  0
LINE
  5
22CE
  8
0
 62
     0
 10
223.0985121535368
 20
5.9999956218789219
 30
0.0
 11
222.75202578876139
 21
6.346481986654366
 31
0.0
  0
LINE
  5
22CF
  8
0
 62
     0
 10
270.94774653212937
 20
26.999996351795211
 30
0.0
 11
271.02169447238509
 21
27.073944292051038
 31
0.0
  0
LINE
  5
22D0
  8
0
 62
     0
 10
268.8264261885696
 20
26.999996351795179
 30
0.0
 11
271.02169447238509
 21
29.19526463561067
 31
0.0
  0
LINE
  5
22D1
  8
0
 62
     0
 10
266.70510584501011
 20
26.999996351795229
 30
0.0
 11
271.02169447238509
 21
31.316584979170329
 31
0.0
  0
LINE
  5
22D2
  8
0
 62
     0
 10
264.58378550145051
 20
26.999996351795229
 30
0.0
 11
271.02169447238509
 21
33.437905322729989
 31
0.0
  0
LINE
  5
22D3
  8
0
 62
     0
 10
263.50668301198601
 20
28.04421420589043
 30
0.0
 11
271.02169447238509
 21
35.559225666289613
 31
0.0
  0
LINE
  5
22D4
  8
0
 62
     0
 10
263.50668301198601
 20
30.16553454945009
 30
0.0
 11
271.02169447238509
 21
37.68054600984928
 31
0.0
  0
LINE
  5
22D5
  8
0
 62
     0
 10
263.50668301198601
 20
32.286854893009753
 30
0.0
 11
271.02169447238509
 21
39.80186635340894
 31
0.0
  0
LINE
  5
22D6
  8
0
 62
     0
 10
263.50668301198601
 20
34.408175236569321
 30
0.0
 11
271.02169447238509
 21
41.923186696968507
 31
0.0
  0
LINE
  5
22D7
  8
0
 62
     0
 10
263.50668301198601
 20
36.52949558012898
 30
0.0
 11
271.02169447238509
 21
44.044507040528167
 31
0.0
  0
LINE
  5
22D8
  8
0
 62
     0
 10
263.50668301198601
 20
38.65081592368864
 30
0.0
 11
271.02169447238509
 21
46.165827384087763
 31
0.0
  0
LINE
  5
22D9
  8
0
 62
     0
 10
263.50668301198601
 20
40.772136267248271
 30
0.0
 11
271.02169447238509
 21
48.287147727647401
 31
0.0
  0
LINE
  5
22DA
  8
0
 62
     0
 10
228.73454236661669
 20
5.9999956218789521
 30
0.0
 11
230.25668301198581
 21
7.5221362672480421
 31
0.0
  0
LINE
  5
22DB
  8
0
 62
     0
 10
263.50668301198601
 20
42.893456610807931
 30
0.0
 11
271.02169447238509
 21
50.408468071207068
 31
0.0
  0
LINE
  5
22DC
  8
0
 62
     0
 10
226.61322202305701
 20
5.9999956218789521
 30
0.0
 11
230.25668301198581
 21
9.6434566108077036
 31
0.0
  0
LINE
  5
22DD
  8
0
 62
     0
 10
263.50668301198601
 20
45.014776954367591
 30
0.0
 11
271.02169447238509
 21
52.52978841476672
 31
0.0
  0
LINE
  5
22DE
  8
0
 62
     0
 10
224.49190167949749
 20
5.999995621879008
 30
0.0
 11
230.25668301198581
 21
11.76477695436733
 31
0.0
  0
LINE
  5
22DF
  8
0
 62
     0
 10
263.50668301198567
 20
47.136097297926881
 30
0.0
 11
271.02169447238509
 21
54.651108758326352
 31
0.0
  0
LINE
  5
22E0
  8
0
 62
     0
 10
222.7520257887613
 20
6.3814400747025104
 30
0.0
 11
230.25668301198581
 21
13.886097297926961
 31
0.0
  0
LINE
  5
22E1
  8
0
 62
     0
 10
263.50668301198567
 20
49.257417641486541
 30
0.0
 11
271.02169447238509
 21
56.772429101886033
 31
0.0
  0
LINE
  5
22E2
  8
0
 62
     0
 10
222.7520257887613
 20
8.5027604182621701
 30
0.0
 11
230.25668301198581
 21
16.007417641486601
 31
0.0
  0
LINE
  5
22E3
  8
0
 62
     0
 10
263.50668301198567
 20
51.378737985046143
 30
0.0
 11
269.12794064881632
 21
56.999995621876742
 31
0.0
  0
LINE
  5
22E4
  8
0
 62
     0
 10
222.75202578876139
 20
10.6240807618218
 30
0.0
 11
230.25668301198581
 21
18.12873798504625
 31
0.0
  0
LINE
  5
22E5
  8
0
 62
     0
 10
263.50668301198561
 20
53.500058328605789
 30
0.0
 11
267.00662030525672
 21
56.9999956218767
 31
0.0
  0
LINE
  5
22E6
  8
0
 62
     0
 10
222.7520257887613
 20
12.745401105381429
 30
0.0
 11
230.25668301198581
 21
20.250058328605888
 31
0.0
  0
LINE
  5
22E7
  8
0
 62
     0
 10
263.50668301198567
 20
55.621378672165427
 30
0.0
 11
264.885299961697
 21
56.9999956218767
 31
0.0
  0
LINE
  5
22E8
  8
0
 62
     0
 10
222.7520257887613
 20
14.866721448941091
 30
0.0
 11
230.2566830119857
 21
22.371378672165491
 31
0.0
  0
LINE
  5
22E9
  8
0
 62
     0
 10
222.75202585220481
 20
16.9880418559442
 30
0.0
 11
230.25668301198581
 21
24.492699015725151
 31
0.0
  0
LINE
  5
22EA
  8
0
 62
     0
 10
222.7520259596109
 20
19.109362306909901
 30
0.0
 11
230.25668301198581
 21
26.614019359284772
 31
0.0
  0
LINE
  5
22EB
  8
0
 62
     0
 10
222.75202606701691
 20
21.23068275787551
 30
0.0
 11
230.2566830119857
 21
28.735339702844438
 31
0.0
  0
LINE
  5
22EC
  8
0
 62
     0
 10
222.75202617442289
 20
23.352003208841161
 30
0.0
 11
230.2566830119857
 21
30.856660046404102
 31
0.0
  0
LINE
  5
22ED
  8
0
 62
     0
 10
222.7520262818289
 20
25.47332365980683
 30
0.0
 11
230.2566830119857
 21
32.97798038996369
 31
0.0
  0
LINE
  5
22EE
  8
0
 62
     0
 10
222.75202638923491
 20
27.594644110772521
 30
0.0
 11
230.2566830119857
 21
35.09930073352335
 31
0.0
  0
LINE
  5
22EF
  8
0
 62
     0
 10
222.75202649664089
 20
29.715964561738161
 30
0.0
 11
230.25668301198581
 21
37.220621077083003
 31
0.0
  0
LINE
  5
22F0
  8
0
 62
     0
 10
222.75202660404699
 20
31.83728501270383
 30
0.0
 11
230.2566830119857
 21
39.34194142064257
 31
0.0
  0
LINE
  5
22F1
  8
0
 62
     0
 10
222.752026711453
 20
33.958605463669471
 30
0.0
 11
230.2566830119857
 21
41.46326176420223
 31
0.0
  0
LINE
  5
22F2
  8
0
 62
     0
 10
222.75202681885909
 20
36.079925914635169
 30
0.0
 11
230.2566830119857
 21
43.584582107761889
 31
0.0
  0
LINE
  5
22F3
  8
0
 62
     0
 10
222.75202692626499
 20
38.201246365600838
 30
0.0
 11
230.2566830119857
 21
45.705902451321521
 31
0.0
  0
LINE
  5
22F4
  8
0
 62
     0
 10
222.752027033671
 20
40.322566816566457
 30
0.0
 11
230.2566830119857
 21
47.827222794881109
 31
0.0
  0
LINE
  5
22F5
  8
0
 62
     0
 10
222.75202714107709
 20
42.443887267532169
 30
0.0
 11
230.2566830119857
 21
49.948543138440783
 31
0.0
  0
LINE
  5
22F6
  8
0
 62
     0
 10
222.7520272484831
 20
44.565207718497781
 30
0.0
 11
230.2566830119857
 21
52.0698634820004
 31
0.0
  0
LINE
  5
22F7
  8
0
 62
     0
 10
222.75202735588911
 20
46.686528169463472
 30
0.0
 11
230.2566830119857
 21
54.191183825560017
 31
0.0
  0
LINE
  5
22F8
  8
0
 62
     0
 10
222.75202746329521
 20
48.807848620429112
 30
0.0
 11
230.2566830119857
 21
56.31250416911967
 31
0.0
  0
LINE
  5
22F9
  8
0
 62
     0
 10
222.75202757070119
 20
50.929169071394782
 30
0.0
 11
228.8228548375925
 21
56.999996338286067
 31
0.0
  0
LINE
  5
22FA
  8
0
 62
     0
 10
222.7520276781072
 20
53.050489522360436
 30
0.0
 11
226.70153449403281
 21
56.999996338286067
 31
0.0
  0
LINE
  5
22FB
  8
0
 62
     0
 10
222.75202778551321
 20
55.171809973326098
 30
0.0
 11
224.58021415047321
 21
56.999996338286103
 31
0.0
  0
ENDBLK
  5
22FD
  8
0
  0
BLOCK
  8
0
  2
*X7
 70
     1
 10
0.0
 20
0.0
 30
0.0
  3
*X7
  1

  0
LINE
  5
2408
  8
0
 62
     0
 10
96.357428058690573
 20
131.4675616964625
 30
0.0
 11
128.48242805869049
 21
131.46756169646241
 31
0.0
  0
LINE
  5
2409
  8
0
 62
     0
 10
96.357428058690573
 20
132.9675616964625
 30
0.0
 11
128.48242805869049
 21
132.96756169646241
 31
0.0
  0
LINE
  5
240A
  8
0
 62
     0
 10
96.357428058690616
 20
134.4675616964625
 30
0.0
 11
128.48242805869049
 21
134.46756169646241
 31
0.0
  0
LINE
  5
240B
  8
0
 62
     0
 10
96.357428058690616
 20
135.9675616964625
 30
0.0
 11
128.48242805869049
 21
135.96756169646241
 31
0.0
  0
LINE
  5
240C
  8
0
 62
     0
 10
96.357428058690616
 20
137.4675616964625
 30
0.0
 11
128.4824280586906
 21
137.46756169646241
 31
0.0
  0
LINE
  5
240D
  8
0
 62
     0
 10
96.357428058690616
 20
138.9675616964625
 30
0.0
 11
128.4824280586906
 21
138.96756169646241
 31
0.0
  0
LINE
  5
240E
  8
0
 62
     0
 10
96.357428058690587
 20
140.4675616964625
 30
0.0
 11
128.48242805869049
 21
140.46756169646241
 31
0.0
  0
LINE
  5
240F
  8
0
 62
     0
 10
96.357428058690587
 20
141.9675616964625
 30
0.0
 11
128.48242805869049
 21
141.96756169646241
 31
0.0
  0
LINE
  5
2410
  8
0
 62
     0
 10
96.357428058690587
 20
143.4675616964625
 30
0.0
 11
128.48242805869049
 21
143.46756169646241
 31
0.0
  0
LINE
  5
2411
  8
0
 62
     0
 10
96.357428058690587
 20
144.9675616964625
 30
0.0
 11
128.48242805869049
 21
144.96756169646241
 31
0.0
  0
LINE
  5
2412
  8
0
 62
     0
 10
96.357428058690587
 20
146.4675616964625
 30
0.0
 11
128.48242805869049
 21
146.46756169646241
 31
0.0
  0
LINE
  5
2413
  8
0
 62
     0
 10
96.357428058690601
 20
147.9675616964625
 30
0.0
 11
128.4824280586906
 21
147.96756169646241
 31
0.0
  0
LINE
  5
2414
  8
0
 62
     0
 10
96.357428058690601
 20
149.4675616964625
 30
0.0
 11
128.4824280586906
 21
149.46756169646241
 31
0.0
  0
LINE
  5
2415
  8
0
 62
     0
 10
96.357428058690644
 20
150.9675616964625
 30
0.0
 11
128.4824280586906
 21
150.96756169646241
 31
0.0
  0
LINE
  5
2416
  8
0
 62
     0
 10
96.357428058690644
 20
152.4675616964625
 30
0.0
 11
128.4824280586906
 21
152.46756169646241
 31
0.0
  0
LINE
  5
2417
  8
0
 62
     0
 10
96.357428058690644
 20
153.9675616964625
 30
0.0
 11
128.4824280586906
 21
153.96756169646241
 31
0.0
  0
LINE
  5
2418
  8
0
 62
     0
 10
96.357428058690644
 20
155.4675616964625
 30
0.0
 11
128.4824280586906
 21
155.46756169646241
 31
0.0
  0
LINE
  5
2419
  8
0
 62
     0
 10
96.357428058690658
 20
156.9675616964625
 30
0.0
 11
128.4824280586906
 21
156.96756169646241
 31
0.0
  0
LINE
  5
241A
  8
0
 62
     0
 10
96.357428058690658
 20
158.4675616964625
 30
0.0
 11
128.4824280586906
 21
158.46756169646241
 31
0.0
  0
LINE
  5
241B
  8
0
 62
     0
 10
96.357428058690672
 20
159.9675616964625
 30
0.0
 11
128.48242805869069
 21
159.96756169646241
 31
0.0
  0
LINE
  5
241C
  8
0
 62
     0
 10
96.357428058690672
 20
161.4675616964625
 30
0.0
 11
128.48242805869069
 21
161.46756169646241
 31
0.0
  0
LINE
  5
241D
  8
0
 62
     0
 10
96.357428058690672
 20
162.9675616964625
 30
0.0
 11
128.48242805869069
 21
162.96756169646241
 31
0.0
  0
LINE
  5
241E
  8
0
 62
     0
 10
96.357428058690672
 20
164.4675616964625
 30
0.0
 11
128.48242805869069
 21
164.46756169646241
 31
0.0
  0
LINE
  5
241F
  8
0
 62
     0
 10
96.357428058690644
 20
165.9675616964625
 30
0.0
 11
128.4824280586906
 21
165.96756169646241
 31
0.0
  0
LINE
  5
2420
  8
0
 62
     0
 10
96.357428058690644
 20
167.4675616964625
 30
0.0
 11
128.4824280586906
 21
167.46756169646241
 31
0.0
  0
LINE
  5
2421
  8
0
 62
     0
 10
96.357428058690644
 20
168.9675616964625
 30
0.0
 11
128.4824280586906
 21
168.96756169646241
 31
0.0
  0
LINE
  5
2422
  8
0
 62
     0
 10
96.357428058690644
 20
170.4675616964625
 30
0.0
 11
128.4824280586906
 21
170.46756169646241
 31
0.0
  0
LINE
  5
2423
  8
0
 62
     0
 10
96.357428058690658
 20
171.9675616964625
 30
0.0
 11
128.48242805869069
 21
171.96756169646241
 31
0.0
  0
LINE
  5
2424
  8
0
 62
     0
 10
96.357428058690658
 20
173.4675616964625
 30
0.0
 11
128.48242805869069
 21
173.46756169646241
 31
0.0
  0
LINE
  5
2425
  8
0
 62
     0
 10
96.357428058690687
 20
174.9675616964625
 30
0.0
 11
128.48242805869069
 21
174.96756169646241
 31
0.0
  0
ENDBLK
  5
2427
  8
0
  0
BLOCK
  8
0
  2
*X8
 70
     1
 10
0.0
 20
0.0
 30
0.0
  3
*X8
  1

  0
LINE
  5
2429
  8
0
 62
     0
 10
175.16745269887119
 20
129.2129116896495
 30
0.0
 11
176.92600911707279
 21
130.97146810785119
 31
0.0
  0
LINE
  5
242A
  8
0
 62
     0
 10
173.04613235531161
 20
129.2129116896495
 30
0.0
 11
176.92600911707279
 21
133.0927884514108
 31
0.0
  0
LINE
  5
242B
  8
0
 62
     0
 10
170.9248120117519
 20
129.21291168964959
 30
0.0
 11
176.92600911707279
 21
135.2141087949704
 31
0.0
  0
LINE
  5
242C
  8
0
 62
     0
 10
168.80349166819229
 20
129.21291168964959
 30
0.0
 11
176.30814889141681
 21
136.71756891287399
 31
0.0
  0
LINE
  5
242D
  8
0
 62
     0
 10
166.68217132463269
 20
129.2129116896497
 30
0.0
 11
174.1868285478572
 21
136.7175689128741
 31
0.0
  0
LINE
  5
242E
  8
0
 62
     0
 10
164.56085098107309
 20
129.2129116896497
 30
0.0
 11
172.06550820429771
 21
136.71756891287421
 31
0.0
  0
LINE
  5
242F
  8
0
 62
     0
 10
162.43953063751351
 20
129.2129116896497
 30
0.0
 11
169.9441878607378
 21
136.71756891287399
 31
0.0
  0
LINE
  5
2430
  8
0
 62
     0
 10
160.3182102939538
 20
129.2129116896497
 30
0.0
 11
167.8228675171782
 21
136.71756891287399
 31
0.0
  0
LINE
  5
2431
  8
0
 62
     0
 10
158.19688995039419
 20
129.2129116896497
 30
0.0
 11
165.70154717361851
 21
136.71756891287399
 31
0.0
  0
LINE
  5
2432
  8
0
 62
     0
 10
156.07556960683451
 20
129.2129116896497
 30
0.0
 11
163.58022683005871
 21
136.71756891287379
 31
0.0
  0
LINE
  5
2433
  8
0
 62
     0
 10
153.9542492632749
 20
129.2129116896497
 30
0.0
 11
161.45890648649899
 21
136.71756891287379
 31
0.0
  0
LINE
  5
2434
  8
0
 62
     0
 10
151.8329289197153
 20
129.2129116896497
 30
0.0
 11
159.33758614293939
 21
136.71756891287379
 31
0.0
  0
LINE
  5
2435
  8
0
 62
     0
 10
149.71160857615561
 20
129.2129116896497
 30
0.0
 11
157.2162657993797
 21
136.71756891287379
 31
0.0
  0
LINE
  5
2436
  8
0
 62
     0
 10
147.59028823259601
 20
129.2129116896497
 30
0.0
 11
155.0949454558201
 21
136.71756891287379
 31
0.0
  0
LINE
  5
2437
  8
0
 62
     0
 10
145.46896788903641
 20
129.2129116896497
 30
0.0
 11
152.97362511226041
 21
136.71756891287379
 31
0.0
  0
LINE
  5
2438
  8
0
 62
     0
 10
143.34764754547669
 20
129.2129116896497
 30
0.0
 11
150.8523047687008
 21
136.71756891287379
 31
0.0
  0
LINE
  5
2439
  8
0
 62
     0
 10
141.22632720191709
 20
129.2129116896497
 30
0.0
 11
148.73098442514109
 21
136.71756891287379
 31
0.0
  0
LINE
  5
243A
  8
0
 62
     0
 10
139.1050068583574
 20
129.2129116896497
 30
0.0
 11
146.60966408158151
 21
136.71756891287379
 31
0.0
  0
LINE
  5
243B
  8
0
 62
     0
 10
136.9836865147978
 20
129.2129116896497
 30
0.0
 11
144.4883437380218
 21
136.71756891287379
 31
0.0
  0
LINE
  5
243C
  8
0
 62
     0
 10
134.86236617123811
 20
129.2129116896497
 30
0.0
 11
142.36702339446219
 21
136.71756891287379
 31
0.0
  0
LINE
  5
243D
  8
0
 62
     0
 10
134.48242805869069
 20
130.954293920662
 30
0.0
 11
140.24570305090259
 21
136.71756891287379
 31
0.0
  0
LINE
  5
243E
  8
0
 62
     0
 10
134.4824280586908
 20
133.07561426422171
 30
0.0
 11
138.1243827073429
 21
136.71756891287379
 31
0.0
  0
LINE
  5
243F
  8
0
 62
     0
 10
134.48242805869091
 20
135.1969346077814
 30
0.0
 11
136.0030623637833
 21
136.71756891287379
 31
0.0
  0
LINE
  5
2440
  8
0
 62
     0
 10
134.4824280586906
 20
129.5214140120793
 30
0.0
 11
134.79093038112021
 21
129.2129116896497
 31
0.0
  0
LINE
  5
2441
  8
0
 62
     0
 10
134.48242805869069
 20
131.64273435563879
 30
0.0
 11
136.91225072467989
 21
129.2129116896497
 31
0.0
  0
LINE
  5
2442
  8
0
 62
     0
 10
134.4824280586908
 20
133.76405469919831
 30
0.0
 11
139.0335710682395
 21
129.2129116896497
 31
0.0
  0
LINE
  5
2443
  8
0
 62
     0
 10
134.48242805869091
 20
135.88537504275789
 30
0.0
 11
141.1548914117991
 21
129.2129116896497
 31
0.0
  0
LINE
  5
2444
  8
0
 62
     0
 10
135.7715545321347
 20
136.71756891287379
 30
0.0
 11
143.27621175535879
 21
129.2129116896497
 31
0.0
  0
LINE
  5
2445
  8
0
 62
     0
 10
137.89287487569439
 20
136.71756891287379
 30
0.0
 11
145.39753209891839
 21
129.2129116896497
 31
0.0
  0
LINE
  5
2446
  8
0
 62
     0
 10
140.01419521925399
 20
136.71756891287379
 30
0.0
 11
147.51885244247811
 21
129.2129116896497
 31
0.0
  0
LINE
  5
2447
  8
0
 62
     0
 10
142.13551556281371
 20
136.7175689128737
 30
0.0
 11
149.64017278603771
 21
129.2129116896497
 31
0.0
  0
LINE
  5
2448
  8
0
 62
     0
 10
144.25683590637331
 20
136.7175689128737
 30
0.0
 11
151.76149312959731
 21
129.2129116896497
 31
0.0
  0
LINE
  5
2449
  8
0
 62
     0
 10
146.37815624993291
 20
136.7175689128737
 30
0.0
 11
153.882813473157
 21
129.2129116896497
 31
0.0
  0
LINE
  5
244A
  8
0
 62
     0
 10
148.4994765934926
 20
136.71756891287379
 30
0.0
 11
156.0041338167166
 21
129.2129116896497
 31
0.0
  0
LINE
  5
244B
  8
0
 62
     0
 10
150.62079693705221
 20
136.71756891287379
 30
0.0
 11
158.12545416027621
 21
129.2129116896497
 31
0.0
  0
LINE
  5
244C
  8
0
 62
     0
 10
152.74211728061181
 20
136.7175689128737
 30
0.0
 11
160.24677450383589
 21
129.2129116896497
 31
0.0
  0
LINE
  5
244D
  8
0
 62
     0
 10
154.8634376241715
 20
136.7175689128737
 30
0.0
 11
162.3680948473955
 21
129.2129116896497
 31
0.0
  0
LINE
  5
244E
  8
0
 62
     0
 10
156.98475796773121
 20
136.7175689128737
 30
0.0
 11
164.48941519095521
 21
129.2129116896497
 31
0.0
  0
LINE
  5
244F
  8
0
 62
     0
 10
159.10607831129079
 20
136.71756891287379
 30
0.0
 11
166.6107355345149
 21
129.2129116896497
 31
0.0
  0
LINE
  5
2450
  8
0
 62
     0
 10
161.22739865485039
 20
136.71756891287379
 30
0.0
 11
168.7320558780745
 21
129.2129116896497
 31
0.0
  0
LINE
  5
2451
  8
0
 62
     0
 10
163.34871899841011
 20
136.7175689128737
 30
0.0
 11
170.85337622163419
 21
129.21291168964959
 31
0.0
  0
LINE
  5
2452
  8
0
 62
     0
 10
165.47003934196951
 20
136.71756891287399
 30
0.0
 11
172.97469656519391
 21
129.2129116896495
 31
0.0
  0
LINE
  5
2453
  8
0
 62
     0
 10
167.59135968552911
 20
136.71756891287399
 30
0.0
 11
175.0960169087536
 21
129.2129116896495
 31
0.0
  0
LINE
  5
2454
  8
0
 62
     0
 10
169.71268002908869
 20
136.71756891287399
 30
0.0
 11
176.92600911707291
 21
129.50423982488991
 31
0.0
  0
LINE
  5
2455
  8
0
 62
     0
 10
171.83400037264821
 20
136.71756891287421
 30
0.0
 11
176.92600911707279
 21
131.62556016844951
 31
0.0
  0
LINE
  5
2456
  8
0
 62
     0
 10
173.95532071620789
 20
136.7175689128741
 30
0.0
 11
176.92600911707279
 21
133.7468805120092
 31
0.0
  0
LINE
  5
2457
  8
0
 62
     0
 10
176.07664105976761
 20
136.7175689128741
 30
0.0
 11
176.92600911707279
 21
135.8682008555688
 31
0.0
  0
ENDBLK
  5
2459
  8
0
  0
BLOCK
  8
0
  2
*X9
 70
     1
 10
0.0
 20
0.0
 30
0.0
  3
*X9
  1

  0
LINE
  5
245B
  8
0
 62
     0
 10
162.88910133310449
 20
169.96756891287379
 30
0.0
 11
164.48242732877449
 21
171.56089490854379
 31
0.0
  0
LINE
  5
245C
  8
0
 62
     0
 10
160.7677809895448
 20
169.96756891287379
 30
0.0
 11
164.48242732877449
 21
173.6822152521035
 31
0.0
  0
LINE
  5
245D
  8
0
 62
     0
 10
158.6464606459852
 20
169.96756891287379
 30
0.0
 11
164.48242732877461
 21
175.80353559566311
 31
0.0
  0
LINE
  5
245E
  8
0
 62
     0
 10
156.52514030242551
 20
169.96756891287379
 30
0.0
 11
164.04015176282491
 21
177.48258037327309
 31
0.0
  0
LINE
  5
245F
  8
0
 62
     0
 10
154.40381995886591
 20
169.96756891287379
 30
0.0
 11
161.9188314192653
 21
177.48258037327309
 31
0.0
  0
LINE
  5
2460
  8
0
 62
     0
 10
152.28249961530631
 20
169.96756891287379
 30
0.0
 11
159.7975110757057
 21
177.48258037327309
 31
0.0
  0
LINE
  5
2461
  8
0
 62
     0
 10
150.16117927174659
 20
169.96756891287379
 30
0.0
 11
157.67619073214601
 21
177.48258037327309
 31
0.0
  0
LINE
  5
2462
  8
0
 62
     0
 10
148.03985892818699
 20
169.96756891287379
 30
0.0
 11
155.55487038858641
 21
177.48258037327309
 31
0.0
  0
LINE
  5
2463
  8
0
 62
     0
 10
145.9185385846273
 20
169.96756891287379
 30
0.0
 11
153.43355004502669
 21
177.48258037327309
 31
0.0
  0
LINE
  5
2464
  8
0
 62
     0
 10
143.7972182410677
 20
169.96756891287379
 30
0.0
 11
151.31222970146709
 21
177.48258037327309
 31
0.0
  0
LINE
  5
2465
  8
0
 62
     0
 10
141.67589789750809
 20
169.96756891287379
 30
0.0
 11
149.1909093579074
 21
177.48258037327309
 31
0.0
  0
LINE
  5
2466
  8
0
 62
     0
 10
139.55457755394841
 20
169.96756891287379
 30
0.0
 11
147.0695890143478
 21
177.48258037327309
 31
0.0
  0
LINE
  5
2467
  8
0
 62
     0
 10
137.43325721038869
 20
169.96756891287379
 30
0.0
 11
144.94826867078811
 21
177.48258037327309
 31
0.0
  0
LINE
  5
2468
  8
0
 62
     0
 10
135.31193686682909
 20
169.96756891287379
 30
0.0
 11
142.82694832722851
 21
177.48258037327309
 31
0.0
  0
LINE
  5
2469
  8
0
 62
     0
 10
134.4824280586929
 20
171.25938044829721
 30
0.0
 11
140.70562798366879
 21
177.48258037327309
 31
0.0
  0
LINE
  5
246A
  8
0
 62
     0
 10
134.4824280586929
 20
173.3807007918569
 30
0.0
 11
138.58430764010919
 21
177.48258037327309
 31
0.0
  0
LINE
  5
246B
  8
0
 62
     0
 10
134.4824280586929
 20
175.5020211354165
 30
0.0
 11
136.46298729654961
 21
177.48258037327309
 31
0.0
  0
LINE
  5
246C
  8
0
 62
     0
 10
134.48242805869299
 20
171.94782088326971
 30
0.0
 11
136.46268002908889
 21
169.96756891287379
 31
0.0
  0
LINE
  5
246D
  8
0
 62
     0
 10
134.48242805869299
 20
174.0691412268294
 30
0.0
 11
138.5840003726486
 21
169.96756891287379
 31
0.0
  0
LINE
  5
246E
  8
0
 62
     0
 10
134.48242805869299
 20
176.190461570389
 30
0.0
 11
140.70532071620829
 21
169.96756891287379
 31
0.0
  0
LINE
  5
246F
  8
0
 62
     0
 10
135.3116295993685
 20
177.48258037327321
 30
0.0
 11
142.82664105976789
 21
169.96756891287379
 31
0.0
  0
LINE
  5
2470
  8
0
 62
     0
 10
137.43294994292819
 20
177.48258037327309
 30
0.0
 11
144.9479614033275
 21
169.96756891287379
 31
0.0
  0
LINE
  5
2471
  8
0
 62
     0
 10
139.55427028648779
 20
177.48258037327309
 30
0.0
 11
147.06928174688721
 21
169.96756891287379
 31
0.0
  0
LINE
  5
2472
  8
0
 62
     0
 10
141.6755906300474
 20
177.48258037327321
 30
0.0
 11
149.19060209044679
 21
169.96756891287379
 31
0.0
  0
LINE
  5
2473
  8
0
 62
     0
 10
143.79691097360711
 20
177.48258037327309
 30
0.0
 11
151.3119224340065
 21
169.96756891287379
 31
0.0
  0
LINE
  5
2474
  8
0
 62
     0
 10
145.91823131716669
 20
177.48258037327309
 30
0.0
 11
153.43324277756611
 21
169.96756891287379
 31
0.0
  0
LINE
  5
2475
  8
0
 62
     0
 10
148.0395516607264
 20
177.48258037327309
 30
0.0
 11
155.55456312112571
 21
169.96756891287379
 31
0.0
  0
LINE
  5
2476
  8
0
 62
     0
 10
150.16087200428601
 20
177.48258037327309
 30
0.0
 11
157.67588346468531
 21
169.96756891287379
 31
0.0
  0
LINE
  5
2477
  8
0
 62
     0
 10
152.28219234784561
 20
177.48258037327309
 30
0.0
 11
159.797203808245
 21
169.96756891287379
 31
0.0
  0
LINE
  5
2478
  8
0
 62
     0
 10
154.4035126914053
 20
177.48258037327309
 30
0.0
 11
161.9185241518046
 21
169.96756891287379
 31
0.0
  0
LINE
  5
2479
  8
0
 62
     0
 10
156.5248330349649
 20
177.48258037327309
 30
0.0
 11
164.03984449536429
 21
169.96756891287379
 31
0.0
  0
LINE
  5
247A
  8
0
 62
     0
 10
158.6461533785245
 20
177.48258037327309
 30
0.0
 11
164.48242732877449
 21
171.64630642302311
 31
0.0
  0
LINE
  5
247B
  8
0
 62
     0
 10
160.76747372208419
 20
177.48258037327309
 30
0.0
 11
164.48242732877461
 21
173.76762676658279
 31
0.0
  0
LINE
  5
247C
  8
0
 62
     0
 10
162.88879406564379
 20
177.48258037327309
 30
0.0
 11
164.48242732877461
 21
175.8889471101424
 31
0.0
  0
ENDBLK
  5
247E
  8
0
  0
ENDSEC
  0
SECTION
  2
ENTITIES
  0
LINE
  5
3B4
  8
0
 10
139.60611161644781
 20
30.71024923266658
 30
0.0
 11
165.87348038564409
 21
7.7314473069114831
 31
0.0
  0
LINE
  5
3B8
  8
0
 10
176.92600911707271
 20
15.735002595187311
 30
0.0
 11
163.2901017552235
 21
47.860724850400473
 31
0.0
  0
ARC
  5
3BC
  8
0
 10
149.4824280586906
 20
41.999995621876707
 30
0.0
 40
14.999999999999989
 50
90.0
 51
228.8204325076108
1001
ACAD
1000
ASC_BOUNDS
1002
{
1070
    19
1005
778
1002
}
  0
ARC
  5
3BD
  8
0
 10
149.4824280586906
 20
41.999995621876707
 30
0.0
 40
14.99999999999998
 50
22.999013650744448
 51
90.0
1001
ACAD
1000
ASC_BOUNDS
1002
{
1070
    19
1005
778
1002
}
  0
ARC
  5
3BE
  8
0
 10
170.4824280586906
 20
12.99999562187622
 30
0.0
 40
6.9999999999999991
 50
228.82043250761069
 51
270.0
1001
ACAD
1000
ASC_BOUNDS
1002
{
1070
    19
1005
778
1002
}
  0
ARC
  5
3BF
  8
0
 10
170.4824280586906
 20
12.99999562187622
 30
0.0
 40
6.9999999999999938
 50
270.0
 51
22.99901365074443
1001
ACAD
1000
ASC_BOUNDS
1002
{
1070
    19
1005
778
1002
}
  0
LINE
  5
3C3
  8
0
 10
139.60611161644781
 20
30.710249232666239
 30
0.0
 11
165.87348038564409
 21
7.7314473069111429
 31
0.0
1001
ACAD
1000
ASC_BOUNDS
1002
{
1070
    19
1005
778
1002
}
  0
LINE
  5
3C7
  8
0
 10
176.92600911707271
 20
15.735002595186961
 30
0.0
 11
163.2901017552235
 21
47.860724850400111
 31
0.0
1001
ACAD
1000
ASC_BOUNDS
1002
{
1070
    19
1005
778
1002
}
  0
LINE
  5
3CF
  8
0
 10
130.10742805869049
 20
78.999995621876764
 30
0.0
 11
130.10742805869049
 21
5.9999956218783854
 31
0.0
  0
LINE
  5
3D0
  8
0
 10
94.732428058690573
 20
5.9999956218783854
 30
0.0
 11
94.732428058690573
 21
78.999995621876764
 31
0.0
  0
LINE
  5
3D1
  8
0
 10
130.10742805869049
 20
5.9999956218783854
 30
0.0
 11
94.732428058690573
 21
5.9999956218783854
 31
0.0
  0
LINE
  5
3D2
  8
0
 10
94.732428058690573
 20
78.999995621876764
 30
0.0
 11
130.10742805869049
 21
78.999995621876764
 31
0.0
  0
LINE
  5
3D3
  8
0
 10
133.1074280586906
 20
5.9999956218756312
 30
0.0
 11
149.4824280586906
 21
12.063233822294681
 31
0.0
  0
ARC
  5
3D4
  8
0
 10
146.4824280586908
 20
35.874995621876039
 30
0.0
 40
24.0
 50
277.18075578145829
 51
298.24546486686108
  0
ARC
  5
3D5
  8
0
 10
146.4824280586908
 20
35.874995621876039
 30
0.0
 40
24.000000000000011
 50
350.22165411406451
 51
116.9718973845703
  0
LINE
  5
3D6
  8
0
 10
135.59714594399881
 20
57.264493822711977
 30
0.0
 11
130.10742805869049
 21
49.999995621876018
 31
0.0
  0
LINE
  5
3D7
  8
0
 10
94.732428058690715
 20
-0.0000043781246172
 30
0.0
 11
94.732428058690573
 21
5.9999956218778001
 31
0.0
  0
LINE
  5
3D8
  8
0
 10
179.4824280586904
 20
5.9999956218789752
 30
0.0
 11
179.4824280586904
 21
-0.0000043781234457
 31
0.0
  0
LINE
  5
3D9
  8
0
 10
94.732428058690715
 20
-0.0000043781246172
 30
0.0
 11
179.4824280586904
 21
-0.0000043781234452
 31
0.0
  0
LINE
  5
3DA
  8
0
 10
179.4824280586904
 20
5.9999956218789752
 30
0.0
 11
94.732428058690573
 21
5.9999956218778001
 31
0.0
  0
ARC
  5
3DB
  8
0
 10
112.4199280586917
 20
60.999995621874803
 30
0.0
 40
8.2500000000000089
 50
179.9999999999998
 51
359.99999999999881
  0
ARC
  5
3DC
  8
0
 10
112.4199280586917
 20
60.999995621874803
 30
0.0
 40
8.2500000000000089
 50
359.9999999999996
 51
179.99999999999969
  0
ARC
  5
3DD
  8
0
 10
112.4199280586917
 20
60.999995621874803
 30
0.0
 40
7.6874999999999929
 50
0.0000000000007252
 51
180.0000000000002
  0
ARC
  5
3DE
  8
0
 10
112.4199280586917
 20
60.999995621874803
 30
0.0
 40
7.6874999999999929
 50
180.0000000000002
 51
0.0000000000000509
  0
LINE
  5
3DF
  8
0
 10
117.5424288326797
 20
58.558139773077428
 30
0.0
 11
117.34748835648919
 21
58.109231042918701
 31
0.0
  0
LINE
  5
3E0
  8
0
 10
117.34748835648919
 20
58.109231042918701
 30
0.0
 11
116.8965954993464
 21
57.951988979426609
 31
0.0
  0
LINE
  5
3E1
  8
0
 10
116.8965954993464
 20
57.951988979426609
 30
0.0
 11
116.572066729505
 21
58.016225090537752
 31
0.0
  0
LINE
  5
3E2
  8
0
 10
116.572066729505
 20
58.016225090537752
 30
0.0
 11
116.3365756580764
 21
58.20893342387108
 31
0.0
  0
LINE
  5
3E3
  8
0
 10
116.3365756580764
 20
58.20893342387108
 30
0.0
 11
116.1456034358543
 21
58.966869931807572
 31
0.0
  0
LINE
  5
3E4
  8
0
 10
116.1456034358543
 20
58.966869931807572
 30
0.0
 11
116.3296312136318
 21
59.730758820696479
 31
0.0
  0
LINE
  5
3E5
  8
0
 10
116.3296312136318
 20
59.730758820696479
 30
0.0
 11
116.5594179199813
 21
59.920490963553618
 31
0.0
  0
LINE
  5
3E6
  8
0
 10
116.5594179199813
 20
59.920490963553618
 30
0.0
 11
116.88072248347341
 21
59.983735011172641
 31
0.0
  0
LINE
  5
3E7
  8
0
 10
116.88072248347341
 20
59.983735011172641
 30
0.0
 11
117.3489764517273
 21
59.840381836569499
 31
0.0
  0
LINE
  5
3E8
  8
0
 10
117.3489764517273
 20
59.840381836569499
 30
0.0
 11
117.5424288326797
 21
59.415282630220283
 31
0.0
  0
LINE
  5
3E9
  8
0
 10
117.5424288326797
 20
59.415282630220283
 30
0.0
 11
118.6852859755368
 21
59.415282630220283
 31
0.0
  0
LINE
  5
3EA
  8
0
 10
118.6852859755368
 20
59.415282630220283
 30
0.0
 11
118.5250677215686
 21
60.062976082601239
 31
0.0
  0
LINE
  5
3EB
  8
0
 10
118.5250677215686
 20
60.062976082601239
 30
0.0
 11
118.1575081977589
 21
60.54177072545837
 31
0.0
  0
LINE
  5
3EC
  8
0
 10
118.1575081977589
 20
60.54177072545837
 30
0.0
 11
117.5984804199814
 21
60.837529654029822
 31
0.0
  0
LINE
  5
3ED
  8
0
 10
117.5984804199814
 20
60.837529654029822
 30
0.0
 11
116.8638574041083
 21
60.936115963553618
 31
0.0
  0
LINE
  5
3EE
  8
0
 10
116.8638574041083
 20
60.936115963553618
 30
0.0
 11
116.0658663326797
 21
60.804171519109182
 31
0.0
  0
LINE
  5
3EF
  8
0
 10
116.0658663326797
 20
60.804171519109182
 30
0.0
 11
115.455623277124
 21
60.408338185775818
 31
0.0
  0
LINE
  5
3F0
  8
0
 10
115.455623277124
 20
60.408338185775818
 30
0.0
 11
115.0683464914098
 21
59.784330249267903
 31
0.0
  0
LINE
  5
3F1
  8
0
 10
115.0683464914098
 20
59.784330249267903
 30
0.0
 11
114.9392542295049
 21
58.967861995299657
 31
0.0
  0
LINE
  5
3F2
  8
0
 10
114.9392542295049
 20
58.967861995299657
 30
0.0
 11
115.0689665310924
 21
58.149533622283784
 31
0.0
  0
LINE
  5
3F3
  8
0
 10
115.0689665310924
 20
58.149533622283784
 30
0.0
 11
115.4581034358543
 21
57.525897709585372
 31
0.0
  0
LINE
  5
3F4
  8
0
 10
115.4581034358543
 20
57.525897709585372
 30
0.0
 11
116.07343081680661
 21
57.131180447680599
 31
0.0
  0
LINE
  5
3F5
  8
0
 10
116.07343081680661
 20
57.131180447680599
 30
0.0
 11
116.8817145469654
 21
56.999608027045682
 31
0.0
  0
LINE
  5
3F6
  8
0
 10
116.8817145469654
 20
56.999608027045682
 30
0.0
 11
117.604804824743
 21
57.101790566728219
 31
0.0
  0
LINE
  5
3F7
  8
0
 10
117.604804824743
 20
57.101790566728219
 30
0.0
 11
118.1609804199813
 21
57.408338185775847
 31
0.0
  0
LINE
  5
3F8
  8
0
 10
118.1609804199813
 20
57.408338185775847
 30
0.0
 11
118.5284159358543
 21
57.900153661966321
 31
0.0
  0
LINE
  5
3F9
  8
0
 10
118.5284159358543
 20
57.900153661966321
 30
0.0
 11
118.6852859755368
 21
58.558139773077428
 31
0.0
  0
LINE
  5
3FA
  8
0
 10
118.6852859755368
 20
58.558139773077428
 30
0.0
 11
117.5424288326797
 21
58.558139773077428
 31
0.0
  0
LINE
  5
3FB
  8
0
 10
110.3207014549121
 20
59.332213962000601
 30
0.0
 11
111.49828081999139
 21
59.332213962000601
 31
0.0
  0
LINE
  5
3FC
  8
0
 10
111.49828081999139
 20
59.332213962000601
 30
0.0
 11
111.6451062168167
 21
59.84015046993715
 31
0.0
  0
LINE
  5
3FD
  8
0
 10
111.6451062168167
 20
59.84015046993715
 30
0.0
 11
112.8484792326897
 21
59.84015046993715
 31
0.0
  0
LINE
  5
3FE
  8
0
 10
112.8484792326897
 20
59.84015046993715
 30
0.0
 11
112.9903443120547
 21
59.332213962000601
 31
0.0
  0
LINE
  5
3FF
  8
0
 10
112.9903443120547
 20
59.332213962000601
 30
0.0
 11
114.193717327928
 21
59.332213962000601
 31
0.0
  0
LINE
  5
400
  8
0
 10
114.193717327928
 20
59.332213962000601
 30
0.0
 11
112.8643522485627
 21
63.141737771524433
 31
0.0
  0
LINE
  5
401
  8
0
 10
112.8643522485627
 20
63.141737771524433
 30
0.0
 11
111.6351855818962
 21
63.141737771524433
 31
0.0
  0
LINE
  5
402
  8
0
 10
111.6351855818962
 20
63.141737771524433
 30
0.0
 11
110.3207014549121
 21
59.332213962000601
 31
0.0
  0
LINE
  5
403
  8
0
 10
111.8653443120547
 20
60.665547295333958
 30
0.0
 11
112.2512570104674
 21
61.96911872390536
 31
0.0
  0
LINE
  5
404
  8
0
 10
112.2512570104674
 20
61.96911872390536
 30
0.0
 11
112.6282411374516
 21
60.665547295333958
 31
0.0
  0
LINE
  5
405
  8
0
 10
112.6282411374516
 20
60.665547295333958
 30
0.0
 11
111.8653443120547
 21
60.665547295333958
 31
0.0
  0
LINE
  5
406
  8
0
 10
106.5599702646505
 20
61.072602271180877
 30
0.0
 11
108.2593750265553
 21
61.072602271180877
 31
0.0
  0
LINE
  5
407
  8
0
 10
108.2593750265553
 20
61.072602271180877
 30
0.0
 11
109.0272321694124
 21
61.111292747371373
 31
0.0
  0
LINE
  5
408
  8
0
 10
109.0272321694124
 20
61.111292747371373
 30
0.0
 11
109.4399305821109
 21
61.243237191815822
 31
0.0
  0
LINE
  5
409
  8
0
 10
109.4399305821109
 20
61.243237191815822
 30
0.0
 11
109.848164709095
 21
61.626173699752322
 31
0.0
  0
LINE
  5
40A
  8
0
 10
109.848164709095
 20
61.626173699752322
 30
0.0
 11
109.988541693222
 21
62.213475287053903
 31
0.0
  0
LINE
  5
40B
  8
0
 10
109.988541693222
 20
62.213475287053903
 30
0.0
 11
109.8446924868729
 21
62.776471318799942
 31
0.0
  0
LINE
  5
40C
  8
0
 10
109.8446924868729
 20
62.776471318799942
 30
0.0
 11
109.40124010592019
 21
63.101372112450733
 31
0.0
  0
LINE
  5
40D
  8
0
 10
109.40124010592019
 20
63.101372112450733
 30
0.0
 11
109.7464782011584
 21
63.418832429911049
 31
0.0
  0
LINE
  5
40E
  8
0
 10
109.7464782011584
 20
63.418832429911049
 30
0.0
 11
109.86155756623791
 21
63.871213382291998
 31
0.0
  0
LINE
  5
40F
  8
0
 10
109.86155756623791
 20
63.871213382291998
 30
0.0
 11
109.707787724968
 21
64.431233223561847
 31
0.0
  0
LINE
  5
410
  8
0
 10
109.707787724968
 20
64.431233223561847
 30
0.0
 11
109.2653274075078
 21
64.771014969593594
 31
0.0
  0
LINE
  5
411
  8
0
 10
109.2653274075078
 20
64.771014969593594
 30
0.0
 11
108.86999010592029
 21
64.856332429911049
 31
0.0
  0
LINE
  5
412
  8
0
 10
108.86999010592029
 20
64.856332429911049
 30
0.0
 11
108.1363591535394
 21
64.882126080704694
 31
0.0
  0
LINE
  5
413
  8
0
 10
108.1363591535394
 20
64.882126080704694
 30
0.0
 11
106.5599702646505
 21
64.882126080704694
 31
0.0
  0
LINE
  5
414
  8
0
 10
106.5599702646505
 20
64.882126080704694
 30
0.0
 11
106.5599702646505
 21
61.072602271180877
 31
0.0
  0
LINE
  5
415
  8
0
 10
107.7663194709999
 20
61.961491160069777
 30
0.0
 11
107.7663194709999
 21
62.659903858482473
 31
0.0
  0
LINE
  5
416
  8
0
 10
107.7663194709999
 20
62.659903858482473
 30
0.0
 11
108.3149305821109
 21
62.659903858482473
 31
0.0
  0
LINE
  5
417
  8
0
 10
108.3149305821109
 20
62.659903858482473
 30
0.0
 11
108.72415677258689
 21
62.580538779117397
 31
0.0
  0
LINE
  5
418
  8
0
 10
108.72415677258689
 20
62.580538779117397
 30
0.0
 11
108.84568455036479
 21
62.313673699752307
 31
0.0
  0
LINE
  5
419
  8
0
 10
108.84568455036479
 20
62.313673699752307
 30
0.0
 11
108.7266369313172
 21
62.043832429911042
 31
0.0
  0
LINE
  5
41A
  8
0
 10
108.7266369313172
 20
62.043832429911042
 30
0.0
 11
108.3258432805237
 21
61.961491160069777
 31
0.0
  0
LINE
  5
41B
  8
0
 10
108.3258432805237
 20
61.961491160069777
 30
0.0
 11
107.7663194709999
 21
61.961491160069777
 31
0.0
  0
LINE
  5
41C
  8
0
 10
107.7663194709999
 20
63.358316556895169
 30
0.0
 11
107.7663194709999
 21
63.993237191815808
 31
0.0
  0
LINE
  5
41D
  8
0
 10
107.7663194709999
 20
63.993237191815808
 30
0.0
 11
108.1006448678252
 21
63.993237191815808
 31
0.0
  0
LINE
  5
41E
  8
0
 10
108.1006448678252
 20
63.993237191815808
 30
0.0
 11
108.6090774075078
 21
63.925776874355499
 31
0.0
  0
LINE
  5
41F
  8
0
 10
108.6090774075078
 20
63.925776874355499
 30
0.0
 11
108.7187004233808
 21
63.675776874355499
 31
0.0
  0
LINE
  5
420
  8
0
 10
108.7187004233808
 20
63.675776874355499
 30
0.0
 11
108.61651788369809
 21
63.430737191815822
 31
0.0
  0
LINE
  5
421
  8
0
 10
108.61651788369809
 20
63.430737191815822
 30
0.0
 11
108.26433534401571
 21
63.358316556895169
 31
0.0
  0
LINE
  5
422
  8
0
 10
108.26433534401571
 20
63.358316556895169
 30
0.0
 11
107.7663194709999
 21
63.358316556895169
 31
0.0
  0
ARC
  5
423
  8
0
 10
112.4199280586913
 20
60.99999562187547
 30
0.0
 40
9.0000000000000195
 50
179.9999999999998
 51
359.99999999999881
  0
ARC
  5
424
  8
0
 10
112.4199280586913
 20
60.99999562187547
 30
0.0
 40
9.0000000000000142
 50
359.9999999999996
 51
179.9999999999998
  0
LINE
  5
425
  8
0
 10
92.482428058690573
 20
1.5624956218761661
 30
0.0
 11
94.732428058690573
 21
1.5624956218761661
 31
0.0
  0
LINE
  5
426
  8
0
 10
94.732428058690573
 20
7.5624956218763311
 30
0.0
 11
92.482428058690573
 21
7.5624956218763311
 31
0.0
  0
LINE
  5
427
  8
0
 10
92.482428058690573
 20
63.999995621876309
 30
0.0
 11
94.732428058690573
 21
63.999995621876309
 31
0.0
  0
LINE
  5
428
  8
0
 10
94.732428058690573
 20
69.999995621876323
 30
0.0
 11
92.482428058690573
 21
69.999995621876323
 31
0.0
  0
LINE
  5
429
  8
0
 10
92.482428058690573
 20
4.562495742458327
 30
0.0
 11
92.482428058690573
 21
6.683815879708157
 31
0.0
  0
LINE
  5
42A
  8
0
 10
92.482428058690573
 20
6.6838159654359801
 30
0.0
 11
92.482428058690573
 21
7.1605717457244786
 31
0.0
  0
LINE
  5
42B
  8
0
 10
92.482428058690573
 20
7.1605718332296551
 30
0.0
 11
92.482428058690573
 21
7.4602731007435459
 31
0.0
  0
LINE
  5
42C
  8
0
 10
92.482428058690573
 20
7.4602732568571319
 30
0.0
 11
92.482428058690573
 21
7.5624956218763453
 31
0.0
  0
LINE
  5
42D
  8
0
 10
92.482428058690573
 20
1.5624956218763471
 30
0.0
 11
92.482428058690573
 21
1.664718105422557
 31
0.0
  0
LINE
  5
42E
  8
0
 10
92.482428058690573
 20
1.664718143009142
 30
0.0
 11
92.482428058690573
 21
1.964419393523158
 31
0.0
  0
LINE
  5
42F
  8
0
 10
92.482428058690573
 20
1.964419410523031
 30
0.0
 11
92.482428058690573
 21
2.441175251175284
 31
0.0
  0
LINE
  5
430
  8
0
 10
92.482428058690573
 20
2.4411752783166998
 30
0.0
 11
92.482428058690573
 21
3.7860384286848681
 31
0.0
  0
LINE
  5
431
  8
0
 10
92.482428058690573
 20
3.7860384865687791
 30
0.0
 11
92.482428058690573
 21
4.5624956218763364
 31
0.0
  0
LINE
  5
432
  8
0
 10
92.482428058690573
 20
66.99999755118823
 30
0.0
 11
92.482428058690573
 21
68.499995621876323
 31
0.0
  0
LINE
  5
433
  8
0
 10
92.482428058690573
 20
68.499997709897428
 30
0.0
 11
92.482428058690573
 21
69.121314601060703
 31
0.0
  0
LINE
  5
434
  8
0
 10
92.482428058690573
 20
69.121315965435969
 30
0.0
 11
92.482428058690573
 21
69.59806997827522
 31
0.0
  0
LINE
  5
435
  8
0
 10
92.482428058690573
 20
69.598071833229653
 30
0.0
 11
92.482428058690573
 21
69.897773100743535
 31
0.0
  0
LINE
  5
436
  8
0
 10
92.482428058690573
 20
69.897773256857107
 30
0.0
 11
92.482428058690573
 21
69.999995621876323
 31
0.0
  0
LINE
  5
437
  8
0
 10
92.482428058690573
 20
63.999995621876309
 30
0.0
 11
92.482428058690573
 21
64.102214194048017
 31
0.0
  0
LINE
  5
438
  8
0
 10
92.482428058690573
 20
64.102218143009125
 30
0.0
 11
92.482428058690573
 21
64.401919410523021
 31
0.0
  0
LINE
  5
439
  8
0
 10
92.482428058690573
 20
64.401919694411148
 30
0.0
 11
92.482428058690573
 21
64.878674834584046
 31
0.0
  0
LINE
  5
43A
  8
0
 10
92.482428058690573
 20
64.878675278316706
 30
0.0
 11
92.482428058690573
 21
66.999995621876323
 31
0.0
  0
ARC
  5
43B
  8
0
 10
103.3574280586909
 20
19.99999562187622
 30
0.0
 40
0.5000000000000036
 50
0.0
 51
180.0
  0
ARC
  5
43C
  8
0
 10
103.3574280586909
 20
19.99999562187622
 30
0.0
 40
0.5000000000000056
 50
180.0000000000002
 51
359.99999999999937
  0
ARC
  5
43D
  8
0
 10
102.3574280586907
 20
11.62499562187622
 30
0.0
 40
1.0
 50
359.9999999999992
 51
179.9999999999994
  0
ARC
  5
43E
  8
0
 10
102.3574280586907
 20
11.62499562187622
 30
0.0
 40
1.0000000000000011
 50
180.00000000000011
 51
359.9999999999992
  0
ARC
  5
43F
  8
0
 10
122.4824280586909
 20
2.6249956218762232
 30
0.0
 40
1.0000000000000011
 50
359.9999999999992
 51
179.9999999999994
  0
ARC
  5
440
  8
0
 10
122.4824280586909
 20
2.6249956218762232
 30
0.0
 40
0.9999999999999992
 50
180.0000000000004
 51
359.99999999999949
  0
LINE
  5
441
  8
0
 10
179.48242805869091
 20
2.4999956218761641
 30
0.0
 11
179.7324280586908
 21
2.4999956218761641
 31
0.0
  0
LINE
  5
442
  8
0
 10
179.7324280586908
 20
3.4999956218761081
 30
0.0
 11
179.48242805869091
 21
3.4999956218761081
 31
0.0
  0
LINE
  5
443
  8
0
 10
179.7324280586906
 20
2.9999956218762232
 30
0.0
 11
179.7324280586906
 21
2.870586099324961
 31
0.0
  0
LINE
  5
444
  8
0
 10
179.7324280586906
 20
2.8705860063502522
 30
0.0
 11
179.7324280586906
 21
2.7499956779082511
 31
0.0
  0
LINE
  5
445
  8
0
 10
179.7324280586906
 20
2.749995621876224
 30
0.0
 11
179.7324280586906
 21
2.6464422312829501
 31
0.0
  0
LINE
  5
446
  8
0
 10
179.7324280586906
 20
2.646442203615448
 30
0.0
 11
179.7324280586906
 21
2.5669829199840031
 31
0.0
  0
LINE
  5
447
  8
0
 10
179.7324280586906
 20
2.566982813017284
 30
0.0
 11
179.7324280586906
 21
2.49999562187622
 31
0.0
  0
LINE
  5
448
  8
0
 10
179.7324280586906
 20
3.49999562187622
 30
0.0
 11
179.7324280586906
 21
3.433008323768441
 31
0.0
  0
LINE
  5
449
  8
0
 10
179.7324280586906
 20
3.433008243723163
 30
0.0
 11
179.7324280586906
 21
3.3535490401369961
 31
0.0
  0
LINE
  5
44A
  8
0
 10
179.7324280586906
 20
3.3535490124694962
 30
0.0
 11
179.7324280586906
 21
3.2499957523775622
 31
0.0
  0
LINE
  5
44B
  8
0
 10
179.7324280586906
 20
3.2499956218762232
 30
0.0
 11
179.7324280586906
 21
2.9999956218762232
 31
0.0
  0
CIRCLE
  5
44C
  8
0
 10
114.2949280586909
 20
19.87499562187622
 30
0.0
 40
8.4999999999999876
  0
LINE
  5
44F
  8
0
 10
222.7520257887611
 20
15.71170713663841
 30
0.0
 11
222.7520257887611
 21
15.735002595187311
 31
0.0
  0
LINE
  5
450
  8
0
 10
222.7520257887611
 20
15.735002595187311
 30
0.0
 11
222.7520278780774
 21
56.999996338286422
 31
0.0
  0
LINE
  5
451
  8
0
 10
230.25668301198581
 20
31.80273942369638
 30
0.0
 11
230.2566830119857
 21
15.735002595187289
 31
0.0
  0
LINE
  5
452
  8
0
 10
230.2566830119857
 20
15.7350025951873
 30
0.0
 11
230.2566830119857
 21
15.71170713663842
 31
0.0
  0
LINE
  5
454
  8
0
 10
230.25668301198581
 20
56.999996338286422
 30
0.0
 11
222.7520278780774
 21
56.999996338286422
 31
0.0
  0
LINE
  5
455
  8
0
 10
271.02169447238498
 20
41.99999562187665
 30
0.0
 11
271.02169447238498
 21
39.395272956872716
 31
0.0
  0
LINE
  5
456
  8
0
 10
271.02169447238498
 20
39.395271665143312
 30
0.0
 11
271.02169447238498
 21
36.869693471991631
 31
0.0
  0
LINE
  5
457
  8
0
 10
271.02169447238498
 20
36.869692191960148
 30
0.0
 11
271.02169447238498
 21
30.509329209302081
 31
0.0
  0
LINE
  5
458
  8
0
 10
271.02169447238498
 20
30.509328975091989
 30
0.0
 11
271.02169447238498
 21
27.90460631008802
 31
0.0
  0
LINE
  5
459
  8
0
 10
271.02169447238498
 20
27.904604976312651
 30
0.0
 11
271.02169447238498
 21
27.227879326693522
 31
0.0
  0
LINE
  5
45A
  8
0
 10
271.02169447238498
 20
27.227878596774708
 30
0.0
 11
271.02169447238498
 21
26.999995621876621
 31
0.0
  0
LINE
  5
45B
  8
0
 10
271.02169447238498
 20
56.9999956218766
 30
0.0
 11
271.02169447238498
 21
56.772111917059711
 31
0.0
  0
LINE
  5
45C
  8
0
 10
271.02169447238498
 20
56.772110240881617
 30
0.0
 11
271.02169447238498
 21
56.095386267439501
 31
0.0
  0
LINE
  5
45D
  8
0
 10
271.02169447238498
 20
56.095384933665251
 30
0.0
 11
271.02169447238498
 21
54.99037915615407
 31
0.0
  0
LINE
  5
45E
  8
0
 10
271.02169447238498
 20
54.990376678643209
 30
0.0
 11
271.02169447238498
 21
53.49066519024904
 31
0.0
  0
LINE
  5
45F
  8
0
 10
271.02169447238498
 20
53.490662268661289
 30
0.0
 11
271.02169447238498
 21
47.130299051792143
 31
0.0
  0
LINE
  5
460
  8
0
 10
271.02169447238498
 20
47.130297771761668
 30
0.0
 11
271.02169447238498
 21
44.604719578609128
 31
0.0
  0
LINE
  5
461
  8
0
 10
271.02169447238498
 20
44.60471828688059
 30
0.0
 11
271.02169447238498
 21
41.99999562187665
 31
0.0
  0
LINE
  5
462
  8
0
 10
244.2566830119861
 20
15.99999562187633
 30
0.0
 11
230.2566830119857
 21
15.99999562187633
 31
0.0
  0
LINE
  5
463
  8
0
 10
230.25668301198581
 20
5.9999956218763151
 30
0.0
 11
230.25668301198581
 21
6.1703664904309692
 31
0.0
  0
LINE
  5
464
  8
0
 10
244.2566830119861
 20
15.99999562187628
 30
0.0
 11
244.2566830119861
 21
15.82962532958433
 31
0.0
  0
LINE
  5
465
  8
0
 10
244.2566830119861
 20
15.82962475332163
 30
0.0
 11
244.2566830119861
 21
15.33012355426491
 31
0.0
  0
LINE
  5
466
  8
0
 10
244.2566830119861
 20
15.330122640798489
 30
0.0
 11
244.2566830119861
 21
14.535530082211681
 31
0.0
  0
LINE
  5
467
  8
0
 10
244.2566830119861
 20
14.53552952780904
 30
0.0
 11
244.2566830119861
 21
12.294090847388921
 31
0.0
  0
LINE
  5
468
  8
0
 10
244.2566830119861
 20
12.29409019962319
 30
0.0
 11
244.2566830119861
 21
10.99999586304015
 31
0.0
  0
LINE
  5
469
  8
0
 10
244.2566830119861
 20
10.99999562187632
 30
0.0
 11
244.2566830119857
 21
9.7059003963637185
 31
0.0
  0
LINE
  5
46A
  8
0
 10
244.2566830119857
 20
9.7059000915721594
 30
0.0
 11
244.2566830119857
 21
8.4999956218763142
 31
0.0
  0
LINE
  5
46B
  8
0
 10
244.2566830119857
 20
8.4999953608734664
 30
0.0
 11
244.2566830119857
 21
6.6698686029541152
 31
0.0
  0
LINE
  5
46C
  8
0
 10
244.2566830119857
 20
6.669868314287922
 30
0.0
 11
244.2566830119861
 21
5.9999956218762946
 31
0.0
  0
LINE
  5
472
  8
0
 10
222.7520257887611
 20
5.999995621876228
 30
0.0
 11
222.7520257887611
 21
6.2385147896607771
 31
0.0
  0
LINE
  5
473
  8
0
 10
222.7520257887611
 20
6.2385148378527511
 30
0.0
 11
222.7520257887611
 21
6.9378173912525591
 31
0.0
  0
LINE
  5
474
  8
0
 10
222.7520257887611
 20
6.937817795385155
 30
0.0
 11
222.7520257887611
 21
8.05024815357039
 31
0.0
  0
LINE
  5
475
  8
0
 10
222.7520257887611
 20
8.0502482825656116
 30
0.0
 11
222.7520257887611
 21
9.4999956218762236
 31
0.0
  0
LINE
  5
476
  8
0
 10
222.7520257887611
 20
9.4999958460043263
 30
0.0
 11
222.7520257887611
 21
11.18826230615857
 31
0.0
  0
LINE
  5
477
  8
0
 10
222.7520257887611
 20
11.188262607369589
 30
0.0
 11
222.7520257887611
 21
12.999995621876201
 31
0.0
  0
LINE
  5
478
  8
0
 10
222.7520257887611
 20
12.99999610420419
 30
0.0
 11
222.7520257887611
 21
14.811728869329359
 31
0.0
  0
LINE
  5
479
  8
0
 10
222.7520257887611
 20
14.811728937593861
 30
0.0
 11
222.7520257887611
 21
15.73468310272542
 31
0.0
  0
LINE
  5
47A
  8
0
 10
230.2566830119857
 20
15.734683102725461
 30
0.0
 11
230.2566830119857
 21
14.811728937593889
 31
0.0
  0
LINE
  5
47B
  8
0
 10
230.2566830119857
 20
14.8117288693294
 30
0.0
 11
230.2566830119857
 21
12.99999610420422
 31
0.0
  0
LINE
  5
47C
  8
0
 10
230.2566830119857
 20
12.99999562187625
 30
0.0
 11
230.2566830119857
 21
11.18826260736976
 31
0.0
  0
LINE
  5
47D
  8
0
 10
230.2566830119857
 20
11.188262306158601
 30
0.0
 11
230.2566830119857
 21
9.4999958460043512
 31
0.0
  0
LINE
  5
47E
  8
0
 10
230.2566830119857
 20
9.4999956218762502
 30
0.0
 11
230.25668301198581
 21
8.0502482825656312
 31
0.0
  0
LINE
  5
47F
  8
0
 10
230.25668301198581
 20
8.0502481535704113
 30
0.0
 11
230.25668301198581
 21
6.9378177953851621
 31
0.0
  0
LINE
  5
480
  8
0
 10
230.25668301198581
 20
6.937817391252568
 30
0.0
 11
230.2566830119857
 21
6.2385148378527484
 31
0.0
  0
LINE
  5
481
  8
0
 10
230.2566830119857
 20
6.2385147896607762
 30
0.0
 11
230.25668301198581
 21
5.9999956218762147
 31
0.0
  0
LINE
  5
484
  8
0
 10
222.75202578876139
 20
15.711707136638109
 30
0.0
 11
222.75202578876139
 21
15.73500259518697
 31
0.0
  0
LINE
  5
485
  8
0
 10
222.75202578876139
 20
15.735002595186961
 30
0.0
 11
222.7520278780774
 21
56.999996338286067
 31
0.0
1001
ACAD
1000
ASC_BOUNDS
1002
{
1070
    19
1005
7F8
1002
}
  0
LINE
  5
486
  8
0
 10
230.25668301198581
 20
31.802739423696138
 30
0.0
 11
230.25668301198581
 21
15.73500259518695
 31
0.0
1001
ACAD
1000
ASC_BOUNDS
1002
{
1070
    19
1005
7F8
1002
}
  0
LINE
  5
487
  8
0
 10
230.25668301198581
 20
15.735002595186961
 30
0.0
 11
230.25668301198581
 21
15.711707136638109
 31
0.0
1001
ACAD
1000
ASC_BOUNDS
1002
{
1070
    19
1005
7F8
1002
}
  0
LINE
  5
489
  8
0
 10
230.2566830119857
 20
56.999996338286067
 30
0.0
 11
222.7520278780774
 21
56.999996338286067
 31
0.0
1001
ACAD
1000
ASC_BOUNDS
1002
{
1070
    19
1005
7F8
1002
}
  0
LINE
  5
48A
  8
0
 10
271.02169447238509
 20
41.999995621876302
 30
0.0
 11
271.02169447238509
 21
39.395272956872368
 31
0.0
1001
ACAD
1000
ASC_BOUNDS
1002
{
1070
    19
1005
7F8
1002
}
  0
LINE
  5
48B
  8
0
 10
271.02169447238509
 20
39.395271665143262
 30
0.0
 11
271.02169447238509
 21
36.869693471991312
 31
0.0
1001
ACAD
1000
ASC_BOUNDS
1002
{
1070
    19
1005
7F8
1002
}
  0
LINE
  5
48C
  8
0
 10
271.02169447238509
 20
36.869692191960077
 30
0.0
 11
271.02169447238509
 21
30.509329209302152
 31
0.0
1001
ACAD
1000
ASC_BOUNDS
1002
{
1070
    19
1005
7F8
1002
}
  0
LINE
  5
48D
  8
0
 10
271.02169447238509
 20
30.509328975091648
 30
0.0
 11
271.02169447238509
 21
27.904606310087679
 31
0.0
1001
ACAD
1000
ASC_BOUNDS
1002
{
1070
    19
1005
7F8
1002
}
  0
LINE
  5
48E
  8
0
 10
271.02169447238509
 20
27.904604976312669
 30
0.0
 11
271.02169447238509
 21
27.227879326693181
 31
0.0
1001
ACAD
1000
ASC_BOUNDS
1002
{
1070
    19
1005
7F8
1002
}
  0
LINE
  5
48F
  8
0
 10
271.02169447238509
 20
27.227878596774939
 30
0.0
 11
271.02169447238509
 21
26.99999562187628
 31
0.0
1001
ACAD
1000
ASC_BOUNDS
1002
{
1070
    19
1005
7F8
1002
}
  0
LINE
  5
490
  8
0
 10
271.02169447238509
 20
56.9999956218767
 30
0.0
 11
271.02169447238509
 21
56.772111917059391
 31
0.0
1001
ACAD
1000
ASC_BOUNDS
1002
{
1070
    19
1005
7F8
1002
}
  0
LINE
  5
491
  8
0
 10
271.02169447238509
 20
56.772110240881567
 30
0.0
 11
271.02169447238509
 21
56.095386267439721
 31
0.0
1001
ACAD
1000
ASC_BOUNDS
1002
{
1070
    19
1005
7F8
1002
}
  0
LINE
  5
492
  8
0
 10
271.02169447238509
 20
56.095384933664889
 30
0.0
 11
271.02169447238509
 21
54.99037915615407
 31
0.0
1001
ACAD
1000
ASC_BOUNDS
1002
{
1070
    19
1005
7F8
1002
}
  0
LINE
  5
493
  8
0
 10
271.02169447238509
 20
54.99037667864286
 30
0.0
 11
271.02169447238509
 21
53.490665190249189
 31
0.0
1001
ACAD
1000
ASC_BOUNDS
1002
{
1070
    19
1005
7F8
1002
}
  0
LINE
  5
494
  8
0
 10
271.02169447238509
 20
53.490662268660962
 30
0.0
 11
271.02169447238509
 21
47.13029905179225
 31
0.0
1001
ACAD
1000
ASC_BOUNDS
1002
{
1070
    19
1005
7F8
1002
}
  0
LINE
  5
495
  8
0
 10
271.02169447238509
 20
47.130297771761327
 30
0.0
 11
271.02169447238509
 21
44.604719578609057
 31
0.0
1001
ACAD
1000
ASC_BOUNDS
1002
{
1070
    19
1005
7F8
1002
}
  0
LINE
  5
496
  8
0
 10
271.02169447238509
 20
44.604718286880249
 30
0.0
 11
271.02169447238509
 21
41.999995621876302
 31
0.0
1001
ACAD
1000
ASC_BOUNDS
1002
{
1070
    19
1005
7F8
1002
}
  0
LINE
  5
497
  8
0
 10
244.25668301198641
 20
15.99999562187582
 30
0.0
 11
230.2566830119857
 21
15.99999562187582
 31
0.0
  0
LINE
  5
498
  8
0
 10
230.25668301198581
 20
5.999995621875974
 30
0.0
 11
230.25668301198581
 21
6.1703664904306299
 31
0.0
  0
LINE
  5
499
  8
0
 10
244.2566830119861
 20
15.99999562187595
 30
0.0
 11
244.2566830119861
 21
15.82962532958485
 31
0.0
  0
LINE
  5
49A
  8
0
 10
244.2566830119861
 20
15.829624753321291
 30
0.0
 11
244.2566830119861
 21
15.330123554264951
 31
0.0
  0
LINE
  5
49B
  8
0
 10
244.2566830119861
 20
15.33012264079815
 30
0.0
 11
244.2566830119861
 21
14.53553008221167
 31
0.0
  0
LINE
  5
49C
  8
0
 10
244.2566830119861
 20
14.5355295278087
 30
0.0
 11
244.2566830119861
 21
12.294090847388579
 31
0.0
  0
LINE
  5
49D
  8
0
 10
244.2566830119861
 20
12.29409019962312
 30
0.0
 11
244.2566830119861
 21
10.999995863040249
 31
0.0
  0
LINE
  5
49E
  8
0
 10
244.2566830119861
 20
10.99999562187597
 30
0.0
 11
244.2566830119861
 21
9.7059003963633756
 31
0.0
  0
LINE
  5
49F
  8
0
 10
244.2566830119861
 20
9.7059000915721203
 30
0.0
 11
244.2566830119861
 21
8.4999956218759785
 31
0.0
  0
LINE
  5
4A0
  8
0
 10
244.2566830119861
 20
8.4999953608734398
 30
0.0
 11
244.2566830119861
 21
6.6698686029537724
 31
0.0
  0
LINE
  5
4A1
  8
0
 10
244.2566830119861
 20
6.669868314287954
 30
0.0
 11
244.2566830119861
 21
5.99999562187595
 31
0.0
  0
LINE
  5
4A7
  8
0
 10
222.75202578876139
 20
5.999995621875887
 30
0.0
 11
222.75202578876139
 21
6.2385147896610071
 31
0.0
1001
ACAD
1000
ASC_BOUNDS
1002
{
1070
    19
1005
7F8
1002
}
  0
LINE
  5
4A8
  8
0
 10
222.75202578876139
 20
6.23851483785241
 30
0.0
 11
222.75202578876139
 21
6.937817391252783
 31
0.0
1001
ACAD
1000
ASC_BOUNDS
1002
{
1070
    19
1005
7F8
1002
}
  0
LINE
  5
4A9
  8
0
 10
222.75202578876139
 20
6.9378177953848121
 30
0.0
 11
222.75202578876139
 21
8.0502481535700472
 31
0.0
1001
ACAD
1000
ASC_BOUNDS
1002
{
1070
    19
1005
7F8
1002
}
  0
LINE
  5
4AA
  8
0
 10
222.75202578876139
 20
8.0502482825655264
 30
0.0
 11
222.75202578876139
 21
9.4999956218758808
 31
0.0
1001
ACAD
1000
ASC_BOUNDS
1002
{
1070
    19
1005
7F8
1002
}
  0
LINE
  5
4AB
  8
0
 10
222.75202578876139
 20
9.4999958460042482
 30
0.0
 11
222.75202578876139
 21
11.18826230615822
 31
0.0
1001
ACAD
1000
ASC_BOUNDS
1002
{
1070
    19
1005
7F8
1002
}
  0
LINE
  5
4AC
  8
0
 10
222.75202578876139
 20
11.188262607369669
 30
0.0
 11
222.75202578876139
 21
12.99999562187587
 31
0.0
1001
ACAD
1000
ASC_BOUNDS
1002
{
1070
    19
1005
7F8
1002
}
  0
LINE
  5
4AD
  8
0
 10
222.75202578876139
 20
12.99999610420428
 30
0.0
 11
222.75202578876139
 21
14.811728869329309
 31
0.0
1001
ACAD
1000
ASC_BOUNDS
1002
{
1070
    19
1005
7F8
1002
}
  0
LINE
  5
4AE
  8
0
 10
222.75202578876139
 20
14.81172893759352
 30
0.0
 11
222.75202578876139
 21
15.734683102725331
 31
0.0
1001
ACAD
1000
ASC_BOUNDS
1002
{
1070
    19
1005
7F8
1002
}
  0
LINE
  5
4AF
  8
0
 10
230.25668301198581
 20
15.734683102725381
 30
0.0
 11
230.25668301198581
 21
14.81172893759355
 31
0.0
1001
ACAD
1000
ASC_BOUNDS
1002
{
1070
    19
1005
7F8
1002
}
  0
LINE
  5
4B0
  8
0
 10
230.25668301198581
 20
14.811728869329331
 30
0.0
 11
230.25668301198581
 21
12.999996104204319
 31
0.0
1001
ACAD
1000
ASC_BOUNDS
1002
{
1070
    19
1005
7F8
1002
}
  0
LINE
  5
4B1
  8
0
 10
230.25668301198581
 20
12.9999956218759
 30
0.0
 11
230.25668301198581
 21
11.188262607369699
 31
0.0
1001
ACAD
1000
ASC_BOUNDS
1002
{
1070
    19
1005
7F8
1002
}
  0
LINE
  5
4B2
  8
0
 10
230.25668301198581
 20
11.18826230615826
 30
0.0
 11
230.25668301198581
 21
9.4999958460042784
 31
0.0
1001
ACAD
1000
ASC_BOUNDS
1002
{
1070
    19
1005
7F8
1002
}
  0
LINE
  5
4B3
  8
0
 10
230.25668301198581
 20
9.4999956218759074
 30
0.0
 11
230.25668301198581
 21
8.0502482825655388
 31
0.0
1001
ACAD
1000
ASC_BOUNDS
1002
{
1070
    19
1005
7F8
1002
}
  0
LINE
  5
4B4
  8
0
 10
230.25668301198581
 20
8.0502481535700703
 30
0.0
 11
230.25668301198581
 21
6.937817795384821
 31
0.0
1001
ACAD
1000
ASC_BOUNDS
1002
{
1070
    19
1005
7F8
1002
}
  0
LINE
  5
4B5
  8
0
 10
230.25668301198581
 20
6.937817391252791
 30
0.0
 11
230.25668301198581
 21
6.2385148378524073
 31
0.0
1001
ACAD
1000
ASC_BOUNDS
1002
{
1070
    19
1005
7F8
1002
}
  0
LINE
  5
4B6
  8
0
 10
230.25668301198581
 20
6.2385147896612914
 30
0.0
 11
230.25668301198581
 21
5.9999956218758754
 31
0.0
1001
ACAD
1000
ASC_BOUNDS
1002
{
1070
    19
1005
7F8
1002
}
  0
LINE
  5
4B7
  8
0
 10
271.5066830119863
 20
5.9999956218783854
 30
0.0
 11
271.5066830119863
 21
78.999995621876764
 31
0.0
  0
LINE
  5
4B8
  8
0
 10
271.5066830119863
 20
78.999995621876764
 30
0.0
 11
222.2566830119865
 21
78.999995621876764
 31
0.0
  0
LINE
  5
4B9
  8
0
 10
222.2566830119865
 20
78.999995621876764
 30
0.0
 11
222.2566830119865
 21
5.9999956218783854
 31
0.0
  0
LINE
  5
4BA
  8
0
 10
263.50668301198567
 20
59.87499562187633
 30
0.0
 11
230.2566830119857
 21
59.874995621875968
 31
0.0
  0
LINE
  5
4BB
  8
0
 10
230.25668301198581
 20
31.798906030523689
 30
0.0
 11
230.25668301198581
 21
34.659597779518322
 31
0.0
1001
ACAD
1000
ASC_BOUNDS
1002
{
1070
    19
1005
7F8
1002
}
  0
LINE
  5
4BC
  8
0
 10
230.25668301198581
 20
34.659598899176011
 30
0.0
 11
230.25668301198581
 21
38.003810069481133
 31
0.0
1001
ACAD
1000
ASC_BOUNDS
1002
{
1070
    19
1005
7F8
1002
}
  0
LINE
  5
4BD
  8
0
 10
230.25668301198581
 20
38.003810321520902
 30
0.0
 11
230.25668301198581
 21
44.50403413652797
 31
0.0
1001
ACAD
1000
ASC_BOUNDS
1002
{
1070
    19
1005
7F8
1002
}
  0
LINE
  5
4BE
  8
0
 10
230.25668301198581
 20
44.504034441784263
 30
0.0
 11
230.2566830119857
 21
56.9999956218767
 31
0.0
1001
ACAD
1000
ASC_BOUNDS
1002
{
1070
    19
1005
7F8
1002
}
  0
LINE
  5
4BF
  8
0
 10
230.2566830119857
 20
56.999996338286067
 30
0.0
 11
230.2566830119857
 21
59.803300472759382
 31
0.0
  0
LINE
  5
4C0
  8
0
 10
230.2566830119857
 20
59.803301010496803
 30
0.0
 11
230.2566830119857
 21
52.859499264442739
 31
0.0
  0
LINE
  5
4C1
  8
0
 10
230.2566830119857
 20
52.859500404808372
 30
0.0
 11
230.2566830119857
 21
55.052005381181097
 31
0.0
  0
LINE
  5
4C2
  8
0
 10
230.2566830119857
 20
55.052007361102973
 30
0.0
 11
230.2566830119857
 21
59.261164509904319
 31
0.0
  0
LINE
  5
4C3
  8
0
 10
230.2566830119857
 20
59.261165295067727
 30
0.0
 11
230.25668301198581
 21
59.783862301781092
 31
0.0
  0
LINE
  5
4C4
  8
0
 10
230.25668301198581
 20
59.783862707193848
 30
0.0
 11
230.25668301198581
 21
59.84217105786076
 31
0.0
  0
LINE
  5
4C5
  8
0
 10
263.50668301198567
 20
59.842171057861073
 30
0.0
 11
263.50668301198567
 21
59.783862707193641
 31
0.0
  0
LINE
  5
4C6
  8
0
 10
263.50668301198567
 20
59.783862301781447
 30
0.0
 11
263.50668301198567
 21
59.261165295067677
 31
0.0
  0
LINE
  5
4C7
  8
0
 10
263.50668301198567
 20
59.261164509904702
 30
0.0
 11
263.50668301198567
 21
55.052007361103414
 31
0.0
1001
ACAD
1000
ASC_BOUNDS
1002
{
1070
    19
1005
7F8
1002
}
  0
LINE
  5
4C8
  8
0
 10
263.50668301198567
 20
55.05200538118126
 30
0.0
 11
263.50668301198567
 21
52.859500404808337
 31
0.0
1001
ACAD
1000
ASC_BOUNDS
1002
{
1070
    19
1005
7F8
1002
}
  0
LINE
  5
4C9
  8
0
 10
263.50668301198567
 20
52.85949926444318
 30
0.0
 11
263.50668301198567
 21
50.337096634554889
 31
0.0
1001
ACAD
1000
ASC_BOUNDS
1002
{
1070
    19
1005
7F8
1002
}
  0
LINE
  5
4CA
  8
0
 10
263.50668301198567
 20
50.337096096817781
 30
0.0
 11
263.50668301198567
 21
47.533791962344182
 31
0.0
1001
ACAD
1000
ASC_BOUNDS
1002
{
1070
    19
1005
7F8
1002
}
  0
LINE
  5
4CB
  8
0
 10
263.50668301198567
 20
47.533791245935099
 30
0.0
 11
263.50668301198601
 21
44.50403444178442
 31
0.0
1001
ACAD
1000
ASC_BOUNDS
1002
{
1070
    19
1005
7F8
1002
}
  0
LINE
  5
4CC
  8
0
 10
263.50668301198601
 20
44.504034136528453
 30
0.0
 11
263.50668301198601
 21
38.003810321520973
 31
0.0
1001
ACAD
1000
ASC_BOUNDS
1002
{
1070
    19
1005
7F8
1002
}
  0
LINE
  5
4CD
  8
0
 10
263.50668301198601
 20
38.003810069481617
 30
0.0
 11
263.50668301198601
 21
34.659598899176501
 31
0.0
1001
ACAD
1000
ASC_BOUNDS
1002
{
1070
    19
1005
7F8
1002
}
  0
LINE
  5
4CE
  8
0
 10
263.50668301198601
 20
34.659597779518549
 30
0.0
 11
263.50668301198601
 21
31.338994741270682
 31
0.0
1001
ACAD
1000
ASC_BOUNDS
1002
{
1070
    19
1005
7F8
1002
}
  0
LINE
  5
4CF
  8
0
 10
263.50668301198601
 20
31.33899441093503
 30
0.0
 11
263.50668301198601
 21
28.106494678950849
 31
0.0
1001
ACAD
1000
ASC_BOUNDS
1002
{
1070
    19
1005
7F8
1002
}
  0
LINE
  5
4D0
  8
0
 10
263.50668301198601
 20
28.106493350517301
 30
0.0
 11
263.50668301198601
 21
19.54966069657582
 31
0.0
1001
ACAD
1000
ASC_BOUNDS
1002
{
1070
    19
1005
7F8
1002
}
  0
LINE
  5
4D1
  8
0
 10
263.50668301198601
 20
19.549660077227301
 30
0.0
 11
263.50668301198601
 21
17.262393927953099
 31
0.0
  0
LINE
  5
4D2
  8
0
 10
263.50668301198601
 20
17.262393858676919
 30
0.0
 11
263.50668301198601
 21
15.33664526347297
 31
0.0
  0
LINE
  5
4D3
  8
0
 10
263.50668301198601
 20
15.3366450097051
 30
0.0
 11
263.50668301198601
 21
13.80981909278962
 31
0.0
  0
LINE
  5
4D4
  8
0
 10
263.50668301198601
 20
13.80981857155952
 30
0.0
 11
263.50668301198601
 21
12.063233822295
 31
0.0
  0
LINE
  5
4D5
  8
0
 10
263.50668301198601
 20
12.06323382229502
 30
0.0
 11
263.50668301198641
 21
5.9999956218759669
 31
0.0
  0
LINE
  5
4D6
  8
0
 10
263.50668301198601
 20
12.063233822294981
 30
0.0
 11
244.25668187634409
 21
12.06323382229478
 31
0.0
  0
LINE
  5
4D7
  8
0
 10
222.2566830119865
 20
-0.0000043781234452
 30
0.0
 11
271.50668301198652
 21
-0.0000043781234459
 31
0.0
  0
LINE
  5
4D8
  8
0
 10
271.50668301198652
 20
-0.0000043781234457
 30
0.0
 11
271.50668301198652
 21
5.9999956218789752
 31
0.0
  0
LINE
  5
4D9
  8
0
 10
271.50668301198652
 20
5.9999956218789752
 30
0.0
 11
222.2566830119865
 21
5.9999956218789752
 31
0.0
1001
ACAD
1000
ASC_BOUNDS
1002
{
1070
    19
1005
7F8
1002
}
  0
LINE
  5
4DA
  8
0
 10
222.2566830119865
 20
5.9999956218789752
 30
0.0
 11
222.2566830119865
 21
-0.0000043781234457
 31
0.0
  0
LINE
  5
4DD
  8
0
 10
49.249992783588361
 20
5.9999956218783854
 30
0.0
 11
49.249992783588361
 21
78.999995621876764
 31
0.0
  0
LINE
  5
4DE
  8
0
 10
49.249992783588361
 20
78.999995621876764
 30
0.0
 11
-0.0000072164116318
 21
78.999995621876764
 31
0.0
  0
LINE
  5
4DF
  8
0
 10
-0.0000072164116318
 20
78.999995621876764
 30
0.0
 11
-0.0000072164116318
 21
5.9999956218783854
 31
0.0
  0
LINE
  5
4E0
  8
0
 10
-0.0000072164116318
 20
5.9999956218783854
 30
0.0
 11
5.1260282245877971
 21
5.9999956218783854
 31
0.0
  0
LINE
  5
4E1
  8
0
 10
10.37395734258916
 20
5.9999956218783854
 30
0.0
 11
49.249992783588361
 21
5.9999956218783854
 31
0.0
  0
LINE
  5
4E2
  8
0
 10
49.249992783588141
 20
-0.0000043781246172
 30
0.0
 11
49.249992783588141
 21
5.9999956218778001
 31
0.0
  0
LINE
  5
4E3
  8
0
 10
49.249992783588141
 20
5.9999956218778001
 30
0.0
 11
10.37395734258962
 21
5.9999956218778001
 31
0.0
  0
LINE
  5
4E4
  8
0
 10
5.1260282245875679
 20
5.9999956218778001
 30
0.0
 11
-0.0000072164118592
 21
5.9999956218778001
 31
0.0
  0
LINE
  5
4E5
  8
0
 10
-0.0000072164118592
 20
5.9999956218778001
 30
0.0
 11
-0.0000072164118592
 21
-0.0000043781246181
 31
0.0
  0
LINE
  5
4E6
  8
0
 10
-0.0000072164118592
 20
-0.0000043781246178
 30
0.0
 11
49.249992783588141
 21
-0.0000043781246172
 31
0.0
  0
ARC
  5
4E7
  8
0
 10
7.7499927835883682
 20
4.5624956218763444
 30
0.0
 40
3.000000000000008
 50
359.9999999999992
 51
179.9999999999994
  0
ARC
  5
4E8
  8
0
 10
7.7499927835883682
 20
4.5624956218763444
 30
0.0
 40
3.0000000000000062
 50
180.00000000000011
 51
359.9999999999992
  0
ARC
  5
4E9
  8
0
 10
24.624992783588599
 20
66.999995621876323
 30
0.0
 40
3.0000000000000062
 50
359.9999999999992
 51
179.9999999999992
  0
ARC
  5
4EA
  8
0
 10
24.624992783588599
 20
66.999995621876323
 30
0.0
 40
2.9999999999999911
 50
180.0000000000004
 51
359.99999999999949
  0
LINE
  5
4ED
  8
0
 10
176.92600911707271
 20
129.2129116896495
 30
0.0
 11
163.29010175522359
 21
129.2129116896495
 31
0.0
  0
LINE
  5
4EE
  8
0
 10
163.29010175522359
 20
129.2129116896495
 30
0.0
 11
163.2459523006562
 21
129.2129116896495
 31
0.0
  0
LINE
  5
4EF
  8
0
 10
170.45163296134439
 20
136.71756891287399
 30
0.0
 11
176.92600911707271
 21
136.71756891287399
 31
0.0
  0
LINE
  5
4F0
  8
0
 10
176.92600911707271
 20
136.71756891287399
 30
0.0
 11
176.92600911707271
 21
129.2129116896495
 31
0.0
  0
LINE
  5
500
  8
0
 10
175.48242805869111
 20
136.71756891287399
 30
0.0
 11
175.48242805869111
 21
150.71756891287399
 31
0.0
  0
LINE
  5
501
  8
0
 10
170.4824280586912
 20
150.71756891287399
 30
0.0
 11
171.77652263644211
 21
150.71756891287399
 31
0.0
  0
LINE
  5
502
  8
0
 10
171.77652328420359
 20
150.71756891287399
 30
0.0
 11
174.01796196462391
 21
150.71756891287399
 31
0.0
  0
LINE
  5
503
  8
0
 10
174.01796251903161
 20
150.71756891287399
 30
0.0
 11
174.81255507761341
 21
150.71756891287399
 31
0.0
  0
LINE
  5
504
  8
0
 10
174.81255599108539
 20
150.71756891287399
 30
0.0
 11
175.31205719013639
 21
150.71756891287399
 31
0.0
  0
LINE
  5
505
  8
0
 10
175.31205776640809
 20
150.71756891287399
 30
0.0
 11
175.48242805869111
 21
150.71756891287399
 31
0.0
  0
LINE
  5
506
  8
0
 10
170.45127855237101
 20
150.71756891287399
 30
0.0
 11
170.48242757636751
 21
150.71756891287399
 31
0.0
  0
LINE
  5
507
  8
0
 10
149.48242805869069
 20
129.2129116896495
 30
0.0
 11
146.87770539368671
 21
129.2129116896495
 31
0.0
  0
LINE
  5
508
  8
0
 10
146.87770507551451
 20
129.2129116896495
 30
0.0
 11
144.3521259088057
 21
129.2129116896495
 31
0.0
  0
LINE
  5
509
  8
0
 10
144.35212561883961
 20
129.2129116896495
 30
0.0
 11
141.98242805869069
 21
129.2129116896495
 31
0.0
  0
LINE
  5
50A
  8
0
 10
141.9824275539325
 20
129.2129116896495
 30
0.0
 11
139.84061427882159
 21
129.2129116896495
 31
0.0
  0
LINE
  5
50B
  8
0
 10
139.84061391339259
 20
129.2129116896495
 30
0.0
 11
137.991761411906
 21
129.2129116896495
 31
0.0
  0
LINE
  5
50C
  8
0
 10
137.99176116559289
 20
129.2129116896495
 30
0.0
 11
135.38703874690199
 21
129.2129116896495
 31
0.0
  0
LINE
  5
50D
  8
0
 10
135.38703867498049
 20
129.2129116896495
 30
0.0
 11
134.71031215837209
 21
129.2129116896495
 31
0.0
  0
LINE
  5
50E
  8
0
 10
134.7103117635076
 20
129.2129116896495
 30
0.0
 11
134.48242805869069
 21
129.2129116896495
 31
0.0
  0
LINE
  5
50F
  8
0
 10
163.2896649227022
 20
129.2129116896495
 30
0.0
 11
162.47280933352241
 21
129.2129116896495
 31
0.0
  0
LINE
  5
510
  8
0
 10
162.47280911545741
 20
129.2129116896495
 30
0.0
 11
159.12424229790341
 21
129.2129116896495
 31
0.0
  0
LINE
  5
511
  8
0
 10
159.12424220398881
 20
129.2129116896495
 30
0.0
 11
152.08715079848861
 21
129.2129116896495
 31
0.0
  0
LINE
  5
512
  8
0
 10
152.08715072369469
 20
129.2129116896495
 30
0.0
 11
149.4824282983287
 21
129.2129116896495
 31
0.0
  0
LINE
  5
519
  8
0
 10
176.92600911707279
 20
129.2129116896495
 30
0.0
 11
163.29010175522359
 21
129.2129116896497
 31
0.0
1001
ACAD
1000
ASC_BOUNDS
1002
{
1070
    19
1005
796
1002
}
  0
LINE
  5
51A
  8
0
 10
163.29010175522359
 20
129.2129116896497
 30
0.0
 11
163.24595230065651
 21
129.2129116896497
 31
0.0
  0
LINE
  5
51B
  8
0
 10
170.45163296134439
 20
136.71756891287421
 30
0.0
 11
176.92600911707279
 21
136.71756891287399
 31
0.0
1001
ACAD
1000
ASC_BOUNDS
1002
{
1070
    19
1005
796
1002
}
  0
LINE
  5
51C
  8
0
 10
176.92600911707279
 20
136.71756891287399
 30
0.0
 11
176.92600911707279
 21
129.2129116896495
 31
0.0
1001
ACAD
1000
ASC_BOUNDS
1002
{
1070
    19
1005
796
1002
}
  0
LINE
  5
52C
  8
0
 10
175.48242805869111
 20
136.71756891287399
 30
0.0
 11
175.48242805869111
 21
150.71756891287421
 31
0.0
  0
LINE
  5
52D
  8
0
 10
170.4824280586912
 20
150.71756891287421
 30
0.0
 11
171.77652263644211
 21
150.71756891287421
 31
0.0
  0
LINE
  5
52E
  8
0
 10
171.77652328420379
 20
150.71756891287421
 30
0.0
 11
174.01796196462391
 21
150.71756891287421
 31
0.0
  0
LINE
  5
52F
  8
0
 10
174.01796251903141
 20
150.71756891287421
 30
0.0
 11
174.81255507761341
 21
150.71756891287421
 31
0.0
  0
LINE
  5
530
  8
0
 10
174.81255599108539
 20
150.71756891287421
 30
0.0
 11
175.31205719013639
 21
150.71756891287399
 31
0.0
  0
LINE
  5
531
  8
0
 10
175.31205776640809
 20
150.71756891287399
 30
0.0
 11
175.48242805869111
 21
150.71756891287399
 31
0.0
  0
LINE
  5
532
  8
0
 10
170.45127855237101
 20
150.71756891287421
 30
0.0
 11
170.48242757636751
 21
150.71756891287421
 31
0.0
  0
LINE
  5
533
  8
0
 10
149.48242805869069
 20
129.2129116896497
 30
0.0
 11
146.8777053936868
 21
129.2129116896497
 31
0.0
1001
ACAD
1000
ASC_BOUNDS
1002
{
1070
    19
1005
796
1002
}
  0
LINE
  5
534
  8
0
 10
146.87770507551451
 20
129.2129116896497
 30
0.0
 11
144.3521259088057
 21
129.2129116896497
 31
0.0
1001
ACAD
1000
ASC_BOUNDS
1002
{
1070
    19
1005
796
1002
}
  0
LINE
  5
535
  8
0
 10
144.35212561883961
 20
129.2129116896497
 30
0.0
 11
141.98242805869069
 21
129.2129116896497
 31
0.0
1001
ACAD
1000
ASC_BOUNDS
1002
{
1070
    19
1005
796
1002
}
  0
LINE
  5
536
  8
0
 10
141.9824275539325
 20
129.2129116896497
 30
0.0
 11
139.8406142788217
 21
129.2129116896497
 31
0.0
1001
ACAD
1000
ASC_BOUNDS
1002
{
1070
    19
1005
796
1002
}
  0
LINE
  5
537
  8
0
 10
139.8406139133927
 20
129.2129116896497
 30
0.0
 11
137.991761411906
 21
129.2129116896497
 31
0.0
1001
ACAD
1000
ASC_BOUNDS
1002
{
1070
    19
1005
796
1002
}
  0
LINE
  5
538
  8
0
 10
137.99176116559269
 20
129.2129116896497
 30
0.0
 11
135.38703874690219
 21
129.2129116896497
 31
0.0
1001
ACAD
1000
ASC_BOUNDS
1002
{
1070
    19
1005
796
1002
}
  0
LINE
  5
539
  8
0
 10
135.38703867498049
 20
129.2129116896497
 30
0.0
 11
134.71031215837209
 21
129.2129116896497
 31
0.0
1001
ACAD
1000
ASC_BOUNDS
1002
{
1070
    19
1005
796
1002
}
  0
LINE
  5
53A
  8
0
 10
134.7103117635076
 20
129.2129116896497
 30
0.0
 11
134.48242805869069
 21
129.2129116896497
 31
0.0
1001
ACAD
1000
ASC_BOUNDS
1002
{
1070
    19
1005
796
1002
}
  0
LINE
  5
53B
  8
0
 10
163.289664922702
 20
129.2129116896497
 30
0.0
 11
162.47280933352241
 21
129.2129116896497
 31
0.0
1001
ACAD
1000
ASC_BOUNDS
1002
{
1070
    19
1005
796
1002
}
  0
LINE
  5
53C
  8
0
 10
162.47280911545741
 20
129.2129116896497
 30
0.0
 11
159.12424229790341
 21
129.2129116896497
 31
0.0
1001
ACAD
1000
ASC_BOUNDS
1002
{
1070
    19
1005
796
1002
}
  0
LINE
  5
53D
  8
0
 10
159.12424220398881
 20
129.2129116896497
 30
0.0
 11
152.08715079848861
 21
129.2129116896497
 31
0.0
1001
ACAD
1000
ASC_BOUNDS
1002
{
1070
    19
1005
796
1002
}
  0
LINE
  5
53E
  8
0
 10
152.0871507236948
 20
129.2129116896497
 30
0.0
 11
149.4824282983287
 21
129.2129116896497
 31
0.0
1001
ACAD
1000
ASC_BOUNDS
1002
{
1070
    19
1005
796
1002
}
  0
LINE
  5
543
  8
0
 10
130.10742805869069
 20
177.96756891287421
 30
0.0
 11
130.10742805869049
 21
128.71756891287421
 31
0.0
  0
LINE
  5
544
  8
0
 10
94.732428058690573
 20
128.71756891287421
 30
0.0
 11
94.732428058690772
 21
177.96756891287421
 31
0.0
  0
LINE
  5
545
  8
0
 10
94.732428058690772
 20
177.96756891287421
 30
0.0
 11
130.10742805869069
 21
177.96756891287421
 31
0.0
  0
LINE
  5
546
  8
0
 10
96.357428058690687
 20
176.34256891287421
 30
0.0
 11
128.48242805869069
 21
176.34256891287421
 31
0.0
1001
ACAD
1000
ASC_BOUNDS
1002
{
1070
    19
1005
76D
1002
}
  0
LINE
  5
547
  8
0
 10
128.48242805869069
 20
176.34256891287421
 30
0.0
 11
128.48242805869049
 21
130.34256891287421
 31
0.0
1001
ACAD
1000
ASC_BOUNDS
1002
{
1070
    19
1005
76D
1002
}
  0
LINE
  5
548
  8
0
 10
128.48242805869049
 20
130.34256891287421
 30
0.0
 11
96.357428058690573
 21
130.34256891287421
 31
0.0
1001
ACAD
1000
ASC_BOUNDS
1002
{
1070
    19
1005
76D
1002
}
  0
LINE
  5
549
  8
0
 10
96.357428058690573
 20
130.34256891287421
 30
0.0
 11
96.357428058690687
 21
176.34256891287421
 31
0.0
1001
ACAD
1000
ASC_BOUNDS
1002
{
1070
    19
1005
76D
1002
}
  0
LINE
  5
54A
  8
0
 10
94.732428058690573
 20
128.71756891287421
 30
0.0
 11
130.10742805869049
 21
128.71756891287421
 31
0.0
  0
LINE
  5
54B
  8
0
 10
170.482428058691
 20
136.71756891287399
 30
0.0
 11
170.482428058691
 21
169.96756891287399
 31
0.0
  0
LINE
  5
54C
  8
0
 10
170.45163352750961
 20
136.71756891287399
 30
0.0
 11
170.3878280563415
 21
136.71756891287399
 31
0.0
1001
ACAD
1000
ASC_BOUNDS
1002
{
1070
    19
1005
796
1002
}
  0
LINE
  5
54D
  8
0
 10
170.38782794485209
 20
136.71756891287399
 30
0.0
 11
168.8775099811277
 21
136.71756891287399
 31
0.0
1001
ACAD
1000
ASC_BOUNDS
1002
{
1070
    19
1005
796
1002
}
  0
LINE
  5
54E
  8
0
 10
168.87750963941781
 20
136.71756891287399
 30
0.0
 11
167.46033273471679
 21
136.71756891287399
 31
0.0
1001
ACAD
1000
ASC_BOUNDS
1002
{
1070
    19
1005
796
1002
}
  0
LINE
  5
54F
  8
0
 10
167.46033262969451
 20
136.71756891287399
 30
0.0
 11
165.63569540013171
 21
136.71756891287399
 31
0.0
1001
ACAD
1000
ASC_BOUNDS
1002
{
1070
    19
1005
796
1002
}
  0
LINE
  5
550
  8
0
 10
165.63569521988919
 20
136.71756891287399
 30
0.0
 11
163.43903845156251
 21
136.71756891287379
 31
0.0
1001
ACAD
1000
ASC_BOUNDS
1002
{
1070
    19
1005
796
1002
}
  0
LINE
  5
551
  8
0
 10
163.43903827329899
 20
136.71756891287379
 30
0.0
 11
148.57194811902181
 21
136.71756891287379
 31
0.0
1001
ACAD
1000
ASC_BOUNDS
1002
{
1070
    19
1005
796
1002
}
  0
LINE
  5
552
  8
0
 10
148.57194779875789
 20
136.71756891287379
 30
0.0
 11
141.9076976582941
 21
136.71756891287379
 31
0.0
1001
ACAD
1000
ASC_BOUNDS
1002
{
1070
    19
1005
796
1002
}
  0
LINE
  5
553
  8
0
 10
141.90769725649429
 20
136.71756891287379
 30
0.0
 11
135.59714594399901
 21
136.71756891287379
 31
0.0
1001
ACAD
1000
ASC_BOUNDS
1002
{
1070
    19
1005
796
1002
}
  0
LINE
  5
554
  8
0
 10
135.59714594399881
 20
136.71756891287379
 30
0.0
 11
130.10742805869069
 21
136.71756891287399
 31
0.0
1001
ACAD
1000
ASC_BOUNDS
1002
{
1070
    19
1005
796
1002
}
  0
LINE
  5
555
  8
0
 10
130.10742805869069
 20
169.96756891287399
 30
0.0
 11
135.59714594399881
 21
169.96756891287379
 31
0.0
  0
LINE
  5
556
  8
0
 10
135.59714594399881
 20
169.96756891287379
 30
0.0
 11
141.90769725649409
 21
169.96756891287379
 31
0.0
  0
LINE
  5
557
  8
0
 10
141.90769765829401
 20
169.96756891287379
 30
0.0
 11
148.57194779875789
 21
169.96756891287379
 31
0.0
  0
LINE
  5
558
  8
0
 10
148.57194811902161
 20
169.96756891287379
 30
0.0
 11
163.43903827329899
 21
169.96756891287379
 31
0.0
  0
LINE
  5
559
  8
0
 10
163.43903845156231
 20
169.96756891287379
 30
0.0
 11
165.6356952198891
 21
169.96756891287379
 31
0.0
  0
LINE
  5
55A
  8
0
 10
165.6356954001316
 20
169.96756891287379
 30
0.0
 11
167.46033262969451
 21
169.96756891287399
 31
0.0
  0
LINE
  5
55B
  8
0
 10
167.46033273471679
 20
169.96756891287399
 30
0.0
 11
168.87750963941761
 21
169.96756891287399
 31
0.0
  0
LINE
  5
55C
  8
0
 10
168.8775099811277
 20
169.96756891287399
 30
0.0
 11
170.38782794485209
 21
169.96756891287399
 31
0.0
  0
LINE
  5
55D
  8
0
 10
170.38782805634139
 20
169.96756891287399
 30
0.0
 11
170.45163352750961
 21
169.96756891287399
 31
0.0
  0
LINE
  5
55F
  8
0
 10
179.4824280586906
 20
177.9675689128747
 30
0.0
 11
179.4824280586906
 21
128.7175689128747
 31
0.0
  0
LINE
  5
560
  8
0
 10
179.4824280586906
 20
128.7175689128747
 30
0.0
 11
130.10742805869049
 21
128.7175689128747
 31
0.0
  0
LINE
  5
561
  8
0
 10
179.4824280586906
 20
177.9675689128747
 30
0.0
 11
130.10742805869069
 21
177.9675689128747
 31
0.0
  0
LINE
  5
562
  8
0
 10
92.482428058690587
 20
167.21756891287421
 30
0.0
 11
94.732428058690587
 21
167.21756891287421
 31
0.0
  0
LINE
  5
563
  8
0
 10
94.732428058690587
 20
173.21756891287421
 30
0.0
 11
92.482428058690587
 21
173.21756891287421
 31
0.0
  0
LINE
  5
564
  8
0
 10
92.482428058690587
 20
150.34256891287399
 30
0.0
 11
94.732428058690587
 21
150.34256891287399
 31
0.0
  0
LINE
  5
565
  8
0
 10
94.732428058690587
 20
156.34256891287421
 30
0.0
 11
92.482428058690587
 21
156.34256891287421
 31
0.0
  0
LINE
  5
566
  8
0
 10
92.482428058690701
 20
167.21756891287421
 30
0.0
 11
92.482428058690701
 21
168.0962479136129
 31
0.0
  0
LINE
  5
567
  8
0
 10
92.482428058690701
 20
168.0962485693147
 30
0.0
 11
92.482428058690701
 21
168.7175676696591
 31
0.0
  0
LINE
  5
568
  8
0
 10
92.482428058690701
 20
168.71756891287421
 30
0.0
 11
92.482428058690701
 21
169.4411117775667
 31
0.0
  0
LINE
  5
569
  8
0
 10
92.482428058690701
 20
169.4411118952562
 30
0.0
 11
92.482428058690701
 21
170.21756776415509
 31
0.0
  0
LINE
  5
56A
  8
0
 10
92.482428058690701
 20
170.21756891287421
 30
0.0
 11
92.482428058690701
 21
170.99402604818169
 31
0.0
  0
LINE
  5
56B
  8
0
 10
92.482428058690701
 20
170.99402654022811
 30
0.0
 11
92.482428058690701
 21
171.71756891287421
 31
0.0
  0
LINE
  5
56C
  8
0
 10
92.482428058690701
 20
171.717569235675
 30
0.0
 11
92.482428058690701
 21
172.81564512422759
 31
0.0
  0
LINE
  5
56D
  8
0
 10
92.482428058690701
 20
172.81564568379511
 30
0.0
 11
92.482428058690701
 21
173.21756891287421
 31
0.0
  0
LINE
  5
56E
  8
0
 10
92.482428058690701
 20
150.34256891287399
 30
0.0
 11
92.482428058690701
 21
150.74449270152061
 31
0.0
  0
LINE
  5
56F
  8
0
 10
92.482428058690701
 20
150.74449283552431
 30
0.0
 11
92.482428058690701
 21
151.2212479136129
 31
0.0
  0
LINE
  5
570
  8
0
 10
92.482428058690701
 20
151.22124856931441
 30
0.0
 11
92.482428058690701
 21
151.8425676696591
 31
0.0
  0
LINE
  5
571
  8
0
 10
92.482428058690701
 20
151.84256891287399
 30
0.0
 11
92.482428058690701
 21
152.5661117775665
 31
0.0
  0
LINE
  5
572
  8
0
 10
92.482428058690701
 20
152.5661118952562
 30
0.0
 11
92.482428058690701
 21
153.34256776415529
 31
0.0
  0
LINE
  5
573
  8
0
 10
92.482428058690701
 20
153.34256891287399
 30
0.0
 11
92.482428058690701
 21
154.1190260481815
 31
0.0
  0
LINE
  5
574
  8
0
 10
92.482428058690701
 20
154.11902654022811
 30
0.0
 11
92.482428058690701
 21
155.4638892564335
 31
0.0
  0
LINE
  5
575
  8
0
 10
92.482428058690701
 20
155.46389059910689
 30
0.0
 11
92.482428058690701
 21
155.94064512422739
 31
0.0
  0
LINE
  5
576
  8
0
 10
92.482428058690701
 20
155.9406456837954
 30
0.0
 11
92.482428058690701
 21
156.3425689128741
 31
0.0
  0
LINE
  5
75F
  8
0
 10
134.48242805869069
 20
129.2129116896497
 30
0.0
 11
134.482428058691
 21
136.71756891287379
 31
0.0
1001
ACAD
1000
ASC_BOUNDS
1002
{
1070
    19
1005
796
1002
}
  0
INSERT
  5
76D
  8
0
  6
CONTINUOUS
  2
*X7
 10
0.0
 20
0.0
 30
0.0
1001
GRADIENTCOLOR1ACI
1070
     5
1001
GRADIENTCOLOR2ACI
1070
     2
1001
ACAD
1000
HATCH
1002
{
1070
    19
1000
ANSI31
1040
12.0
1040
-0.7853981633974485
1000
ASC_BOUNDS
1070
     1
1070
     1
1070
     4
1005
548
1005
549
1005
546
1005
547
1000
ASC_SEEDPOINT
1011
116.2035636900017
1021
0.0
1031
0.0
1021
166.52574336338921
1031
0.0
1000
R14_HATCH_DATA
1000
76D
1011
1.0
1021
0.0
1031
0.0
1021
0.0
1031
0.0
1011
0.0
1021
0.0
1031
0.0
1021
1.0
1031
0.0
1011
0.0
1021
0.0
1031
0.0
1021
0.0
1031
1.0
1040
0.0
1010
0.0
1020
0.0
1030
1.0
1000
ANSI31
1070
     0
1070
     1
1071
        1
1071
        7
1070
     0
1070
     1
1071
        4
1040
96.357428058690687
1040
176.34256891287421
1040
96.357428058690573
1040
130.34256891287421
1040
128.48242805869049
1040
130.34256891287421
1040
128.48242805869069
1040
176.34256891287421
1071
        4
1005
547
1005
546
1005
549
1005
548
1070
     1
1070
     1
1040
-0.7853981633974485
1040
12.0
1070
     0
1070
     1
1040
6.2831853071795853
1040
-64.577464018427094
1040
177.96756169646261
1040
0.0000000000000005
1040
1.5
1070
     0
1040
0.1395833736446756
1071
        1
1040
116.2035636900017
1040
166.52574336338921
1040
0.0
1002
}
  0
INSERT
  5
778
  8
0
  6
CONTINUOUS
  2
*X3
 10
0.0
 20
0.0
 30
0.0
1001
GRADIENTCOLOR1ACI
1070
     5
1001
GRADIENTCOLOR2ACI
1070
     2
1001
ACAD
1000
HATCH
1002
{
1070
    19
1000
NET
1040
12.0
1040
0.7853981633974483
1000
ASC_BOUNDS
1070
     1
1070
     1
1070
     6
1005
3C7
1005
3BF
1005
3BE
1005
3C3
1005
3BC
1005
3BD
1000
ASC_SEEDPOINT
1011
151.094162103157
1021
0.0
1031
0.0
1021
37.26470811852549
1031
0.0
1000
R14_HATCH_DATA
1000
778
1011
1.0
1021
0.0
1031
0.0
1021
0.0
1031
0.0
1011
0.0
1021
0.0
1031
0.0
1021
1.0
1031
0.0
1011
0.0
1021
0.0
1031
0.0
1021
0.0
1031
1.0
1040
0.0
1010
0.0
1020
0.0
1030
1.0
1000
NET
1070
     0
1070
     1
1071
        1
1071
        7
1070
     1
1070
     1
1071
        6
1040
163.2901017552235
1040
47.860724850400473
1040
0.3009705327358349
1040
149.4824280586906
1040
56.999995621876678
1040
0.6925647357577091
1040
139.60611161644781
1040
30.710249232666548
1040
0.0
1040
165.873480385644
1040
7.7314473069115053
1040
0.1816387035292113
1040
170.4824280586906
1040
5.9999956218762227
1040
0.5373138358438943
1040
176.92600911707271
1040
15.73500259518732
1040
0.0
1071
        6
1005
3BD
1005
3BC
1005
3C3
1005
3BE
1005
3BF
1005
3C7
1070
     1
1070
     1
1040
0.7853981633974483
1040
12.0
1070
     0
1070
     2
1040
0.7853981633974483
1040
-155.60316423782069
1040
0.0
1040
-1.0606601717798201
1040
1.0606601717798201
1070
     0
1040
2.3561944901923431
1040
-155.60316423782069
1040
0.0
1040
-1.0606601717798201
1040
-1.0606601717798201
1070
     0
1040
0.2285445596822872
1071
        1
1040
151.094162103157
1040
37.26470811852549
1040
0.0
1002
}
  0
INSERT
  5
796
  8
0
  6
CONTINUOUS
  2
*X8
 10
0.0
 20
0.0
 30
0.0
1001
GRADIENTCOLOR1ACI
1070
     5
1001
GRADIENTCOLOR2ACI
1070
     2
1001
ACAD
1000
HATCH
1002
{
1070
    19
1000
NET
1040
12.0
1040
-0.7853981633974485
1000
ASC_BOUNDS
1070
     1
1070
     1
1070
    25
1005
519
1005
53B
1005
53C
1005
53D
1005
53E
1005
533
1005
534
1005
535
1005
536
1005
537
1005
538
1005
539
1005
53A
1005
75F
1005
554
1005
553
1005
552
1005
551
1005
550
1005
54F
1005
54E
1005
54D
1005
54C
1005
51B
1005
51C
1000
ASC_SEEDPOINT
1011
167.45037490717681
1021
0.0
1031
0.0
1021
130.9615432427068
1031
0.0
1000
R14_HATCH_DATA
1000
796
1011
1.0
1021
0.0
1031
0.0
1021
0.0
1031
0.0
1011
0.0
1021
0.0
1031
0.0
1021
1.0
1031
0.0
1011
0.0
1021
0.0
1031
0.0
1021
0.0
1031
1.0
1040
0.0
1010
0.0
1020
0.0
1030
1.0
1000
NET
1070
     0
1070
     1
1071
        1
1071
        7
1070
     0
1070
     1
1071
       25
1040
176.92600911707279
1040
129.2129116896495
1040
176.92600911707279
1040
136.71756891287399
1040
170.45163296134439
1040
136.71756891287421
1040
170.3878280563415
1040
136.71756891287399
1040
168.8775099811277
1040
136.71756891287399
1040
167.46033273471679
1040
136.71756891287399
1040
165.63569540013171
1040
136.71756891287399
1040
163.43903845156251
1040
136.71756891287379
1040
148.57194811902181
1040
136.71756891287379
1040
141.9076976582941
1040
136.71756891287379
1040
135.59714594399901
1040
136.71756891287379
1040
134.482428058691
1040
136.71756891287379
1040
134.48242805869069
1040
129.2129116896497
1040
134.7103117635076
1040
129.2129116896497
1040
135.38703867498049
1040
129.2129116896497
1040
137.99176116559269
1040
129.2129116896497
1040
139.8406139133927
1040
129.2129116896497
1040
141.9824275539325
1040
129.2129116896497
1040
144.35212561883961
1040
129.2129116896497
1040
146.87770507551451
1040
129.2129116896497
1040
149.48242805869069
1040
129.2129116896497
1040
152.0871507236948
1040
129.2129116896497
1040
159.12424220398881
1040
129.2129116896497
1040
162.47280911545741
1040
129.2129116896497
1040
163.289664922702
1040
129.2129116896497
1071
       25
1005
51C
1005
51B
1005
54C
1005
54D
1005
54E
1005
54F
1005
550
1005
551
1005
552
1005
553
1005
554
1005
75F
1005
53A
1005
539
1005
538
1005
537
1005
536
1005
535
1005
534
1005
533
1005
53E
1005
53D
1005
53C
1005
53B
1005
519
1070
     1
1070
     1
1040
-0.7853981633974485
1040
12.0
1070
     0
1070
     2
1040
5.4977871437821371
1040
-64.577464018427094
1040
177.96756169646261
1040
1.0606601717798201
1040
1.060660171779819
1070
     0
1040
0.7853981633974465
1040
-64.577464018427094
1040
177.96756169646261
1040
-1.060660171779819
1040
1.0606601717798201
1070
     0
1040
0.370926444589617
1071
        1
1040
167.45037490717681
1040
130.9615432427068
1040
0.0
1002
}
  0
LINE
  5
798
  8
0
 10
263.50668301198567
 20
56.9999956218767
 30
0.0
 11
271.02169447238509
 21
56.9999956218767
 31
0.0
1001
ACAD
1000
ASC_BOUNDS
1002
{
1070
    19
1005
7F8
1002
}
  0
LINE
  5
799
  8
0
 10
263.50668301198567
 20
26.9999963517952
 30
0.0
 11
271.02169447238498
 21
26.9999963517952
 31
0.0
1001
ACAD
1000
ASC_BOUNDS
1002
{
1070
    19
1005
7F8
1002
}
  0
INSERT
  5
7F8
  8
0
  6
CONTINUOUS
  2
*X5
 10
0.0
 20
0.0
 30
0.0
1001
GRADIENTCOLOR1ACI
1070
     5
1001
GRADIENTCOLOR2ACI
1070
     2
1001
ACAD
1000
HATCH
1002
{
1070
    19
1000
NET
1040
12.0
1040
0.7853981633974483
1000
ASC_BOUNDS
1070
     2
1070
     1
1070
    25
1005
496
1005
48A
1005
48B
1005
48C
1005
48D
1005
48E
1005
48F
1005
799
1005
4D0
1005
4CF
1005
4CE
1005
4CD
1005
4CC
1005
4CB
1005
4CA
1005
4C9
1005
4C8
1005
4C7
1005
798
1005
490
1005
491
1005
492
1005
493
1005
494
1005
495
1070
     1
1070
    25
1005
4BD
1005
4BC
1005
4BB
1005
486
1005
487
1005
4AF
1005
4B0
1005
4B1
1005
4B2
1005
4B3
1005
4B4
1005
4B5
1005
4B6
1005
4D9
1005
4A7
1005
4A8
1005
4A9
1005
4AA
1005
4AB
1005
4AC
1005
4AD
1005
4AE
1005
485
1005
489
1005
4BE
1000
ASC_SEEDPOINT
1011
227.41911600248051
1021
0.0
1031
0.0
1021
41.701441295913128
1031
0.0
1000
R14_HATCH_DATA
1000
7F8
1011
1.0
1021
0.0
1031
0.0
1021
0.0
1031
0.0
1011
0.0
1021
0.0
1031
0.0
1021
1.0
1031
0.0
1011
0.0
1021
0.0
1031
0.0
1021
0.0
1031
1.0
1040
0.0
1010
0.0
1020
0.0
1030
1.0
1000
NET
1070
     0
1070
     1
1071
        2
1071
        7
1070
     0
1070
     1
1071
       25
1040
230.25668301198581
1040
44.50403413652797
1040
230.2566830119857
1040
56.999996338286067
1040
222.7520278780774
1040
56.999996338286067
1040
222.75202578876139
1040
15.735002595186961
1040
222.75202578876139
1040
14.81172893759352
1040
222.75202578876139
1040
12.99999610420428
1040
222.75202578876139
1040
11.188262607369669
1040
222.75202578876139
1040
9.4999958460042535
1040
222.75202578876139
1040
8.0502482825655264
1040
222.75202578876139
1040
6.937817795384813
1040
222.75202578876139
1040
6.23851483785241
1040
222.75202578876139
1040
5.9999956218789698
1040
230.25668301198581
1040
5.9999956218789663
1040
230.25668301198581
1040
6.238514789661294
1040
230.25668301198581
1040
6.9378173912527901
1040
230.25668301198581
1040
8.0502481535700632
1040
230.25668301198581
1040
9.4999956218759074
1040
230.25668301198581
1040
11.18826230615826
1040
230.25668301198581
1040
12.9999956218759
1040
230.25668301198581
1040
14.811728869329331
1040
230.25668301198581
1040
15.734683102725381
1040
230.25668301198581
1040
15.735002595186961
1040
230.25668301198581
1040
31.802739423696138
1040
230.25668301198581
1040
34.659597779518322
1040
230.25668301198581
1040
38.003810069481133
1071
       25
1005
4BE
1005
489
1005
485
1005
4AE
1005
4AD
1005
4AC
1005
4AB
1005
4AA
1005
4A9
1005
4A8
1005
4A7
1005
4D9
1005
4B6
1005
4B5
1005
4B4
1005
4B3
1005
4B2
1005
4B1
1005
4B0
1005
4AF
1005
487
1005
486
1005
4BB
1005
4BC
1005
4BD
1071
        7
1070
     0
1070
     1
1071
       25
1040
271.02169447238509
1040
44.604718286880249
1040
271.02169447238509
1040
47.130297771761327
1040
271.02169447238509
1040
53.490662268660962
1040
271.02169447238509
1040
54.99037667864286
1040
271.02169447238509
1040
56.095384933664889
1040
271.02169447238509
1040
56.772110240881567
1040
271.02169447238509
1040
56.9999956218767
1040
263.50668301198567
1040
56.9999956218767
1040
263.50668301198567
1040
55.052007361103414
1040
263.50668301198567
1040
52.859500404808337
1040
263.50668301198567
1040
50.337096634554889
1040
263.50668301198567
1040
47.533791962344182
1040
263.50668301198601
1040
44.50403444178442
1040
263.50668301198601
1040
38.003810321520973
1040
263.50668301198601
1040
34.659598899176501
1040
263.50668301198601
1040
31.338994741270682
1040
263.50668301198601
1040
28.106494678950849
1040
263.50668301198601
1040
26.9999963517952
1040
271.02169447238509
1040
26.999996351795179
1040
271.02169447238509
1040
27.227878596774939
1040
271.02169447238509
1040
27.904604976312669
1040
271.02169447238509
1040
30.509328975091648
1040
271.02169447238509
1040
36.869692191960077
1040
271.02169447238509
1040
39.395271665143262
1040
271.02169447238509
1040
41.999995621876302
1071
       25
1005
495
1005
494
1005
493
1005
492
1005
491
1005
490
1005
798
1005
4C7
1005
4C8
1005
4C9
1005
4CA
1005
4CB
1005
4CC
1005
4CD
1005
4CE
1005
4CF
1005
4D0
1005
799
1005
48F
1005
48E
1005
48D
1005
48C
1005
48B
1005
48A
1005
496
1070
     1
1070
     1
1040
0.7853981633974483
1040
12.0
1070
     0
1070
     2
1040
0.7853981633974483
1040
-267.29045261753907
1040
0.0
1040
-1.0606601717798201
1040
1.0606601717798201
1070
     0
1040
2.3561944901923431
1040
-267.29045261753907
1040
0.0
1040
-1.0606601717798201
1040
-1.0606601717798201
1070
     0
1040
0.1043669097854219
1071
        2
1040
227.41911600248051
1040
41.701441295913128
1040
0.0
1040
267.51535239624172
1040
43.684412944015662
1040
0.0
1002
}
  0
LINE
  5
7F9
  8
0
 10
149.48242805869319
 20
177.4825803732729
 30
0.0
 11
152.08715072369699
 21
177.4825803732729
 31
0.0
  0
LINE
  5
7FA
  8
0
 10
152.08715201542651
 20
177.4825803732729
 30
0.0
 11
154.61273020857811
 21
177.4825803732729
 31
0.0
  0
LINE
  5
7FB
  8
0
 10
154.61273148860971
 20
177.4825803732729
 30
0.0
 11
160.9730944712677
 21
177.4825803732729
 31
0.0
  0
LINE
  5
7FC
  8
0
 10
160.97309470547771
 20
177.4825803732729
 30
0.0
 11
163.57781737048171
 21
177.4825803732729
 31
0.0
  0
LINE
  5
7FD
  8
0
 10
163.57781870425711
 20
177.4825803732729
 30
0.0
 11
164.2545443538763
 21
177.4825803732729
 31
0.0
  0
LINE
  5
7FE
  8
0
 10
164.25454508379511
 20
177.4825803732729
 30
0.0
 11
164.48242805869319
 21
177.4825803732729
 31
0.0
  0
LINE
  5
7FF
  8
0
 10
134.48242805869319
 20
177.4825803732729
 30
0.0
 11
134.71031176350999
 21
177.4825803732729
 31
0.0
  0
LINE
  5
800
  8
0
 10
134.71031343968821
 20
177.4825803732729
 30
0.0
 11
135.38703741313029
 21
177.4825803732729
 31
0.0
  0
LINE
  5
801
  8
0
 10
135.38703874690449
 20
177.4825803732729
 30
0.0
 11
136.49204452441569
 21
177.4825803732729
 31
0.0
  0
LINE
  5
802
  8
0
 10
136.49204700192661
 20
177.4825803732729
 30
0.0
 11
137.99175849032079
 21
177.4825803732729
 31
0.0
  0
LINE
  5
803
  8
0
 10
137.99176141190841
 20
177.4825803732729
 30
0.0
 11
144.35212462877769
 21
177.4825803732729
 31
0.0
  0
LINE
  5
804
  8
0
 10
144.35212590880809
 20
177.4825803732729
 30
0.0
 11
146.87770410196069
 21
177.4825803732729
 31
0.0
  0
LINE
  5
805
  8
0
 10
146.87770539368921
 20
177.4825803732729
 30
0.0
 11
149.48242805869319
 21
177.4825803732729
 31
0.0
  0
LINE
  5
806
  8
0
 10
149.48242805869339
 20
177.48258037327309
 30
0.0
 11
152.08715072369731
 21
177.48258037327309
 31
0.0
  0
LINE
  5
807
  8
0
 10
152.08715201542651
 20
177.48258037327309
 30
0.0
 11
154.61273020857851
 21
177.48258037327309
 31
0.0
  0
LINE
  5
808
  8
0
 10
154.61273148860971
 20
177.48258037327309
 30
0.0
 11
160.9730944712677
 21
177.48258037327309
 31
0.0
  0
LINE
  5
809
  8
0
 10
160.97309470547819
 20
177.48258037327309
 30
0.0
 11
163.57781737048211
 21
177.48258037327309
 31
0.0
  0
LINE
  5
80A
  8
0
 10
163.57781870425711
 20
177.48258037327309
 30
0.0
 11
164.25454435387661
 21
177.48258037327309
 31
0.0
  0
LINE
  5
80B
  8
0
 10
164.25454508379491
 20
177.48258037327309
 30
0.0
 11
164.48242805869339
 21
177.48258037327309
 31
0.0
  0
LINE
  5
80C
  8
0
 10
134.48242805869299
 20
177.48258037327309
 30
0.0
 11
134.71031176351039
 21
177.48258037327309
 31
0.0
  0
LINE
  5
80D
  8
0
 10
134.71031343968821
 20
177.48258037327309
 30
0.0
 11
135.38703741313009
 21
177.48258037327309
 31
0.0
  0
LINE
  5
80E
  8
0
 10
135.38703874690489
 20
177.48258037327309
 30
0.0
 11
136.49204452441569
 21
177.48258037327309
 31
0.0
  0
LINE
  5
80F
  8
0
 10
136.49204700192701
 20
177.48258037327309
 30
0.0
 11
137.99175849032059
 21
177.48258037327309
 31
0.0
  0
LINE
  5
810
  8
0
 10
137.9917614119087
 20
177.48258037327309
 30
0.0
 11
144.35212462877749
 21
177.48258037327309
 31
0.0
  0
LINE
  5
811
  8
0
 10
144.3521259088084
 20
177.48258037327309
 30
0.0
 11
146.87770410196069
 21
177.48258037327309
 31
0.0
  0
LINE
  5
812
  8
0
 10
146.87770539368941
 20
177.48258037327309
 30
0.0
 11
149.48242805869339
 21
177.48258037327309
 31
0.0
  0
LINE
  5
81B
  8
0
 10
134.48242805869299
 20
169.96756891287379
 30
0.0
 11
134.48242805869299
 21
177.48258037327309
 31
0.0
  0
LINE
  5
81C
  8
0
 10
164.48242732877461
 20
169.9675689128735
 30
0.0
 11
164.48242732877461
 21
177.4825803732729
 31
0.0
  0
INSERT
  5
835
  8
0
  6
CONTINUOUS
  2
*X9
 10
0.0
 20
0.0
 30
0.0
1001
GRADIENTCOLOR1ACI
1070
     5
1001
GRADIENTCOLOR2ACI
1070
     2
1001
ACAD
1000
HATCH
1002
{
1070
    19
1000
NET
1040
12.0
1040
-0.7853981633974485
1000
R14_HATCH_DATA
1000
835
1011
1.0
1021
0.0
1031
0.0
1021
0.0
1031
0.0
1011
0.0
1021
0.0
1031
0.0
1021
1.0
1031
0.0
1011
0.0
1021
0.0
1031
0.0
1021
0.0
1031
1.0
1040
0.0
1010
0.0
1020
0.0
1030
1.0
1000
NET
1070
     0
1070
     0
1071
        1
1071
        7
1070
     0
1070
     1
1071
       20
1040
163.43903827329899
1040
169.96756891287379
1040
164.48242732877461
1040
169.96756891287379
1040
164.48242732877461
1040
177.48258037327309
1040
164.25454508379491
1040
177.48258037327309
1040
163.57781870425711
1040
177.48258037327309
1040
160.97309470547819
1040
177.48258037327309
1040
154.61273148860971
1040
177.48258037327309
1040
152.08715201542651
1040
177.48258037327309
1040
149.48242805869339
1040
177.48258037327309
1040
146.87770539368941
1040
177.48258037327309
1040
144.3521259088084
1040
177.48258037327309
1040
137.9917614119087
1040
177.48258037327309
1040
136.49204700192701
1040
177.48258037327309
1040
135.38703874690489
1040
177.48258037327309
1040
134.71031343968821
1040
177.48258037327309
1040
134.48242805869299
1040
177.48258037327309
1040
134.48242805869299
1040
169.96756891287379
1040
135.59714594399881
1040
169.96756891287379
1040
141.90769725649409
1040
169.96756891287379
1040
148.57194779875789
1040
169.96756891287379
1071
        0
1070
     1
1070
     1
1040
-0.7853981633974485
1040
12.0
1070
     0
1070
     2
1040
5.4977871437821371
1040
-64.577464018427094
1040
177.96756169646261
1040
1.0606601717798201
1040
1.060660171779819
1070
     0
1040
0.7853981633974465
1040
-64.577464018427094
1040
177.96756169646261
1040
-1.060660171779819
1040
1.0606601717798201
1070
     0
1040
0.0698074535299957
1071
        1
1040
159.36455262122541
1040
174.09043405364841
1040
0.0
1002
}
  0
ENDSEC
  0
EOF
