  0
SECTION
  2
HEADER
  9
$ACADVER
  1
AC1009
  9
$INSBASE
 10
0.0
 20
0.0
 30
0.0
  9
$EXTMIN
 10
-0.003626003970453
 20
-0.0148999301263189
 30
-0.0000000349181948
  9
$EXTMAX
 10
280.0949234070481
 20
196.29220332612971
 30
0.0000000814935747
  9
$LIMMIN
 10
0.0
 20
0.0
  9
$LIMMAX
 10
12.0
 20
9.0
  9
$ORTHOMODE
 70
     1
  9
$REGENMODE
 70
     1
  9
$FILLMODE
 70
     1
  9
$QTEXTMODE
 70
     0
  9
$MIRRTEXT
 70
     0
  9
$DRAGMODE
 70
     2
  9
$LTSCALE
 40
1.0
  9
$OSMODE
 70
    37
  9
$ATTMODE
 70
     1
  9
$TEXTSIZE
 40
0.2
  9
$TRACEWID
 40
0.05
  9
$TEXTSTYLE
  7
ROMANS
  9
$CLAYER
  8
0
  9
$CELTYPE
  6
BYLAYER
  9
$CECOLOR
 62
   256
  9
$DIMSCALE
 40
1.0
  9
$DIMASZ
 40
0.09375
  9
$DIMEXO
 40
0.0625
  9
$DIMDLI
 40
0.375
  9
$DIMRND
 40
0.0
  9
$DIMDLE
 40
0.0
  9
$DIMEXE
 40
0.03125
  9
$DIMTP
 40
0.0
  9
$DIMTM
 40
0.0
  9
$DIMTXT
 40
0.09375
  9
$DIMCEN
 40
0.09375
  9
$DIMTSZ
 40
0.0
  9
$DIMTOL
 70
     0
  9
$DIMLIM
 70
     0
  9
$DIMTIH
 70
     0
  9
$DIMTOH
 70
     0
  9
$DIMSE1
 70
     0
  9
$DIMSE2
 70
     0
  9
$DIMTAD
 70
     0
  9
$DIMZIN
 70
     0
  9
$DIMBLK
  1

  9
$DIMASO
 70
     1
  9
$DIMSHO
 70
     1
  9
$DIMPOST
  1

  9
$DIMAPOST
  1

  9
$DIMALT
 70
     0
  9
$DIMALTD
 70
     2
  9
$DIMALTF
 40
25.399999999999999
  9
$DIMLFAC
 40
1.0
  9
$DIMTOFL
 70
     0
  9
$DIMTVP
 40
0.0
  9
$DIMTIX
 70
     0
  9
$DIMSOXD
 70
     0
  9
$DIMSAH
 70
     0
  9
$DIMBLK1
  1

  9
$DIMBLK2
  1

  9
$DIMSTYLE
  2
BAC
  9
$DIMCLRD
 70
     0
  9
$DIMCLRE
 70
     6
  9
$DIMCLRT
 70
     0
  9
$DIMTFAC
 40
1.0
  9
$DIMGAP
 40
0.0625
  9
$LUNITS
 70
     5
  9
$LUPREC
 70
     6
  9
$SKETCHINC
 40
0.1
  9
$FILLETRAD
 40
0.0
  9
$AUNITS
 70
     0
  9
$AUPREC
 70
     0
  9
$MENU
  1
.
  9
$ELEVATION
 40
0.0
  9
$PELEVATION
 40
0.0
  9
$THICKNESS
 40
0.0
  9
$LIMCHECK
 70
     0
  9
$BLIPMODE
 70
     0
  9
$CHAMFERA
 40
0.5
  9
$CHAMFERB
 40
0.5
  9
$SKPOLY
 70
     0
  9
$TDCREATE
 40
2456826.7030828591
  9
$TDUPDATE
 40
2456827.5648997459
  9
$TDINDWG
 40
0.0070356481
  9
$TDUSRTIMER
 40
0.0070352083
  9
$USRTIMER
 70
     1
  9
$ANGBASE
 50
0.0
  9
$ANGDIR
 70
     0
  9
$PDMODE
 70
     0
  9
$PDSIZE
 40
0.0
  9
$PLINEWID
 40
0.0
  9
$COORDS
 70
     1
  9
$SPLFRAME
 70
     0
  9
$SPLINETYPE
 70
     6
  9
$SPLINESEGS
 70
     8
  9
$ATTDIA
 70
     0
  9
$ATTREQ
 70
     1
  9
$HANDLING
 70
     1
  9
$HANDSEED
  5
248E
  9
$SURFTAB1
 70
     6
  9
$SURFTAB2
 70
     6
  9
$SURFTYPE
 70
     6
  9
$SURFU
 70
     6
  9
$SURFV
 70
     6
  9
$UCSNAME
  2

  9
$UCSORG
 10
0.0
 20
0.0
 30
0.0
  9
$UCSXDIR
 10
1.0
 20
0.0
 30
0.0
  9
$UCSYDIR
 10
0.0
 20
1.0
 30
0.0
  9
$PUCSNAME
  2

  9
$PUCSORG
 10
0.0
 20
0.0
 30
0.0
  9
$PUCSXDIR
 10
1.0
 20
0.0
 30
0.0
  9
$PUCSYDIR
 10
0.0
 20
1.0
 30
0.0
  9
$USERI1
 70
     0
  9
$USERI2
 70
     0
  9
$USERI3
 70
     0
  9
$USERI4
 70
     0
  9
$USERI5
 70
     0
  9
$USERR1
 40
0.0
  9
$USERR2
 40
0.0
  9
$USERR3
 40
0.0
  9
$USERR4
 40
0.0
  9
$USERR5
 40
0.0
  9
$WORLDVIEW
 70
     1
  9
$SHADEDGE
 70
     3
  9
$SHADEDIF
 70
    70
  9
$TILEMODE
 70
     1
  9
$MAXACTVP
 70
    48
  9
$PLIMCHECK
 70
     0
  9
$PEXTMIN
 10
1.0000000000000000E+020
 20
1.0000000000000000E+020
 30
1.0000000000000000E+020
  9
$PEXTMAX
 10
-1.0000000000000000E+020
 20
-1.0000000000000000E+020
 30
-1.0000000000000000E+020
  9
$PLIMMIN
 10
0.0
 20
0.0
  9
$PLIMMAX
 10
12.0
 20
9.0
  9
$UNITMODE
 70
     0
  9
$VISRETAIN
 70
     1
  9
$PLINEGEN
 70
     0
  9
$PSLTSCALE
 70
     1
  0
ENDSEC
  0
SECTION
  2
TABLES
  0
TABLE
  2
VPORT
 70
     1
  0
VPORT
  2
*ACTIVE
 70
     0
 10
0.0
 20
0.0
 11
1.0
 21
1.0
 12
140.04564870153879
 22
98.138651698001709
 13
0.0
 23
0.0
 14
0.5
 24
0.5
 15
0.5
 25
0.5
 16
0.0
 26
0.0
 36
1.0
 17
0.0
 27
0.0
 37
0.0
 40
197.61291547303821
 41
1.7702552719200879
 42
50.0
 43
0.0
 44
0.0
 50
0.0
 51
0.0
 71
     0
 72
   100
 73
     1
 74
     1
 75
     0
 76
     0
 77
     0
 78
     0
  0
ENDTAB
  0
TABLE
  2
LTYPE
 70
     2
  0
LTYPE
  2
CONTINUOUS
 70
     0
  3
Solid line
 72
    65
 73
     0
 40
0.0
  0
LTYPE
  2
PHANTOM2
 70
     0
  3
Phantom (.5x) ___ _ _ ___ _ _ ___ _ _ ___ _ _
 72
    65
 73
     6
 40
1.25
 49
0.625
 49
-0.125
 49
0.125
 49
-0.125
 49
0.125
 49
-0.125
  0
ENDTAB
  0
TABLE
  2
LAYER
 70
     1
  0
LAYER
  2
0
 70
     0
 62
     7
  6
CONTINUOUS
  0
ENDTAB
  0
TABLE
  2
STYLE
 70
     3
  0
STYLE
  2
STANDARD
 70
     0
 40
0.0
 41
1.0
 50
0.0
 71
     0
 42
0.2
  3
txt
  4

  0
STYLE
  2
ANNOTATIVE
 70
     0
 40
0.0
 41
1.0
 50
0.0
 71
     0
 42
0.2
  3
txt
  4

  0
STYLE
  2
ROMANS
 70
     0
 40
0.0
 41
0.75
 50
0.0
 71
     0
 42
0.2
  3
romans.shx
  4

  0
ENDTAB
  0
TABLE
  2
VIEW
 70
     0
  0
ENDTAB
  0
TABLE
  2
UCS
 70
     0
  0
ENDTAB
  0
TABLE
  2
APPID
 70
    16
  0
APPID
  2
ACAD
 70
     0
  0
APPID
  2
ACADANNOTATIVE
 70
     0
  0
APPID
  2
ACAD_MLEADERVER
 70
     0
  0
APPID
  2
ACAD_DSTYLE_DIMJAG
 70
     0
  0
APPID
  2
ACAD_DSTYLE_DIMTALN
 70
     0
  0
APPID
  2
ACAD_PSEXT
 70
     0
  0
APPID
  2
ACADANNOPO
 70
     0
  0
APPID
  2
MCAD_NO_VIS
 70
     0
  0
APPID
  2
ACAD_TEMP_GRAPHIC
 70
     0
  0
APPID
  2
ACATTRIBSERVICES
 70
     0
  0
APPID
  2
DESIGNERASSEMBLIES
 70
     0
  0
APPID
  2
ACAD_DSTYLE_DIMBREAK
 70
     0
  0
APPID
  2
ACAD_NAV_VCDISPLAY
 70
     0
  0
APPID
  2
ACAD_EXEMPT_FROM_CAD_STANDARDS
 70
     0
  0
APPID
  2
GRADIENTCOLOR1ACI
 70
     0
  0
APPID
  2
GRADIENTCOLOR2ACI
 70
     0
  0
ENDTAB
  0
TABLE
  2
DIMSTYLE
 70
     3
  0
DIMSTYLE
  2
STANDARD
 70
     0
  3

  4

  5

  6

  7

 40
1.0
 41
0.18
 42
0.0625
 43
0.38
 44
0.18
 45
0.0
 46
0.0
 47
0.0
 48
0.0
140
0.18
141
0.09
142
0.0
143
25.399999999999999
144
1.0
145
0.0
146
1.0
147
0.09
 71
     0
 72
     0
 73
     1
 74
     1
 75
     0
 76
     0
 77
     0
 78
     0
170
     0
171
     2
172
     0
173
     0
174
     0
175
     0
176
     0
177
     0
178
     0
  0
DIMSTYLE
  2
ANNOTATIVE
 70
     0
  3

  4

  5

  6

  7

 40
1.0
 41
0.18
 42
0.0625
 43
0.38
 44
0.18
 45
0.0
 46
0.0
 47
0.0
 48
0.0
140
0.18
141
0.09
142
0.0
143
25.399999999999999
144
1.0
145
0.0
146
1.0
147
0.09
 71
     0
 72
     0
 73
     1
 74
     1
 75
     0
 76
     0
 77
     0
 78
     0
170
     0
171
     2
172
     0
173
     0
174
     0
175
     0
176
     0
177
     0
178
     0
  0
DIMSTYLE
  2
BAC
 70
     0
  3

  4

  5

  6

  7

 40
1.0
 41
0.09375
 42
0.0625
 43
0.375
 44
0.03125
 45
0.0
 46
0.0
 47
0.0
 48
0.0
140
0.09375
141
0.09375
142
0.0
143
25.399999999999999
144
1.0
145
0.0
146
1.0
147
0.0625
 71
     0
 72
     0
 73
     0
 74
     0
 75
     0
 76
     0
 77
     0
 78
     0
170
     0
171
     2
172
     0
173
     0
174
     0
175
     0
176
     0
177
     6
178
     0
  0
ENDTAB
  0
ENDSEC
  0
SECTION
  2
BLOCKS
  0
BLOCK
  8
0
  2
$MODEL_SPACE
 70
     0
 10
0.0
 20
0.0
 30
0.0
  3
$MODEL_SPACE
  1

  0
ENDBLK
  5
23A3
  8
0
  0
BLOCK
 67
     1
  8
0
  2
$PAPER_SPACE
 70
     0
 10
0.0
 20
0.0
 30
0.0
  3
$PAPER_SPACE
  1

  0
ENDBLK
  5
239F
 67
     1
  8
0
  0
BLOCK
  8
0
  2
*X5
 70
     1
 10
0.0
 20
0.0
 30
0.0
  3
*X5
  1

  0
LINE
  5
2259
  8
0
 62
     0
 10
171.83544832293711
 20
48.281353561263813
 30
0.0
 11
164.4953326842822
 21
55.621469199918742
 31
0.0
  0
LINE
  5
225A
  8
0
 62
     0
 10
173.41319731681759
 20
44.582284223823699
 30
0.0
 11
161.32074683484549
 21
56.674734705795871
 31
0.0
  0
LINE
  5
225B
  8
0
 62
     0
 10
174.97763308085351
 20
40.896528116227941
 30
0.0
 11
158.88937898645139
 21
56.984782210630229
 31
0.0
  0
LINE
  5
225C
  8
0
 62
     0
 10
176.5420688448896
 20
37.21077200863229
 30
0.0
 11
156.8179494081345
 21
56.934891445387557
 31
0.0
  0
LINE
  5
225D
  8
0
 62
     0
 10
178.1065046089258
 20
33.525015901036532
 30
0.0
 11
154.98351678552339
 21
56.648003724439022
 31
0.0
  0
LINE
  5
225E
  8
0
 62
     0
 10
179.67094037296181
 20
29.839259793440821
 30
0.0
 11
153.3282012523434
 21
56.181998914059321
 31
0.0
  0
LINE
  5
225F
  8
0
 62
     0
 10
181.2353761369979
 20
26.15350368584512
 30
0.0
 11
151.8199381728146
 21
55.568941650028528
 31
0.0
  0
LINE
  5
2260
  8
0
 62
     0
 10
182.79981190103391
 20
22.467747578249401
 30
0.0
 11
150.43954076905459
 21
54.828018710228903
 31
0.0
  0
LINE
  5
2261
  8
0
 62
     0
 10
184.36424766507
 20
18.781991470653711
 30
0.0
 11
149.1753268866658
 21
53.970912249058067
 31
0.0
  0
LINE
  5
2262
  8
0
 62
     0
 10
185.87595000152359
 20
15.148968790640479
 30
0.0
 11
148.02060040395881
 21
53.004318388205462
 31
0.0
  0
LINE
  5
2263
  8
0
 62
     0
 10
186.2073801621768
 20
12.69621828642755
 30
0.0
 11
146.97244232638459
 21
51.931156122219988
 31
0.0
  0
LINE
  5
2264
  8
0
 62
     0
 10
185.88932903101431
 20
10.892949074030501
 30
0.0
 11
146.03123451620101
 21
50.751043588843899
 31
0.0
  0
LINE
  5
2265
  8
0
 62
     0
 10
185.23361931274471
 20
9.4273384487404712
 30
0.0
 11
145.2007202890841
 21
49.460237472401182
 31
0.0
  0
LINE
  5
2266
  8
0
 62
     0
 10
184.32387661879201
 20
8.2157607991335055
 30
0.0
 11
144.48862575559269
 21
48.051011662332918
 31
0.0
  0
LINE
  5
2267
  8
0
 62
     0
 10
183.18378688082981
 20
7.2345301935361022
 30
0.0
 11
143.90810397976151
 21
46.51021309460446
 31
0.0
  0
LINE
  5
2268
  8
0
 62
     0
 10
181.8012914184626
 20
6.4957053123436594
 30
0.0
 11
143.4807266857203
 21
44.816270045086092
 31
0.0
  0
LINE
  5
2269
  8
0
 62
     0
 10
180.11716780339589
 20
6.058508583850708
 30
0.0
 11
143.2429993153265
 21
42.932677071920253
 31
0.0
  0
LINE
  5
226A
  8
0
 62
     0
 10
177.93687583157089
 20
6.1174802121160479
 30
0.0
 11
143.26272550528131
 21
40.791630538405713
 31
0.0
  0
LINE
  5
226B
  8
0
 62
     0
 10
171.38256785118989
 20
10.550467848937361
 30
0.0
 11
143.69281443311081
 21
38.240221267016608
 31
0.0
  0
LINE
  5
226C
  8
0
 62
     0
 10
154.43855959634479
 20
25.373155760222971
 30
0.0
 11
145.10819620659609
 21
34.703519149971697
 31
0.0
  0
LINE
  5
226D
  8
0
 62
     0
 10
182.27271220516721
 20
6.7036375357181708
 30
0.0
 11
185.51033283105309
 21
9.9412581616040541
 31
0.0
  0
LINE
  5
226E
  8
0
 62
     0
 10
179.45179086460871
 20
6.0040365387193901
 30
0.0
 11
186.2099338280517
 21
12.76217950216247
 31
0.0
  0
LINE
  5
226F
  8
0
 62
     0
 10
177.53160555209661
 20
6.2051715697669447
 30
0.0
 11
186.00879879700429
 21
14.6823648146746
 31
0.0
  0
LINE
  5
2270
  8
0
 62
     0
 10
175.9911441203142
 20
6.7860304815440591
 30
0.0
 11
185.44377540282281
 21
16.23866176405285
 31
0.0
  0
LINE
  5
2271
  8
0
 62
     0
 10
174.71827782879561
 20
7.6344845335851801
 30
0.0
 11
184.81167099719659
 21
17.727877701986181
 31
0.0
  0
LINE
  5
2272
  8
0
 62
     0
 10
173.58566360229329
 20
8.6231906506424991
 30
0.0
 11
184.17956659157031
 21
19.217093639919511
 31
0.0
  0
LINE
  5
2273
  8
0
 62
     0
 10
172.454174535112
 20
9.6130219270208634
 30
0.0
 11
183.54746218594391
 21
20.70630957785281
 31
0.0
  0
LINE
  5
2274
  8
0
 62
     0
 10
171.32268546793071
 20
10.60285320339923
 30
0.0
 11
182.91535778031761
 21
22.195525515786098
 31
0.0
  0
LINE
  5
2275
  8
0
 62
     0
 10
170.1911964007495
 20
11.59268447977766
 30
0.0
 11
182.2832533746913
 21
23.684741453719461
 31
0.0
  0
LINE
  5
2276
  8
0
 62
     0
 10
169.0597073335683
 20
12.58251575615602
 30
0.0
 11
181.65114896906499
 21
25.173957391652781
 31
0.0
  0
LINE
  5
2277
  8
0
 62
     0
 10
167.92821826638701
 20
13.57234703253442
 30
0.0
 11
181.01904456343871
 21
26.66317332958608
 31
0.0
  0
LINE
  5
2278
  8
0
 62
     0
 10
166.7967291992058
 20
14.56217830891279
 30
0.0
 11
180.38694015781221
 21
28.152389267519371
 31
0.0
  0
LINE
  5
2279
  8
0
 62
     0
 10
165.66524013202451
 20
15.55200958529119
 30
0.0
 11
179.75483575218601
 21
29.641605205452692
 31
0.0
  0
LINE
  5
227A
  8
0
 62
     0
 10
164.53375106484319
 20
16.541840861669581
 30
0.0
 11
179.12273134655959
 21
31.130821143386019
 31
0.0
  0
LINE
  5
227B
  8
0
 62
     0
 10
163.40226199766201
 20
17.531672138047981
 30
0.0
 11
178.49062694093331
 21
32.62003708131931
 31
0.0
  0
LINE
  5
227C
  8
0
 62
     0
 10
162.27077293048069
 20
18.521503414426348
 30
0.0
 11
177.858522535307
 21
34.109253019252641
 31
0.0
  0
LINE
  5
227D
  8
0
 62
     0
 10
161.13928386329951
 20
19.511334690804741
 30
0.0
 11
177.22641812968061
 21
35.598468957185929
 31
0.0
  0
LINE
  5
227E
  8
0
 62
     0
 10
160.0077947961183
 20
20.501165967183141
 30
0.0
 11
176.59431372405439
 21
37.087684895119253
 31
0.0
  0
LINE
  5
227F
  8
0
 62
     0
 10
158.87630572893701
 20
21.490997243561509
 30
0.0
 11
175.96220931842799
 21
38.576900833052569
 31
0.0
  0
LINE
  5
2280
  8
0
 62
     0
 10
157.74481666175569
 20
22.48082851993993
 30
0.0
 11
175.33010491280169
 21
40.0661167709859
 31
0.0
  0
LINE
  5
2281
  8
0
 62
     0
 10
156.61332759457451
 20
23.470659796318301
 30
0.0
 11
174.69800050717541
 21
41.555332708919167
 31
0.0
  0
LINE
  5
2282
  8
0
 62
     0
 10
155.48183852739319
 20
24.460491072696669
 30
0.0
 11
174.0658961015491
 21
43.04454864685249
 31
0.0
  0
LINE
  5
2283
  8
0
 62
     0
 10
154.35034946021199
 20
25.450322349075091
 30
0.0
 11
173.43379169592271
 21
44.533764584785843
 31
0.0
  0
LINE
  5
2284
  8
0
 62
     0
 10
153.21886039303081
 20
26.440153625453458
 30
0.0
 11
172.8016872902964
 21
46.022980522719152
 31
0.0
  0
LINE
  5
2285
  8
0
 62
     0
 10
152.08737132584949
 20
27.429984901831858
 30
0.0
 11
172.16958288467009
 21
47.512196460652447
 31
0.0
  0
LINE
  5
2286
  8
0
 62
     0
 10
150.9558822586682
 20
28.419816178210251
 30
0.0
 11
171.4996320002308
 21
48.96356591977289
 31
0.0
  0
LINE
  5
2287
  8
0
 62
     0
 10
149.82439319148699
 20
29.409647454588612
 30
0.0
 11
170.71091469160419
 21
50.296168954705813
 31
0.0
  0
LINE
  5
2288
  8
0
 62
     0
 10
148.6929041243057
 20
30.399478730967019
 30
0.0
 11
169.80921661682081
 21
51.515791223482232
 31
0.0
  0
LINE
  5
2289
  8
0
 62
     0
 10
147.5864566549624
 20
31.414351605183391
 30
0.0
 11
168.79961876158839
 21
52.6275137118093
 31
0.0
  0
LINE
  5
228A
  8
0
 62
     0
 10
146.58106731080409
 20
32.530282604584642
 30
0.0
 11
167.68368776218711
 21
53.632903055967653
 31
0.0
  0
LINE
  5
228B
  8
0
 62
     0
 10
145.68370825242349
 20
33.7542438897637
 30
0.0
 11
166.45972647700799
 21
54.530262114348233
 31
0.0
  0
LINE
  5
228C
  8
0
 62
     0
 10
144.89961223411069
 20
35.091468215010572
 30
0.0
 11
165.12250215176121
 21
55.314358132661027
 31
0.0
  0
LINE
  5
228D
  8
0
 62
     0
 10
144.23845051215821
 20
36.551626836617658
 30
0.0
 11
163.66234353015409
 21
55.975519854613538
 31
0.0
  0
LINE
  5
228E
  8
0
 62
     0
 10
143.71627017467131
 20
38.15076684269048
 30
0.0
 11
162.0632035240813
 21
56.497700192100382
 31
0.0
  0
LINE
  5
228F
  8
0
 62
     0
 10
143.35953851603139
 20
39.915355527610139
 30
0.0
 11
160.29861483916159
 21
56.854431850740347
 31
0.0
  0
LINE
  5
2290
  8
0
 62
     0
 10
143.21436709450799
 20
41.891504449646398
 30
0.0
 11
158.3224659171253
 21
56.99960327226367
 31
0.0
  0
LINE
  5
2291
  8
0
 62
     0
 10
143.37180744324101
 20
44.170265141939012
 30
0.0
 11
156.04370522483271
 21
56.842162923530779
 31
0.0
  0
LINE
  5
2292
  8
0
 62
     0
 10
144.06726710594251
 20
46.98704514820021
 30
0.0
 11
153.22692521857141
 21
56.146703260829199
 31
0.0
  0
ENDBLK
  5
2294
  8
0
  0
BLOCK
  8
0
  2
*X6
 70
     1
 10
0.0
 20
0.0
 30
0.0
  3
*X6
  1

  0
LINE
  5
2296
  8
0
 62
     0
 10
279.59214396126788
 20
55.65754910677402
 30
0.0
 11
278.2496974461651
 21
56.999995621876678
 31
0.0
  0
LINE
  5
2297
  8
0
 62
     0
 10
279.59214396126788
 20
53.536228763214339
 30
0.0
 11
276.1283771026055
 21
56.999995621876621
 31
0.0
  0
LINE
  5
2298
  8
0
 62
     0
 10
279.59214396126788
 20
51.414908419654687
 30
0.0
 11
274.00705675904589
 21
56.999995621876558
 31
0.0
  0
LINE
  5
2299
  8
0
 62
     0
 10
279.59214396126771
 20
49.293588076095112
 30
0.0
 11
272.07713250086817
 21
56.808599536494647
 31
0.0
  0
LINE
  5
229A
  8
0
 62
     0
 10
279.59214396126771
 20
47.172267732535452
 30
0.0
 11
272.07713250086817
 21
54.687279192934938
 31
0.0
  0
LINE
  5
229B
  8
0
 62
     0
 10
279.59214396126788
 20
45.050947388975771
 30
0.0
 11
272.07713250086817
 21
52.56595884937532
 31
0.0
  0
LINE
  5
229C
  8
0
 62
     0
 10
279.5921439612676
 20
42.92962704541614
 30
0.0
 11
272.07713250086817
 21
50.444638505815639
 31
0.0
  0
LINE
  5
229D
  8
0
 62
     0
 10
279.59214396126788
 20
40.808306701856488
 30
0.0
 11
272.07713250086829
 21
48.323318162255987
 31
0.0
  0
LINE
  5
229E
  8
0
 62
     0
 10
279.59214396126771
 20
38.686986358296913
 30
0.0
 11
272.0771325008684
 21
46.20199781869627
 31
0.0
  0
LINE
  5
229F
  8
0
 62
     0
 10
279.59214396126771
 20
36.565666014737253
 30
0.0
 11
272.07713250086857
 21
44.080677475136397
 31
0.0
  0
LINE
  5
22A0
  8
0
 62
     0
 10
279.59214396126771
 20
34.444345671177587
 30
0.0
 11
272.07713250086857
 21
41.959357131576709
 31
0.0
  0
LINE
  5
22A1
  8
0
 62
     0
 10
279.5921439612676
 20
32.323025327617962
 30
0.0
 11
272.07713250086857
 21
39.838036788017057
 31
0.0
  0
LINE
  5
22A2
  8
0
 62
     0
 10
279.5921439612676
 20
30.201704984058381
 30
0.0
 11
272.07713250086857
 21
37.716716444457433
 31
0.0
  0
LINE
  5
22A3
  8
0
 62
     0
 10
279.5921439612676
 20
28.080384640498689
 30
0.0
 11
272.07713250086857
 21
35.595396100897773
 31
0.0
  0
LINE
  5
22A4
  8
0
 62
     0
 10
278.5512119064116
 20
26.999996351795179
 30
0.0
 11
272.07713250086857
 21
33.47407575733817
 31
0.0
  0
LINE
  5
22A5
  8
0
 62
     0
 10
276.42989156285188
 20
26.999996351795179
 30
0.0
 11
272.07713250086857
 21
31.352755413778571
 31
0.0
  0
LINE
  5
22A6
  8
0
 62
     0
 10
274.30857121929228
 20
26.999996351795119
 30
0.0
 11
272.07713250086857
 21
29.231435070218879
 31
0.0
  0
LINE
  5
22A7
  8
0
 62
     0
 10
272.18725087573267
 20
26.999996351795179
 30
0.0
 11
272.07713250086857
 21
27.11011472665928
 31
0.0
  0
LINE
  5
22A8
  8
0
 62
     0
 10
238.82713250086829
 20
56.117474039540383
 30
0.0
 11
237.94461020212259
 21
56.999996338286067
 31
0.0
  0
LINE
  5
22A9
  8
0
 62
     0
 10
238.82713250086829
 20
53.996153695980723
 30
0.0
 11
235.82328985856299
 21
56.999996338286039
 31
0.0
  0
LINE
  5
22AA
  8
0
 62
     0
 10
238.82713250086829
 20
51.874833352421057
 30
0.0
 11
233.70196951500341
 21
56.999996338286003
 31
0.0
  0
LINE
  5
22AB
  8
0
 62
     0
 10
238.82713250086829
 20
49.753513008861461
 30
0.0
 11
231.58064917144361
 21
56.999996338286039
 31
0.0
  0
LINE
  5
22AC
  8
0
 62
     0
 10
238.82713250086829
 20
47.632192665301829
 30
0.0
 11
231.3224772726256
 21
55.136847893544562
 31
0.0
  0
LINE
  5
22AD
  8
0
 62
     0
 10
238.82713250086829
 20
45.510872321742099
 30
0.0
 11
231.3224771652196
 21
53.015527657390891
 31
0.0
  0
LINE
  5
22AE
  8
0
 62
     0
 10
238.82713250086829
 20
43.389551978182467
 30
0.0
 11
231.3224770578135
 21
50.894207421237297
 31
0.0
  0
LINE
  5
22AF
  8
0
 62
     0
 10
238.82713250086829
 20
41.268231634622808
 30
0.0
 11
231.32247695040749
 21
48.772887185083619
 31
0.0
  0
LINE
  5
22B0
  8
0
 62
     0
 10
238.82713250086829
 20
39.146911291063219
 30
0.0
 11
231.32247684300151
 21
46.65156694892999
 31
0.0
  0
LINE
  5
22B1
  8
0
 62
     0
 10
238.82713250086829
 20
37.025590947503559
 30
0.0
 11
231.32247673559559
 21
44.530246712776382
 31
0.0
  0
LINE
  5
22B2
  8
0
 62
     0
 10
238.82713250086829
 20
34.904270603943928
 30
0.0
 11
231.32247662818949
 21
42.408926476622781
 31
0.0
  0
LINE
  5
22B3
  8
0
 62
     0
 10
238.82713250086829
 20
32.782950260384268
 30
0.0
 11
231.32247652078351
 21
40.287606240469103
 31
0.0
  0
LINE
  5
22B4
  8
0
 62
     0
 10
238.82713250086829
 20
30.661629916824609
 30
0.0
 11
231.3224764133775
 21
38.166286004315417
 31
0.0
  0
LINE
  5
22B5
  8
0
 62
     0
 10
238.82713250086829
 20
28.540309573264999
 30
0.0
 11
231.32247630597141
 21
36.044965768161852
 31
0.0
  0
LINE
  5
22B6
  8
0
 62
     0
 10
238.82713250086829
 20
26.41898922970535
 30
0.0
 11
231.3224761985654
 21
33.923645532008237
 31
0.0
  0
LINE
  5
22B7
  8
0
 62
     0
 10
238.82713250086829
 20
24.297668886145718
 30
0.0
 11
231.32247609115939
 21
31.80232529585459
 31
0.0
  0
LINE
  5
22B8
  8
0
 62
     0
 10
238.82713250086829
 20
22.176348542586052
 30
0.0
 11
231.32247598375349
 21
29.68100505970088
 31
0.0
  0
LINE
  5
22B9
  8
0
 62
     0
 10
238.82713250086829
 20
20.055028199026388
 30
0.0
 11
231.32247587634751
 21
27.559684823547268
 31
0.0
  0
LINE
  5
22BA
  8
0
 62
     0
 10
238.82713250086829
 20
17.933707855466789
 30
0.0
 11
231.3224757689415
 21
25.438364587393671
 31
0.0
  0
LINE
  5
22BB
  8
0
 62
     0
 10
238.82713250086829
 20
15.81238751190716
 30
0.0
 11
231.32247566153541
 21
23.317044351240039
 31
0.0
  0
LINE
  5
22BC
  8
0
 62
     0
 10
238.82713250086829
 20
13.691067168347439
 30
0.0
 11
231.32247555412951
 21
21.195724115086339
 31
0.0
  0
LINE
  5
22BD
  8
0
 62
     0
 10
238.82713250086829
 20
11.56974682478784
 30
0.0
 11
231.3224754467233
 21
19.07440387893277
 31
0.0
  0
LINE
  5
22BE
  8
0
 62
     0
 10
238.82713250086829
 20
9.4484264812281822
 30
0.0
 11
231.32247533931741
 21
16.953083642779148
 31
0.0
  0
LINE
  5
22BF
  8
0
 62
     0
 10
238.82713250086829
 20
7.3271061376685207
 30
0.0
 11
231.32247527764389
 21
14.83176336089295
 31
0.0
  0
LINE
  5
22C0
  8
0
 62
     0
 10
238.03292267309831
 20
5.9999956218789219
 30
0.0
 11
231.32247527764389
 21
12.71044301733332
 31
0.0
  0
LINE
  5
22C1
  8
0
 62
     0
 10
235.91160232953879
 20
5.9999956218789219
 30
0.0
 11
231.32247527764389
 21
10.58912267377368
 31
0.0
  0
LINE
  5
22C2
  8
0
 62
     0
 10
233.79028198597891
 20
5.9999956218789219
 30
0.0
 11
231.32247527764389
 21
8.4678023302140542
 31
0.0
  0
LINE
  5
22C3
  8
0
 62
     0
 10
231.66896164241939
 20
5.9999956218789219
 30
0.0
 11
231.32247527764389
 21
6.346481986654366
 31
0.0
  0
LINE
  5
22C4
  8
0
 62
     0
 10
279.51819602101187
 20
26.999996351795211
 30
0.0
 11
279.59214396126788
 21
27.073944292051038
 31
0.0
  0
LINE
  5
22C5
  8
0
 62
     0
 10
277.39687567745227
 20
26.999996351795179
 30
0.0
 11
279.59214396126788
 21
29.19526463561067
 31
0.0
  0
LINE
  5
22C6
  8
0
 62
     0
 10
275.27555533389273
 20
26.999996351795229
 30
0.0
 11
279.59214396126788
 21
31.316584979170329
 31
0.0
  0
LINE
  5
22C7
  8
0
 62
     0
 10
273.1542349903329
 20
26.999996351795119
 30
0.0
 11
279.59214396126788
 21
33.437905322729989
 31
0.0
  0
LINE
  5
22C8
  8
0
 62
     0
 10
272.07713250086857
 20
28.04421420589043
 30
0.0
 11
279.59214396126788
 21
35.559225666289613
 31
0.0
  0
LINE
  5
22C9
  8
0
 62
     0
 10
272.0771325008684
 20
30.16553454945009
 30
0.0
 11
279.59214396126788
 21
37.68054600984928
 31
0.0
  0
LINE
  5
22CA
  8
0
 62
     0
 10
272.0771325008684
 20
32.286854893009753
 30
0.0
 11
279.59214396126788
 21
39.80186635340894
 31
0.0
  0
LINE
  5
22CB
  8
0
 62
     0
 10
272.07713250086857
 20
34.408175236569321
 30
0.0
 11
279.59214396126788
 21
41.923186696968507
 31
0.0
  0
LINE
  5
22CC
  8
0
 62
     0
 10
272.07713250086857
 20
36.52949558012898
 30
0.0
 11
279.59214396126788
 21
44.044507040528167
 31
0.0
  0
LINE
  5
22CD
  8
0
 62
     0
 10
272.07713250086857
 20
38.65081592368864
 30
0.0
 11
279.59214396126771
 21
46.165827384087763
 31
0.0
  0
LINE
  5
22CE
  8
0
 62
     0
 10
272.07713250086857
 20
40.772136267248271
 30
0.0
 11
279.59214396126788
 21
48.287147727647401
 31
0.0
  0
LINE
  5
22CF
  8
0
 62
     0
 10
237.30499185549931
 20
5.9999956218789521
 30
0.0
 11
238.82713250086829
 21
7.5221362672480421
 31
0.0
  0
LINE
  5
22D0
  8
0
 62
     0
 10
272.07713250086857
 20
42.893456610807931
 30
0.0
 11
279.59214396126788
 21
50.408468071207068
 31
0.0
  0
LINE
  5
22D1
  8
0
 62
     0
 10
235.18367151193959
 20
5.9999956218789521
 30
0.0
 11
238.82713250086829
 21
9.6434566108077036
 31
0.0
  0
LINE
  5
22D2
  8
0
 62
     0
 10
272.0771325008684
 20
45.014776954367591
 30
0.0
 11
279.59214396126788
 21
52.52978841476672
 31
0.0
  0
LINE
  5
22D3
  8
0
 62
     0
 10
233.06235116837999
 20
5.999995621879008
 30
0.0
 11
238.82713250086829
 21
11.76477695436733
 31
0.0
  0
LINE
  5
22D4
  8
0
 62
     0
 10
272.07713250086829
 20
47.136097297926881
 30
0.0
 11
279.59214396126788
 21
54.651108758326352
 31
0.0
  0
LINE
  5
22D5
  8
0
 62
     0
 10
231.32247527764389
 20
6.3814400747025104
 30
0.0
 11
238.82713250086829
 21
13.886097297926961
 31
0.0
  0
LINE
  5
22D6
  8
0
 62
     0
 10
272.07713250086817
 20
49.257417641486541
 30
0.0
 11
279.59214396126788
 21
56.772429101886033
 31
0.0
  0
LINE
  5
22D7
  8
0
 62
     0
 10
231.32247527764389
 20
8.5027604182621701
 30
0.0
 11
238.82713250086829
 21
16.007417641486601
 31
0.0
  0
LINE
  5
22D8
  8
0
 62
     0
 10
272.07713250086829
 20
51.378737985046143
 30
0.0
 11
277.69839013769888
 21
56.999995621876742
 31
0.0
  0
LINE
  5
22D9
  8
0
 62
     0
 10
231.32247527764389
 20
10.6240807618218
 30
0.0
 11
238.8271325008684
 21
18.12873798504625
 31
0.0
  0
LINE
  5
22DA
  8
0
 62
     0
 10
272.07713250086817
 20
53.500058328605789
 30
0.0
 11
275.57706979413922
 21
56.9999956218767
 31
0.0
  0
LINE
  5
22DB
  8
0
 62
     0
 10
231.32247527764389
 20
12.745401105381429
 30
0.0
 11
238.8271325008684
 21
20.250058328605888
 31
0.0
  0
LINE
  5
22DC
  8
0
 62
     0
 10
272.07713250086829
 20
55.621378672165427
 30
0.0
 11
273.4557494505795
 21
56.9999956218767
 31
0.0
  0
LINE
  5
22DD
  8
0
 62
     0
 10
231.32247527764389
 20
14.866721448941091
 30
0.0
 11
238.82713250086829
 21
22.371378672165491
 31
0.0
  0
LINE
  5
22DE
  8
0
 62
     0
 10
231.3224753410874
 20
16.9880418559442
 30
0.0
 11
238.82713250086829
 21
24.492699015725151
 31
0.0
  0
LINE
  5
22DF
  8
0
 62
     0
 10
231.32247544849341
 20
19.109362306909901
 30
0.0
 11
238.82713250086829
 21
26.614019359284772
 31
0.0
  0
LINE
  5
22E0
  8
0
 62
     0
 10
231.32247555589939
 20
21.23068275787551
 30
0.0
 11
238.82713250086829
 21
28.735339702844438
 31
0.0
  0
LINE
  5
22E1
  8
0
 62
     0
 10
231.3224756633054
 20
23.352003208841161
 30
0.0
 11
238.82713250086829
 21
30.856660046404102
 31
0.0
  0
LINE
  5
22E2
  8
0
 62
     0
 10
231.32247577071149
 20
25.47332365980683
 30
0.0
 11
238.82713250086829
 21
32.97798038996369
 31
0.0
  0
LINE
  5
22E3
  8
0
 62
     0
 10
231.3224758781175
 20
27.594644110772521
 30
0.0
 11
238.82713250086829
 21
35.09930073352335
 31
0.0
  0
LINE
  5
22E4
  8
0
 62
     0
 10
231.3224759855236
 20
29.715964561738161
 30
0.0
 11
238.82713250086829
 21
37.220621077083003
 31
0.0
  0
LINE
  5
22E5
  8
0
 62
     0
 10
231.32247609292949
 20
31.83728501270383
 30
0.0
 11
238.82713250086829
 21
39.341941420642641
 31
0.0
  0
LINE
  5
22E6
  8
0
 62
     0
 10
231.3224762003355
 20
33.958605463669471
 30
0.0
 11
238.82713250086829
 21
41.463261764202272
 31
0.0
  0
LINE
  5
22E7
  8
0
 62
     0
 10
231.3224763077416
 20
36.079925914635169
 30
0.0
 11
238.82713250086829
 21
43.584582107761939
 31
0.0
  0
LINE
  5
22E8
  8
0
 62
     0
 10
231.32247641514761
 20
38.201246365600838
 30
0.0
 11
238.82713250086829
 21
45.705902451321521
 31
0.0
  0
LINE
  5
22E9
  8
0
 62
     0
 10
231.32247652255359
 20
40.322566816566457
 30
0.0
 11
238.82713250086829
 21
47.82722279488118
 31
0.0
  0
LINE
  5
22EA
  8
0
 62
     0
 10
231.3224766299596
 20
42.443887267532169
 30
0.0
 11
238.82713250086829
 21
49.948543138440783
 31
0.0
  0
LINE
  5
22EB
  8
0
 62
     0
 10
231.32247673736569
 20
44.565207718497781
 30
0.0
 11
238.8271325008682
 21
52.0698634820004
 31
0.0
  0
LINE
  5
22EC
  8
0
 62
     0
 10
231.3224768447717
 20
46.686528169463472
 30
0.0
 11
238.82713250086829
 21
54.191183825560017
 31
0.0
  0
LINE
  5
22ED
  8
0
 62
     0
 10
231.32247695217771
 20
48.807848620429112
 30
0.0
 11
238.82713250086829
 21
56.31250416911967
 31
0.0
  0
LINE
  5
22EE
  8
0
 62
     0
 10
231.32247705958369
 20
50.929169071394782
 30
0.0
 11
237.393304326475
 21
56.999996338286067
 31
0.0
  0
LINE
  5
22EF
  8
0
 62
     0
 10
231.32247716698981
 20
53.050489522360436
 30
0.0
 11
235.2719839829154
 21
56.999996338286067
 31
0.0
  0
LINE
  5
22F0
  8
0
 62
     0
 10
231.32247727439579
 20
55.171809973326098
 30
0.0
 11
233.15066363935571
 21
56.999996338286103
 31
0.0
  0
ENDBLK
  5
22F2
  8
0
  0
BLOCK
  8
0
  2
*X7
 70
     1
 10
0.0
 20
0.0
 30
0.0
  3
*X7
  1

  0
LINE
  5
23DB
  8
0
 62
     0
 10
105.088974744895
 20
149.7885493663629
 30
0.0
 11
137.21397474489501
 21
149.7885493663627
 31
0.0
  0
LINE
  5
23DC
  8
0
 62
     0
 10
105.088974744895
 20
151.28854936636279
 30
0.0
 11
137.21397474489501
 21
151.2885493663627
 31
0.0
  0
LINE
  5
23DD
  8
0
 62
     0
 10
105.088974744895
 20
152.7885493663629
 30
0.0
 11
137.21397474489501
 21
152.7885493663627
 31
0.0
  0
LINE
  5
23DE
  8
0
 62
     0
 10
105.088974744895
 20
154.28854936636279
 30
0.0
 11
137.21397474489501
 21
154.2885493663627
 31
0.0
  0
LINE
  5
23DF
  8
0
 62
     0
 10
105.088974744895
 20
155.7885493663629
 30
0.0
 11
137.21397474489501
 21
155.7885493663627
 31
0.0
  0
LINE
  5
23E0
  8
0
 62
     0
 10
105.088974744895
 20
157.28854936636279
 30
0.0
 11
137.21397474489501
 21
157.2885493663627
 31
0.0
  0
LINE
  5
23E1
  8
0
 62
     0
 10
105.088974744895
 20
158.7885493663629
 30
0.0
 11
137.21397474489501
 21
158.7885493663627
 31
0.0
  0
LINE
  5
23E2
  8
0
 62
     0
 10
105.088974744895
 20
160.28854936636279
 30
0.0
 11
137.21397474489501
 21
160.2885493663627
 31
0.0
  0
LINE
  5
23E3
  8
0
 62
     0
 10
105.088974744895
 20
161.78854936636279
 30
0.0
 11
137.21397474489501
 21
161.7885493663627
 31
0.0
  0
LINE
  5
23E4
  8
0
 62
     0
 10
105.088974744895
 20
163.2885493663629
 30
0.0
 11
137.21397474489501
 21
163.2885493663627
 31
0.0
  0
LINE
  5
23E5
  8
0
 62
     0
 10
105.088974744895
 20
164.78854936636279
 30
0.0
 11
137.21397474489501
 21
164.7885493663627
 31
0.0
  0
LINE
  5
23E6
  8
0
 62
     0
 10
105.088974744895
 20
166.2885493663629
 30
0.0
 11
137.21397474489501
 21
166.2885493663627
 31
0.0
  0
LINE
  5
23E7
  8
0
 62
     0
 10
105.088974744895
 20
167.78854936636279
 30
0.0
 11
137.21397474489501
 21
167.7885493663627
 31
0.0
  0
LINE
  5
23E8
  8
0
 62
     0
 10
105.088974744895
 20
169.2885493663629
 30
0.0
 11
137.21397474489501
 21
169.2885493663627
 31
0.0
  0
LINE
  5
23E9
  8
0
 62
     0
 10
105.088974744895
 20
170.7885493663629
 30
0.0
 11
137.21397474489501
 21
170.7885493663627
 31
0.0
  0
LINE
  5
23EA
  8
0
 62
     0
 10
105.088974744895
 20
172.2885493663629
 30
0.0
 11
137.21397474489501
 21
172.2885493663627
 31
0.0
  0
LINE
  5
23EB
  8
0
 62
     0
 10
105.088974744895
 20
173.78854936636279
 30
0.0
 11
137.21397474489501
 21
173.7885493663627
 31
0.0
  0
LINE
  5
23EC
  8
0
 62
     0
 10
105.088974744895
 20
175.28854936636279
 30
0.0
 11
137.21397474489501
 21
175.2885493663627
 31
0.0
  0
LINE
  5
23ED
  8
0
 62
     0
 10
105.088974744895
 20
176.78854936636279
 30
0.0
 11
137.21397474489501
 21
176.7885493663627
 31
0.0
  0
LINE
  5
23EE
  8
0
 62
     0
 10
105.088974744895
 20
178.28854936636279
 30
0.0
 11
137.21397474489501
 21
178.2885493663627
 31
0.0
  0
LINE
  5
23EF
  8
0
 62
     0
 10
105.088974744895
 20
179.7885493663629
 30
0.0
 11
137.21397474489501
 21
179.7885493663627
 31
0.0
  0
LINE
  5
23F0
  8
0
 62
     0
 10
105.0889747448951
 20
181.28854936636279
 30
0.0
 11
137.21397474489501
 21
181.2885493663627
 31
0.0
  0
LINE
  5
23F1
  8
0
 62
     0
 10
105.088974744895
 20
182.7885493663629
 30
0.0
 11
137.21397474489501
 21
182.7885493663627
 31
0.0
  0
LINE
  5
23F2
  8
0
 62
     0
 10
105.088974744895
 20
184.28854936636279
 30
0.0
 11
137.21397474489501
 21
184.2885493663627
 31
0.0
  0
LINE
  5
23F3
  8
0
 62
     0
 10
105.0889747448951
 20
185.78854936636279
 30
0.0
 11
137.21397474489501
 21
185.7885493663627
 31
0.0
  0
LINE
  5
23F4
  8
0
 62
     0
 10
105.0889747448951
 20
187.2885493663629
 30
0.0
 11
137.21397474489501
 21
187.2885493663627
 31
0.0
  0
LINE
  5
23F5
  8
0
 62
     0
 10
105.0889747448951
 20
188.78854936636279
 30
0.0
 11
137.21397474489501
 21
188.7885493663627
 31
0.0
  0
LINE
  5
23F6
  8
0
 62
     0
 10
105.0889747448951
 20
190.28854936636279
 30
0.0
 11
137.2139747448951
 21
190.2885493663627
 31
0.0
  0
LINE
  5
23F7
  8
0
 62
     0
 10
105.0889747448951
 20
191.78854936636279
 30
0.0
 11
137.2139747448951
 21
191.7885493663627
 31
0.0
  0
LINE
  5
23F8
  8
0
 62
     0
 10
105.0889747448951
 20
193.2885493663629
 30
0.0
 11
137.2139747448951
 21
193.2885493663627
 31
0.0
  0
ENDBLK
  5
23FA
  8
0
  0
BLOCK
  8
0
  2
*X8
 70
     1
 10
0.0
 20
0.0
 30
0.0
  3
*X8
  1

  0
LINE
  5
23FC
  8
0
 62
     0
 10
183.8989993850756
 20
147.53389935955019
 30
0.0
 11
185.65755580327729
 21
149.29245577775191
 31
0.0
  0
LINE
  5
23FD
  8
0
 62
     0
 10
181.777679041516
 20
147.5338993595503
 30
0.0
 11
185.65755580327729
 21
151.41377612131151
 31
0.0
  0
LINE
  5
23FE
  8
0
 62
     0
 10
179.65635869795631
 20
147.5338993595503
 30
0.0
 11
185.65755580327729
 21
153.5350964648712
 31
0.0
  0
LINE
  5
23FF
  8
0
 62
     0
 10
177.5350383543967
 20
147.5338993595503
 30
0.0
 11
185.03969557762119
 21
155.0385565827747
 31
0.0
  0
LINE
  5
2400
  8
0
 62
     0
 10
175.4137180108371
 20
147.5338993595503
 30
0.0
 11
182.91837523406161
 21
155.03855658277479
 31
0.0
  0
LINE
  5
2401
  8
0
 62
     0
 10
173.2923976672775
 20
147.53389935955039
 30
0.0
 11
180.7970548905021
 21
155.0385565827749
 31
0.0
  0
LINE
  5
2402
  8
0
 62
     0
 10
171.1710773237179
 20
147.53389935955039
 30
0.0
 11
178.67573454694229
 21
155.03855658277479
 31
0.0
  0
LINE
  5
2403
  8
0
 62
     0
 10
169.04975698015821
 20
147.5338993595503
 30
0.0
 11
176.55441420338269
 21
155.03855658277479
 31
0.0
  0
LINE
  5
2404
  8
0
 62
     0
 10
166.9284366365986
 20
147.53389935955039
 30
0.0
 11
174.433093859823
 21
155.0385565827747
 31
0.0
  0
LINE
  5
2405
  8
0
 62
     0
 10
164.80711629303889
 20
147.53389935955039
 30
0.0
 11
172.31177351626309
 21
155.0385565827745
 31
0.0
  0
LINE
  5
2406
  8
0
 62
     0
 10
162.68579594947931
 20
147.53389935955039
 30
0.0
 11
170.19045317270351
 21
155.0385565827745
 31
0.0
  0
LINE
  5
2407
  8
0
 62
     0
 10
160.56447560591971
 20
147.53389935955039
 30
0.0
 11
168.0691328291438
 21
155.0385565827745
 31
0.0
  0
LINE
  5
2408
  8
0
 62
     0
 10
158.44315526235999
 20
147.53389935955039
 30
0.0
 11
165.94781248558411
 21
155.0385565827745
 31
0.0
  0
LINE
  5
2409
  8
0
 62
     0
 10
156.32183491880039
 20
147.53389935955039
 30
0.0
 11
163.82649214202451
 21
155.0385565827745
 31
0.0
  0
LINE
  5
240A
  8
0
 62
     0
 10
154.20051457524079
 20
147.53389935955039
 30
0.0
 11
161.7051717984649
 21
155.0385565827745
 31
0.0
  0
LINE
  5
240B
  8
0
 62
     0
 10
152.07919423168121
 20
147.53389935955039
 30
0.0
 11
159.58385145490519
 21
155.0385565827745
 31
0.0
  0
LINE
  5
240C
  8
0
 62
     0
 10
149.9578738881215
 20
147.53389935955039
 30
0.0
 11
157.46253111134561
 21
155.0385565827745
 31
0.0
  0
LINE
  5
240D
  8
0
 62
     0
 10
147.83655354456181
 20
147.53389935955039
 30
0.0
 11
155.34121076778601
 21
155.0385565827745
 31
0.0
  0
LINE
  5
240E
  8
0
 62
     0
 10
145.71523320100221
 20
147.53389935955039
 30
0.0
 11
153.21989042422629
 21
155.0385565827745
 31
0.0
  0
LINE
  5
240F
  8
0
 62
     0
 10
143.5939128574426
 20
147.53389935955039
 30
0.0
 11
151.0985700806666
 21
155.0385565827745
 31
0.0
  0
LINE
  5
2410
  8
0
 62
     0
 10
143.2139747448951
 20
149.2752815905626
 30
0.0
 11
148.977249737107
 21
155.0385565827745
 31
0.0
  0
LINE
  5
2411
  8
0
 62
     0
 10
143.21397474489521
 20
151.3966019341224
 30
0.0
 11
146.85592939354731
 21
155.0385565827745
 31
0.0
  0
LINE
  5
2412
  8
0
 62
     0
 10
143.21397474489541
 20
153.51792227768209
 30
0.0
 11
144.73460904998771
 21
155.0385565827745
 31
0.0
  0
LINE
  5
2413
  8
0
 62
     0
 10
143.2139747448951
 20
147.84240168197991
 30
0.0
 11
143.5224770673245
 21
147.53389935955039
 31
0.0
  0
LINE
  5
2414
  8
0
 62
     0
 10
143.21397474489521
 20
149.9637220255394
 30
0.0
 11
145.64379741088419
 21
147.53389935955039
 31
0.0
  0
LINE
  5
2415
  8
0
 62
     0
 10
143.21397474489521
 20
152.085042369099
 30
0.0
 11
147.76511775444379
 21
147.53389935955039
 31
0.0
  0
LINE
  5
2416
  8
0
 62
     0
 10
143.21397474489541
 20
154.20636271265849
 30
0.0
 11
149.8864380980034
 21
147.5338993595505
 31
0.0
  0
LINE
  5
2417
  8
0
 62
     0
 10
144.503101218339
 20
155.0385565827745
 30
0.0
 11
152.00775844156311
 21
147.5338993595505
 31
0.0
  0
LINE
  5
2418
  8
0
 62
     0
 10
146.62442156189871
 20
155.0385565827745
 30
0.0
 11
154.1290787851228
 21
147.5338993595505
 31
0.0
  0
LINE
  5
2419
  8
0
 62
     0
 10
148.74574190545829
 20
155.0385565827745
 30
0.0
 11
156.2503991286824
 21
147.5338993595505
 31
0.0
  0
LINE
  5
241A
  8
0
 62
     0
 10
150.86706224901789
 20
155.0385565827745
 30
0.0
 11
158.37171947224209
 21
147.5338993595503
 31
0.0
  0
LINE
  5
241B
  8
0
 62
     0
 10
152.98838259257761
 20
155.0385565827745
 30
0.0
 11
160.49303981580169
 21
147.53389935955039
 31
0.0
  0
LINE
  5
241C
  8
0
 62
     0
 10
155.10970293613721
 20
155.0385565827745
 30
0.0
 11
162.6143601593613
 21
147.53389935955039
 31
0.0
  0
LINE
  5
241D
  8
0
 62
     0
 10
157.2310232796969
 20
155.0385565827745
 30
0.0
 11
164.73568050292101
 21
147.53389935955039
 31
0.0
  0
LINE
  5
241E
  8
0
 62
     0
 10
159.3523436232565
 20
155.0385565827745
 30
0.0
 11
166.85700084648059
 21
147.53389935955039
 31
0.0
  0
LINE
  5
241F
  8
0
 62
     0
 10
161.4736639668161
 20
155.0385565827745
 30
0.0
 11
168.9783211900403
 21
147.53389935955039
 31
0.0
  0
LINE
  5
2420
  8
0
 62
     0
 10
163.59498431037579
 20
155.0385565827745
 30
0.0
 11
171.09964153359991
 21
147.53389935955039
 31
0.0
  0
LINE
  5
2421
  8
0
 62
     0
 10
165.7163046539354
 20
155.0385565827745
 30
0.0
 11
173.22096187715951
 21
147.53389935955039
 31
0.0
  0
LINE
  5
2422
  8
0
 62
     0
 10
167.83762499749511
 20
155.0385565827745
 30
0.0
 11
175.3422822207192
 21
147.53389935955039
 31
0.0
  0
LINE
  5
2423
  8
0
 62
     0
 10
169.95894534105469
 20
155.0385565827745
 30
0.0
 11
177.46360256427889
 21
147.5338993595503
 31
0.0
  0
LINE
  5
2424
  8
0
 62
     0
 10
172.0802656846144
 20
155.0385565827745
 30
0.0
 11
179.5849229078386
 21
147.5338993595503
 31
0.0
  0
LINE
  5
2425
  8
0
 62
     0
 10
174.20158602817381
 20
155.03855658277459
 30
0.0
 11
181.70624325139821
 21
147.5338993595503
 31
0.0
  0
LINE
  5
2426
  8
0
 62
     0
 10
176.32290637173341
 20
155.0385565827747
 30
0.0
 11
183.82756359495789
 21
147.53389935955019
 31
0.0
  0
LINE
  5
2427
  8
0
 62
     0
 10
178.4442267152931
 20
155.0385565827747
 30
0.0
 11
185.65755580327729
 21
147.8252274947904
 31
0.0
  0
LINE
  5
2428
  8
0
 62
     0
 10
180.5655470588525
 20
155.0385565827749
 30
0.0
 11
185.65755580327729
 21
149.94654783835011
 31
0.0
  0
LINE
  5
2429
  8
0
 62
     0
 10
182.68686740241219
 20
155.0385565827749
 30
0.0
 11
185.65755580327729
 21
152.0678681819098
 31
0.0
  0
LINE
  5
242A
  8
0
 62
     0
 10
184.80818774597191
 20
155.03855658277479
 30
0.0
 11
185.65755580327729
 21
154.1891885254694
 31
0.0
  0
ENDBLK
  5
242C
  8
0
  0
BLOCK
  8
0
  2
*X9
 70
     1
 10
0.0
 20
0.0
 30
0.0
  3
*X9
  1

  0
LINE
  5
242E
  8
0
 62
     0
 10
171.62064801930879
 20
188.28855658277439
 30
0.0
 11
173.21397401497899
 21
189.8818825784445
 31
0.0
  0
LINE
  5
242F
  8
0
 62
     0
 10
169.49932767574921
 20
188.28855658277439
 30
0.0
 11
173.21397401497899
 21
192.00320292200411
 31
0.0
  0
LINE
  5
2430
  8
0
 62
     0
 10
167.3780073321895
 20
188.28855658277439
 30
0.0
 11
173.21397401497899
 21
194.12452326556379
 31
0.0
  0
LINE
  5
2431
  8
0
 62
     0
 10
165.25668698862989
 20
188.28855658277439
 30
0.0
 11
172.77169844902929
 21
195.80356804317381
 31
0.0
  0
LINE
  5
2432
  8
0
 62
     0
 10
163.13536664507029
 20
188.28855658277439
 30
0.0
 11
170.65037810546971
 21
195.80356804317381
 31
0.0
  0
LINE
  5
2433
  8
0
 62
     0
 10
161.0140463015106
 20
188.28855658277439
 30
0.0
 11
168.52905776191
 21
195.80356804317381
 31
0.0
  0
LINE
  5
2434
  8
0
 62
     0
 10
158.892725957951
 20
188.28855658277439
 30
0.0
 11
166.40773741835039
 21
195.80356804317381
 31
0.0
  0
LINE
  5
2435
  8
0
 62
     0
 10
156.7714056143914
 20
188.28855658277439
 30
0.0
 11
164.28641707479079
 21
195.80356804317381
 31
0.0
  0
LINE
  5
2436
  8
0
 62
     0
 10
154.65008527083171
 20
188.28855658277439
 30
0.0
 11
162.1650967312311
 21
195.80356804317381
 31
0.0
  0
LINE
  5
2437
  8
0
 62
     0
 10
152.52876492727199
 20
188.28855658277439
 30
0.0
 11
160.04377638767139
 21
195.80356804317381
 31
0.0
  0
LINE
  5
2438
  8
0
 62
     0
 10
150.40744458371239
 20
188.28855658277439
 30
0.0
 11
157.9224560441119
 21
195.80356804317381
 31
0.0
  0
LINE
  5
2439
  8
0
 62
     0
 10
148.28612424015279
 20
188.28855658277439
 30
0.0
 11
155.80113570055221
 21
195.80356804317381
 31
0.0
  0
LINE
  5
243A
  8
0
 62
     0
 10
146.1648038965931
 20
188.28855658277439
 30
0.0
 11
153.67981535699249
 21
195.80356804317381
 31
0.0
  0
LINE
  5
243B
  8
0
 62
     0
 10
144.0434835530335
 20
188.2885565827745
 30
0.0
 11
151.55849501343289
 21
195.80356804317381
 31
0.0
  0
LINE
  5
243C
  8
0
 62
     0
 10
143.21397474489731
 20
189.5803681181979
 30
0.0
 11
149.43717466987329
 21
195.80356804317381
 31
0.0
  0
LINE
  5
243D
  8
0
 62
     0
 10
143.21397474489731
 20
191.70168846175761
 30
0.0
 11
147.3158543263136
 21
195.80356804317381
 31
0.0
  0
LINE
  5
243E
  8
0
 62
     0
 10
143.21397474489731
 20
193.82300880531719
 30
0.0
 11
145.19453398275391
 21
195.80356804317381
 31
0.0
  0
LINE
  5
243F
  8
0
 62
     0
 10
143.21397474489731
 20
190.2688085531704
 30
0.0
 11
145.19422671529341
 21
188.28855658277439
 31
0.0
  0
LINE
  5
2440
  8
0
 62
     0
 10
143.21397474489731
 20
192.39012889673009
 30
0.0
 11
147.31554705885301
 21
188.2885565827745
 31
0.0
  0
LINE
  5
2441
  8
0
 62
     0
 10
143.21397474489731
 20
194.51144924028981
 30
0.0
 11
149.4368674024127
 21
188.2885565827745
 31
0.0
  0
LINE
  5
2442
  8
0
 62
     0
 10
144.04317628557291
 20
195.80356804317381
 30
0.0
 11
151.5581877459723
 21
188.2885565827745
 31
0.0
  0
LINE
  5
2443
  8
0
 62
     0
 10
146.1644966291326
 20
195.80356804317381
 30
0.0
 11
153.67950808953191
 21
188.28855658277439
 31
0.0
  0
LINE
  5
2444
  8
0
 62
     0
 10
148.2858169726922
 20
195.80356804317381
 30
0.0
 11
155.8008284330916
 21
188.28855658277439
 31
0.0
  0
LINE
  5
2445
  8
0
 62
     0
 10
150.40713731625181
 20
195.80356804317381
 30
0.0
 11
157.9221487766512
 21
188.28855658277439
 31
0.0
  0
LINE
  5
2446
  8
0
 62
     0
 10
152.52845765981149
 20
195.80356804317381
 30
0.0
 11
160.0434691202108
 21
188.28855658277439
 31
0.0
  0
LINE
  5
2447
  8
0
 62
     0
 10
154.6497780033711
 20
195.80356804317381
 30
0.0
 11
162.16478946377049
 21
188.2885565827745
 31
0.0
  0
LINE
  5
2448
  8
0
 62
     0
 10
156.7710983469307
 20
195.80356804317381
 30
0.0
 11
164.28610980733009
 21
188.28855658277439
 31
0.0
  0
LINE
  5
2449
  8
0
 62
     0
 10
158.89241869049039
 20
195.80356804317381
 30
0.0
 11
166.4074301508897
 21
188.28855658277439
 31
0.0
  0
LINE
  5
244A
  8
0
 62
     0
 10
161.01373903404999
 20
195.80356804317381
 30
0.0
 11
168.52875049444941
 21
188.28855658277439
 31
0.0
  0
LINE
  5
244B
  8
0
 62
     0
 10
163.13505937760971
 20
195.80356804317381
 30
0.0
 11
170.65007083800899
 21
188.2885565827745
 31
0.0
  0
LINE
  5
244C
  8
0
 62
     0
 10
165.25637972116931
 20
195.80356804317381
 30
0.0
 11
172.7713911815687
 21
188.2885565827745
 31
0.0
  0
LINE
  5
244D
  8
0
 62
     0
 10
167.37770006472891
 20
195.80356804317381
 30
0.0
 11
173.21397401497899
 21
189.96729409292371
 31
0.0
  0
LINE
  5
244E
  8
0
 62
     0
 10
169.4990204082886
 20
195.80356804317381
 30
0.0
 11
173.21397401497899
 21
192.0886144364834
 31
0.0
  0
LINE
  5
244F
  8
0
 62
     0
 10
171.6203407518482
 20
195.80356804317381
 30
0.0
 11
173.21397401497899
 21
194.209934780043
 31
0.0
  0
ENDBLK
  5
2451
  8
0
  0
ENDSEC
  0
SECTION
  2
ENTITIES
  0
LINE
  5
3B4
  8
0
 10
148.33765830265219
 20
30.71024923266658
 30
0.0
 11
174.6050270718485
 21
7.7314473069114831
 31
0.0
  0
LINE
  5
3B8
  8
0
 10
185.65755580327709
 20
15.735002595187311
 30
0.0
 11
172.02164844142791
 21
47.860724850400473
 31
0.0
  0
ARC
  5
3BC
  8
0
 10
158.21397474489501
 20
41.999995621876707
 30
0.0
 40
14.999999999999989
 50
90.0
 51
228.8204325076108
1001
ACAD
1000
ASC_BOUNDS
1002
{
1070
    19
1005
778
1002
}
  0
ARC
  5
3BD
  8
0
 10
158.21397474489501
 20
41.999995621876707
 30
0.0
 40
14.99999999999998
 50
22.999013650744448
 51
90.0
1001
ACAD
1000
ASC_BOUNDS
1002
{
1070
    19
1005
778
1002
}
  0
ARC
  5
3BE
  8
0
 10
179.2139747448949
 20
12.99999562187622
 30
0.0
 40
6.9999999999999991
 50
228.82043250761069
 51
270.0
1001
ACAD
1000
ASC_BOUNDS
1002
{
1070
    19
1005
778
1002
}
  0
ARC
  5
3BF
  8
0
 10
179.2139747448949
 20
12.99999562187622
 30
0.0
 40
6.9999999999999938
 50
270.0
 51
22.99901365074443
1001
ACAD
1000
ASC_BOUNDS
1002
{
1070
    19
1005
778
1002
}
  0
LINE
  5
3C3
  8
0
 10
148.33765830265219
 20
30.710249232666239
 30
0.0
 11
174.6050270718485
 21
7.7314473069111429
 31
0.0
1001
ACAD
1000
ASC_BOUNDS
1002
{
1070
    19
1005
778
1002
}
  0
LINE
  5
3C7
  8
0
 10
185.65755580327709
 20
15.735002595186961
 30
0.0
 11
172.02164844142791
 21
47.860724850400111
 31
0.0
1001
ACAD
1000
ASC_BOUNDS
1002
{
1070
    19
1005
778
1002
}
  0
LINE
  5
3CF
  8
0
 10
138.83897474489501
 20
97.999995621876792
 30
0.0
 11
138.83897474489501
 21
5.9999956218783854
 31
0.0
  0
LINE
  5
3D0
  8
0
 10
103.463974744895
 20
5.9999956218783854
 30
0.0
 11
103.463974744895
 21
97.999995621876792
 31
0.0
  0
LINE
  5
3D1
  8
0
 10
138.83897474489501
 20
5.9999956218783854
 30
0.0
 11
103.463974744895
 21
5.9999956218783854
 31
0.0
  0
LINE
  5
3D2
  8
0
 10
103.463974744895
 20
97.999995621876792
 30
0.0
 11
138.83897474489501
 21
97.999995621876792
 31
0.0
  0
LINE
  5
3D3
  8
0
 10
141.83897474489501
 20
5.9999956218756312
 30
0.0
 11
158.21397474489501
 21
12.063233822294681
 31
0.0
  0
ARC
  5
3D4
  8
0
 10
155.21397474489521
 20
35.874995621876039
 30
0.0
 40
24.0
 50
277.18075578145829
 51
298.24546486686108
  0
ARC
  5
3D5
  8
0
 10
155.21397474489521
 20
35.874995621876039
 30
0.0
 40
24.000000000000011
 50
350.22165411406451
 51
116.9718973845703
  0
LINE
  5
3D6
  8
0
 10
144.32869263020319
 20
57.264493822711977
 30
0.0
 11
138.83897474489501
 21
49.999995621876018
 31
0.0
  0
LINE
  5
3D7
  8
0
 10
103.4639747448951
 20
-0.0000043781246172
 30
0.0
 11
103.463974744895
 21
5.9999956218778001
 31
0.0
  0
LINE
  5
3D8
  8
0
 10
188.21397474489501
 20
5.9999956218789752
 30
0.0
 11
188.21397474489501
 21
-0.0000043781234457
 31
0.0
  0
LINE
  5
3D9
  8
0
 10
103.4639747448951
 20
-0.0000043781246172
 30
0.0
 11
188.21397474489501
 21
-0.0000043781234452
 31
0.0
  0
LINE
  5
3DA
  8
0
 10
188.21397474489501
 20
5.9999956218789752
 30
0.0
 11
103.463974744895
 21
5.9999956218778001
 31
0.0
  0
ARC
  5
3DB
  8
0
 10
121.15147474489621
 20
79.999995621874803
 30
0.0
 40
8.2500000000000089
 50
179.9999999999998
 51
359.99999999999881
  0
ARC
  5
3DC
  8
0
 10
121.15147474489621
 20
79.999995621874803
 30
0.0
 40
8.2500000000000089
 50
359.9999999999996
 51
179.99999999999969
  0
ARC
  5
3DD
  8
0
 10
121.15147474489621
 20
79.999995621874803
 30
0.0
 40
7.6874999999999929
 50
0.0000000000007252
 51
180.0000000000002
  0
ARC
  5
3DE
  8
0
 10
121.15147474489621
 20
79.999995621874803
 30
0.0
 40
7.6874999999999929
 50
180.0000000000002
 51
0.0000000000000509
  0
LINE
  5
3DF
  8
0
 10
126.2739755188841
 20
77.558139773077443
 30
0.0
 11
126.0790350426937
 21
77.109231042918722
 31
0.0
  0
LINE
  5
3E0
  8
0
 10
126.0790350426937
 20
77.109231042918722
 30
0.0
 11
125.6281421855508
 21
76.951988979426616
 31
0.0
  0
LINE
  5
3E1
  8
0
 10
125.6281421855508
 20
76.951988979426616
 30
0.0
 11
125.30361341570941
 21
77.016225090537745
 31
0.0
  0
LINE
  5
3E2
  8
0
 10
125.30361341570941
 20
77.016225090537745
 30
0.0
 11
125.06812234428079
 21
77.208933423871059
 31
0.0
  0
LINE
  5
3E3
  8
0
 10
125.06812234428079
 20
77.208933423871059
 30
0.0
 11
124.87715012205869
 21
77.966869931807551
 31
0.0
  0
LINE
  5
3E4
  8
0
 10
124.87715012205869
 20
77.966869931807551
 30
0.0
 11
125.0611778998362
 21
78.730758820696494
 31
0.0
  0
LINE
  5
3E5
  8
0
 10
125.0611778998362
 20
78.730758820696494
 30
0.0
 11
125.2909646061857
 21
78.920490963553632
 31
0.0
  0
LINE
  5
3E6
  8
0
 10
125.2909646061857
 20
78.920490963553632
 30
0.0
 11
125.6122691696778
 21
78.983735011172655
 31
0.0
  0
LINE
  5
3E7
  8
0
 10
125.6122691696778
 20
78.983735011172655
 30
0.0
 11
126.08052313793171
 21
78.840381836569463
 31
0.0
  0
LINE
  5
3E8
  8
0
 10
126.08052313793171
 20
78.840381836569463
 30
0.0
 11
126.2739755188841
 21
78.415282630220275
 31
0.0
  0
LINE
  5
3E9
  8
0
 10
126.2739755188841
 20
78.415282630220275
 30
0.0
 11
127.4168326617412
 21
78.415282630220275
 31
0.0
  0
LINE
  5
3EA
  8
0
 10
127.4168326617412
 20
78.415282630220275
 30
0.0
 11
127.256614407773
 21
79.062976082601253
 31
0.0
  0
LINE
  5
3EB
  8
0
 10
127.256614407773
 20
79.062976082601253
 30
0.0
 11
126.8890548839633
 21
79.541770725458377
 31
0.0
  0
LINE
  5
3EC
  8
0
 10
126.8890548839633
 20
79.541770725458377
 30
0.0
 11
126.3300271061858
 21
79.837529654029808
 31
0.0
  0
LINE
  5
3ED
  8
0
 10
126.3300271061858
 20
79.837529654029808
 30
0.0
 11
125.5954040903127
 21
79.936115963553632
 31
0.0
  0
LINE
  5
3EE
  8
0
 10
125.5954040903127
 20
79.936115963553632
 30
0.0
 11
124.7974130188841
 21
79.80417151910919
 31
0.0
  0
LINE
  5
3EF
  8
0
 10
124.7974130188841
 20
79.80417151910919
 30
0.0
 11
124.1871699633284
 21
79.408338185775818
 31
0.0
  0
LINE
  5
3F0
  8
0
 10
124.1871699633284
 20
79.408338185775818
 30
0.0
 11
123.79989317761419
 21
78.784330249267896
 31
0.0
  0
LINE
  5
3F1
  8
0
 10
123.79989317761419
 20
78.784330249267896
 30
0.0
 11
123.67080091570929
 21
77.967861995299657
 31
0.0
  0
LINE
  5
3F2
  8
0
 10
123.67080091570929
 20
77.967861995299657
 30
0.0
 11
123.8005132172968
 21
77.149533622283784
 31
0.0
  0
LINE
  5
3F3
  8
0
 10
123.8005132172968
 20
77.149533622283784
 30
0.0
 11
124.18965012205869
 21
76.525897709585365
 31
0.0
  0
LINE
  5
3F4
  8
0
 10
124.18965012205869
 20
76.525897709585365
 30
0.0
 11
124.804977503011
 21
76.131180447680606
 31
0.0
  0
LINE
  5
3F5
  8
0
 10
124.804977503011
 20
76.131180447680606
 30
0.0
 11
125.61326123316979
 21
75.999608027045682
 31
0.0
  0
LINE
  5
3F6
  8
0
 10
125.61326123316979
 20
75.999608027045682
 30
0.0
 11
126.3363515109474
 21
76.101790566728226
 31
0.0
  0
LINE
  5
3F7
  8
0
 10
126.3363515109474
 20
76.101790566728226
 30
0.0
 11
126.8925271061857
 21
76.408338185775847
 31
0.0
  0
LINE
  5
3F8
  8
0
 10
126.8925271061857
 20
76.408338185775847
 30
0.0
 11
127.25996262205869
 21
76.9001536619663
 31
0.0
  0
LINE
  5
3F9
  8
0
 10
127.25996262205869
 20
76.9001536619663
 30
0.0
 11
127.4168326617412
 21
77.558139773077443
 31
0.0
  0
LINE
  5
3FA
  8
0
 10
127.4168326617412
 20
77.558139773077443
 30
0.0
 11
126.2739755188841
 21
77.558139773077443
 31
0.0
  0
LINE
  5
3FB
  8
0
 10
119.05224814111649
 20
78.332213962000608
 30
0.0
 11
120.2298275061958
 21
78.332213962000608
 31
0.0
  0
LINE
  5
3FC
  8
0
 10
120.2298275061958
 20
78.332213962000608
 30
0.0
 11
120.3766529030211
 21
78.840150469937143
 31
0.0
  0
LINE
  5
3FD
  8
0
 10
120.3766529030211
 20
78.840150469937143
 30
0.0
 11
121.58002591889399
 21
78.840150469937143
 31
0.0
  0
LINE
  5
3FE
  8
0
 10
121.58002591889399
 20
78.840150469937143
 30
0.0
 11
121.7218909982591
 21
78.332213962000608
 31
0.0
  0
LINE
  5
3FF
  8
0
 10
121.7218909982591
 20
78.332213962000608
 30
0.0
 11
122.9252640141324
 21
78.332213962000608
 31
0.0
  0
LINE
  5
400
  8
0
 10
122.9252640141324
 20
78.332213962000608
 30
0.0
 11
121.59589893476711
 21
82.141737771524447
 31
0.0
  0
LINE
  5
401
  8
0
 10
121.59589893476711
 20
82.141737771524447
 30
0.0
 11
120.36673226810051
 21
82.141737771524447
 31
0.0
  0
LINE
  5
402
  8
0
 10
120.36673226810051
 20
82.141737771524447
 30
0.0
 11
119.05224814111649
 21
78.332213962000608
 31
0.0
  0
LINE
  5
403
  8
0
 10
120.596890998259
 20
79.665547295333951
 30
0.0
 11
120.98280369667179
 21
80.969118723905325
 31
0.0
  0
LINE
  5
404
  8
0
 10
120.98280369667179
 20
80.969118723905325
 30
0.0
 11
121.35978782365601
 21
79.665547295333951
 31
0.0
  0
LINE
  5
405
  8
0
 10
121.35978782365601
 20
79.665547295333951
 30
0.0
 11
120.596890998259
 21
79.665547295333951
 31
0.0
  0
LINE
  5
406
  8
0
 10
115.2915169508549
 20
80.072602271180884
 30
0.0
 11
116.9909217127597
 21
80.072602271180884
 31
0.0
  0
LINE
  5
407
  8
0
 10
116.9909217127597
 20
80.072602271180884
 30
0.0
 11
117.7587788556168
 21
80.111292747371365
 31
0.0
  0
LINE
  5
408
  8
0
 10
117.7587788556168
 20
80.111292747371365
 30
0.0
 11
118.1714772683153
 21
80.243237191815794
 31
0.0
  0
LINE
  5
409
  8
0
 10
118.1714772683153
 20
80.243237191815794
 30
0.0
 11
118.5797113952994
 21
80.626173699752286
 31
0.0
  0
LINE
  5
40A
  8
0
 10
118.5797113952994
 20
80.626173699752286
 30
0.0
 11
118.7200883794264
 21
81.213475287053896
 31
0.0
  0
LINE
  5
40B
  8
0
 10
118.7200883794264
 20
81.213475287053896
 30
0.0
 11
118.5762391730773
 21
81.776471318799935
 31
0.0
  0
LINE
  5
40C
  8
0
 10
118.5762391730773
 20
81.776471318799935
 30
0.0
 11
118.1327867921247
 21
82.101372112450719
 31
0.0
  0
LINE
  5
40D
  8
0
 10
118.1327867921247
 20
82.101372112450719
 30
0.0
 11
118.47802488736281
 21
82.418832429911049
 31
0.0
  0
LINE
  5
40E
  8
0
 10
118.47802488736281
 20
82.418832429911049
 30
0.0
 11
118.5931042524423
 21
82.871213382292012
 31
0.0
  0
LINE
  5
40F
  8
0
 10
118.5931042524423
 20
82.871213382292012
 30
0.0
 11
118.4393344111724
 21
83.431233223561847
 31
0.0
  0
LINE
  5
410
  8
0
 10
118.4393344111724
 20
83.431233223561847
 30
0.0
 11
117.99687409371219
 21
83.77101496959358
 31
0.0
  0
LINE
  5
411
  8
0
 10
117.99687409371219
 20
83.77101496959358
 30
0.0
 11
117.6015367921247
 21
83.856332429911006
 31
0.0
  0
LINE
  5
412
  8
0
 10
117.6015367921247
 20
83.856332429911006
 30
0.0
 11
116.8679058397438
 21
83.882126080704694
 31
0.0
  0
LINE
  5
413
  8
0
 10
116.8679058397438
 20
83.882126080704694
 30
0.0
 11
115.2915169508549
 21
83.882126080704694
 31
0.0
  0
LINE
  5
414
  8
0
 10
115.2915169508549
 20
83.882126080704694
 30
0.0
 11
115.2915169508549
 21
80.072602271180884
 31
0.0
  0
LINE
  5
415
  8
0
 10
116.4978661572043
 20
80.961491160069784
 30
0.0
 11
116.4978661572043
 21
81.659903858482437
 31
0.0
  0
LINE
  5
416
  8
0
 10
116.4978661572043
 20
81.659903858482437
 30
0.0
 11
117.0464772683153
 21
81.659903858482437
 31
0.0
  0
LINE
  5
417
  8
0
 10
117.0464772683153
 20
81.659903858482437
 30
0.0
 11
117.4557034587914
 21
81.580538779117404
 31
0.0
  0
LINE
  5
418
  8
0
 10
117.4557034587914
 20
81.580538779117404
 30
0.0
 11
117.5772312365692
 21
81.313673699752286
 31
0.0
  0
LINE
  5
419
  8
0
 10
117.5772312365692
 20
81.313673699752286
 30
0.0
 11
117.4581836175216
 21
81.043832429911006
 31
0.0
  0
LINE
  5
41A
  8
0
 10
117.4581836175216
 20
81.043832429911006
 30
0.0
 11
117.0573899667281
 21
80.961491160069784
 31
0.0
  0
LINE
  5
41B
  8
0
 10
117.0573899667281
 20
80.961491160069784
 30
0.0
 11
116.4978661572043
 21
80.961491160069784
 31
0.0
  0
LINE
  5
41C
  8
0
 10
116.4978661572043
 20
82.358316556895176
 30
0.0
 11
116.4978661572043
 21
82.993237191815808
 31
0.0
  0
LINE
  5
41D
  8
0
 10
116.4978661572043
 20
82.993237191815808
 30
0.0
 11
116.83219155402961
 21
82.993237191815808
 31
0.0
  0
LINE
  5
41E
  8
0
 10
116.83219155402961
 20
82.993237191815808
 30
0.0
 11
117.34062409371219
 21
82.925776874355492
 31
0.0
  0
LINE
  5
41F
  8
0
 10
117.34062409371219
 20
82.925776874355492
 30
0.0
 11
117.45024710958521
 21
82.675776874355492
 31
0.0
  0
LINE
  5
420
  8
0
 10
117.45024710958521
 20
82.675776874355492
 30
0.0
 11
117.3480645699026
 21
82.430737191815794
 31
0.0
  0
LINE
  5
421
  8
0
 10
117.3480645699026
 20
82.430737191815794
 30
0.0
 11
116.9958820302201
 21
82.358316556895176
 31
0.0
  0
LINE
  5
422
  8
0
 10
116.9958820302201
 20
82.358316556895176
 30
0.0
 11
116.4978661572043
 21
82.358316556895176
 31
0.0
  0
ARC
  5
423
  8
0
 10
121.15147474489569
 20
79.99999562187547
 30
0.0
 40
9.0000000000000195
 50
179.9999999999998
 51
359.99999999999881
  0
ARC
  5
424
  8
0
 10
121.15147474489569
 20
79.99999562187547
 30
0.0
 40
9.0000000000000142
 50
359.9999999999996
 51
179.9999999999998
  0
LINE
  5
425
  8
0
 10
101.2139747448949
 20
1.5624956218761661
 30
0.0
 11
103.463974744895
 21
1.5624956218761661
 31
0.0
  0
LINE
  5
426
  8
0
 10
103.463974744895
 20
7.5624956218763311
 30
0.0
 11
101.2139747448949
 21
7.5624956218763311
 31
0.0
  0
LINE
  5
427
  8
0
 10
101.2139747448949
 20
82.999995621876323
 30
0.0
 11
103.463974744895
 21
82.999995621876323
 31
0.0
  0
LINE
  5
428
  8
0
 10
103.463974744895
 20
88.999995621876323
 30
0.0
 11
101.2139747448949
 21
88.999995621876323
 31
0.0
  0
LINE
  5
429
  8
0
 10
101.2139747448949
 20
4.562495742458327
 30
0.0
 11
101.2139747448949
 21
6.683815879708157
 31
0.0
  0
LINE
  5
42A
  8
0
 10
101.2139747448949
 20
6.6838159654359801
 30
0.0
 11
101.2139747448949
 21
7.1605717457244786
 31
0.0
  0
LINE
  5
42B
  8
0
 10
101.2139747448949
 20
7.1605718332296551
 30
0.0
 11
101.2139747448949
 21
7.4602731007435459
 31
0.0
  0
LINE
  5
42C
  8
0
 10
101.2139747448949
 20
7.4602732568571319
 30
0.0
 11
101.2139747448949
 21
7.5624956218763453
 31
0.0
  0
LINE
  5
42D
  8
0
 10
101.2139747448949
 20
1.5624956218763471
 30
0.0
 11
101.2139747448949
 21
1.664718105422557
 31
0.0
  0
LINE
  5
42E
  8
0
 10
101.2139747448949
 20
1.664718143009142
 30
0.0
 11
101.2139747448949
 21
1.964419393523158
 31
0.0
  0
LINE
  5
42F
  8
0
 10
101.2139747448949
 20
1.964419410523031
 30
0.0
 11
101.2139747448949
 21
2.441175251175284
 31
0.0
  0
LINE
  5
430
  8
0
 10
101.2139747448949
 20
2.4411752783166998
 30
0.0
 11
101.2139747448949
 21
3.7860384286848681
 31
0.0
  0
LINE
  5
431
  8
0
 10
101.2139747448949
 20
3.7860384865687791
 30
0.0
 11
101.2139747448949
 21
4.5624956218763364
 31
0.0
  0
LINE
  5
432
  8
0
 10
101.2139747448949
 20
85.999997551188216
 30
0.0
 11
101.2139747448949
 21
87.499995621876323
 31
0.0
  0
LINE
  5
433
  8
0
 10
101.2139747448949
 20
87.499997709897428
 30
0.0
 11
101.2139747448949
 21
88.121314601060689
 31
0.0
  0
LINE
  5
434
  8
0
 10
101.2139747448949
 20
88.121315965435997
 30
0.0
 11
101.2139747448949
 21
88.59806997827522
 31
0.0
  0
LINE
  5
435
  8
0
 10
101.2139747448949
 20
88.598071833229653
 30
0.0
 11
101.2139747448949
 21
88.897773100743535
 31
0.0
  0
LINE
  5
436
  8
0
 10
101.2139747448949
 20
88.897773256857093
 30
0.0
 11
101.2139747448949
 21
88.999995621876323
 31
0.0
  0
LINE
  5
437
  8
0
 10
101.2139747448949
 20
82.999995621876323
 30
0.0
 11
101.2139747448949
 21
83.102214194048017
 31
0.0
  0
LINE
  5
438
  8
0
 10
101.2139747448949
 20
83.102218143009125
 30
0.0
 11
101.2139747448949
 21
83.401919410523007
 31
0.0
  0
LINE
  5
439
  8
0
 10
101.2139747448949
 20
83.401919694411134
 30
0.0
 11
101.2139747448949
 21
83.878674834584032
 31
0.0
  0
LINE
  5
43A
  8
0
 10
101.2139747448949
 20
83.878675278316706
 30
0.0
 11
101.2139747448949
 21
85.999995621876309
 31
0.0
  0
ARC
  5
43B
  8
0
 10
112.0889747448953
 20
19.99999562187622
 30
0.0
 40
0.5000000000000036
 50
0.0
 51
180.0
  0
ARC
  5
43C
  8
0
 10
112.0889747448953
 20
19.99999562187622
 30
0.0
 40
0.5000000000000056
 50
180.0000000000002
 51
359.99999999999937
  0
ARC
  5
43D
  8
0
 10
111.0889747448951
 20
11.62499562187622
 30
0.0
 40
1.0
 50
359.9999999999992
 51
179.9999999999994
  0
ARC
  5
43E
  8
0
 10
111.0889747448951
 20
11.62499562187622
 30
0.0
 40
1.0000000000000011
 50
180.00000000000011
 51
359.9999999999992
  0
ARC
  5
43F
  8
0
 10
131.2139747448953
 20
2.6249956218762232
 30
0.0
 40
1.0000000000000011
 50
359.9999999999992
 51
179.9999999999994
  0
ARC
  5
440
  8
0
 10
131.2139747448953
 20
2.6249956218762232
 30
0.0
 40
0.9999999999999992
 50
180.0000000000004
 51
359.99999999999949
  0
CIRCLE
  5
44C
  8
0
 10
123.0264747448953
 20
19.87499562187622
 30
0.0
 40
8.4999999999999876
  0
LINE
  5
44F
  8
0
 10
231.32247527764369
 20
15.71170713663841
 30
0.0
 11
231.32247527764369
 21
15.735002595187311
 31
0.0
  0
LINE
  5
450
  8
0
 10
231.32247527764369
 20
15.735002595187311
 30
0.0
 11
231.3224773669599
 21
56.999996338286422
 31
0.0
  0
LINE
  5
451
  8
0
 10
238.82713250086829
 20
31.80273942369638
 30
0.0
 11
238.82713250086829
 21
15.735002595187289
 31
0.0
  0
LINE
  5
452
  8
0
 10
238.82713250086829
 20
15.7350025951873
 30
0.0
 11
238.82713250086829
 21
15.71170713663842
 31
0.0
  0
LINE
  5
454
  8
0
 10
238.82713250086829
 20
56.999996338286422
 30
0.0
 11
231.3224773669599
 21
56.999996338286422
 31
0.0
  0
LINE
  5
455
  8
0
 10
279.59214396126748
 20
41.99999562187665
 30
0.0
 11
279.59214396126748
 21
39.395272956872716
 31
0.0
  0
LINE
  5
456
  8
0
 10
279.59214396126748
 20
39.395271665143312
 30
0.0
 11
279.59214396126748
 21
36.869693471991631
 31
0.0
  0
LINE
  5
457
  8
0
 10
279.59214396126748
 20
36.869692191960148
 30
0.0
 11
279.59214396126748
 21
30.509329209302081
 31
0.0
  0
LINE
  5
458
  8
0
 10
279.59214396126748
 20
30.509328975091989
 30
0.0
 11
279.59214396126748
 21
27.90460631008802
 31
0.0
  0
LINE
  5
459
  8
0
 10
279.59214396126748
 20
27.904604976312651
 30
0.0
 11
279.59214396126748
 21
27.227879326693522
 31
0.0
  0
LINE
  5
45A
  8
0
 10
279.59214396126748
 20
27.227878596774708
 30
0.0
 11
279.59214396126748
 21
26.999995621876621
 31
0.0
  0
LINE
  5
45B
  8
0
 10
279.59214396126748
 20
56.9999956218766
 30
0.0
 11
279.59214396126748
 21
56.772111917059711
 31
0.0
  0
LINE
  5
45C
  8
0
 10
279.59214396126748
 20
56.772110240881617
 30
0.0
 11
279.59214396126748
 21
56.095386267439501
 31
0.0
  0
LINE
  5
45D
  8
0
 10
279.59214396126748
 20
56.095384933665251
 30
0.0
 11
279.59214396126748
 21
54.99037915615407
 31
0.0
  0
LINE
  5
45E
  8
0
 10
279.59214396126748
 20
54.990376678643209
 30
0.0
 11
279.59214396126748
 21
53.49066519024904
 31
0.0
  0
LINE
  5
45F
  8
0
 10
279.59214396126748
 20
53.490662268661289
 30
0.0
 11
279.59214396126748
 21
47.130299051792143
 31
0.0
  0
LINE
  5
460
  8
0
 10
279.59214396126748
 20
47.130297771761668
 30
0.0
 11
279.59214396126748
 21
44.604719578609128
 31
0.0
  0
LINE
  5
461
  8
0
 10
279.59214396126748
 20
44.60471828688059
 30
0.0
 11
279.59214396126748
 21
41.99999562187665
 31
0.0
  0
LINE
  5
462
  8
0
 10
252.8271325008686
 20
15.99999562187633
 30
0.0
 11
238.82713250086829
 21
15.99999562187633
 31
0.0
  0
LINE
  5
463
  8
0
 10
238.82713250086829
 20
5.9999956218763151
 30
0.0
 11
238.82713250086829
 21
6.1703664904309692
 31
0.0
  0
LINE
  5
464
  8
0
 10
252.8271325008686
 20
15.99999562187628
 30
0.0
 11
252.8271325008686
 21
15.82962532958433
 31
0.0
  0
LINE
  5
465
  8
0
 10
252.8271325008686
 20
15.82962475332163
 30
0.0
 11
252.8271325008686
 21
15.33012355426491
 31
0.0
  0
LINE
  5
466
  8
0
 10
252.8271325008686
 20
15.330122640798489
 30
0.0
 11
252.8271325008686
 21
14.535530082211681
 31
0.0
  0
LINE
  5
467
  8
0
 10
252.8271325008686
 20
14.53552952780904
 30
0.0
 11
252.8271325008686
 21
12.294090847388921
 31
0.0
  0
LINE
  5
468
  8
0
 10
252.8271325008686
 20
12.29409019962319
 30
0.0
 11
252.8271325008686
 21
10.99999586304015
 31
0.0
  0
LINE
  5
469
  8
0
 10
252.8271325008686
 20
10.99999562187632
 30
0.0
 11
252.82713250086829
 21
9.7059003963637185
 31
0.0
  0
LINE
  5
46A
  8
0
 10
252.82713250086829
 20
9.7059000915721594
 30
0.0
 11
252.82713250086829
 21
8.4999956218763142
 31
0.0
  0
LINE
  5
46B
  8
0
 10
252.82713250086829
 20
8.4999953608734664
 30
0.0
 11
252.82713250086829
 21
6.6698686029541152
 31
0.0
  0
LINE
  5
46C
  8
0
 10
252.82713250086829
 20
6.669868314287922
 30
0.0
 11
252.8271325008686
 21
5.9999956218762946
 31
0.0
  0
LINE
  5
472
  8
0
 10
231.32247527764369
 20
5.999995621876228
 30
0.0
 11
231.32247527764369
 21
6.2385147896607771
 31
0.0
  0
LINE
  5
473
  8
0
 10
231.32247527764369
 20
6.2385148378527511
 30
0.0
 11
231.32247527764369
 21
6.9378173912525591
 31
0.0
  0
LINE
  5
474
  8
0
 10
231.32247527764369
 20
6.937817795385155
 30
0.0
 11
231.32247527764369
 21
8.05024815357039
 31
0.0
  0
LINE
  5
475
  8
0
 10
231.32247527764369
 20
8.0502482825656116
 30
0.0
 11
231.32247527764369
 21
9.4999956218762236
 31
0.0
  0
LINE
  5
476
  8
0
 10
231.32247527764369
 20
9.4999958460043263
 30
0.0
 11
231.32247527764369
 21
11.18826230615857
 31
0.0
  0
LINE
  5
477
  8
0
 10
231.32247527764369
 20
11.188262607369589
 30
0.0
 11
231.32247527764369
 21
12.999995621876201
 31
0.0
  0
LINE
  5
478
  8
0
 10
231.32247527764369
 20
12.99999610420419
 30
0.0
 11
231.32247527764369
 21
14.811728869329359
 31
0.0
  0
LINE
  5
479
  8
0
 10
231.32247527764369
 20
14.811728937593861
 30
0.0
 11
231.32247527764369
 21
15.73468310272542
 31
0.0
  0
LINE
  5
47A
  8
0
 10
238.82713250086829
 20
15.734683102725461
 30
0.0
 11
238.82713250086829
 21
14.811728937593889
 31
0.0
  0
LINE
  5
47B
  8
0
 10
238.82713250086829
 20
14.8117288693294
 30
0.0
 11
238.82713250086829
 21
12.99999610420422
 31
0.0
  0
LINE
  5
47C
  8
0
 10
238.82713250086829
 20
12.99999562187625
 30
0.0
 11
238.82713250086829
 21
11.18826260736976
 31
0.0
  0
LINE
  5
47D
  8
0
 10
238.82713250086829
 20
11.188262306158601
 30
0.0
 11
238.82713250086829
 21
9.4999958460043512
 31
0.0
  0
LINE
  5
47E
  8
0
 10
238.82713250086829
 20
9.4999956218762502
 30
0.0
 11
238.82713250086829
 21
8.0502482825656312
 31
0.0
  0
LINE
  5
47F
  8
0
 10
238.82713250086829
 20
8.0502481535704113
 30
0.0
 11
238.82713250086829
 21
6.9378177953851621
 31
0.0
  0
LINE
  5
480
  8
0
 10
238.82713250086829
 20
6.937817391252568
 30
0.0
 11
238.82713250086829
 21
6.2385148378527484
 31
0.0
  0
LINE
  5
481
  8
0
 10
238.82713250086829
 20
6.2385147896607762
 30
0.0
 11
238.82713250086829
 21
5.9999956218762147
 31
0.0
  0
LINE
  5
484
  8
0
 10
231.32247527764389
 20
15.711707136638109
 30
0.0
 11
231.32247527764389
 21
15.73500259518697
 31
0.0
  0
LINE
  5
485
  8
0
 10
231.32247527764389
 20
15.735002595186961
 30
0.0
 11
231.3224773669599
 21
56.999996338286067
 31
0.0
1001
ACAD
1000
ASC_BOUNDS
1002
{
1070
    19
1005
7F8
1002
}
  0
LINE
  5
486
  8
0
 10
238.82713250086829
 20
31.802739423696138
 30
0.0
 11
238.82713250086829
 21
15.73500259518695
 31
0.0
1001
ACAD
1000
ASC_BOUNDS
1002
{
1070
    19
1005
7F8
1002
}
  0
LINE
  5
487
  8
0
 10
238.82713250086829
 20
15.735002595186961
 30
0.0
 11
238.82713250086829
 21
15.711707136638109
 31
0.0
1001
ACAD
1000
ASC_BOUNDS
1002
{
1070
    19
1005
7F8
1002
}
  0
LINE
  5
489
  8
0
 10
238.82713250086829
 20
56.999996338286067
 30
0.0
 11
231.3224773669599
 21
56.999996338286067
 31
0.0
1001
ACAD
1000
ASC_BOUNDS
1002
{
1070
    19
1005
7F8
1002
}
  0
LINE
  5
48A
  8
0
 10
279.59214396126788
 20
41.999995621876302
 30
0.0
 11
279.59214396126788
 21
39.395272956872368
 31
0.0
1001
ACAD
1000
ASC_BOUNDS
1002
{
1070
    19
1005
7F8
1002
}
  0
LINE
  5
48B
  8
0
 10
279.59214396126788
 20
39.395271665143262
 30
0.0
 11
279.59214396126788
 21
36.869693471991312
 31
0.0
1001
ACAD
1000
ASC_BOUNDS
1002
{
1070
    19
1005
7F8
1002
}
  0
LINE
  5
48C
  8
0
 10
279.59214396126788
 20
36.869692191960077
 30
0.0
 11
279.59214396126788
 21
30.509329209302152
 31
0.0
1001
ACAD
1000
ASC_BOUNDS
1002
{
1070
    19
1005
7F8
1002
}
  0
LINE
  5
48D
  8
0
 10
279.59214396126788
 20
30.509328975091648
 30
0.0
 11
279.59214396126788
 21
27.904606310087679
 31
0.0
1001
ACAD
1000
ASC_BOUNDS
1002
{
1070
    19
1005
7F8
1002
}
  0
LINE
  5
48E
  8
0
 10
279.59214396126788
 20
27.904604976312669
 30
0.0
 11
279.59214396126788
 21
27.227879326693181
 31
0.0
1001
ACAD
1000
ASC_BOUNDS
1002
{
1070
    19
1005
7F8
1002
}
  0
LINE
  5
48F
  8
0
 10
279.59214396126788
 20
27.227878596774939
 30
0.0
 11
279.59214396126788
 21
26.99999562187628
 31
0.0
1001
ACAD
1000
ASC_BOUNDS
1002
{
1070
    19
1005
7F8
1002
}
  0
LINE
  5
490
  8
0
 10
279.59214396126788
 20
56.9999956218767
 30
0.0
 11
279.59214396126788
 21
56.772111917059391
 31
0.0
1001
ACAD
1000
ASC_BOUNDS
1002
{
1070
    19
1005
7F8
1002
}
  0
LINE
  5
491
  8
0
 10
279.59214396126788
 20
56.772110240881567
 30
0.0
 11
279.59214396126788
 21
56.095386267439721
 31
0.0
1001
ACAD
1000
ASC_BOUNDS
1002
{
1070
    19
1005
7F8
1002
}
  0
LINE
  5
492
  8
0
 10
279.59214396126788
 20
56.095384933664889
 30
0.0
 11
279.59214396126788
 21
54.99037915615407
 31
0.0
1001
ACAD
1000
ASC_BOUNDS
1002
{
1070
    19
1005
7F8
1002
}
  0
LINE
  5
493
  8
0
 10
279.59214396126788
 20
54.99037667864286
 30
0.0
 11
279.59214396126788
 21
53.490665190249189
 31
0.0
1001
ACAD
1000
ASC_BOUNDS
1002
{
1070
    19
1005
7F8
1002
}
  0
LINE
  5
494
  8
0
 10
279.59214396126788
 20
53.490662268660962
 30
0.0
 11
279.59214396126788
 21
47.13029905179225
 31
0.0
1001
ACAD
1000
ASC_BOUNDS
1002
{
1070
    19
1005
7F8
1002
}
  0
LINE
  5
495
  8
0
 10
279.59214396126788
 20
47.130297771761327
 30
0.0
 11
279.59214396126788
 21
44.604719578609057
 31
0.0
1001
ACAD
1000
ASC_BOUNDS
1002
{
1070
    19
1005
7F8
1002
}
  0
LINE
  5
496
  8
0
 10
279.59214396126788
 20
44.604718286880249
 30
0.0
 11
279.59214396126788
 21
41.999995621876302
 31
0.0
1001
ACAD
1000
ASC_BOUNDS
1002
{
1070
    19
1005
7F8
1002
}
  0
LINE
  5
497
  8
0
 10
252.827132500869
 20
15.99999562187582
 30
0.0
 11
238.82713250086829
 21
15.99999562187582
 31
0.0
  0
LINE
  5
498
  8
0
 10
238.82713250086829
 20
5.999995621875974
 30
0.0
 11
238.82713250086829
 21
6.1703664904306299
 31
0.0
  0
LINE
  5
499
  8
0
 10
252.8271325008686
 20
15.99999562187595
 30
0.0
 11
252.8271325008686
 21
15.82962532958485
 31
0.0
  0
LINE
  5
49A
  8
0
 10
252.8271325008686
 20
15.829624753321291
 30
0.0
 11
252.8271325008686
 21
15.330123554264951
 31
0.0
  0
LINE
  5
49B
  8
0
 10
252.8271325008686
 20
15.33012264079815
 30
0.0
 11
252.8271325008686
 21
14.53553008221167
 31
0.0
  0
LINE
  5
49C
  8
0
 10
252.8271325008686
 20
14.5355295278087
 30
0.0
 11
252.8271325008686
 21
12.294090847388579
 31
0.0
  0
LINE
  5
49D
  8
0
 10
252.8271325008686
 20
12.29409019962312
 30
0.0
 11
252.8271325008686
 21
10.999995863040249
 31
0.0
  0
LINE
  5
49E
  8
0
 10
252.8271325008686
 20
10.99999562187597
 30
0.0
 11
252.8271325008686
 21
9.7059003963633756
 31
0.0
  0
LINE
  5
49F
  8
0
 10
252.8271325008686
 20
9.7059000915721203
 30
0.0
 11
252.8271325008686
 21
8.4999956218759785
 31
0.0
  0
LINE
  5
4A0
  8
0
 10
252.8271325008686
 20
8.4999953608734398
 30
0.0
 11
252.8271325008686
 21
6.6698686029537724
 31
0.0
  0
LINE
  5
4A1
  8
0
 10
252.8271325008686
 20
6.669868314287954
 30
0.0
 11
252.8271325008686
 21
5.99999562187595
 31
0.0
  0
LINE
  5
4A7
  8
0
 10
231.32247527764389
 20
5.999995621875887
 30
0.0
 11
231.32247527764389
 21
6.2385147896610071
 31
0.0
1001
ACAD
1000
ASC_BOUNDS
1002
{
1070
    19
1005
7F8
1002
}
  0
LINE
  5
4A8
  8
0
 10
231.32247527764389
 20
6.23851483785241
 30
0.0
 11
231.32247527764389
 21
6.937817391252783
 31
0.0
1001
ACAD
1000
ASC_BOUNDS
1002
{
1070
    19
1005
7F8
1002
}
  0
LINE
  5
4A9
  8
0
 10
231.32247527764389
 20
6.9378177953848121
 30
0.0
 11
231.32247527764389
 21
8.0502481535700472
 31
0.0
1001
ACAD
1000
ASC_BOUNDS
1002
{
1070
    19
1005
7F8
1002
}
  0
LINE
  5
4AA
  8
0
 10
231.32247527764389
 20
8.0502482825655264
 30
0.0
 11
231.32247527764389
 21
9.4999956218758808
 31
0.0
1001
ACAD
1000
ASC_BOUNDS
1002
{
1070
    19
1005
7F8
1002
}
  0
LINE
  5
4AB
  8
0
 10
231.32247527764389
 20
9.4999958460042482
 30
0.0
 11
231.32247527764389
 21
11.18826230615822
 31
0.0
1001
ACAD
1000
ASC_BOUNDS
1002
{
1070
    19
1005
7F8
1002
}
  0
LINE
  5
4AC
  8
0
 10
231.32247527764389
 20
11.188262607369669
 30
0.0
 11
231.32247527764389
 21
12.99999562187587
 31
0.0
1001
ACAD
1000
ASC_BOUNDS
1002
{
1070
    19
1005
7F8
1002
}
  0
LINE
  5
4AD
  8
0
 10
231.32247527764389
 20
12.99999610420428
 30
0.0
 11
231.32247527764389
 21
14.811728869329309
 31
0.0
1001
ACAD
1000
ASC_BOUNDS
1002
{
1070
    19
1005
7F8
1002
}
  0
LINE
  5
4AE
  8
0
 10
231.32247527764389
 20
14.81172893759352
 30
0.0
 11
231.32247527764389
 21
15.734683102725331
 31
0.0
1001
ACAD
1000
ASC_BOUNDS
1002
{
1070
    19
1005
7F8
1002
}
  0
LINE
  5
4AF
  8
0
 10
238.82713250086829
 20
15.734683102725381
 30
0.0
 11
238.82713250086829
 21
14.81172893759355
 31
0.0
1001
ACAD
1000
ASC_BOUNDS
1002
{
1070
    19
1005
7F8
1002
}
  0
LINE
  5
4B0
  8
0
 10
238.82713250086829
 20
14.811728869329331
 30
0.0
 11
238.82713250086829
 21
12.999996104204319
 31
0.0
1001
ACAD
1000
ASC_BOUNDS
1002
{
1070
    19
1005
7F8
1002
}
  0
LINE
  5
4B1
  8
0
 10
238.82713250086829
 20
12.9999956218759
 30
0.0
 11
238.82713250086829
 21
11.188262607369699
 31
0.0
1001
ACAD
1000
ASC_BOUNDS
1002
{
1070
    19
1005
7F8
1002
}
  0
LINE
  5
4B2
  8
0
 10
238.82713250086829
 20
11.18826230615826
 30
0.0
 11
238.82713250086829
 21
9.4999958460042784
 31
0.0
1001
ACAD
1000
ASC_BOUNDS
1002
{
1070
    19
1005
7F8
1002
}
  0
LINE
  5
4B3
  8
0
 10
238.82713250086829
 20
9.4999956218759074
 30
0.0
 11
238.82713250086829
 21
8.0502482825655388
 31
0.0
1001
ACAD
1000
ASC_BOUNDS
1002
{
1070
    19
1005
7F8
1002
}
  0
LINE
  5
4B4
  8
0
 10
238.82713250086829
 20
8.0502481535700703
 30
0.0
 11
238.82713250086829
 21
6.937817795384821
 31
0.0
1001
ACAD
1000
ASC_BOUNDS
1002
{
1070
    19
1005
7F8
1002
}
  0
LINE
  5
4B5
  8
0
 10
238.82713250086829
 20
6.937817391252791
 30
0.0
 11
238.82713250086829
 21
6.2385148378524073
 31
0.0
1001
ACAD
1000
ASC_BOUNDS
1002
{
1070
    19
1005
7F8
1002
}
  0
LINE
  5
4B6
  8
0
 10
238.82713250086829
 20
6.2385147896612914
 30
0.0
 11
238.82713250086829
 21
5.9999956218758754
 31
0.0
1001
ACAD
1000
ASC_BOUNDS
1002
{
1070
    19
1005
7F8
1002
}
  0
LINE
  5
4B7
  8
0
 10
280.07713250086891
 20
5.9999956218783854
 30
0.0
 11
280.07713250086891
 21
97.999995621876792
 31
0.0
  0
LINE
  5
4B8
  8
0
 10
280.07713250086891
 20
97.999995621876792
 30
0.0
 11
230.827132500869
 21
97.999995621876792
 31
0.0
  0
LINE
  5
4B9
  8
0
 10
230.827132500869
 20
97.999995621876792
 30
0.0
 11
230.827132500869
 21
5.9999956218783854
 31
0.0
  0
LINE
  5
4BA
  8
0
 10
272.07713250086829
 20
59.87499562187633
 30
0.0
 11
238.82713250086829
 21
59.874995621875968
 31
0.0
  0
LINE
  5
4BB
  8
0
 10
238.82713250086829
 20
31.798906030523689
 30
0.0
 11
238.82713250086829
 21
34.659597779518322
 31
0.0
1001
ACAD
1000
ASC_BOUNDS
1002
{
1070
    19
1005
7F8
1002
}
  0
LINE
  5
4BC
  8
0
 10
238.82713250086829
 20
34.659598899176011
 30
0.0
 11
238.82713250086829
 21
38.003810069481133
 31
0.0
1001
ACAD
1000
ASC_BOUNDS
1002
{
1070
    19
1005
7F8
1002
}
  0
LINE
  5
4BD
  8
0
 10
238.82713250086829
 20
38.003810321520902
 30
0.0
 11
238.82713250086829
 21
44.50403413652797
 31
0.0
1001
ACAD
1000
ASC_BOUNDS
1002
{
1070
    19
1005
7F8
1002
}
  0
LINE
  5
4BE
  8
0
 10
238.82713250086829
 20
44.504034441784263
 30
0.0
 11
238.82713250086829
 21
56.9999956218767
 31
0.0
1001
ACAD
1000
ASC_BOUNDS
1002
{
1070
    19
1005
7F8
1002
}
  0
LINE
  5
4BF
  8
0
 10
238.82713250086829
 20
56.999996338286067
 30
0.0
 11
238.82713250086829
 21
59.803300472759382
 31
0.0
  0
LINE
  5
4C0
  8
0
 10
238.82713250086829
 20
59.803301010496803
 30
0.0
 11
238.82713250086829
 21
52.859499264442739
 31
0.0
  0
LINE
  5
4C1
  8
0
 10
238.82713250086829
 20
52.859500404808372
 30
0.0
 11
238.82713250086829
 21
55.052005381181097
 31
0.0
  0
LINE
  5
4C2
  8
0
 10
238.82713250086829
 20
55.052007361102973
 30
0.0
 11
238.82713250086829
 21
59.261164509904319
 31
0.0
  0
LINE
  5
4C3
  8
0
 10
238.82713250086829
 20
59.261165295067727
 30
0.0
 11
238.82713250086829
 21
59.783862301781092
 31
0.0
  0
LINE
  5
4C4
  8
0
 10
238.82713250086829
 20
59.783862707193848
 30
0.0
 11
238.82713250086829
 21
59.84217105786076
 31
0.0
  0
LINE
  5
4C5
  8
0
 10
272.07713250086829
 20
59.842171057861073
 30
0.0
 11
272.07713250086829
 21
59.783862707193641
 31
0.0
  0
LINE
  5
4C6
  8
0
 10
272.07713250086829
 20
59.783862301781447
 30
0.0
 11
272.07713250086829
 21
59.261165295067677
 31
0.0
  0
LINE
  5
4C7
  8
0
 10
272.07713250086829
 20
59.261164509904702
 30
0.0
 11
272.07713250086829
 21
55.052007361103414
 31
0.0
1001
ACAD
1000
ASC_BOUNDS
1002
{
1070
    19
1005
7F8
1002
}
  0
LINE
  5
4C8
  8
0
 10
272.07713250086829
 20
55.05200538118126
 30
0.0
 11
272.07713250086829
 21
52.859500404808337
 31
0.0
1001
ACAD
1000
ASC_BOUNDS
1002
{
1070
    19
1005
7F8
1002
}
  0
LINE
  5
4C9
  8
0
 10
272.07713250086829
 20
52.85949926444318
 30
0.0
 11
272.07713250086829
 21
50.337096634554889
 31
0.0
1001
ACAD
1000
ASC_BOUNDS
1002
{
1070
    19
1005
7F8
1002
}
  0
LINE
  5
4CA
  8
0
 10
272.07713250086829
 20
50.337096096817781
 30
0.0
 11
272.07713250086829
 21
47.533791962344182
 31
0.0
1001
ACAD
1000
ASC_BOUNDS
1002
{
1070
    19
1005
7F8
1002
}
  0
LINE
  5
4CB
  8
0
 10
272.07713250086829
 20
47.533791245935099
 30
0.0
 11
272.07713250086857
 21
44.50403444178442
 31
0.0
1001
ACAD
1000
ASC_BOUNDS
1002
{
1070
    19
1005
7F8
1002
}
  0
LINE
  5
4CC
  8
0
 10
272.07713250086857
 20
44.504034136528453
 30
0.0
 11
272.07713250086857
 21
38.003810321520973
 31
0.0
1001
ACAD
1000
ASC_BOUNDS
1002
{
1070
    19
1005
7F8
1002
}
  0
LINE
  5
4CD
  8
0
 10
272.07713250086857
 20
38.003810069481617
 30
0.0
 11
272.07713250086857
 21
34.659598899176501
 31
0.0
1001
ACAD
1000
ASC_BOUNDS
1002
{
1070
    19
1005
7F8
1002
}
  0
LINE
  5
4CE
  8
0
 10
272.07713250086857
 20
34.659597779518549
 30
0.0
 11
272.07713250086857
 21
31.338994741270682
 31
0.0
1001
ACAD
1000
ASC_BOUNDS
1002
{
1070
    19
1005
7F8
1002
}
  0
LINE
  5
4CF
  8
0
 10
272.07713250086857
 20
31.33899441093503
 30
0.0
 11
272.07713250086857
 21
28.106494678950849
 31
0.0
1001
ACAD
1000
ASC_BOUNDS
1002
{
1070
    19
1005
7F8
1002
}
  0
LINE
  5
4D0
  8
0
 10
272.07713250086857
 20
28.106493350517301
 30
0.0
 11
272.07713250086857
 21
19.54966069657582
 31
0.0
1001
ACAD
1000
ASC_BOUNDS
1002
{
1070
    19
1005
7F8
1002
}
  0
LINE
  5
4D1
  8
0
 10
272.07713250086857
 20
19.549660077227301
 30
0.0
 11
272.07713250086857
 21
17.262393927953099
 31
0.0
  0
LINE
  5
4D2
  8
0
 10
272.07713250086857
 20
17.262393858676919
 30
0.0
 11
272.07713250086857
 21
15.33664526347297
 31
0.0
  0
LINE
  5
4D3
  8
0
 10
272.07713250086857
 20
15.3366450097051
 30
0.0
 11
272.07713250086857
 21
13.80981909278962
 31
0.0
  0
LINE
  5
4D4
  8
0
 10
272.07713250086857
 20
13.80981857155952
 30
0.0
 11
272.07713250086857
 21
12.063233822295
 31
0.0
  0
LINE
  5
4D5
  8
0
 10
272.07713250086857
 20
12.06323382229502
 30
0.0
 11
272.07713250086908
 21
5.9999956218759669
 31
0.0
  0
LINE
  5
4D6
  8
0
 10
272.07713250086857
 20
12.063233822294981
 30
0.0
 11
252.82713136522659
 21
12.06323382229478
 31
0.0
  0
LINE
  5
4D7
  8
0
 10
230.827132500869
 20
-0.0000043781234452
 30
0.0
 11
280.07713250086908
 21
-0.0000043781234459
 31
0.0
  0
LINE
  5
4D8
  8
0
 10
280.07713250086908
 20
-0.0000043781234457
 30
0.0
 11
280.07713250086908
 21
5.9999956218789752
 31
0.0
  0
LINE
  5
4D9
  8
0
 10
280.07713250086908
 20
5.9999956218789752
 30
0.0
 11
230.827132500869
 21
5.9999956218789752
 31
0.0
1001
ACAD
1000
ASC_BOUNDS
1002
{
1070
    19
1005
7F8
1002
}
  0
LINE
  5
4DA
  8
0
 10
230.827132500869
 20
5.9999956218789752
 30
0.0
 11
230.827132500869
 21
-0.0000043781234457
 31
0.0
  0
LINE
  5
4DD
  8
0
 10
49.249992783588361
 20
5.9999956218783854
 30
0.0
 11
49.249992783588361
 21
97.999995621876792
 31
0.0
  0
LINE
  5
4DE
  8
0
 10
49.249992783588361
 20
97.999995621876792
 30
0.0
 11
-0.0000072164116318
 21
97.999995621876792
 31
0.0
  0
LINE
  5
4DF
  8
0
 10
-0.0000072164116318
 20
97.999995621876792
 30
0.0
 11
-0.0000072164116318
 21
5.9999956218783854
 31
0.0
  0
LINE
  5
4E0
  8
0
 10
-0.0000072164116318
 20
5.9999956218783854
 30
0.0
 11
5.1260282245877971
 21
5.9999956218783854
 31
0.0
  0
LINE
  5
4E1
  8
0
 10
10.37395734258916
 20
5.9999956218783854
 30
0.0
 11
49.249992783588361
 21
5.9999956218783854
 31
0.0
  0
LINE
  5
4E2
  8
0
 10
49.249992783588141
 20
-0.0000043781246172
 30
0.0
 11
49.249992783588141
 21
5.9999956218778001
 31
0.0
  0
LINE
  5
4E3
  8
0
 10
49.249992783588141
 20
5.9999956218778001
 30
0.0
 11
10.37395734258962
 21
5.9999956218778001
 31
0.0
  0
LINE
  5
4E4
  8
0
 10
5.1260282245875679
 20
5.9999956218778001
 30
0.0
 11
-0.0000072164118592
 21
5.9999956218778001
 31
0.0
  0
LINE
  5
4E5
  8
0
 10
-0.0000072164118592
 20
5.9999956218778001
 30
0.0
 11
-0.0000072164118592
 21
-0.0000043781246181
 31
0.0
  0
LINE
  5
4E6
  8
0
 10
-0.0000072164118592
 20
-0.0000043781246178
 30
0.0
 11
49.249992783588141
 21
-0.0000043781246172
 31
0.0
  0
ARC
  5
4E7
  8
0
 10
7.7499927835883682
 20
4.5624956218763444
 30
0.0
 40
3.000000000000008
 50
359.9999999999992
 51
179.9999999999994
  0
ARC
  5
4E8
  8
0
 10
7.7499927835883682
 20
4.5624956218763444
 30
0.0
 40
3.0000000000000062
 50
180.00000000000011
 51
359.9999999999992
  0
ARC
  5
4E9
  8
0
 10
24.624992783588599
 20
85.999995621876309
 30
0.0
 40
3.0000000000000062
 50
359.9999999999992
 51
179.9999999999992
  0
ARC
  5
4EA
  8
0
 10
24.624992783588599
 20
85.999995621876309
 30
0.0
 40
2.9999999999999911
 50
180.0000000000004
 51
359.99999999999949
  0
LINE
  5
4ED
  8
0
 10
185.65755580327721
 20
147.53389935955019
 30
0.0
 11
172.02164844142811
 21
147.53389935955019
 31
0.0
  0
LINE
  5
4EE
  8
0
 10
172.02164844142811
 20
147.53389935955019
 30
0.0
 11
171.9774989868607
 21
147.53389935955019
 31
0.0
  0
LINE
  5
4EF
  8
0
 10
179.1831796475488
 20
155.0385565827747
 30
0.0
 11
185.65755580327721
 21
155.0385565827747
 31
0.0
  0
LINE
  5
4F0
  8
0
 10
185.65755580327721
 20
155.0385565827747
 30
0.0
 11
185.65755580327721
 21
147.53389935955019
 31
0.0
  0
LINE
  5
500
  8
0
 10
184.21397474489549
 20
155.0385565827747
 30
0.0
 11
184.21397474489549
 21
169.03855658277459
 31
0.0
  0
LINE
  5
501
  8
0
 10
179.21397474489549
 20
169.03855658277459
 30
0.0
 11
180.50806932264649
 21
169.03855658277459
 31
0.0
  0
LINE
  5
502
  8
0
 10
180.50806997040809
 20
169.03855658277459
 30
0.0
 11
182.74950865082829
 21
169.03855658277459
 31
0.0
  0
LINE
  5
503
  8
0
 10
182.749509205236
 20
169.03855658277459
 30
0.0
 11
183.54410176381779
 21
169.03855658277459
 31
0.0
  0
LINE
  5
504
  8
0
 10
183.5441026772898
 20
169.03855658277459
 30
0.0
 11
184.0436038763408
 21
169.03855658277459
 31
0.0
  0
LINE
  5
505
  8
0
 10
184.0436044526125
 20
169.03855658277459
 30
0.0
 11
184.21397474489549
 21
169.03855658277459
 31
0.0
  0
LINE
  5
506
  8
0
 10
179.18282523857539
 20
169.03855658277459
 30
0.0
 11
179.2139742625719
 21
169.03855658277459
 31
0.0
  0
LINE
  5
507
  8
0
 10
158.21397474489521
 20
147.53389935955019
 30
0.0
 11
155.60925207989121
 21
147.53389935955019
 31
0.0
  0
LINE
  5
508
  8
0
 10
155.60925176171901
 20
147.53389935955019
 30
0.0
 11
153.08367259501011
 21
147.53389935955019
 31
0.0
  0
LINE
  5
509
  8
0
 10
153.08367230504399
 20
147.53389935955019
 30
0.0
 11
150.71397474489521
 21
147.53389935955019
 31
0.0
  0
LINE
  5
50A
  8
0
 10
150.71397424013699
 20
147.53389935955019
 30
0.0
 11
148.57216096502609
 21
147.53389935955019
 31
0.0
  0
LINE
  5
50B
  8
0
 10
148.572160599597
 20
147.53389935955019
 30
0.0
 11
146.72330809811041
 21
147.53389935955019
 31
0.0
  0
LINE
  5
50C
  8
0
 10
146.7233078517973
 20
147.53389935955019
 30
0.0
 11
144.11858543310649
 21
147.53389935955019
 31
0.0
  0
LINE
  5
50D
  8
0
 10
144.11858536118481
 20
147.53389935955019
 30
0.0
 11
143.4418588445765
 21
147.53389935955019
 31
0.0
  0
LINE
  5
50E
  8
0
 10
143.44185844971199
 20
147.53389935955019
 30
0.0
 11
143.2139747448951
 21
147.53389935955019
 31
0.0
  0
LINE
  5
50F
  8
0
 10
172.0212116089065
 20
147.53389935955019
 30
0.0
 11
171.2043560197269
 21
147.53389935955019
 31
0.0
  0
LINE
  5
510
  8
0
 10
171.20435580166179
 20
147.53389935955019
 30
0.0
 11
167.85578898410779
 21
147.53389935955019
 31
0.0
  0
LINE
  5
511
  8
0
 10
167.85578889019331
 20
147.53389935955019
 30
0.0
 11
160.81869748469299
 21
147.53389935955019
 31
0.0
  0
LINE
  5
512
  8
0
 10
160.8186974098991
 20
147.53389935955019
 30
0.0
 11
158.21397498453319
 21
147.53389935955019
 31
0.0
  0
LINE
  5
519
  8
0
 10
185.65755580327729
 20
147.53389935955019
 30
0.0
 11
172.02164844142811
 21
147.53389935955039
 31
0.0
1001
ACAD
1000
ASC_BOUNDS
1002
{
1070
    19
1005
796
1002
}
  0
LINE
  5
51A
  8
0
 10
172.02164844142811
 20
147.53389935955039
 30
0.0
 11
171.97749898686089
 21
147.53389935955039
 31
0.0
  0
LINE
  5
51B
  8
0
 10
179.1831796475488
 20
155.0385565827749
 30
0.0
 11
185.65755580327729
 21
155.0385565827747
 31
0.0
1001
ACAD
1000
ASC_BOUNDS
1002
{
1070
    19
1005
796
1002
}
  0
LINE
  5
51C
  8
0
 10
185.65755580327729
 20
155.0385565827747
 30
0.0
 11
185.65755580327729
 21
147.53389935955019
 31
0.0
1001
ACAD
1000
ASC_BOUNDS
1002
{
1070
    19
1005
796
1002
}
  0
LINE
  5
52C
  8
0
 10
184.21397474489549
 20
155.0385565827747
 30
0.0
 11
184.21397474489549
 21
169.0385565827749
 31
0.0
  0
LINE
  5
52D
  8
0
 10
179.21397474489549
 20
169.0385565827749
 30
0.0
 11
180.50806932264649
 21
169.0385565827749
 31
0.0
  0
LINE
  5
52E
  8
0
 10
180.5080699704082
 20
169.0385565827749
 30
0.0
 11
182.74950865082829
 21
169.0385565827749
 31
0.0
  0
LINE
  5
52F
  8
0
 10
182.74950920523571
 20
169.0385565827749
 30
0.0
 11
183.54410176381779
 21
169.0385565827749
 31
0.0
  0
LINE
  5
530
  8
0
 10
183.5441026772898
 20
169.0385565827749
 30
0.0
 11
184.0436038763408
 21
169.03855658277459
 31
0.0
  0
LINE
  5
531
  8
0
 10
184.0436044526125
 20
169.03855658277459
 30
0.0
 11
184.21397474489549
 21
169.03855658277459
 31
0.0
  0
LINE
  5
532
  8
0
 10
179.18282523857539
 20
169.0385565827749
 30
0.0
 11
179.2139742625719
 21
169.0385565827749
 31
0.0
  0
LINE
  5
533
  8
0
 10
158.21397474489521
 20
147.53389935955039
 30
0.0
 11
155.60925207989129
 21
147.53389935955039
 31
0.0
1001
ACAD
1000
ASC_BOUNDS
1002
{
1070
    19
1005
796
1002
}
  0
LINE
  5
534
  8
0
 10
155.60925176171901
 20
147.53389935955039
 30
0.0
 11
153.08367259501011
 21
147.53389935955039
 31
0.0
1001
ACAD
1000
ASC_BOUNDS
1002
{
1070
    19
1005
796
1002
}
  0
LINE
  5
535
  8
0
 10
153.08367230504399
 20
147.53389935955039
 30
0.0
 11
150.71397474489521
 21
147.53389935955039
 31
0.0
1001
ACAD
1000
ASC_BOUNDS
1002
{
1070
    19
1005
796
1002
}
  0
LINE
  5
536
  8
0
 10
150.71397424013699
 20
147.53389935955039
 30
0.0
 11
148.57216096502609
 21
147.53389935955039
 31
0.0
1001
ACAD
1000
ASC_BOUNDS
1002
{
1070
    19
1005
796
1002
}
  0
LINE
  5
537
  8
0
 10
148.5721605995972
 20
147.53389935955039
 30
0.0
 11
146.72330809811041
 21
147.53389935955039
 31
0.0
1001
ACAD
1000
ASC_BOUNDS
1002
{
1070
    19
1005
796
1002
}
  0
LINE
  5
538
  8
0
 10
146.7233078517971
 20
147.53389935955039
 30
0.0
 11
144.1185854331066
 21
147.53389935955039
 31
0.0
1001
ACAD
1000
ASC_BOUNDS
1002
{
1070
    19
1005
796
1002
}
  0
LINE
  5
539
  8
0
 10
144.11858536118481
 20
147.53389935955039
 30
0.0
 11
143.4418588445765
 21
147.53389935955039
 31
0.0
1001
ACAD
1000
ASC_BOUNDS
1002
{
1070
    19
1005
796
1002
}
  0
LINE
  5
53A
  8
0
 10
143.44185844971199
 20
147.53389935955039
 30
0.0
 11
143.2139747448951
 21
147.53389935955039
 31
0.0
1001
ACAD
1000
ASC_BOUNDS
1002
{
1070
    19
1005
796
1002
}
  0
LINE
  5
53B
  8
0
 10
172.02121160890641
 20
147.53389935955039
 30
0.0
 11
171.2043560197269
 21
147.53389935955039
 31
0.0
1001
ACAD
1000
ASC_BOUNDS
1002
{
1070
    19
1005
796
1002
}
  0
LINE
  5
53C
  8
0
 10
171.20435580166179
 20
147.53389935955039
 30
0.0
 11
167.85578898410779
 21
147.53389935955039
 31
0.0
1001
ACAD
1000
ASC_BOUNDS
1002
{
1070
    19
1005
796
1002
}
  0
LINE
  5
53D
  8
0
 10
167.85578889019331
 20
147.53389935955039
 30
0.0
 11
160.81869748469299
 21
147.53389935955039
 31
0.0
1001
ACAD
1000
ASC_BOUNDS
1002
{
1070
    19
1005
796
1002
}
  0
LINE
  5
53E
  8
0
 10
160.81869740989919
 20
147.53389935955039
 30
0.0
 11
158.21397498453319
 21
147.53389935955039
 31
0.0
1001
ACAD
1000
ASC_BOUNDS
1002
{
1070
    19
1005
796
1002
}
  0
LINE
  5
543
  8
0
 10
138.83897474489521
 20
196.2885565827749
 30
0.0
 11
138.83897474489501
 21
147.0385565827749
 31
0.0
  0
LINE
  5
544
  8
0
 10
103.463974744895
 20
147.0385565827749
 30
0.0
 11
103.4639747448952
 21
196.2885565827749
 31
0.0
  0
LINE
  5
545
  8
0
 10
103.4639747448952
 20
196.2885565827749
 30
0.0
 11
138.83897474489521
 21
196.2885565827749
 31
0.0
  0
LINE
  5
546
  8
0
 10
105.0889747448951
 20
194.6635565827749
 30
0.0
 11
137.2139747448951
 21
194.6635565827749
 31
0.0
1001
ACAD
1000
ASC_BOUNDS
1002
{
1070
    19
1005
76D
1002
}
  0
LINE
  5
547
  8
0
 10
137.2139747448951
 20
194.6635565827749
 30
0.0
 11
137.21397474489501
 21
148.6635565827749
 31
0.0
1001
ACAD
1000
ASC_BOUNDS
1002
{
1070
    19
1005
76D
1002
}
  0
LINE
  5
548
  8
0
 10
137.21397474489501
 20
148.6635565827749
 30
0.0
 11
105.088974744895
 21
148.6635565827749
 31
0.0
1001
ACAD
1000
ASC_BOUNDS
1002
{
1070
    19
1005
76D
1002
}
  0
LINE
  5
549
  8
0
 10
105.088974744895
 20
148.6635565827749
 30
0.0
 11
105.0889747448951
 21
194.6635565827749
 31
0.0
1001
ACAD
1000
ASC_BOUNDS
1002
{
1070
    19
1005
76D
1002
}
  0
LINE
  5
54A
  8
0
 10
103.463974744895
 20
147.0385565827749
 30
0.0
 11
138.83897474489501
 21
147.0385565827749
 31
0.0
  0
LINE
  5
54B
  8
0
 10
179.21397474489541
 20
155.0385565827747
 30
0.0
 11
179.21397474489541
 21
188.2885565827747
 31
0.0
  0
LINE
  5
54C
  8
0
 10
179.18318021371411
 20
155.0385565827747
 30
0.0
 11
179.11937474254589
 21
155.0385565827747
 31
0.0
1001
ACAD
1000
ASC_BOUNDS
1002
{
1070
    19
1005
796
1002
}
  0
LINE
  5
54D
  8
0
 10
179.11937463105639
 20
155.0385565827747
 30
0.0
 11
177.60905666733211
 21
155.0385565827747
 31
0.0
1001
ACAD
1000
ASC_BOUNDS
1002
{
1070
    19
1005
796
1002
}
  0
LINE
  5
54E
  8
0
 10
177.60905632562219
 20
155.0385565827747
 30
0.0
 11
176.19187942092131
 21
155.0385565827747
 31
0.0
1001
ACAD
1000
ASC_BOUNDS
1002
{
1070
    19
1005
796
1002
}
  0
LINE
  5
54F
  8
0
 10
176.19187931589889
 20
155.0385565827747
 30
0.0
 11
174.3672420863362
 21
155.0385565827747
 31
0.0
1001
ACAD
1000
ASC_BOUNDS
1002
{
1070
    19
1005
796
1002
}
  0
LINE
  5
550
  8
0
 10
174.36724190609371
 20
155.0385565827747
 30
0.0
 11
172.17058513776681
 21
155.0385565827745
 31
0.0
1001
ACAD
1000
ASC_BOUNDS
1002
{
1070
    19
1005
796
1002
}
  0
LINE
  5
551
  8
0
 10
172.17058495950349
 20
155.0385565827745
 30
0.0
 11
157.30349480522619
 21
155.0385565827745
 31
0.0
1001
ACAD
1000
ASC_BOUNDS
1002
{
1070
    19
1005
796
1002
}
  0
LINE
  5
552
  8
0
 10
157.30349448496241
 20
155.0385565827745
 30
0.0
 11
150.63924434449859
 21
155.0385565827745
 31
0.0
1001
ACAD
1000
ASC_BOUNDS
1002
{
1070
    19
1005
796
1002
}
  0
LINE
  5
553
  8
0
 10
150.6392439426987
 20
155.0385565827745
 30
0.0
 11
144.32869263020339
 21
155.0385565827745
 31
0.0
1001
ACAD
1000
ASC_BOUNDS
1002
{
1070
    19
1005
796
1002
}
  0
LINE
  5
554
  8
0
 10
144.32869263020331
 20
155.0385565827745
 30
0.0
 11
138.83897474489521
 21
155.0385565827747
 31
0.0
1001
ACAD
1000
ASC_BOUNDS
1002
{
1070
    19
1005
796
1002
}
  0
LINE
  5
555
  8
0
 10
138.83897474489521
 20
188.2885565827747
 30
0.0
 11
144.32869263020331
 21
188.2885565827745
 31
0.0
  0
LINE
  5
556
  8
0
 10
144.32869263020331
 20
188.2885565827745
 30
0.0
 11
150.63924394269861
 21
188.2885565827745
 31
0.0
  0
LINE
  5
557
  8
0
 10
150.63924434449851
 20
188.2885565827745
 30
0.0
 11
157.3034944849623
 21
188.2885565827745
 31
0.0
  0
LINE
  5
558
  8
0
 10
157.30349480522599
 20
188.2885565827745
 30
0.0
 11
172.17058495950349
 21
188.2885565827745
 31
0.0
  0
LINE
  5
559
  8
0
 10
172.17058513776669
 20
188.2885565827745
 30
0.0
 11
174.3672419060936
 21
188.2885565827745
 31
0.0
  0
LINE
  5
55A
  8
0
 10
174.36724208633609
 20
188.2885565827745
 30
0.0
 11
176.19187931589889
 21
188.2885565827747
 31
0.0
  0
LINE
  5
55B
  8
0
 10
176.1918794209212
 20
188.2885565827747
 30
0.0
 11
177.60905632562211
 21
188.2885565827747
 31
0.0
  0
LINE
  5
55C
  8
0
 10
177.60905666733211
 20
188.2885565827747
 30
0.0
 11
179.11937463105639
 21
188.2885565827747
 31
0.0
  0
LINE
  5
55D
  8
0
 10
179.1193747425458
 20
188.2885565827747
 30
0.0
 11
179.18318021371411
 21
188.2885565827747
 31
0.0
  0
LINE
  5
55F
  8
0
 10
188.2139747448951
 20
196.2885565827753
 30
0.0
 11
188.2139747448951
 21
147.03855658277541
 31
0.0
  0
LINE
  5
560
  8
0
 10
188.2139747448951
 20
147.03855658277541
 30
0.0
 11
138.83897474489501
 21
147.03855658277541
 31
0.0
  0
LINE
  5
561
  8
0
 10
188.2139747448951
 20
196.2885565827753
 30
0.0
 11
138.83897474489521
 21
196.28855658277541
 31
0.0
  0
LINE
  5
562
  8
0
 10
101.213974744895
 20
185.5385565827749
 30
0.0
 11
103.463974744895
 21
185.5385565827749
 31
0.0
  0
LINE
  5
563
  8
0
 10
103.463974744895
 20
191.5385565827749
 30
0.0
 11
101.213974744895
 21
191.5385565827749
 31
0.0
  0
LINE
  5
564
  8
0
 10
101.213974744895
 20
168.6635565827747
 30
0.0
 11
103.463974744895
 21
168.6635565827747
 31
0.0
  0
LINE
  5
565
  8
0
 10
103.463974744895
 20
174.6635565827749
 30
0.0
 11
101.213974744895
 21
174.6635565827749
 31
0.0
  0
LINE
  5
566
  8
0
 10
101.2139747448951
 20
185.5385565827749
 30
0.0
 11
101.2139747448951
 21
186.41723558351359
 31
0.0
  0
LINE
  5
567
  8
0
 10
101.2139747448951
 20
186.41723623921541
 30
0.0
 11
101.2139747448951
 21
187.03855533955979
 31
0.0
  0
LINE
  5
568
  8
0
 10
101.2139747448951
 20
187.0385565827749
 30
0.0
 11
101.2139747448951
 21
187.76209944746739
 31
0.0
  0
LINE
  5
569
  8
0
 10
101.2139747448951
 20
187.762099565157
 30
0.0
 11
101.2139747448951
 21
188.53855543405581
 31
0.0
  0
LINE
  5
56A
  8
0
 10
101.2139747448951
 20
188.5385565827749
 30
0.0
 11
101.2139747448951
 21
189.3150137180825
 31
0.0
  0
LINE
  5
56B
  8
0
 10
101.2139747448951
 20
189.31501421012891
 30
0.0
 11
101.2139747448951
 21
190.0385565827749
 31
0.0
  0
LINE
  5
56C
  8
0
 10
101.2139747448951
 20
190.0385569055758
 30
0.0
 11
101.2139747448951
 21
191.1366327941283
 31
0.0
  0
LINE
  5
56D
  8
0
 10
101.2139747448951
 20
191.1366333536958
 30
0.0
 11
101.2139747448951
 21
191.5385565827749
 31
0.0
  0
LINE
  5
56E
  8
0
 10
101.2139747448951
 20
168.6635565827747
 30
0.0
 11
101.2139747448951
 21
169.0654803714213
 31
0.0
  0
LINE
  5
56F
  8
0
 10
101.2139747448951
 20
169.06548050542489
 30
0.0
 11
101.2139747448951
 21
169.54223558351359
 31
0.0
  0
LINE
  5
570
  8
0
 10
101.2139747448951
 20
169.54223623921521
 30
0.0
 11
101.2139747448951
 21
170.16355533955979
 31
0.0
  0
LINE
  5
571
  8
0
 10
101.2139747448951
 20
170.1635565827747
 30
0.0
 11
101.2139747448951
 21
170.88709944746719
 31
0.0
  0
LINE
  5
572
  8
0
 10
101.2139747448951
 20
170.887099565157
 30
0.0
 11
101.2139747448951
 21
171.66355543405609
 31
0.0
  0
LINE
  5
573
  8
0
 10
101.2139747448951
 20
171.6635565827747
 30
0.0
 11
101.2139747448951
 21
172.44001371808221
 31
0.0
  0
LINE
  5
574
  8
0
 10
101.2139747448951
 20
172.44001421012891
 30
0.0
 11
101.2139747448951
 21
173.78487692633431
 31
0.0
  0
LINE
  5
575
  8
0
 10
101.2139747448951
 20
173.78487826900761
 30
0.0
 11
101.2139747448951
 21
174.2616327941281
 31
0.0
  0
LINE
  5
576
  8
0
 10
101.2139747448951
 20
174.26163335369611
 30
0.0
 11
101.2139747448951
 21
174.6635565827747
 31
0.0
  0
LINE
  5
75F
  8
0
 10
143.2139747448951
 20
147.53389935955039
 30
0.0
 11
143.21397474489541
 21
155.0385565827745
 31
0.0
1001
ACAD
1000
ASC_BOUNDS
1002
{
1070
    19
1005
796
1002
}
  0
INSERT
  5
76D
  8
0
  6
CONTINUOUS
  2
*X7
 10
0.0
 20
0.0
 30
0.0
1001
GRADIENTCOLOR1ACI
1070
     5
1001
GRADIENTCOLOR2ACI
1070
     2
1001
ACAD
1000
HATCH
1002
{
1070
    19
1000
ANSI31
1040
12.0
1040
-0.7853981633974485
1000
ASC_BOUNDS
1070
     1
1070
     1
1070
     4
1005
548
1005
549
1005
546
1005
547
1000
ASC_SEEDPOINT
1011
124.9351103762061
1021
0.0
1031
0.0
1021
184.84673103329001
1031
0.0
1000
R14_HATCH_DATA
1000
76D
1011
1.0
1021
0.0
1031
0.0
1021
0.0
1031
0.0
1011
0.0
1021
0.0
1031
0.0
1021
1.0
1031
0.0
1011
0.0
1021
0.0
1031
0.0
1021
0.0
1031
1.0
1040
0.0
1010
0.0
1020
0.0
1030
1.0
1000
ANSI31
1070
     0
1070
     1
1071
        1
1071
        7
1070
     0
1070
     1
1071
        4
1040
105.0889747448951
1040
194.6635565827749
1040
105.088974744895
1040
148.6635565827749
1040
137.21397474489501
1040
148.6635565827749
1040
137.2139747448951
1040
194.6635565827749
1071
        4
1005
547
1005
546
1005
549
1005
548
1070
     1
1070
     1
1040
-0.7853981633974485
1040
12.0
1070
     0
1070
     1
1040
6.2831853071795827
1040
-55.845917332222697
1040
196.2885493663633
1040
0.0000000000000005
1040
1.5
1070
     0
1040
0.1395833736446756
1071
        1
1040
124.9351103762061
1040
184.84673103329001
1040
0.0
1002
}
  0
INSERT
  5
778
  8
0
  6
CONTINUOUS
  2
*X5
 10
0.0
 20
0.0
 30
0.0
1001
GRADIENTCOLOR1ACI
1070
     5
1001
GRADIENTCOLOR2ACI
1070
     2
1001
ACAD
1000
HATCH
1002
{
1070
    19
1000
NET
1040
12.0
1040
0.7853981633974483
1000
ASC_BOUNDS
1070
     1
1070
     1
1070
     6
1005
3C7
1005
3BF
1005
3BE
1005
3C3
1005
3BC
1005
3BD
1000
ASC_SEEDPOINT
1011
159.82570878936141
1021
0.0
1031
0.0
1021
37.26470811852549
1031
0.0
1000
R14_HATCH_DATA
1000
778
1011
1.0
1021
0.0
1031
0.0
1021
0.0
1031
0.0
1011
0.0
1021
0.0
1031
0.0
1021
1.0
1031
0.0
1011
0.0
1021
0.0
1031
0.0
1021
0.0
1031
1.0
1040
0.0
1010
0.0
1020
0.0
1030
1.0
1000
NET
1070
     0
1070
     1
1071
        1
1071
        7
1070
     1
1070
     1
1071
        6
1040
172.02164844142791
1040
47.860724850400473
1040
0.3009705327358349
1040
158.21397474489501
1040
56.999995621876678
1040
0.6925647357577091
1040
148.33765830265219
1040
30.710249232666548
1040
0.0
1040
174.60502707184841
1040
7.7314473069115053
1040
0.1816387035292113
1040
179.2139747448949
1040
5.9999956218762227
1040
0.5373138358438943
1040
185.65755580327709
1040
15.73500259518732
1040
0.0
1071
        6
1005
3BD
1005
3BC
1005
3C3
1005
3BE
1005
3BF
1005
3C7
1070
     1
1070
     1
1040
0.7853981633974483
1040
12.0
1070
     0
1070
     2
1040
0.7853981633974483
1040
-146.87161755161631
1040
0.0
1040
-1.0606601717798201
1040
1.0606601717798201
1070
     0
1040
2.3561944901923431
1040
-146.87161755161631
1040
0.0
1040
-1.0606601717798201
1040
-1.0606601717798201
1070
     0
1040
0.2285445596822872
1071
        1
1040
159.82570878936141
1040
37.26470811852549
1040
0.0
1002
}
  0
INSERT
  5
796
  8
0
  6
CONTINUOUS
  2
*X8
 10
0.0
 20
0.0
 30
0.0
1001
GRADIENTCOLOR1ACI
1070
     5
1001
GRADIENTCOLOR2ACI
1070
     2
1001
ACAD
1000
HATCH
1002
{
1070
    19
1000
NET
1040
12.0
1040
-0.7853981633974485
1000
ASC_BOUNDS
1070
     1
1070
     1
1070
    25
1005
519
1005
53B
1005
53C
1005
53D
1005
53E
1005
533
1005
534
1005
535
1005
536
1005
537
1005
538
1005
539
1005
53A
1005
75F
1005
554
1005
553
1005
552
1005
551
1005
550
1005
54F
1005
54E
1005
54D
1005
54C
1005
51B
1005
51C
1000
ASC_SEEDPOINT
1011
176.1819215933813
1021
0.0
1031
0.0
1021
149.28253091260751
1031
0.0
1000
R14_HATCH_DATA
1000
796
1011
1.0
1021
0.0
1031
0.0
1021
0.0
1031
0.0
1011
0.0
1021
0.0
1031
0.0
1021
1.0
1031
0.0
1011
0.0
1021
0.0
1031
0.0
1021
0.0
1031
1.0
1040
0.0
1010
0.0
1020
0.0
1030
1.0
1000
NET
1070
     0
1070
     1
1071
        1
1071
        7
1070
     0
1070
     1
1071
       25
1040
185.65755580327729
1040
147.53389935955019
1040
185.65755580327729
1040
155.0385565827747
1040
179.1831796475488
1040
155.0385565827749
1040
179.11937474254589
1040
155.0385565827747
1040
177.60905666733211
1040
155.0385565827747
1040
176.19187942092131
1040
155.0385565827747
1040
174.3672420863362
1040
155.0385565827747
1040
172.17058513776681
1040
155.0385565827745
1040
157.30349480522619
1040
155.0385565827745
1040
150.63924434449859
1040
155.0385565827745
1040
144.32869263020339
1040
155.0385565827745
1040
143.21397474489541
1040
155.0385565827745
1040
143.2139747448951
1040
147.53389935955039
1040
143.44185844971199
1040
147.53389935955039
1040
144.11858536118481
1040
147.53389935955039
1040
146.7233078517971
1040
147.53389935955039
1040
148.5721605995972
1040
147.53389935955039
1040
150.71397424013699
1040
147.53389935955039
1040
153.08367230504399
1040
147.53389935955039
1040
155.60925176171901
1040
147.53389935955039
1040
158.21397474489521
1040
147.53389935955039
1040
160.81869740989919
1040
147.53389935955039
1040
167.85578889019331
1040
147.53389935955039
1040
171.20435580166179
1040
147.53389935955039
1040
172.02121160890641
1040
147.53389935955039
1071
       25
1005
51C
1005
51B
1005
54C
1005
54D
1005
54E
1005
54F
1005
550
1005
551
1005
552
1005
553
1005
554
1005
75F
1005
53A
1005
539
1005
538
1005
537
1005
536
1005
535
1005
534
1005
533
1005
53E
1005
53D
1005
53C
1005
53B
1005
519
1070
     1
1070
     1
1040
-0.7853981633974485
1040
12.0
1070
     0
1070
     2
1040
5.4977871437821371
1040
-55.845917332222697
1040
196.2885493663633
1040
1.0606601717798201
1040
1.060660171779819
1070
     0
1040
0.7853981633974465
1040
-55.845917332222697
1040
196.2885493663633
1040
-1.060660171779819
1040
1.0606601717798201
1070
     0
1040
0.370926444589617
1071
        1
1040
176.1819215933813
1040
149.28253091260751
1040
0.0
1002
}
  0
LINE
  5
798
  8
0
 10
272.07713250086829
 20
56.9999956218767
 30
0.0
 11
279.59214396126788
 21
56.9999956218767
 31
0.0
1001
ACAD
1000
ASC_BOUNDS
1002
{
1070
    19
1005
7F8
1002
}
  0
LINE
  5
799
  8
0
 10
272.07713250086829
 20
26.9999963517952
 30
0.0
 11
279.59214396126748
 21
26.9999963517952
 31
0.0
1001
ACAD
1000
ASC_BOUNDS
1002
{
1070
    19
1005
7F8
1002
}
  0
INSERT
  5
7F8
  8
0
  6
CONTINUOUS
  2
*X6
 10
0.0
 20
0.0
 30
0.0
1001
GRADIENTCOLOR1ACI
1070
     5
1001
GRADIENTCOLOR2ACI
1070
     2
1001
ACAD
1000
HATCH
1002
{
1070
    19
1000
NET
1040
12.0
1040
0.7853981633974483
1000
ASC_BOUNDS
1070
     2
1070
     1
1070
    25
1005
496
1005
48A
1005
48B
1005
48C
1005
48D
1005
48E
1005
48F
1005
799
1005
4D0
1005
4CF
1005
4CE
1005
4CD
1005
4CC
1005
4CB
1005
4CA
1005
4C9
1005
4C8
1005
4C7
1005
798
1005
490
1005
491
1005
492
1005
493
1005
494
1005
495
1070
     1
1070
    25
1005
4BD
1005
4BC
1005
4BB
1005
486
1005
487
1005
4AF
1005
4B0
1005
4B1
1005
4B2
1005
4B3
1005
4B4
1005
4B5
1005
4B6
1005
4D9
1005
4A7
1005
4A8
1005
4A9
1005
4AA
1005
4AB
1005
4AC
1005
4AD
1005
4AE
1005
485
1005
489
1005
4BE
1000
ASC_SEEDPOINT
1011
235.98956549136301
1021
0.0
1031
0.0
1021
41.701441295913128
1031
0.0
1000
R14_HATCH_DATA
1000
7F8
1011
1.0
1021
0.0
1031
0.0
1021
0.0
1031
0.0
1011
0.0
1021
0.0
1031
0.0
1021
1.0
1031
0.0
1011
0.0
1021
0.0
1031
0.0
1021
0.0
1031
1.0
1040
0.0
1010
0.0
1020
0.0
1030
1.0
1000
NET
1070
     0
1070
     1
1071
        2
1071
        7
1070
     0
1070
     1
1071
       25
1040
238.82713250086829
1040
44.50403413652797
1040
238.82713250086829
1040
56.999996338286067
1040
231.3224773669599
1040
56.999996338286067
1040
231.32247527764389
1040
15.735002595186961
1040
231.32247527764389
1040
14.81172893759352
1040
231.32247527764389
1040
12.99999610420428
1040
231.32247527764389
1040
11.188262607369669
1040
231.32247527764389
1040
9.4999958460042535
1040
231.32247527764389
1040
8.0502482825655264
1040
231.32247527764389
1040
6.937817795384813
1040
231.32247527764389
1040
6.23851483785241
1040
231.32247527764389
1040
5.9999956218789698
1040
238.82713250086829
1040
5.9999956218789663
1040
238.82713250086829
1040
6.238514789661294
1040
238.82713250086829
1040
6.9378173912527901
1040
238.82713250086829
1040
8.0502481535700632
1040
238.82713250086829
1040
9.4999956218759074
1040
238.82713250086829
1040
11.18826230615826
1040
238.82713250086829
1040
12.9999956218759
1040
238.82713250086829
1040
14.811728869329331
1040
238.82713250086829
1040
15.734683102725381
1040
238.82713250086829
1040
15.735002595186961
1040
238.82713250086829
1040
31.802739423696138
1040
238.82713250086829
1040
34.659597779518322
1040
238.82713250086829
1040
38.003810069481133
1071
       25
1005
4BE
1005
489
1005
485
1005
4AE
1005
4AD
1005
4AC
1005
4AB
1005
4AA
1005
4A9
1005
4A8
1005
4A7
1005
4D9
1005
4B6
1005
4B5
1005
4B4
1005
4B3
1005
4B2
1005
4B1
1005
4B0
1005
4AF
1005
487
1005
486
1005
4BB
1005
4BC
1005
4BD
1071
        7
1070
     0
1070
     1
1071
       25
1040
279.59214396126788
1040
44.604718286880249
1040
279.59214396126788
1040
47.130297771761327
1040
279.59214396126788
1040
53.490662268660962
1040
279.59214396126788
1040
54.99037667864286
1040
279.59214396126788
1040
56.095384933664889
1040
279.59214396126788
1040
56.772110240881567
1040
279.59214396126788
1040
56.9999956218767
1040
272.07713250086829
1040
56.9999956218767
1040
272.07713250086829
1040
55.052007361103414
1040
272.07713250086829
1040
52.859500404808337
1040
272.07713250086829
1040
50.337096634554889
1040
272.07713250086829
1040
47.533791962344182
1040
272.07713250086857
1040
44.50403444178442
1040
272.07713250086857
1040
38.003810321520973
1040
272.07713250086857
1040
34.659598899176501
1040
272.07713250086857
1040
31.338994741270682
1040
272.07713250086857
1040
28.106494678950849
1040
272.07713250086857
1040
26.9999963517952
1040
279.59214396126788
1040
26.999996351795179
1040
279.59214396126788
1040
27.227878596774939
1040
279.59214396126788
1040
27.904604976312669
1040
279.59214396126788
1040
30.509328975091648
1040
279.59214396126788
1040
36.869692191960077
1040
279.59214396126788
1040
39.395271665143262
1040
279.59214396126788
1040
41.999995621876302
1071
       25
1005
495
1005
494
1005
493
1005
492
1005
491
1005
490
1005
798
1005
4C7
1005
4C8
1005
4C9
1005
4CA
1005
4CB
1005
4CC
1005
4CD
1005
4CE
1005
4CF
1005
4D0
1005
799
1005
48F
1005
48E
1005
48D
1005
48C
1005
48B
1005
48A
1005
496
1070
     1
1070
     1
1040
0.7853981633974483
1040
12.0
1070
     0
1070
     2
1040
0.7853981633974483
1040
-258.72000312865657
1040
0.0
1040
-1.0606601717798201
1040
1.0606601717798201
1070
     0
1040
2.3561944901923431
1040
-258.72000312865657
1040
0.0
1040
-1.0606601717798201
1040
-1.0606601717798201
1070
     0
1040
0.1043669097854219
1071
        2
1040
235.98956549136301
1040
41.701441295913128
1040
0.0
1040
276.08580188512428
1040
43.684412944015662
1040
0.0
1002
}
  0
LINE
  5
7F9
  8
0
 10
158.2139747448976
 20
195.80356804317361
 30
0.0
 11
160.8186974099014
 21
195.80356804317361
 31
0.0
  0
LINE
  5
7FA
  8
0
 10
160.81869870163089
 20
195.80356804317361
 30
0.0
 11
163.34427689478261
 21
195.80356804317361
 31
0.0
  0
LINE
  5
7FB
  8
0
 10
163.34427817481409
 20
195.80356804317361
 30
0.0
 11
169.70464115747211
 21
195.80356804317361
 31
0.0
  0
LINE
  5
7FC
  8
0
 10
169.70464139168209
 20
195.80356804317361
 30
0.0
 11
172.30936405668621
 21
195.80356804317361
 31
0.0
  0
LINE
  5
7FD
  8
0
 10
172.30936539046161
 20
195.80356804317361
 30
0.0
 11
172.98609104008071
 21
195.80356804317361
 31
0.0
  0
LINE
  5
7FE
  8
0
 10
172.9860917699994
 20
195.80356804317361
 30
0.0
 11
173.2139747448976
 21
195.80356804317361
 31
0.0
  0
LINE
  5
7FF
  8
0
 10
143.2139747448976
 20
195.80356804317361
 30
0.0
 11
143.4418584497144
 21
195.80356804317361
 31
0.0
  0
LINE
  5
800
  8
0
 10
143.44186012589259
 20
195.80356804317361
 30
0.0
 11
144.11858409933461
 21
195.80356804317361
 31
0.0
  0
LINE
  5
801
  8
0
 10
144.1185854331089
 20
195.80356804317361
 30
0.0
 11
145.2235912106201
 21
195.80356804317361
 31
0.0
  0
LINE
  5
802
  8
0
 10
145.22359368813099
 20
195.80356804317361
 30
0.0
 11
146.7233051765252
 21
195.80356804317361
 31
0.0
  0
LINE
  5
803
  8
0
 10
146.72330809811291
 20
195.80356804317361
 30
0.0
 11
153.0836713149821
 21
195.80356804317361
 31
0.0
  0
LINE
  5
804
  8
0
 10
153.0836725950125
 20
195.80356804317361
 30
0.0
 11
155.6092507881651
 21
195.80356804317361
 31
0.0
  0
LINE
  5
805
  8
0
 10
155.60925207989359
 20
195.80356804317361
 30
0.0
 11
158.2139747448976
 21
195.80356804317361
 31
0.0
  0
LINE
  5
806
  8
0
 10
158.21397474489791
 20
195.80356804317381
 30
0.0
 11
160.8186974099018
 21
195.80356804317381
 31
0.0
  0
LINE
  5
807
  8
0
 10
160.81869870163089
 20
195.80356804317381
 30
0.0
 11
163.34427689478281
 21
195.80356804317381
 31
0.0
  0
LINE
  5
808
  8
0
 10
163.34427817481409
 20
195.80356804317381
 30
0.0
 11
169.70464115747211
 21
195.80356804317381
 31
0.0
  0
LINE
  5
809
  8
0
 10
169.70464139168249
 20
195.80356804317381
 30
0.0
 11
172.30936405668649
 21
195.80356804317381
 31
0.0
  0
LINE
  5
80A
  8
0
 10
172.30936539046161
 20
195.80356804317381
 30
0.0
 11
172.98609104008099
 21
195.80356804317381
 31
0.0
  0
LINE
  5
80B
  8
0
 10
172.98609176999929
 20
195.80356804317381
 30
0.0
 11
173.21397474489791
 21
195.80356804317381
 31
0.0
  0
LINE
  5
80C
  8
0
 10
143.21397474489731
 20
195.80356804317381
 30
0.0
 11
143.4418584497148
 21
195.80356804317381
 31
0.0
  0
LINE
  5
80D
  8
0
 10
143.44186012589259
 20
195.80356804317381
 30
0.0
 11
144.1185840993345
 21
195.80356804317381
 31
0.0
  0
LINE
  5
80E
  8
0
 10
144.11858543310919
 20
195.80356804317381
 30
0.0
 11
145.2235912106201
 21
195.80356804317381
 31
0.0
  0
LINE
  5
80F
  8
0
 10
145.2235936881313
 20
195.80356804317381
 30
0.0
 11
146.723305176525
 21
195.80356804317381
 31
0.0
  0
LINE
  5
810
  8
0
 10
146.72330809811319
 20
195.80356804317381
 30
0.0
 11
153.0836713149819
 21
195.80356804317381
 31
0.0
  0
LINE
  5
811
  8
0
 10
153.0836725950129
 20
195.80356804317381
 30
0.0
 11
155.6092507881651
 21
195.80356804317381
 31
0.0
  0
LINE
  5
812
  8
0
 10
155.60925207989379
 20
195.80356804317381
 30
0.0
 11
158.21397474489791
 21
195.80356804317381
 31
0.0
  0
LINE
  5
81B
  8
0
 10
143.21397474489731
 20
188.2885565827745
 30
0.0
 11
143.21397474489731
 21
195.80356804317381
 31
0.0
  0
LINE
  5
81C
  8
0
 10
173.21397401497899
 20
188.28855658277419
 30
0.0
 11
173.21397401497899
 21
195.80356804317361
 31
0.0
  0
INSERT
  5
835
  8
0
  6
CONTINUOUS
  2
*X9
 10
0.0
 20
0.0
 30
0.0
1001
GRADIENTCOLOR1ACI
1070
     5
1001
GRADIENTCOLOR2ACI
1070
     2
1001
ACAD
1000
HATCH
1002
{
1070
    19
1000
NET
1040
12.0
1040
-0.7853981633974485
1000
R14_HATCH_DATA
1000
835
1011
1.0
1021
0.0
1031
0.0
1021
0.0
1031
0.0
1011
0.0
1021
0.0
1031
0.0
1021
1.0
1031
0.0
1011
0.0
1021
0.0
1031
0.0
1021
0.0
1031
1.0
1040
0.0
1010
0.0
1020
0.0
1030
1.0
1000
NET
1070
     0
1070
     0
1071
        1
1071
        7
1070
     0
1070
     1
1071
       20
1040
172.17058495950349
1040
188.28855658277439
1040
173.21397401497899
1040
188.28855658277439
1040
173.21397401497899
1040
195.80356804317381
1040
172.98609176999929
1040
195.80356804317381
1040
172.30936539046161
1040
195.80356804317381
1040
169.70464139168249
1040
195.80356804317381
1040
163.34427817481409
1040
195.80356804317381
1040
160.81869870163089
1040
195.80356804317381
1040
158.21397474489791
1040
195.80356804317381
1040
155.60925207989379
1040
195.80356804317381
1040
153.0836725950129
1040
195.80356804317381
1040
146.72330809811319
1040
195.80356804317381
1040
145.2235936881313
1040
195.80356804317381
1040
144.11858543310919
1040
195.80356804317381
1040
143.44186012589259
1040
195.80356804317381
1040
143.21397474489731
1040
195.80356804317381
1040
143.21397474489731
1040
188.2885565827745
1040
144.32869263020331
1040
188.28855658277439
1040
150.63924394269861
1040
188.28855658277439
1040
157.3034944849623
1040
188.28855658277439
1071
        0
1070
     1
1070
     1
1040
-0.7853981633974485
1040
12.0
1070
     0
1070
     2
1040
5.4977871437821371
1040
-55.845917332222697
1040
196.2885493663633
1040
1.0606601717798201
1040
1.060660171779819
1070
     0
1040
0.7853981633974465
1040
-55.845917332222697
1040
196.2885493663633
1040
-1.060660171779819
1040
1.0606601717798201
1070
     0
1040
0.0698074535299957
1071
        1
1040
168.09609930742971
1040
192.41142172354901
1040
0.0
1002
}
  0
ENDSEC
  0
EOF
