  0
SECTION
  2
HEADER
  9
$ACADVER
  1
AC1009
  9
$INSBASE
 10
0.0
 20
0.0
 30
0.0
  9
$EXTMIN
 10
-0.0095553864257454
 20
-0.0072488630287921
 30
-0.0015258207003583
  9
$EXTMAX
 10
313.14434916688231
 20
159.60677017938599
 30
0.0000000349246037
  9
$LIMMIN
 10
0.0
 20
0.0
  9
$LIMMAX
 10
12.0
 20
9.0
  9
$ORTHOMODE
 70
     1
  9
$REGENMODE
 70
     1
  9
$FILLMODE
 70
     1
  9
$QTEXTMODE
 70
     0
  9
$MIRRTEXT
 70
     0
  9
$DRAGMODE
 70
     2
  9
$LTSCALE
 40
1.0
  9
$OSMODE
 70
    37
  9
$ATTMODE
 70
     1
  9
$TEXTSIZE
 40
0.2
  9
$TRACEWID
 40
0.05
  9
$TEXTSTYLE
  7
ROMANS
  9
$CLAYER
  8
0
  9
$CELTYPE
  6
BYLAYER
  9
$CECOLOR
 62
   256
  9
$DIMSCALE
 40
1.0
  9
$DIMASZ
 40
0.09375
  9
$DIMEXO
 40
0.0625
  9
$DIMDLI
 40
0.375
  9
$DIMRND
 40
0.0
  9
$DIMDLE
 40
0.0
  9
$DIMEXE
 40
0.03125
  9
$DIMTP
 40
0.0
  9
$DIMTM
 40
0.0
  9
$DIMTXT
 40
0.09375
  9
$DIMCEN
 40
0.09375
  9
$DIMTSZ
 40
0.0
  9
$DIMTOL
 70
     0
  9
$DIMLIM
 70
     0
  9
$DIMTIH
 70
     0
  9
$DIMTOH
 70
     0
  9
$DIMSE1
 70
     0
  9
$DIMSE2
 70
     0
  9
$DIMTAD
 70
     0
  9
$DIMZIN
 70
     0
  9
$DIMBLK
  1

  9
$DIMASO
 70
     1
  9
$DIMSHO
 70
     1
  9
$DIMPOST
  1

  9
$DIMAPOST
  1

  9
$DIMALT
 70
     0
  9
$DIMALTD
 70
     2
  9
$DIMALTF
 40
25.399999999999999
  9
$DIMLFAC
 40
1.0
  9
$DIMTOFL
 70
     0
  9
$DIMTVP
 40
0.0
  9
$DIMTIX
 70
     0
  9
$DIMSOXD
 70
     0
  9
$DIMSAH
 70
     0
  9
$DIMBLK1
  1

  9
$DIMBLK2
  1

  9
$DIMSTYLE
  2
BAC
  9
$DIMCLRD
 70
     0
  9
$DIMCLRE
 70
     6
  9
$DIMCLRT
 70
     0
  9
$DIMTFAC
 40
1.0
  9
$DIMGAP
 40
0.0625
  9
$LUNITS
 70
     5
  9
$LUPREC
 70
     6
  9
$SKETCHINC
 40
0.1
  9
$FILLETRAD
 40
0.0
  9
$AUNITS
 70
     0
  9
$AUPREC
 70
     0
  9
$MENU
  1
.
  9
$ELEVATION
 40
0.0
  9
$PELEVATION
 40
0.0
  9
$THICKNESS
 40
0.0
  9
$LIMCHECK
 70
     0
  9
$BLIPMODE
 70
     0
  9
$CHAMFERA
 40
0.5
  9
$CHAMFERB
 40
0.5
  9
$SKPOLY
 70
     0
  9
$TDCREATE
 40
2456826.7180415159
  9
$TDUPDATE
 40
2456827.5652405899
  9
$TDINDWG
 40
0.0050575
  9
$TDUSRTIMER
 40
0.0050571296
  9
$USRTIMER
 70
     1
  9
$ANGBASE
 50
0.0
  9
$ANGDIR
 70
     0
  9
$PDMODE
 70
     0
  9
$PDSIZE
 40
0.0
  9
$PLINEWID
 40
0.0
  9
$COORDS
 70
     1
  9
$SPLFRAME
 70
     0
  9
$SPLINETYPE
 70
     6
  9
$SPLINESEGS
 70
     8
  9
$ATTDIA
 70
     0
  9
$ATTREQ
 70
     1
  9
$HANDLING
 70
     1
  9
$HANDSEED
  5
259B
  9
$SURFTAB1
 70
     6
  9
$SURFTAB2
 70
     6
  9
$SURFTYPE
 70
     6
  9
$SURFU
 70
     6
  9
$SURFV
 70
     6
  9
$UCSNAME
  2

  9
$UCSORG
 10
0.0
 20
0.0
 30
0.0
  9
$UCSXDIR
 10
1.0
 20
0.0
 30
0.0
  9
$UCSYDIR
 10
0.0
 20
1.0
 30
0.0
  9
$PUCSNAME
  2

  9
$PUCSORG
 10
0.0
 20
0.0
 30
0.0
  9
$PUCSXDIR
 10
1.0
 20
0.0
 30
0.0
  9
$PUCSYDIR
 10
0.0
 20
1.0
 30
0.0
  9
$USERI1
 70
     0
  9
$USERI2
 70
     0
  9
$USERI3
 70
     0
  9
$USERI4
 70
     0
  9
$USERI5
 70
     0
  9
$USERR1
 40
0.0
  9
$USERR2
 40
0.0
  9
$USERR3
 40
0.0
  9
$USERR4
 40
0.0
  9
$USERR5
 40
0.0
  9
$WORLDVIEW
 70
     1
  9
$SHADEDGE
 70
     3
  9
$SHADEDIF
 70
    70
  9
$TILEMODE
 70
     1
  9
$MAXACTVP
 70
    48
  9
$PLIMCHECK
 70
     0
  9
$PEXTMIN
 10
1.0000000000000000E+020
 20
1.0000000000000000E+020
 30
1.0000000000000000E+020
  9
$PEXTMAX
 10
-1.0000000000000000E+020
 20
-1.0000000000000000E+020
 30
-1.0000000000000000E+020
  9
$PLIMMIN
 10
0.0
 20
0.0
  9
$PLIMMAX
 10
12.0
 20
9.0
  9
$UNITMODE
 70
     0
  9
$VISRETAIN
 70
     1
  9
$PLINEGEN
 70
     0
  9
$PSLTSCALE
 70
     1
  0
ENDSEC
  0
SECTION
  2
TABLES
  0
TABLE
  2
VPORT
 70
     1
  0
VPORT
  2
*ACTIVE
 70
     0
 10
0.0
 20
0.0
 11
1.0
 21
1.0
 12
156.5673968902282
 22
79.799760658178641
 13
0.0
 23
0.0
 14
0.5
 24
0.5
 15
0.5
 25
0.5
 16
0.0
 26
0.0
 36
1.0
 17
0.0
 27
0.0
 37
0.0
 40
177.56230525709759
 41
1.7702552719200879
 42
50.0
 43
0.0
 44
0.0
 50
0.0
 51
0.0
 71
     0
 72
   100
 73
     1
 74
     1
 75
     0
 76
     0
 77
     0
 78
     0
  0
ENDTAB
  0
TABLE
  2
LTYPE
 70
     2
  0
LTYPE
  2
CONTINUOUS
 70
     0
  3
Solid line
 72
    65
 73
     0
 40
0.0
  0
LTYPE
  2
PHANTOM2
 70
     0
  3
Phantom (.5x) ___ _ _ ___ _ _ ___ _ _ ___ _ _
 72
    65
 73
     6
 40
1.25
 49
0.625
 49
-0.125
 49
0.125
 49
-0.125
 49
0.125
 49
-0.125
  0
ENDTAB
  0
TABLE
  2
LAYER
 70
     1
  0
LAYER
  2
0
 70
     0
 62
     7
  6
CONTINUOUS
  0
ENDTAB
  0
TABLE
  2
STYLE
 70
     3
  0
STYLE
  2
STANDARD
 70
     0
 40
0.0
 41
1.0
 50
0.0
 71
     0
 42
0.2
  3
txt
  4

  0
STYLE
  2
ANNOTATIVE
 70
     0
 40
0.0
 41
1.0
 50
0.0
 71
     0
 42
0.2
  3
txt
  4

  0
STYLE
  2
ROMANS
 70
     0
 40
0.0
 41
0.75
 50
0.0
 71
     0
 42
0.2
  3
romans.shx
  4

  0
ENDTAB
  0
TABLE
  2
VIEW
 70
     0
  0
ENDTAB
  0
TABLE
  2
UCS
 70
     0
  0
ENDTAB
  0
TABLE
  2
APPID
 70
    16
  0
APPID
  2
ACAD
 70
     0
  0
APPID
  2
ACADANNOTATIVE
 70
     0
  0
APPID
  2
ACAD_MLEADERVER
 70
     0
  0
APPID
  2
ACAD_DSTYLE_DIMJAG
 70
     0
  0
APPID
  2
ACAD_DSTYLE_DIMTALN
 70
     0
  0
APPID
  2
ACAD_PSEXT
 70
     0
  0
APPID
  2
ACADANNOPO
 70
     0
  0
APPID
  2
MCAD_NO_VIS
 70
     0
  0
APPID
  2
ACAD_TEMP_GRAPHIC
 70
     0
  0
APPID
  2
ACATTRIBSERVICES
 70
     0
  0
APPID
  2
DESIGNERASSEMBLIES
 70
     0
  0
APPID
  2
ACAD_DSTYLE_DIMBREAK
 70
     0
  0
APPID
  2
ACAD_NAV_VCDISPLAY
 70
     0
  0
APPID
  2
ACAD_EXEMPT_FROM_CAD_STANDARDS
 70
     0
  0
APPID
  2
GRADIENTCOLOR1ACI
 70
     0
  0
APPID
  2
GRADIENTCOLOR2ACI
 70
     0
  0
ENDTAB
  0
TABLE
  2
DIMSTYLE
 70
     3
  0
DIMSTYLE
  2
STANDARD
 70
     0
  3

  4

  5

  6

  7

 40
1.0
 41
0.18
 42
0.0625
 43
0.38
 44
0.18
 45
0.0
 46
0.0
 47
0.0
 48
0.0
140
0.18
141
0.09
142
0.0
143
25.399999999999999
144
1.0
145
0.0
146
1.0
147
0.09
 71
     0
 72
     0
 73
     1
 74
     1
 75
     0
 76
     0
 77
     0
 78
     0
170
     0
171
     2
172
     0
173
     0
174
     0
175
     0
176
     0
177
     0
178
     0
  0
DIMSTYLE
  2
ANNOTATIVE
 70
     0
  3

  4

  5

  6

  7

 40
1.0
 41
0.18
 42
0.0625
 43
0.38
 44
0.18
 45
0.0
 46
0.0
 47
0.0
 48
0.0
140
0.18
141
0.09
142
0.0
143
25.399999999999999
144
1.0
145
0.0
146
1.0
147
0.09
 71
     0
 72
     0
 73
     1
 74
     1
 75
     0
 76
     0
 77
     0
 78
     0
170
     0
171
     2
172
     0
173
     0
174
     0
175
     0
176
     0
177
     0
178
     0
  0
DIMSTYLE
  2
BAC
 70
     0
  3

  4

  5

  6

  7

 40
1.0
 41
0.09375
 42
0.0625
 43
0.375
 44
0.03125
 45
0.0
 46
0.0
 47
0.0
 48
0.0
140
0.09375
141
0.09375
142
0.0
143
25.399999999999999
144
1.0
145
0.0
146
1.0
147
0.0625
 71
     0
 72
     0
 73
     0
 74
     0
 75
     0
 76
     0
 77
     0
 78
     0
170
     0
171
     2
172
     0
173
     0
174
     0
175
     0
176
     0
177
     6
178
     0
  0
ENDTAB
  0
ENDSEC
  0
SECTION
  2
BLOCKS
  0
BLOCK
  8
0
  2
$MODEL_SPACE
 70
     0
 10
0.0
 20
0.0
 30
0.0
  3
$MODEL_SPACE
  1

  0
ENDBLK
  5
2507
  8
0
  0
BLOCK
 67
     1
  8
0
  2
$PAPER_SPACE
 70
     0
 10
0.0
 20
0.0
 30
0.0
  3
$PAPER_SPACE
  1

  0
ENDBLK
  5
2503
 67
     1
  8
0
  0
BLOCK
  8
0
  2
*X2
 70
     1
 10
0.0
 20
0.0
 30
0.0
  3
*X2
  1

  0
LINE
  5
2239
  8
0
 62
     0
 10
312.64980378270752
 20
65.841112014996583
 30
0.0
 11
312.55239484249938
 21
65.938520955204638
 31
0.0
  0
LINE
  5
223A
  8
0
 62
     0
 10
312.64980378270752
 20
63.719791671436951
 30
0.0
 11
310.43107449893972
 21
65.938520955204652
 31
0.0
  0
LINE
  5
223B
  8
0
 62
     0
 10
312.64980378270752
 20
61.598471327877292
 30
0.0
 11
308.30975415538018
 21
65.938520955204638
 31
0.0
  0
LINE
  5
223C
  8
0
 62
     0
 10
312.64980378270752
 20
59.477150984317639
 30
0.0
 11
306.18843381182057
 21
65.938520955204595
 31
0.0
  0
LINE
  5
223D
  8
0
 62
     0
 10
312.64980378270752
 20
57.355830640758001
 30
0.0
 11
305.13479232230821
 21
64.870842101157365
 31
0.0
  0
LINE
  5
223E
  8
0
 62
     0
 10
312.64980378270752
 20
55.234510297198362
 30
0.0
 11
305.13479232230821
 21
62.749521757597719
 31
0.0
  0
LINE
  5
223F
  8
0
 62
     0
 10
312.64980378270752
 20
53.113189953638731
 30
0.0
 11
305.13479232230821
 21
60.628201414038081
 31
0.0
  0
LINE
  5
2240
  8
0
 62
     0
 10
312.64980378270752
 20
50.99186961007905
 30
0.0
 11
305.13479232230821
 21
58.506881070478443
 31
0.0
  0
LINE
  5
2241
  8
0
 62
     0
 10
312.64980378270752
 20
48.870549266519447
 30
0.0
 11
305.13479232230821
 21
56.385560726918811
 31
0.0
  0
LINE
  5
2242
  8
0
 62
     0
 10
312.64980378270752
 20
46.74922892295978
 30
0.0
 11
305.13479232230821
 21
54.26424038335913
 31
0.0
  0
LINE
  5
2243
  8
0
 62
     0
 10
312.64980378270752
 20
44.627908579400149
 30
0.0
 11
305.13479232230821
 21
52.14292003979952
 31
0.0
  0
LINE
  5
2244
  8
0
 62
     0
 10
312.64980378270752
 20
42.506588235840532
 30
0.0
 11
305.13479232230821
 21
50.021599696239917
 31
0.0
  0
LINE
  5
2245
  8
0
 62
     0
 10
312.64980378270752
 20
40.385267892280851
 30
0.0
 11
305.13479232230821
 21
47.900279352680208
 31
0.0
  0
LINE
  5
2246
  8
0
 62
     0
 10
312.64980378270752
 20
38.263947548721241
 30
0.0
 11
305.13479232230821
 21
45.778959009120562
 31
0.0
  0
LINE
  5
2247
  8
0
 62
     0
 10
312.64980378270752
 20
36.14262720516161
 30
0.0
 11
305.13479232230821
 21
43.65763866556096
 31
0.0
  0
LINE
  5
2248
  8
0
 62
     0
 10
312.64980378270752
 20
34.021306861601943
 30
0.0
 11
305.13479232230821
 21
41.536318322001321
 31
0.0
  0
LINE
  5
2249
  8
0
 62
     0
 10
312.64980378270752
 20
31.899986518042279
 30
0.0
 11
305.13479232230821
 21
39.414997978441683
 31
0.0
  0
LINE
  5
224A
  8
0
 62
     0
 10
312.36699075022568
 20
30.061479206964488
 30
0.0
 11
305.13479232230821
 21
37.293677634882023
 31
0.0
  0
LINE
  5
224B
  8
0
 62
     0
 10
310.24567040666608
 20
30.061479206964439
 30
0.0
 11
305.13479232230821
 21
35.172357291322378
 31
0.0
  0
LINE
  5
224C
  8
0
 62
     0
 10
308.12435006310648
 20
30.06147920696435
 30
0.0
 11
305.13479232230821
 21
33.051036947762732
 31
0.0
  0
LINE
  5
224D
  8
0
 62
     0
 10
271.88479232230821
 20
64.179716604203094
 30
0.0
 11
270.06450884542659
 21
66.00000008108465
 31
0.0
  0
LINE
  5
224E
  8
0
 62
     0
 10
306.00302971954687
 20
30.061479206964268
 30
0.0
 11
305.13479232230821
 21
30.92971660420309
 31
0.0
  0
LINE
  5
224F
  8
0
 62
     0
 10
271.88479232230821
 20
62.05839626064342
 30
0.0
 11
267.94318850186693
 21
66.00000008108465
 31
0.0
  0
LINE
  5
2250
  8
0
 62
     0
 10
271.88479232230821
 20
59.937075917083781
 30
0.0
 11
265.82186815830732
 21
66.00000008108465
 31
0.0
  0
LINE
  5
2251
  8
0
 62
     0
 10
271.88479232230821
 20
57.81575557352415
 30
0.0
 11
264.38013509908387
 21
65.32041279674857
 31
0.0
  0
LINE
  5
2252
  8
0
 62
     0
 10
271.88479232230821
 20
55.694435229964512
 30
0.0
 11
264.3801350990837
 21
63.199092453189017
 31
0.0
  0
LINE
  5
2253
  8
0
 62
     0
 10
271.88479232230821
 20
53.573114886404888
 30
0.0
 11
264.3801350990837
 21
61.0777721096294
 31
0.0
  0
LINE
  5
2254
  8
0
 62
     0
 10
271.88479232230821
 20
51.451794542845221
 30
0.0
 11
264.3801350990837
 21
58.956451766069762
 31
0.0
  0
LINE
  5
2255
  8
0
 62
     0
 10
271.88479232230821
 20
49.330474199285561
 30
0.0
 11
264.3801350990837
 21
56.835131422510102
 31
0.0
  0
LINE
  5
2256
  8
0
 62
     0
 10
271.88479232230821
 20
47.209153855725951
 30
0.0
 11
264.3801350990837
 21
54.713811078950471
 31
0.0
  0
LINE
  5
2257
  8
0
 62
     0
 10
271.88479232230821
 20
45.087833512166299
 30
0.0
 11
264.3801350990837
 21
52.592490735390811
 31
0.0
  0
LINE
  5
2258
  8
0
 62
     0
 10
271.88479232230821
 20
42.966513168606653
 30
0.0
 11
264.3801350990837
 21
50.47117039183118
 31
0.0
  0
LINE
  5
2259
  8
0
 62
     0
 10
271.88479232230821
 20
40.845192825047029
 30
0.0
 11
264.3801350990837
 21
48.349850048271541
 31
0.0
  0
LINE
  5
225A
  8
0
 62
     0
 10
271.88479232230821
 20
38.723872481487383
 30
0.0
 11
264.3801350990837
 21
46.228529704711917
 31
0.0
  0
LINE
  5
225B
  8
0
 62
     0
 10
271.88479232230821
 20
36.602552137927752
 30
0.0
 11
264.3801350990837
 21
44.107209361152229
 31
0.0
  0
LINE
  5
225C
  8
0
 62
     0
 10
271.88479232230821
 20
34.481231794368092
 30
0.0
 11
264.3801350990837
 21
41.985889017592612
 31
0.0
  0
LINE
  5
225D
  8
0
 62
     0
 10
271.88479232230821
 20
32.359911450808447
 30
0.0
 11
264.3801350990837
 21
39.864568674032967
 31
0.0
  0
LINE
  5
225E
  8
0
 62
     0
 10
271.88479232230821
 20
30.238591107248801
 30
0.0
 11
264.3801350990837
 21
37.743248330473342
 31
0.0
  0
LINE
  5
225F
  8
0
 62
     0
 10
271.88479232230821
 20
28.117270763689159
 30
0.0
 11
264.3801350990837
 21
35.62192798691369
 31
0.0
  0
LINE
  5
2260
  8
0
 62
     0
 10
271.88479232230821
 20
25.995950420129532
 30
0.0
 11
264.3801350990837
 21
33.500607643354051
 31
0.0
  0
LINE
  5
2261
  8
0
 62
     0
 10
271.88479232230821
 20
23.874630076569868
 30
0.0
 11
264.3801350990837
 21
31.379287299794409
 31
0.0
  0
LINE
  5
2262
  8
0
 62
     0
 10
271.88479232230821
 20
21.753309733010202
 30
0.0
 11
264.3801350990837
 21
29.25796695623475
 31
0.0
  0
LINE
  5
2263
  8
0
 62
     0
 10
271.88479232230821
 20
19.631989389450581
 30
0.0
 11
264.3801350990837
 21
27.136646612675118
 31
0.0
  0
LINE
  5
2264
  8
0
 62
     0
 10
271.88479232230821
 20
17.51066904589095
 30
0.0
 11
264.3801350990837
 21
25.015326269115491
 31
0.0
  0
LINE
  5
2265
  8
0
 62
     0
 10
271.88479232230821
 20
15.38934870233129
 30
0.0
 11
264.3801350990837
 21
22.894005925555831
 31
0.0
  0
LINE
  5
2266
  8
0
 62
     0
 10
271.88479232230821
 20
13.268028358771691
 30
0.0
 11
264.3801350990837
 21
20.7726855819962
 31
0.0
  0
LINE
  5
2267
  8
0
 62
     0
 10
271.88479232230821
 20
11.146708015212029
 30
0.0
 11
264.3801350990837
 21
18.65136523843654
 31
0.0
  0
LINE
  5
2268
  8
0
 62
     0
 10
271.88479232230821
 20
9.0253876716523962
 30
0.0
 11
264.3801350990837
 21
16.530044894876909
 31
0.0
  0
LINE
  5
2269
  8
0
 62
     0
 10
271.88479232230821
 20
6.9040673280927631
 30
0.0
 11
264.3801350990837
 21
14.408724551317251
 31
0.0
  0
LINE
  5
226A
  8
0
 62
     0
 10
270.66753922575401
 20
6.000000081087248
 30
0.0
 11
264.3801350990837
 21
12.28740420775762
 31
0.0
  0
LINE
  5
226B
  8
0
 62
     0
 10
268.54621888219441
 20
6.000000081087248
 30
0.0
 11
264.3801350990837
 21
10.16608386419796
 31
0.0
  0
LINE
  5
226C
  8
0
 62
     0
 10
266.42489853863469
 20
6.000000081087248
 30
0.0
 11
264.3801350990837
 21
8.0447635206382984
 31
0.0
  0
LINE
  5
226D
  8
0
 62
     0
 10
310.9716592009251
 20
30.06147920696446
 30
0.0
 11
312.64980378270752
 21
31.739623788746911
 31
0.0
  0
LINE
  5
226E
  8
0
 62
     0
 10
308.85033885736539
 20
30.061479206964378
 30
0.0
 11
312.64980378270752
 21
33.86094413230655
 31
0.0
  0
LINE
  5
226F
  8
0
 62
     0
 10
306.72901851380573
 20
30.06147920696435
 30
0.0
 11
312.64980378270752
 21
35.982264475866209
 31
0.0
  0
LINE
  5
2270
  8
0
 62
     0
 10
305.13479232230821
 20
30.588573359026501
 30
0.0
 11
312.64980378270752
 21
38.103584819425848
 31
0.0
  0
LINE
  5
2271
  8
0
 62
     0
 10
305.13479232230821
 20
32.709893702586101
 30
0.0
 11
312.64980378270752
 21
40.224905162985451
 31
0.0
  0
LINE
  5
2272
  8
0
 62
     0
 10
305.13479232230821
 20
34.83121404614576
 30
0.0
 11
312.64980378270752
 21
42.346225506545117
 31
0.0
  0
LINE
  5
2273
  8
0
 62
     0
 10
305.13479232230821
 20
36.95253438970542
 30
0.0
 11
312.64980378270752
 21
44.467545850104763
 31
0.0
  0
LINE
  5
2274
  8
0
 62
     0
 10
305.13479232230821
 20
39.07385473326508
 30
0.0
 11
312.64980378270752
 21
46.588866193664373
 31
0.0
  0
LINE
  5
2275
  8
0
 62
     0
 10
305.13479232230821
 20
41.195175076824732
 30
0.0
 11
312.64980378270752
 21
48.710186537224047
 31
0.0
  0
LINE
  5
2276
  8
0
 62
     0
 10
269.93961732657073
 20
6.000000081087248
 30
0.0
 11
271.88479232230821
 21
7.9451750768246789
 31
0.0
  0
LINE
  5
2277
  8
0
 62
     0
 10
305.13479232230821
 20
43.316495420384342
 30
0.0
 11
312.64980378270752
 21
50.831506880783699
 31
0.0
  0
LINE
  5
2278
  8
0
 62
     0
 10
267.81829698301101
 20
6.000000081087248
 30
0.0
 11
271.88479232230821
 21
10.06649542038434
 31
0.0
  0
LINE
  5
2279
  8
0
 62
     0
 10
305.13479232230821
 20
45.437815763943988
 30
0.0
 11
312.64980378270752
 21
52.952827224343331
 31
0.0
  0
LINE
  5
227A
  8
0
 62
     0
 10
265.69697663945152
 20
6.0000000810872791
 30
0.0
 11
271.88479232230821
 21
12.18781576394397
 31
0.0
  0
LINE
  5
227B
  8
0
 62
     0
 10
305.13479232230821
 20
47.559136107503612
 30
0.0
 11
312.64980378270752
 21
55.074147567902962
 31
0.0
  0
LINE
  5
227C
  8
0
 62
     0
 10
264.3801350990837
 20
6.8044788842790922
 30
0.0
 11
271.88479232230821
 21
14.309136107503599
 31
0.0
  0
LINE
  5
227D
  8
0
 62
     0
 10
305.13479232230821
 20
49.680456451063293
 30
0.0
 11
312.64980378270752
 21
57.195467911462629
 31
0.0
  0
LINE
  5
227E
  8
0
 62
     0
 10
264.3801350990837
 20
8.9257992278387501
 30
0.0
 11
271.88479232230821
 21
16.430456451063261
 31
0.0
  0
LINE
  5
227F
  8
0
 62
     0
 10
305.13479232230821
 20
51.801776794622953
 30
0.0
 11
312.64980378270752
 21
59.31678825502226
 31
0.0
  0
LINE
  5
2280
  8
0
 62
     0
 10
264.3801350990837
 20
11.04711957139838
 30
0.0
 11
271.88479232230821
 21
18.551776794622882
 31
0.0
  0
LINE
  5
2281
  8
0
 62
     0
 10
305.13479232230821
 20
53.923097138182527
 30
0.0
 11
312.64980378270752
 21
61.438108598581877
 31
0.0
  0
LINE
  5
2282
  8
0
 62
     0
 10
264.3801350990837
 20
13.168439914958009
 30
0.0
 11
271.88479232230821
 21
20.673097138182499
 31
0.0
  0
LINE
  5
2283
  8
0
 62
     0
 10
305.13479232230821
 20
56.04441748174218
 30
0.0
 11
312.64980378270752
 21
63.559428942141537
 31
0.0
  0
LINE
  5
2284
  8
0
 62
     0
 10
264.3801350990837
 20
15.289760258517701
 30
0.0
 11
271.88479232230821
 21
22.794417481742158
 31
0.0
  0
LINE
  5
2285
  8
0
 62
     0
 10
305.13479232230821
 20
58.165737825301839
 30
0.0
 11
312.64980378270752
 21
65.680749285701211
 31
0.0
  0
LINE
  5
2286
  8
0
 62
     0
 10
264.3801350990837
 20
17.41108060207733
 30
0.0
 11
271.88479232230821
 21
24.915737825301829
 31
0.0
  0
LINE
  5
2287
  8
0
 62
     0
 10
305.13479232230821
 20
60.287058168861442
 30
0.0
 11
310.78625510865118
 21
65.938520955204581
 31
0.0
  0
LINE
  5
2288
  8
0
 62
     0
 10
264.3801350990837
 20
19.532400945636962
 30
0.0
 11
271.88479232230821
 21
27.03705816886146
 31
0.0
  0
LINE
  5
2289
  8
0
 62
     0
 10
305.13479232230821
 20
62.408378512421109
 30
0.0
 11
308.66493476509157
 21
65.938520955204581
 31
0.0
  0
LINE
  5
228A
  8
0
 62
     0
 10
264.3801350990837
 20
21.6537212891966
 30
0.0
 11
271.88479232230821
 21
29.158378512421081
 31
0.0
  0
LINE
  5
228B
  8
0
 62
     0
 10
305.13479232230821
 20
64.529698855980783
 30
0.0
 11
306.54361442153208
 21
65.938520955204638
 31
0.0
  0
LINE
  5
228C
  8
0
 62
     0
 10
264.3801350990837
 20
23.775041632756249
 30
0.0
 11
271.88479232230821
 21
31.279698855980769
 31
0.0
  0
LINE
  5
228D
  8
0
 62
     0
 10
264.3801350990837
 20
25.896361976315891
 30
0.0
 11
271.88479232230821
 21
33.4010191995404
 31
0.0
  0
LINE
  5
228E
  8
0
 62
     0
 10
264.3801350990837
 20
28.017682319875519
 30
0.0
 11
271.88479232230821
 21
35.52233954310001
 31
0.0
  0
LINE
  5
228F
  8
0
 62
     0
 10
264.3801350990837
 20
30.139002663435178
 30
0.0
 11
271.88479232230821
 21
37.643659886659691
 31
0.0
  0
LINE
  5
2290
  8
0
 62
     0
 10
264.3801350990837
 20
32.26032300699481
 30
0.0
 11
271.88479232230821
 21
39.764980230219351
 31
0.0
  0
LINE
  5
2291
  8
0
 62
     0
 10
264.3801350990837
 20
34.381643350554441
 30
0.0
 11
271.88479232230821
 21
41.886300573778961
 31
0.0
  0
LINE
  5
2292
  8
0
 62
     0
 10
264.3801350990837
 20
36.502963694114086
 30
0.0
 11
271.88479232230821
 21
44.007620917338592
 31
0.0
  0
LINE
  5
2293
  8
0
 62
     0
 10
264.3801350990837
 20
38.624284037673732
 30
0.0
 11
271.88479232230821
 21
46.128941260898237
 31
0.0
  0
LINE
  5
2294
  8
0
 62
     0
 10
264.3801350990837
 20
40.745604381233349
 30
0.0
 11
271.88479232230821
 21
48.250261604457847
 31
0.0
  0
LINE
  5
2295
  8
0
 62
     0
 10
264.3801350990837
 20
42.866924724793023
 30
0.0
 11
271.88479232230821
 21
50.371581948017507
 31
0.0
  0
LINE
  5
2296
  8
0
 62
     0
 10
264.3801350990837
 20
44.988245068352683
 30
0.0
 11
271.88479232230821
 21
52.492902291577167
 31
0.0
  0
LINE
  5
2297
  8
0
 62
     0
 10
264.3801350990837
 20
47.109565411912293
 30
0.0
 11
271.88479232230821
 21
54.614222635136819
 31
0.0
  0
LINE
  5
2298
  8
0
 62
     0
 10
264.3801350990837
 20
49.230885755471917
 30
0.0
 11
271.88479232230821
 21
56.735542978696422
 31
0.0
  0
LINE
  5
2299
  8
0
 62
     0
 10
264.3801350990837
 20
51.352206099031612
 30
0.0
 11
271.88479232230821
 21
58.856863322256103
 31
0.0
  0
LINE
  5
229A
  8
0
 62
     0
 10
264.3801350990837
 20
53.473526442591243
 30
0.0
 11
271.88479232230821
 21
60.978183665815749
 31
0.0
  0
LINE
  5
229B
  8
0
 62
     0
 10
264.3801350990837
 20
55.594846786150868
 30
0.0
 11
271.88479232230821
 21
63.099504009375352
 31
0.0
  0
LINE
  5
229C
  8
0
 62
     0
 10
264.3801350990837
 20
57.71616712971052
 30
0.0
 11
271.88479232230821
 21
65.220824352935011
 31
0.0
  0
LINE
  5
229D
  8
0
 62
     0
 10
264.3801350990837
 20
59.837487473270158
 30
0.0
 11
270.54264770689821
 21
66.000000081084693
 31
0.0
  0
LINE
  5
229E
  8
0
 62
     0
 10
264.3801350990837
 20
61.958807816829832
 30
0.0
 11
268.42132736333849
 21
66.000000081084693
 31
0.0
  0
LINE
  5
229F
  8
0
 62
     0
 10
264.3801350990837
 20
64.080128160389449
 30
0.0
 11
266.30000701977877
 21
66.00000008108465
 31
0.0
  0
ENDBLK
  5
22A1
  8
0
  0
BLOCK
  8
0
  2
*X3
 70
     1
 10
0.0
 20
0.0
 30
0.0
  3
*X3
  1

  0
LINE
  5
22A3
  8
0
 62
     0
 10
214.02706458519179
 20
55.12082217393651
 30
0.0
 11
204.616283830106
 21
64.531602929022213
 31
0.0
  0
LINE
  5
22A4
  8
0
 62
     0
 10
215.07677207895881
 20
51.949794336609742
 30
0.0
 11
201.47110360157171
 21
65.555462813996897
 31
0.0
  0
LINE
  5
22A5
  8
0
 62
     0
 10
215.8778641803091
 20
49.027381891699889
 30
0.0
 11
198.96536334761089
 21
65.939882724398032
 31
0.0
  0
LINE
  5
22A6
  8
0
 62
     0
 10
216.67895628165931
 20
46.104969446790022
 30
0.0
 11
196.797464091877
 21
65.986461636572329
 31
0.0
  0
LINE
  5
22A7
  8
0
 62
     0
 10
217.4800483830094
 20
43.18255700188017
 30
0.0
 11
194.85702593845929
 21
65.8055794464304
 31
0.0
  0
LINE
  5
22A8
  8
0
 62
     0
 10
218.2811404843597
 20
40.260144556970303
 30
0.0
 11
193.08898067995929
 21
65.452304361370707
 31
0.0
  0
LINE
  5
22A9
  8
0
 62
     0
 10
219.08223258570999
 20
37.337732112060451
 30
0.0
 11
191.46146121342471
 21
64.958503484345712
 31
0.0
  0
LINE
  5
22AA
  8
0
 62
     0
 10
219.8833246870602
 20
34.415319667150612
 30
0.0
 11
189.9544404639567
 21
64.34420389025405
 31
0.0
  0
LINE
  5
22AB
  8
0
 62
     0
 10
220.68441678841029
 20
31.492907222240749
 30
0.0
 11
188.55477325736359
 21
63.622550753287499
 31
0.0
  0
LINE
  5
22AC
  8
0
 62
     0
 10
221.48550888976061
 20
28.5704947773309
 30
0.0
 11
187.2537374327766
 21
62.802266234314921
 31
0.0
  0
LINE
  5
22AD
  8
0
 62
     0
 10
222.2866009911109
 20
25.648082332421001
 30
0.0
 11
186.0457177465282
 21
61.888965577003688
 31
0.0
  0
LINE
  5
22AE
  8
0
 62
     0
 10
223.087693092461
 20
22.72566988751117
 30
0.0
 11
184.9274828096286
 21
60.88588017034354
 31
0.0
  0
LINE
  5
22AF
  8
0
 62
     0
 10
223.88878519381129
 20
19.803257442601279
 30
0.0
 11
183.89781106996421
 21
59.794231566448389
 31
0.0
  0
LINE
  5
22B0
  8
0
 62
     0
 10
224.68987729516141
 20
16.880844997691479
 30
0.0
 11
182.9573572081338
 21
58.613365084719057
 31
0.0
  0
LINE
  5
22B1
  8
0
 62
     0
 10
225.4192451830281
 20
14.03015676626514
 30
0.0
 11
182.1087232161066
 21
57.340678733186678
 31
0.0
  0
LINE
  5
22B2
  8
0
 62
     0
 10
225.4111636602382
 20
11.916917945495429
 30
0.0
 11
181.35675296171311
 21
55.971328644020481
 31
0.0
  0
LINE
  5
22B3
  8
0
 62
     0
 10
224.93985465415949
 20
10.266906608014439
 30
0.0
 11
180.70913309566339
 21
54.497628166510538
 31
0.0
  0
LINE
  5
22B4
  8
0
 62
     0
 10
224.17593914585319
 20
8.9095017727611605
 30
0.0
 11
180.17749284613501
 21
52.907948072479279
 31
0.0
  0
LINE
  5
22B5
  8
0
 62
     0
 10
223.1724036961001
 20
7.7917168789546301
 30
0.0
 11
179.77943081475109
 21
51.184689760303563
 31
0.0
  0
LINE
  5
22B6
  8
0
 62
     0
 10
221.93786732010881
 20
6.9049329113862541
 30
0.0
 11
179.5424900178125
 21
49.300310213682543
 31
0.0
  0
LINE
  5
22B7
  8
0
 62
     0
 10
220.44462968658129
 20
6.276850201354077
 30
0.0
 11
179.51286720864701
 21
47.208612679288272
 31
0.0
  0
LINE
  5
22B8
  8
0
 62
     0
 10
218.59938794529461
 20
6.000771599081145
 30
0.0
 11
179.77824488284941
 21
44.821914661526272
 31
0.0
  0
LINE
  5
22B9
  8
0
 62
     0
 10
216.03046370435101
 20
6.4483754964651183
 30
0.0
 11
180.55035258227471
 21
41.928486618541449
 31
0.0
  0
LINE
  5
22BA
  8
0
 62
     0
 10
190.8011543463258
 20
29.556364510930681
 30
0.0
 11
182.92125812018861
 21
37.436260737067897
 31
0.0
  0
LINE
  5
22BB
  8
0
 62
     0
 10
220.2056930961806
 20
6.2121352696030501
 30
0.0
 11
225.283326548735
 21
11.289768722157421
 31
0.0
  0
LINE
  5
22BC
  8
0
 62
     0
 10
217.8977986059177
 20
6.0255611228996884
 30
0.0
 11
225.46990069543841
 21
13.59766321242043
 31
0.0
  0
LINE
  5
22BD
  8
0
 62
     0
 10
216.1540984463237
 20
6.4031813068654202
 30
0.0
 11
225.10766343972551
 21
15.356746300267149
 31
0.0
  0
LINE
  5
22BE
  8
0
 62
     0
 10
214.7291695231437
 20
7.099572727245044
 30
0.0
 11
224.65127270606411
 21
17.021675910165431
 31
0.0
  0
LINE
  5
22BF
  8
0
 62
     0
 10
213.55037433552499
 20
8.0420978831859848
 30
0.0
 11
224.1948819724027
 21
18.68660552006364
 31
0.0
  0
LINE
  5
22C0
  8
0
 62
     0
 10
212.46012169499471
 20
9.0731655862153104
 30
0.0
 11
223.73849123874129
 21
20.35153512996192
 31
0.0
  0
LINE
  5
22C1
  8
0
 62
     0
 10
211.36986905446429
 20
10.10423328924462
 30
0.0
 11
223.28210050507991
 21
22.016464739860179
 31
0.0
  0
LINE
  5
22C2
  8
0
 62
     0
 10
210.27961641393401
 20
11.135300992273921
 30
0.0
 11
222.8257097714185
 21
23.681394349758389
 31
0.0
  0
LINE
  5
22C3
  8
0
 62
     0
 10
209.1893637734037
 20
12.16636869530328
 30
0.0
 11
222.36931903775709
 21
25.346323959656679
 31
0.0
  0
LINE
  5
22C4
  8
0
 62
     0
 10
208.09911113287339
 20
13.197436398332551
 30
0.0
 11
221.91292830409569
 21
27.011253569554938
 31
0.0
  0
LINE
  5
22C5
  8
0
 62
     0
 10
207.00885849234299
 20
14.22850410136185
 30
0.0
 11
221.45653757043431
 21
28.67618317945313
 31
0.0
  0
LINE
  5
22C6
  8
0
 62
     0
 10
205.91860585181271
 20
15.259571804391181
 30
0.0
 11
221.00014683677301
 21
30.341112789351431
 31
0.0
  0
LINE
  5
22C7
  8
0
 62
     0
 10
204.8283532112824
 20
16.290639507420501
 30
0.0
 11
220.5437561031116
 21
32.006042399249708
 31
0.0
  0
LINE
  5
22C8
  8
0
 62
     0
 10
203.73810057075201
 20
17.321707210449809
 30
0.0
 11
220.08736536945011
 21
33.670972009147931
 31
0.0
  0
LINE
  5
22C9
  8
0
 62
     0
 10
202.6478479302217
 20
18.35277491347912
 30
0.0
 11
219.63097463578879
 21
35.33590161904619
 31
0.0
  0
LINE
  5
22CA
  8
0
 62
     0
 10
201.55759528969139
 20
19.383842616508439
 30
0.0
 11
219.17458390212741
 21
37.00083122894447
 31
0.0
  0
LINE
  5
22CB
  8
0
 62
     0
 10
200.467342649161
 20
20.414910319537729
 30
0.0
 11
218.718193168466
 21
38.665760838842672
 31
0.0
  0
LINE
  5
22CC
  8
0
 62
     0
 10
199.37709000863069
 20
21.445978022567079
 30
0.0
 11
218.26180243480451
 21
40.330690448740917
 31
0.0
  0
LINE
  5
22CD
  8
0
 62
     0
 10
198.28683736810041
 20
22.47704572559638
 30
0.0
 11
217.80541170114321
 21
41.995620058639219
 31
0.0
  0
LINE
  5
22CE
  8
0
 62
     0
 10
197.19658472757001
 20
23.508113428625659
 30
0.0
 11
217.34902096748181
 21
43.660549668537421
 31
0.0
  0
LINE
  5
22CF
  8
0
 62
     0
 10
196.10633208703959
 20
24.53918113165502
 30
0.0
 11
216.89263023382051
 21
45.325479278435701
 31
0.0
  0
LINE
  5
22D0
  8
0
 62
     0
 10
195.01607944650931
 20
25.570248834684321
 30
0.0
 11
216.4362395001591
 21
46.990408888333967
 31
0.0
  0
LINE
  5
22D1
  8
0
 62
     0
 10
193.925826805979
 20
26.601316537713618
 30
0.0
 11
215.9798487664977
 21
48.655338498232219
 31
0.0
  0
LINE
  5
22D2
  8
0
 62
     0
 10
192.83557416544869
 20
27.632384240742919
 30
0.0
 11
215.52345803283629
 21
50.32026810813047
 31
0.0
  0
LINE
  5
22D3
  8
0
 62
     0
 10
191.74532152491841
 20
28.66345194377223
 30
0.0
 11
215.06706729917491
 21
51.985197718028708
 31
0.0
  0
LINE
  5
22D4
  8
0
 62
     0
 10
190.65506888438799
 20
29.694519646801581
 30
0.0
 11
214.5918931412578
 21
53.631343903671286
 31
0.0
  0
LINE
  5
22D5
  8
0
 62
     0
 10
189.56481624385759
 20
30.72558734983086
 30
0.0
 11
214.0068345111751
 21
55.167605617148197
 31
0.0
  0
LINE
  5
22D6
  8
0
 62
     0
 10
188.4745636033274
 20
31.756655052860179
 30
0.0
 11
213.3115639308206
 21
56.593655380353319
 31
0.0
  0
LINE
  5
22D7
  8
0
 62
     0
 10
187.38431096279709
 20
32.78772275588949
 30
0.0
 11
212.51577348556091
 21
57.919185278653259
 31
0.0
  0
LINE
  5
22D8
  8
0
 62
     0
 10
186.29405832226681
 20
33.818790458918798
 30
0.0
 11
211.62578369236519
 21
59.150515829017209
 31
0.0
  0
LINE
  5
22D9
  8
0
 62
     0
 10
185.20380568173641
 20
34.849858161948148
 30
0.0
 11
210.64538666750551
 21
60.291439147717142
 31
0.0
  0
LINE
  5
22DA
  8
0
 62
     0
 10
184.1517940171729
 20
35.919166840944321
 30
0.0
 11
209.5762949773939
 21
61.343667801165182
 31
0.0
  0
LINE
  5
22DB
  8
0
 62
     0
 10
183.1884378716876
 20
37.07713103901861
 30
0.0
 11
208.4183307793196
 21
62.307023946650581
 31
0.0
  0
LINE
  5
22DC
  8
0
 62
     0
 10
182.31604174061681
 20
38.326055251507469
 30
0.0
 11
207.1694065668307
 21
63.179420077721332
 31
0.0
  0
LINE
  5
22DD
  8
0
 62
     0
 10
181.53883551667161
 20
39.670169371122
 30
0.0
 11
205.8252924472161
 21
63.956626301666432
 31
0.0
  0
LINE
  5
22DE
  8
0
 62
     0
 10
180.8637016824789
 20
41.116355880488811
 30
0.0
 11
204.3791059378494
 21
64.631760135859253
 31
0.0
  0
LINE
  5
22DF
  8
0
 62
     0
 10
180.30112015058731
 20
42.675094692156868
 30
0.0
 11
202.82036712618131
 21
65.194341667750891
 31
0.0
  0
LINE
  5
22E0
  8
0
 62
     0
 10
179.8668956637616
 20
44.362190548890808
 30
0.0
 11
201.13327126944739
 21
65.628566154576575
 31
0.0
  0
LINE
  5
22E1
  8
0
 62
     0
 10
179.58547765796911
 20
46.20209288665805
 30
0.0
 11
199.29336893168011
 21
65.909984160368964
 31
0.0
  0
LINE
  5
22E2
  8
0
 62
     0
 10
179.4969949219668
 20
48.234930494215398
 30
0.0
 11
197.26053132412281
 21
65.998466896371241
 31
0.0
  0
LINE
  5
22E3
  8
0
 62
     0
 10
179.67471573477161
 20
50.533971650579723
 30
0.0
 11
194.9614901677584
 21
65.82074608356659
 31
0.0
  0
LINE
  5
22E4
  8
0
 62
     0
 10
180.28191519567861
 20
53.262491455046529
 30
0.0
 11
192.2329703632916
 21
65.213546622659408
 31
0.0
  0
LINE
  5
22E5
  8
0
 62
     0
 10
181.91920855539041
 20
57.021105158317901
 30
0.0
 11
188.47435666002031
 21
63.576253262947681
 31
0.0
  0
ENDBLK
  5
22E7
  8
0
  0
BLOCK
  8
0
  2
*X4
 70
     1
 10
0.0
 20
0.0
 30
0.0
  3
*X4
  1

  0
LINE
  5
22E9
  8
0
 62
     0
 10
48.754657805045341
 20
65.796640747175374
 30
0.0
 11
48.551298471136363
 21
66.000000081084352
 31
0.0
  0
LINE
  5
22EA
  8
0
 62
     0
 10
48.754657805045333
 20
63.675320403615721
 30
0.0
 11
46.42997812757671
 21
66.000000081084352
 31
0.0
  0
LINE
  5
22EB
  8
0
 62
     0
 10
48.308657784016688
 20
62.000000081084721
 30
0.0
 11
44.308657784017051
 21
66.000000081084352
 31
0.0
  0
LINE
  5
22EC
  8
0
 62
     0
 10
46.187337440457028
 20
62.000000081084721
 30
0.0
 11
42.187337440457391
 21
66.000000081084352
 31
0.0
  0
LINE
  5
22ED
  8
0
 62
     0
 10
44.066017096897397
 20
62.000000081084721
 30
0.0
 11
41.250000581821368
 21
64.81601659616075
 31
0.0
  0
LINE
  5
22EE
  8
0
 62
     0
 10
41.944696753337773
 20
62.000000081084721
 30
0.0
 11
41.25000058182129
 21
62.694696252601183
 31
0.0
  0
LINE
  5
22EF
  8
0
 62
     0
 10
8.0000005818213449
 20
64.124891099206494
 30
0.0
 11
6.1248915999435312
 21
66.000000081084323
 31
0.0
  0
LINE
  5
22F0
  8
0
 62
     0
 10
8.0000005818212632
 20
62.003570755646962
 30
0.0
 11
4.0035712563838812
 21
66.000000081084323
 31
0.0
  0
LINE
  5
22F1
  8
0
 62
     0
 10
5.882250912823852
 20
62.000000081084721
 30
0.0
 11
1.882250912824228
 21
66.000000081084323
 31
0.0
  0
LINE
  5
22F2
  8
0
 62
     0
 10
3.7609305692642061
 20
62.000000081084707
 30
0.0
 11
0.4849891214219009
 21
65.275941528927007
 31
0.0
  0
LINE
  5
22F3
  8
0
 62
     0
 10
1.639610225704565
 20
62.000000081084721
 30
0.0
 11
0.4849891214219042
 21
63.154621185367368
 31
0.0
  0
LINE
  5
22F4
  8
0
 62
     0
 10
47.150757676167203
 20
62.000000081084707
 30
0.0
 11
48.754657805045333
 21
63.603900209962809
 31
0.0
  0
LINE
  5
22F5
  8
0
 62
     0
 10
45.029437332607593
 20
62.000000081084721
 30
0.0
 11
48.754657805045341
 21
65.725220553522462
 31
0.0
  0
LINE
  5
22F6
  8
0
 62
     0
 10
42.908116989047947
 20
62.000000081084721
 30
0.0
 11
46.908116989047578
 21
66.000000081084352
 31
0.0
  0
LINE
  5
22F7
  8
0
 62
     0
 10
41.250000581821283
 20
62.463204017417709
 30
0.0
 11
44.786796645487911
 21
66.000000081084352
 31
0.0
  0
LINE
  5
22F8
  8
0
 62
     0
 10
41.250000581821368
 20
64.584524360977426
 30
0.0
 11
42.665476301928287
 21
66.000000081084352
 31
0.0
  0
LINE
  5
22F9
  8
0
 62
     0
 10
6.8456711485340271
 20
62.000000081084728
 30
0.0
 11
8.0000005818213076
 21
63.154329514372009
 31
0.0
  0
LINE
  5
22FA
  8
0
 62
     0
 10
4.7243508049743772
 20
62.000000081084721
 30
0.0
 11
8.0000005818213893
 21
65.275649857931739
 31
0.0
  0
LINE
  5
22FB
  8
0
 62
     0
 10
2.6030304614147322
 20
62.000000081084728
 30
0.0
 11
6.6030304614143391
 21
66.000000081084323
 31
0.0
  0
LINE
  5
22FC
  8
0
 62
     0
 10
0.484989121421908
 20
62.003279084651538
 30
0.0
 11
4.4817101178547052
 21
66.000000081084352
 31
0.0
  0
LINE
  5
22FD
  8
0
 62
     0
 10
0.4849891214219009
 20
64.12459942821117
 30
0.0
 11
2.3603897742950681
 21
66.000000081084352
 31
0.0
  0
ENDBLK
  5
22FF
  8
0
  0
BLOCK
  8
0
  2
*X5
 70
     1
 10
0.0
 20
0.0
 30
0.0
  3
*X5
  1

  0
LINE
  5
2301
  8
0
 62
     0
 10
48.754657805045539
 20
234.9711828728382
 30
0.0
 11
48.426019568054258
 21
235.29982110982951
 31
0.0
  0
LINE
  5
2302
  8
0
 62
     0
 10
48.754657805045511
 20
232.8498625292786
 30
0.0
 11
46.304699224494613
 21
235.29982110982951
 31
0.0
  0
LINE
  5
2303
  8
0
 62
     0
 10
48.754657805045447
 20
230.72854218571899
 30
0.0
 11
44.183378880934967
 21
235.29982110982951
 31
0.0
  0
LINE
  5
2304
  8
0
 62
     0
 10
48.754657805045433
 20
228.60722184215939
 30
0.0
 11
42.06205853737535
 21
235.29982110982951
 31
0.0
  0
LINE
  5
2305
  8
0
 62
     0
 10
48.754657805045369
 20
226.4859014985999
 30
0.0
 11
41.250000581821048
 21
233.9905587218241
 31
0.0
  0
LINE
  5
2306
  8
0
 62
     0
 10
48.754657805045333
 20
224.3645811550401
 30
0.0
 11
41.250000581821233
 21
231.8692383782643
 31
0.0
  0
LINE
  5
2307
  8
0
 62
     0
 10
48.754657805045341
 20
222.24326081148061
 30
0.0
 11
41.250000581821297
 21
229.74791803470461
 31
0.0
  0
LINE
  5
2308
  8
0
 62
     0
 10
48.754657805045341
 20
220.12194046792101
 30
0.0
 11
41.250000581821261
 21
227.62659769114501
 31
0.0
  0
LINE
  5
2309
  8
0
 62
     0
 10
48.754657805045333
 20
218.00062012436121
 30
0.0
 11
41.250000581821261
 21
225.50527734758541
 31
0.0
  0
LINE
  5
230A
  8
0
 62
     0
 10
48.754657805045312
 20
215.87929978080169
 30
0.0
 11
41.250000581821261
 21
223.38395700402569
 31
0.0
  0
LINE
  5
230B
  8
0
 62
     0
 10
48.754657805045341
 20
213.757979437242
 30
0.0
 11
41.250000581821283
 21
221.26263666046609
 31
0.0
  0
LINE
  5
230C
  8
0
 62
     0
 10
48.754657805045341
 20
211.63665909368231
 30
0.0
 11
41.250000581821261
 21
219.14131631690651
 31
0.0
  0
LINE
  5
230D
  8
0
 62
     0
 10
48.754657805045333
 20
209.51533875012271
 30
0.0
 11
41.250000581821261
 21
217.01999597334679
 31
0.0
  0
LINE
  5
230E
  8
0
 62
     0
 10
48.754657805045341
 20
207.39401840656311
 30
0.0
 11
41.250000581821283
 21
214.89867562978719
 31
0.0
  0
LINE
  5
230F
  8
0
 62
     0
 10
48.754657805045333
 20
205.2726980630035
 30
0.0
 11
41.250000581821283
 21
212.7773552862275
 31
0.0
  0
LINE
  5
2310
  8
0
 62
     0
 10
48.754657805045333
 20
203.1513777194437
 30
0.0
 11
41.250000581821261
 21
210.6560349426679
 31
0.0
  0
LINE
  5
2311
  8
0
 62
     0
 10
48.754657805045333
 20
201.03005737588421
 30
0.0
 11
41.250000581821247
 21
208.53471459910821
 31
0.0
  0
LINE
  5
2312
  8
0
 62
     0
 10
48.754657805045333
 20
198.9087370323245
 30
0.0
 11
41.250000581821247
 21
206.41339425554861
 31
0.0
  0
LINE
  5
2313
  8
0
 62
     0
 10
48.754657805045341
 20
196.78741668876481
 30
0.0
 11
41.250000581821261
 21
204.29207391198881
 31
0.0
  0
LINE
  5
2314
  8
0
 62
     0
 10
48.754657805045333
 20
194.6660963452052
 30
0.0
 11
41.250000581821283
 21
202.17075356842929
 31
0.0
  0
LINE
  5
2315
  8
0
 62
     0
 10
48.754657805045341
 20
192.5447760016454
 30
0.0
 11
41.250000581821261
 21
200.0494332248696
 31
0.0
  0
LINE
  5
2316
  8
0
 62
     0
 10
48.754657805045341
 20
190.42345565808591
 30
0.0
 11
41.250000581821261
 21
197.92811288131
 31
0.0
  0
LINE
  5
2317
  8
0
 62
     0
 10
47.507926129457957
 20
189.54886699011371
 30
0.0
 11
41.250000581821283
 21
195.8067925377504
 31
0.0
  0
LINE
  5
2318
  8
0
 62
     0
 10
45.386605785898332
 20
189.54886699011359
 30
0.0
 11
41.250000581821297
 21
193.68547219419071
 31
0.0
  0
LINE
  5
2319
  8
0
 62
     0
 10
8.0000005818212951
 20
224.81415185063119
 30
0.0
 11
7.2652854423386648
 21
225.54886699011371
 31
0.0
  0
LINE
  5
231A
  8
0
 62
     0
 10
43.265285442338687
 20
189.54886699011359
 30
0.0
 11
41.250000581821283
 21
191.56415185063091
 31
0.0
  0
LINE
  5
231B
  8
0
 62
     0
 10
8.0000005818212792
 20
222.69283150707139
 30
0.0
 11
5.1439650987790051
 21
225.54886699011371
 31
0.0
  0
LINE
  5
231C
  8
0
 62
     0
 10
8.0000005818212632
 20
220.5715111635117
 30
0.0
 11
3.022644755219372
 21
225.54886699011371
 31
0.0
  0
LINE
  5
231D
  8
0
 62
     0
 10
8.0000005818212951
 20
218.4501908199521
 30
0.0
 11
0.9013244116597148
 21
225.54886699011371
 31
0.0
  0
LINE
  5
231E
  8
0
 62
     0
 10
8.0000005818212792
 20
216.3288704763925
 30
0.0
 11
0.4849891214219042
 21
223.84388193679189
 31
0.0
  0
LINE
  5
231F
  8
0
 62
     0
 10
8.0000005818212951
 20
214.20755013283289
 30
0.0
 11
0.4849891214219185
 21
221.7225615932322
 31
0.0
  0
LINE
  5
2320
  8
0
 62
     0
 10
8.0000005818212792
 20
212.0862297892732
 30
0.0
 11
0.4849891214219042
 21
219.6012412496726
 31
0.0
  0
LINE
  5
2321
  8
0
 62
     0
 10
8.0000005818212632
 20
209.9649094457136
 30
0.0
 11
0.4849891214219042
 21
217.47992090611299
 31
0.0
  0
LINE
  5
2322
  8
0
 62
     0
 10
8.0000005818212543
 20
207.84358910215391
 30
0.0
 11
0.4849891214219042
 21
215.35860056255331
 31
0.0
  0
LINE
  5
2323
  8
0
 62
     0
 10
8.0000005818212792
 20
205.72226875859431
 30
0.0
 11
0.4849891214218901
 21
213.2372802189937
 31
0.0
  0
LINE
  5
2324
  8
0
 62
     0
 10
8.0000005818212951
 20
203.60094841503451
 30
0.0
 11
0.4849891214219185
 21
211.1159598754341
 31
0.0
  0
LINE
  5
2325
  8
0
 62
     0
 10
8.0000005818212792
 20
201.47962807147499
 30
0.0
 11
0.4849891214219042
 21
208.99463953187441
 31
0.0
  0
LINE
  5
2326
  8
0
 62
     0
 10
8.0000005818212792
 20
199.3583077279153
 30
0.0
 11
0.4849891214219042
 21
206.8733191883147
 31
0.0
  0
LINE
  5
2327
  8
0
 62
     0
 10
8.0000005818212792
 20
197.2369873843557
 30
0.0
 11
0.4849891214219042
 21
204.75199884475509
 31
0.0
  0
LINE
  5
2328
  8
0
 62
     0
 10
8.0000005818212792
 20
195.1156670407961
 30
0.0
 11
0.4849891214218901
 21
202.6306785011954
 31
0.0
  0
LINE
  5
2329
  8
0
 62
     0
 10
8.0000005818212951
 20
192.99434669723641
 30
0.0
 11
0.4849891214219185
 21
200.5093581576358
 31
0.0
  0
LINE
  5
232A
  8
0
 62
     0
 10
8.0000005818212792
 20
190.87302635367669
 30
0.0
 11
0.4849891214219042
 21
198.388037814076
 31
0.0
  0
LINE
  5
232B
  8
0
 62
     0
 10
7.2028396018247332
 20
189.54886699011371
 30
0.0
 11
0.4849891214219042
 21
196.26671747051651
 31
0.0
  0
LINE
  5
232C
  8
0
 62
     0
 10
5.0815192582650894
 20
189.54886699011371
 30
0.0
 11
0.4849891214219042
 21
194.14539712695679
 31
0.0
  0
LINE
  5
232D
  8
0
 62
     0
 10
2.9601989147054582
 20
189.54886699011371
 30
0.0
 11
0.4849891214219042
 21
192.02407678339719
 31
0.0
  0
LINE
  5
232E
  8
0
 62
     0
 10
0.8388785711458124
 20
189.54886699011371
 30
0.0
 11
0.4849891214219185
 21
189.90275643983759
 31
0.0
  0
LINE
  5
232F
  8
0
 62
     0
 10
47.951489330725998
 20
189.54886699011371
 30
0.0
 11
48.754657805045298
 21
190.35203546443299
 31
0.0
  0
LINE
  5
2330
  8
0
 62
     0
 10
45.830168987166331
 20
189.54886699011371
 30
0.0
 11
48.754657805045312
 21
192.4733558079925
 31
0.0
  0
LINE
  5
2331
  8
0
 62
     0
 10
43.708848643606672
 20
189.54886699011359
 30
0.0
 11
48.754657805045312
 21
194.59467615155211
 31
0.0
  0
LINE
  5
2332
  8
0
 62
     0
 10
41.587528300047033
 20
189.54886699011359
 30
0.0
 11
48.754657805045333
 21
196.71599649511191
 31
0.0
  0
LINE
  5
2333
  8
0
 62
     0
 10
41.250000581821261
 20
191.33265961544751
 30
0.0
 11
48.754657805045333
 21
198.8373168386716
 31
0.0
  0
LINE
  5
2334
  8
0
 62
     0
 10
41.250000581821261
 20
193.45397995900711
 30
0.0
 11
48.754657805045312
 21
200.9586371822312
 31
0.0
  0
LINE
  5
2335
  8
0
 62
     0
 10
41.250000581821261
 20
195.5753003025668
 30
0.0
 11
48.754657805045298
 21
203.0799575257908
 31
0.0
  0
LINE
  5
2336
  8
0
 62
     0
 10
41.250000581821261
 20
197.69662064612641
 30
0.0
 11
48.754657805045333
 21
205.20127786935049
 31
0.0
  0
LINE
  5
2337
  8
0
 62
     0
 10
41.250000581821247
 20
199.81794098968601
 30
0.0
 11
48.754657805045312
 21
207.32259821291009
 31
0.0
  0
LINE
  5
2338
  8
0
 62
     0
 10
41.250000581821261
 20
201.9392613332457
 30
0.0
 11
48.754657805045312
 21
209.44391855646981
 31
0.0
  0
LINE
  5
2339
  8
0
 62
     0
 10
41.250000581821261
 20
204.06058167680541
 30
0.0
 11
48.754657805045298
 21
211.56523890002941
 31
0.0
  0
LINE
  5
233A
  8
0
 62
     0
 10
41.250000581821283
 20
206.1819020203651
 30
0.0
 11
48.754657805045312
 21
213.68655924358899
 31
0.0
  0
LINE
  5
233B
  8
0
 62
     0
 10
41.250000581821247
 20
208.3032223639247
 30
0.0
 11
48.754657805045312
 21
215.8078795871487
 31
0.0
  0
LINE
  5
233C
  8
0
 62
     0
 10
41.250000581821261
 20
210.42454270748431
 30
0.0
 11
48.754657805045298
 21
217.92919993070831
 31
0.0
  0
LINE
  5
233D
  8
0
 62
     0
 10
41.250000581821261
 20
212.54586305104391
 30
0.0
 11
48.754657805045333
 21
220.050520274268
 31
0.0
  0
LINE
  5
233E
  8
0
 62
     0
 10
41.250000581821247
 20
214.6671833946036
 30
0.0
 11
48.754657805045312
 21
222.1718406178276
 31
0.0
  0
LINE
  5
233F
  8
0
 62
     0
 10
41.250000581821261
 20
216.7885037381632
 30
0.0
 11
48.754657805045333
 21
224.29316096138729
 31
0.0
  0
LINE
  5
2340
  8
0
 62
     0
 10
41.250000581821261
 20
218.90982408172289
 30
0.0
 11
48.754657805045333
 21
226.41448130494689
 31
0.0
  0
LINE
  5
2341
  8
0
 62
     0
 10
41.250000581821283
 20
221.03114442528249
 30
0.0
 11
48.754657805045397
 21
228.53580164850669
 31
0.0
  0
LINE
  5
2342
  8
0
 62
     0
 10
41.250000581821247
 20
223.15246476884221
 30
0.0
 11
48.754657805045419
 21
230.65712199206621
 31
0.0
  0
LINE
  5
2343
  8
0
 62
     0
 10
7.6464028030928111
 20
189.54886699011371
 30
0.0
 11
8.0000005818212543
 21
189.90246476884209
 31
0.0
  0
LINE
  5
2344
  8
0
 62
     0
 10
41.250000581821261
 20
225.27378511240181
 30
0.0
 11
48.754657805045497
 21
232.7784423356261
 31
0.0
  0
LINE
  5
2345
  8
0
 62
     0
 10
5.5250824595331522
 20
189.54886699011371
 30
0.0
 11
8.0000005818212792
 21
192.02378511240181
 31
0.0
  0
LINE
  5
2346
  8
0
 62
     0
 10
41.250000581821283
 20
227.3951054559615
 30
0.0
 11
48.754657805045539
 21
234.8997626791857
 31
0.0
  0
LINE
  5
2347
  8
0
 62
     0
 10
3.4037621159735201
 20
189.54886699011371
 30
0.0
 11
8.0000005818212792
 21
194.14510545596141
 31
0.0
  0
LINE
  5
2348
  8
0
 62
     0
 10
41.250000581821247
 20
229.5164257995211
 30
0.0
 11
47.033395892129668
 21
235.29982110982951
 31
0.0
  0
LINE
  5
2349
  8
0
 62
     0
 10
1.282441772413859
 20
189.54886699011371
 30
0.0
 11
8.0000005818212543
 21
196.2664257995209
 31
0.0
  0
LINE
  5
234A
  8
0
 62
     0
 10
41.25000058182124
 20
231.6377461430807
 30
0.0
 11
44.912075548570037
 21
235.29982110982951
 31
0.0
  0
LINE
  5
234B
  8
0
 62
     0
 10
0.4849891214219042
 20
190.8727346826814
 30
0.0
 11
8.0000005818212792
 21
198.3877461430807
 31
0.0
  0
LINE
  5
234C
  8
0
 62
     0
 10
41.250000581820998
 20
233.75906648664011
 30
0.0
 11
42.790755205010413
 21
235.29982110982951
 31
0.0
  0
LINE
  5
234D
  8
0
 62
     0
 10
0.4849891214218901
 20
192.994055026241
 30
0.0
 11
8.0000005818212543
 21
200.50906648664039
 31
0.0
  0
LINE
  5
234E
  8
0
 62
     0
 10
0.4849891214219042
 20
195.1153753698006
 30
0.0
 11
8.0000005818212792
 21
202.6303868302
 31
0.0
  0
LINE
  5
234F
  8
0
 62
     0
 10
0.4849891214218901
 20
197.23669571336029
 30
0.0
 11
8.0000005818212632
 21
204.75170717375971
 31
0.0
  0
LINE
  5
2350
  8
0
 62
     0
 10
0.4849891214219042
 20
199.35801605691981
 30
0.0
 11
8.0000005818212543
 21
206.87302751731929
 31
0.0
  0
LINE
  5
2351
  8
0
 62
     0
 10
0.4849891214218758
 20
201.47933640047961
 30
0.0
 11
8.0000005818212792
 21
208.994347860879
 31
0.0
  0
LINE
  5
2352
  8
0
 62
     0
 10
0.4849891214219042
 20
203.60065674403921
 30
0.0
 11
8.0000005818212632
 21
211.11566820443861
 31
0.0
  0
LINE
  5
2353
  8
0
 62
     0
 10
0.4849891214219042
 20
205.7219770875989
 30
0.0
 11
8.0000005818212792
 21
213.23698854799821
 31
0.0
  0
LINE
  5
2354
  8
0
 62
     0
 10
0.4849891214219042
 20
207.8432974311585
 30
0.0
 11
8.0000005818212632
 21
215.3583088915579
 31
0.0
  0
LINE
  5
2355
  8
0
 62
     0
 10
0.4849891214219042
 20
209.96461777471811
 30
0.0
 11
8.0000005818212543
 21
217.4796292351175
 31
0.0
  0
LINE
  5
2356
  8
0
 62
     0
 10
0.4849891214218901
 20
212.0859381182778
 30
0.0
 11
8.0000005818212632
 21
219.60094957867719
 31
0.0
  0
LINE
  5
2357
  8
0
 62
     0
 10
0.4849891214218901
 20
214.2072584618374
 30
0.0
 11
8.0000005818212632
 21
221.72226992223679
 31
0.0
  0
LINE
  5
2358
  8
0
 62
     0
 10
0.4849891214219042
 20
216.32857880539709
 30
0.0
 11
8.0000005818212792
 21
223.84359026579651
 31
0.0
  0
LINE
  5
2359
  8
0
 62
     0
 10
0.4849891214218901
 20
218.44989914895669
 30
0.0
 11
7.5839569625788918
 21
225.54886699011371
 31
0.0
  0
LINE
  5
235A
  8
0
 62
     0
 10
0.4849891214219042
 20
220.57121949251641
 30
0.0
 11
5.462636619019233
 21
225.54886699011371
 31
0.0
  0
LINE
  5
235B
  8
0
 62
     0
 10
0.4849891214218901
 20
222.69253983607601
 30
0.0
 11
3.3413162754596031
 21
225.54886699011371
 31
0.0
  0
LINE
  5
235C
  8
0
 62
     0
 10
0.4849891214218901
 20
224.81386017963561
 30
0.0
 11
1.219995931899958
 21
225.54886699011371
 31
0.0
  0
ENDBLK
  5
235E
  8
0
  0
BLOCK
  8
0
  2
*X7
 70
     1
 10
0.0
 20
0.0
 30
0.0
  3
*X7
  1

  0
LINE
  5
253F
  8
0
 62
     0
 10
97.370461737253635
 20
113.10019715185111
 30
0.0
 11
165.74546173725361
 21
113.10019715185091
 31
0.0
  0
LINE
  5
2540
  8
0
 62
     0
 10
97.370461737253635
 20
114.60019715185111
 30
0.0
 11
165.74546173725361
 21
114.60019715185091
 31
0.0
  0
LINE
  5
2541
  8
0
 62
     0
 10
97.370461737253649
 20
116.10019715185111
 30
0.0
 11
165.74546173725369
 21
116.10019715185091
 31
0.0
  0
LINE
  5
2542
  8
0
 62
     0
 10
97.370461737253663
 20
117.60019715185111
 30
0.0
 11
165.74546173725369
 21
117.60019715185091
 31
0.0
  0
LINE
  5
2543
  8
0
 62
     0
 10
97.370461737253663
 20
119.10019715185111
 30
0.0
 11
165.74546173725369
 21
119.10019715185091
 31
0.0
  0
LINE
  5
2544
  8
0
 62
     0
 10
97.370461737253692
 20
120.60019715185111
 30
0.0
 11
165.74546173725369
 21
120.60019715185091
 31
0.0
  0
LINE
  5
2545
  8
0
 62
     0
 10
97.370461737253692
 20
122.10019715185111
 30
0.0
 11
165.74546173725369
 21
122.10019715185091
 31
0.0
  0
LINE
  5
2546
  8
0
 62
     0
 10
97.370461737253692
 20
123.60019715185111
 30
0.0
 11
165.74546173725369
 21
123.60019715185091
 31
0.0
  0
LINE
  5
2547
  8
0
 62
     0
 10
97.370461737253706
 20
125.10019715185111
 30
0.0
 11
165.74546173725369
 21
125.10019715185091
 31
0.0
  0
LINE
  5
2548
  8
0
 62
     0
 10
97.370461737253706
 20
126.60019715185111
 30
0.0
 11
165.74546173725369
 21
126.60019715185091
 31
0.0
  0
LINE
  5
2549
  8
0
 62
     0
 10
97.370461737253734
 20
128.10019715185109
 30
0.0
 11
165.74546173725369
 21
128.10019715185089
 31
0.0
  0
LINE
  5
254A
  8
0
 62
     0
 10
97.370461737253734
 20
129.60019715185109
 30
0.0
 11
165.74546173725369
 21
129.60019715185101
 31
0.0
  0
LINE
  5
254B
  8
0
 62
     0
 10
97.370461737253734
 20
131.10019715185109
 30
0.0
 11
165.74546173725369
 21
131.10019715185089
 31
0.0
  0
LINE
  5
254C
  8
0
 62
     0
 10
97.370461737253734
 20
132.60019715185109
 30
0.0
 11
165.74546173725369
 21
132.60019715185101
 31
0.0
  0
LINE
  5
254D
  8
0
 62
     0
 10
97.370461737253734
 20
134.10019715185109
 30
0.0
 11
165.74546173725369
 21
134.10019715185089
 31
0.0
  0
LINE
  5
254E
  8
0
 62
     0
 10
97.370461737253734
 20
135.60019715185109
 30
0.0
 11
165.74546173725369
 21
135.60019715185101
 31
0.0
  0
LINE
  5
254F
  8
0
 62
     0
 10
97.370461737253763
 20
137.10019715185109
 30
0.0
 11
165.74546173725369
 21
137.10019715185089
 31
0.0
  0
LINE
  5
2550
  8
0
 62
     0
 10
97.370461737253763
 20
138.60019715185109
 30
0.0
 11
165.74546173725369
 21
138.60019715185101
 31
0.0
  0
LINE
  5
2551
  8
0
 62
     0
 10
97.370461737253777
 20
140.10019715185109
 30
0.0
 11
165.74546173725381
 21
140.10019715185101
 31
0.0
  0
LINE
  5
2552
  8
0
 62
     0
 10
97.370461737253777
 20
141.60019715185109
 30
0.0
 11
165.74546173725381
 21
141.60019715185089
 31
0.0
  0
LINE
  5
2553
  8
0
 62
     0
 10
97.370461737253805
 20
143.10019715185109
 30
0.0
 11
165.74546173725381
 21
143.10019715185101
 31
0.0
  0
LINE
  5
2554
  8
0
 62
     0
 10
97.370461737253805
 20
144.60019715185109
 30
0.0
 11
165.74546173725381
 21
144.60019715185089
 31
0.0
  0
LINE
  5
2555
  8
0
 62
     0
 10
97.370461737253805
 20
146.10019715185109
 30
0.0
 11
165.74546173725381
 21
146.10019715185101
 31
0.0
  0
LINE
  5
2556
  8
0
 62
     0
 10
97.370461737253805
 20
147.60019715185109
 30
0.0
 11
165.74546173725381
 21
147.60019715185101
 31
0.0
  0
LINE
  5
2557
  8
0
 62
     0
 10
97.370461737253805
 20
149.10019715185109
 30
0.0
 11
165.74546173725381
 21
149.10019715185101
 31
0.0
  0
LINE
  5
2558
  8
0
 62
     0
 10
97.370461737253805
 20
150.60019715185109
 30
0.0
 11
165.74546173725381
 21
150.60019715185101
 31
0.0
  0
LINE
  5
2559
  8
0
 62
     0
 10
97.370461737253834
 20
152.10019715185109
 30
0.0
 11
165.74546173725389
 21
152.10019715185101
 31
0.0
  0
LINE
  5
255A
  8
0
 62
     0
 10
97.370461737253834
 20
153.60019715185109
 30
0.0
 11
165.74546173725381
 21
153.60019715185089
 31
0.0
  0
LINE
  5
255B
  8
0
 62
     0
 10
97.370461737253848
 20
155.10019715185109
 30
0.0
 11
165.74546173725389
 21
155.10019715185089
 31
0.0
  0
LINE
  5
255C
  8
0
 62
     0
 10
97.370461737253876
 20
156.60019715185109
 30
0.0
 11
165.74546173725389
 21
156.60019715185101
 31
0.0
  0
ENDBLK
  5
255E
  8
0
  0
ENDSEC
  0
SECTION
  2
ENTITIES
  0
LINE
  5
3E0
  8
0
 10
185.1274620680685
 20
34.922057422430903
 30
0.0
 11
213.68568408812621
 21
7.9141334916077053
 31
0.0
  0
LINE
  5
3E4
  8
0
 10
225.24641585696941
 20
14.850572552913601
 30
0.0
 11
214.85505804509401
 21
52.758615008646068
 31
0.0
  0
ARC
  5
403
  8
0
 10
218.49546173725389
 20
13.000000081084179
 30
0.0
 40
7.0
 50
226.5981403622479
 51
270.0
1001
ACAD
1000
ASC_BOUNDS
1002
{
1070
    19
1005
638
1002
}
  0
ARC
  5
404
  8
0
 10
218.49546173725389
 20
13.000000081084179
 30
0.0
 40
6.999999999999992
 50
270.0
 51
15.329372701898659
1001
ACAD
1000
ASC_BOUNDS
1002
{
1070
    19
1005
638
1002
}
  0
LINE
  5
408
  8
0
 10
185.1274620680685
 20
34.922057422430569
 30
0.0
 11
213.68568408812621
 21
7.9141334916073669
 31
0.0
1001
ACAD
1000
ASC_BOUNDS
1002
{
1070
    19
1005
638
1002
}
  0
LINE
  5
40C
  8
0
 10
225.24641585696941
 20
14.85057255291327
 30
0.0
 11
214.85505804509441
 21
52.758615008645712
 31
0.0
1001
ACAD
1000
ASC_BOUNDS
1002
{
1070
    19
1005
638
1002
}
  0
ARC
  5
429
  8
0
 10
197.49546173725389
 20
48.000000081084309
 30
0.0
 40
18.0
 50
90.0
 51
226.5981403622479
1001
ACAD
1000
ASC_BOUNDS
1002
{
1070
    19
1005
638
1002
}
  0
ARC
  5
42A
  8
0
 10
197.49546173725389
 20
48.000000081084309
 30
0.0
 40
17.999999999999979
 50
15.3293727018987
 51
90.0
1001
ACAD
1000
ASC_BOUNDS
1002
{
1070
    19
1005
638
1002
}
  0
LINE
  5
42D
  8
0
 10
167.37046173725361
 20
62.000000081084721
 30
0.0
 11
167.37046173725361
 21
6.0000000810863421
 31
0.0
  0
LINE
  5
42E
  8
0
 10
95.745461737253635
 20
6.0000000810863421
 30
0.0
 11
95.745461737253635
 21
62.000000081084721
 31
0.0
  0
LINE
  5
42F
  8
0
 10
167.37046173725361
 20
6.0000000810863421
 30
0.0
 11
95.745461737253635
 21
6.0000000810863421
 31
0.0
  0
LINE
  5
430
  8
0
 10
95.745461737253635
 20
62.000000081084721
 30
0.0
 11
167.37046173725361
 21
62.000000081084721
 31
0.0
  0
LINE
  5
431
  8
0
 10
170.37046173725381
 20
6.000000081083587
 30
0.0
 11
197.49546173725389
 21
10.77537696788545
 31
0.0
  0
ARC
  5
432
  8
0
 10
194.49546173725381
 20
40.625000081084067
 30
0.0
 40
30.000000000000011
 50
275.7391704772615
 51
295.91139169256178
  0
ARC
  5
433
  8
0
 10
194.49546173725381
 20
40.625000081084067
 30
0.0
 40
30.000000000000011
 50
334.95256645166438
 51
114.07907070550461
  0
LINE
  5
434
  8
0
 10
182.25555208454759
 20
68.014498281919884
 30
0.0
 11
167.37046173725381
 21
56.000000081083982
 31
0.0
  0
LINE
  5
435
  8
0
 10
95.745461737253876
 20
0.0000000810830159
 30
0.0
 11
95.745461737253635
 21
6.0000000810854353
 31
0.0
  0
LINE
  5
436
  8
0
 10
227.49546173725349
 20
6.0000000810872551
 30
0.0
 11
227.49546173725389
 21
0.0000000810848366
 31
0.0
  0
LINE
  5
437
  8
0
 10
95.745461737253876
 20
0.0000000810830159
 30
0.0
 11
227.49546173725389
 21
0.0000000810848375
 31
0.0
  0
LINE
  5
438
  8
0
 10
227.49546173725349
 20
6.0000000810872551
 30
0.0
 11
95.745461737253635
 21
6.0000000810854353
 31
0.0
  0
ARC
  5
439
  8
0
 10
131.5579617372548
 20
44.000000081082767
 30
0.0
 40
8.2500000000000036
 50
179.99999999999969
 51
359.99999999999881
  0
ARC
  5
43A
  8
0
 10
131.5579617372548
 20
44.000000081082767
 30
0.0
 40
8.2500000000000089
 50
359.9999999999996
 51
179.99999999999969
  0
ARC
  5
43B
  8
0
 10
131.5579617372548
 20
44.000000081082767
 30
0.0
 40
7.6874999999999929
 50
0.0000000000007633
 51
180.0000000000002
  0
ARC
  5
43C
  8
0
 10
131.5579617372548
 20
44.000000081082767
 30
0.0
 40
7.6874999999999929
 50
180.0000000000002
 51
0.0000000000000509
  0
LINE
  5
43D
  8
0
 10
136.68046251124269
 20
41.5581442322854
 30
0.0
 11
136.4855220350521
 21
41.109235502126673
 31
0.0
  0
LINE
  5
43E
  8
0
 10
136.4855220350521
 20
41.109235502126673
 30
0.0
 11
136.03462917790921
 21
40.951993438634609
 31
0.0
  0
LINE
  5
43F
  8
0
 10
136.03462917790921
 20
40.951993438634609
 30
0.0
 11
135.710100408068
 21
41.016229549745717
 31
0.0
  0
LINE
  5
440
  8
0
 10
135.710100408068
 20
41.016229549745717
 30
0.0
 11
135.4746093366395
 21
41.208937883079031
 31
0.0
  0
LINE
  5
441
  8
0
 10
135.4746093366395
 20
41.208937883079031
 30
0.0
 11
135.2836371144171
 21
41.966874391015558
 31
0.0
  0
LINE
  5
442
  8
0
 10
135.2836371144171
 20
41.966874391015558
 30
0.0
 11
135.46766489219499
 21
42.730763279904451
 31
0.0
  0
LINE
  5
443
  8
0
 10
135.46766489219499
 20
42.730763279904451
 30
0.0
 11
135.69745159854409
 21
42.92049542276159
 31
0.0
  0
LINE
  5
444
  8
0
 10
135.69745159854409
 20
42.92049542276159
 30
0.0
 11
136.0187561620362
 21
42.983739470380627
 31
0.0
  0
LINE
  5
445
  8
0
 10
136.0187561620362
 20
42.983739470380627
 30
0.0
 11
136.48701013029
 21
42.840386295777463
 31
0.0
  0
LINE
  5
446
  8
0
 10
136.48701013029
 20
42.840386295777463
 30
0.0
 11
136.68046251124269
 21
42.415287089428247
 31
0.0
  0
LINE
  5
447
  8
0
 10
136.68046251124269
 20
42.415287089428247
 30
0.0
 11
137.82331965409969
 21
42.415287089428247
 31
0.0
  0
LINE
  5
448
  8
0
 10
137.82331965409969
 20
42.415287089428247
 30
0.0
 11
137.66310140013161
 21
43.06298054180921
 31
0.0
  0
LINE
  5
449
  8
0
 10
137.66310140013161
 20
43.06298054180921
 30
0.0
 11
137.29554187632201
 21
43.541775184666342
 31
0.0
  0
LINE
  5
44A
  8
0
 10
137.29554187632201
 20
43.541775184666342
 30
0.0
 11
136.73651409854409
 21
43.83753411323778
 31
0.0
  0
LINE
  5
44B
  8
0
 10
136.73651409854409
 20
43.83753411323778
 30
0.0
 11
136.00189108267111
 21
43.936120422761583
 31
0.0
  0
LINE
  5
44C
  8
0
 10
136.00189108267111
 20
43.936120422761583
 30
0.0
 11
135.20390001124269
 21
43.80417597831714
 31
0.0
  0
LINE
  5
44D
  8
0
 10
135.20390001124269
 20
43.80417597831714
 30
0.0
 11
134.59365695568701
 21
43.408342644983819
 31
0.0
  0
LINE
  5
44E
  8
0
 10
134.59365695568701
 20
43.408342644983819
 30
0.0
 11
134.20638016997279
 21
42.784334708475882
 31
0.0
  0
LINE
  5
44F
  8
0
 10
134.20638016997279
 20
42.784334708475882
 30
0.0
 11
134.077287908068
 21
41.9678664545076
 31
0.0
  0
LINE
  5
450
  8
0
 10
134.077287908068
 20
41.9678664545076
 30
0.0
 11
134.20700020965521
 21
41.149538081491741
 31
0.0
  0
LINE
  5
451
  8
0
 10
134.20700020965521
 20
41.149538081491741
 30
0.0
 11
134.5961371144171
 21
40.52590216879333
 31
0.0
  0
LINE
  5
452
  8
0
 10
134.5961371144171
 20
40.52590216879333
 30
0.0
 11
135.21146449536971
 21
40.131184906888571
 31
0.0
  0
LINE
  5
453
  8
0
 10
135.21146449536971
 20
40.131184906888571
 30
0.0
 11
136.01974822552819
 21
39.99961248625366
 31
0.0
  0
LINE
  5
454
  8
0
 10
136.01974822552819
 20
39.99961248625366
 30
0.0
 11
136.7428385033061
 21
40.101795025936198
 31
0.0
  0
LINE
  5
455
  8
0
 10
136.7428385033061
 20
40.101795025936198
 30
0.0
 11
137.29901409854409
 21
40.408342644983811
 31
0.0
  0
LINE
  5
456
  8
0
 10
137.29901409854409
 20
40.408342644983811
 30
0.0
 11
137.6664496144171
 21
40.900158121174279
 31
0.0
  0
LINE
  5
457
  8
0
 10
137.6664496144171
 20
40.900158121174279
 30
0.0
 11
137.82331965409969
 21
41.5581442322854
 31
0.0
  0
LINE
  5
458
  8
0
 10
137.82331965409969
 20
41.5581442322854
 30
0.0
 11
136.68046251124269
 21
41.5581442322854
 31
0.0
  0
LINE
  5
459
  8
0
 10
129.45873513347479
 20
42.332218421208601
 30
0.0
 11
130.63631449855441
 21
42.332218421208601
 31
0.0
  0
LINE
  5
45A
  8
0
 10
130.63631449855441
 20
42.332218421208601
 30
0.0
 11
130.78313989537969
 21
42.840154929145108
 31
0.0
  0
LINE
  5
45B
  8
0
 10
130.78313989537969
 20
42.840154929145108
 30
0.0
 11
131.9865129112527
 21
42.840154929145108
 31
0.0
  0
LINE
  5
45C
  8
0
 10
131.9865129112527
 20
42.840154929145108
 30
0.0
 11
132.12837799061771
 21
42.332218421208601
 31
0.0
  0
LINE
  5
45D
  8
0
 10
132.12837799061771
 20
42.332218421208601
 30
0.0
 11
133.33175100649069
 21
42.332218421208601
 31
0.0
  0
LINE
  5
45E
  8
0
 10
133.33175100649069
 20
42.332218421208601
 30
0.0
 11
132.00238592712569
 21
46.141742230732397
 31
0.0
  0
LINE
  5
45F
  8
0
 10
132.00238592712569
 20
46.141742230732397
 30
0.0
 11
130.7732192604592
 21
46.141742230732397
 31
0.0
  0
LINE
  5
460
  8
0
 10
130.7732192604592
 20
46.141742230732397
 30
0.0
 11
129.45873513347479
 21
42.332218421208601
 31
0.0
  0
LINE
  5
461
  8
0
 10
131.00337799061771
 20
43.66555175454193
 30
0.0
 11
131.3892906890305
 21
44.969123183113354
 31
0.0
  0
LINE
  5
462
  8
0
 10
131.3892906890305
 20
44.969123183113354
 30
0.0
 11
131.7662748160146
 21
43.66555175454193
 31
0.0
  0
LINE
  5
463
  8
0
 10
131.7662748160146
 20
43.66555175454193
 30
0.0
 11
131.00337799061771
 21
43.66555175454193
 31
0.0
  0
LINE
  5
464
  8
0
 10
125.69800394321349
 20
44.072606730388848
 30
0.0
 11
127.39740870511829
 21
44.072606730388848
 31
0.0
  0
LINE
  5
465
  8
0
 10
127.39740870511829
 20
44.072606730388848
 30
0.0
 11
128.16526584797541
 21
44.11129720657933
 31
0.0
  0
LINE
  5
466
  8
0
 10
128.16526584797541
 20
44.11129720657933
 30
0.0
 11
128.57796426067401
 21
44.24324165102378
 31
0.0
  0
LINE
  5
467
  8
0
 10
128.57796426067401
 20
44.24324165102378
 30
0.0
 11
128.98619838765811
 21
44.626178158960279
 31
0.0
  0
LINE
  5
468
  8
0
 10
128.98619838765811
 20
44.626178158960279
 30
0.0
 11
129.12657537178501
 21
45.213479746261861
 31
0.0
  0
LINE
  5
469
  8
0
 10
129.12657537178501
 20
45.213479746261861
 30
0.0
 11
128.98272616543571
 21
45.776475778007907
 31
0.0
  0
LINE
  5
46A
  8
0
 10
128.98272616543571
 20
45.776475778007907
 30
0.0
 11
128.5392737844833
 21
46.101376571658697
 31
0.0
  0
LINE
  5
46B
  8
0
 10
128.5392737844833
 20
46.101376571658697
 30
0.0
 11
128.8845118797214
 21
46.418836889118992
 31
0.0
  0
LINE
  5
46C
  8
0
 10
128.8845118797214
 20
46.418836889118992
 30
0.0
 11
128.99959124480091
 21
46.871217841499941
 31
0.0
  0
LINE
  5
46D
  8
0
 10
128.99959124480091
 20
46.871217841499941
 30
0.0
 11
128.845821403531
 21
47.431237682769812
 31
0.0
  0
LINE
  5
46E
  8
0
 10
128.845821403531
 20
47.431237682769812
 30
0.0
 11
128.40336108607059
 21
47.771019428801573
 31
0.0
  0
LINE
  5
46F
  8
0
 10
128.40336108607059
 20
47.771019428801573
 30
0.0
 11
128.00802378448341
 21
47.856336889119021
 31
0.0
  0
LINE
  5
470
  8
0
 10
128.00802378448341
 20
47.856336889119021
 30
0.0
 11
127.27439283210239
 21
47.882130539912652
 31
0.0
  0
LINE
  5
471
  8
0
 10
127.27439283210239
 20
47.882130539912652
 30
0.0
 11
125.69800394321349
 21
47.88213053991268
 31
0.0
  0
LINE
  5
472
  8
0
 10
125.69800394321349
 20
47.88213053991268
 30
0.0
 11
125.69800394321349
 21
44.072606730388848
 31
0.0
  0
LINE
  5
473
  8
0
 10
126.9043531495626
 20
44.961495619277741
 30
0.0
 11
126.9043531495626
 21
45.659908317690437
 31
0.0
  0
LINE
  5
474
  8
0
 10
126.9043531495626
 20
45.659908317690437
 30
0.0
 11
127.45296426067399
 21
45.659908317690437
 31
0.0
  0
LINE
  5
475
  8
0
 10
127.45296426067399
 20
45.659908317690437
 30
0.0
 11
127.8621904511501
 21
45.580543238325369
 31
0.0
  0
LINE
  5
476
  8
0
 10
127.8621904511501
 20
45.580543238325369
 30
0.0
 11
127.9837182289279
 21
45.313678158960279
 31
0.0
  0
LINE
  5
477
  8
0
 10
127.9837182289279
 20
45.313678158960279
 30
0.0
 11
127.86467060988021
 21
45.043836889119021
 31
0.0
  0
LINE
  5
478
  8
0
 10
127.86467060988021
 20
45.043836889119021
 30
0.0
 11
127.46387695908651
 21
44.961495619277741
 31
0.0
  0
LINE
  5
479
  8
0
 10
127.46387695908651
 20
44.961495619277741
 30
0.0
 11
126.9043531495626
 21
44.961495619277741
 31
0.0
  0
LINE
  5
47A
  8
0
 10
126.9043531495626
 20
46.35832101610314
 30
0.0
 11
126.9043531495626
 21
46.993241651023773
 31
0.0
  0
LINE
  5
47B
  8
0
 10
126.9043531495626
 20
46.993241651023773
 30
0.0
 11
127.2386785463882
 21
46.993241651023773
 31
0.0
  0
LINE
  5
47C
  8
0
 10
127.2386785463882
 20
46.993241651023773
 30
0.0
 11
127.7471110860706
 21
46.925781333563442
 31
0.0
  0
LINE
  5
47D
  8
0
 10
127.7471110860706
 20
46.925781333563442
 30
0.0
 11
127.8567341019436
 21
46.675781333563457
 31
0.0
  0
LINE
  5
47E
  8
0
 10
127.8567341019436
 20
46.675781333563457
 30
0.0
 11
127.7545515622612
 21
46.43074165102378
 31
0.0
  0
LINE
  5
47F
  8
0
 10
127.7545515622612
 20
46.43074165102378
 30
0.0
 11
127.4023690225785
 21
46.35832101610314
 31
0.0
  0
LINE
  5
480
  8
0
 10
127.4023690225785
 20
46.35832101610314
 30
0.0
 11
126.9043531495626
 21
46.35832101610314
 31
0.0
  0
ARC
  5
481
  8
0
 10
131.55796173725429
 20
44.000000081083407
 30
0.0
 40
9.0000000000000089
 50
179.99999999999969
 51
359.99999999999881
  0
ARC
  5
482
  8
0
 10
131.55796173725429
 20
44.000000081083407
 30
0.0
 40
9.0000000000000195
 50
359.9999999999996
 51
179.99999999999969
  0
LINE
  5
483
  8
0
 10
92.745461737253876
 20
1.0625000810844081
 30
0.0
 11
95.745461737253876
 21
1.0625000810844081
 31
0.0
  0
LINE
  5
484
  8
0
 10
95.745461737253436
 20
7.0625000810842362
 30
0.0
 11
92.745461737253876
 21
7.0625000810842362
 31
0.0
  0
LINE
  5
485
  8
0
 10
92.745461737253436
 20
45.75000008108433
 30
0.0
 11
95.745461737253436
 21
45.75000008108433
 31
0.0
  0
LINE
  5
486
  8
0
 10
95.745461737253436
 20
51.750000081084501
 30
0.0
 11
92.745461737253436
 21
51.750000081084501
 31
0.0
  0
LINE
  5
487
  8
0
 10
92.745461737253649
 20
4.0625000810842931
 30
0.0
 11
92.745461737253649
 21
4.8389572163918571
 31
0.0
  0
LINE
  5
488
  8
0
 10
92.745461737253649
 20
4.8389572742753151
 30
0.0
 11
92.745461737253649
 21
6.1838201258082881
 31
0.0
  0
LINE
  5
489
  8
0
 10
92.745461737253649
 20
6.1838204246439359
 30
0.0
 11
92.745461737253649
 21
6.6605760085492731
 31
0.0
  0
LINE
  5
48A
  8
0
 10
92.745461737253649
 20
6.6605762924376144
 30
0.0
 11
92.745461737253649
 21
7.0625000810843028
 31
0.0
  0
LINE
  5
48B
  8
0
 10
92.745461737253649
 20
1.062500081084307
 30
0.0
 11
92.745461737253649
 21
1.464423869730989
 31
0.0
  0
LINE
  5
48C
  8
0
 10
92.745461737253649
 20
1.464423883592417
 30
0.0
 11
92.745461737253649
 21
1.94117964095137
 31
0.0
  0
LINE
  5
48D
  8
0
 10
92.745461737253649
 20
1.94117973752466
 30
0.0
 11
92.745461737253649
 21
4.0624999605021559
 31
0.0
  0
LINE
  5
48E
  8
0
 10
92.745461737253649
 20
48.750000081084288
 30
0.0
 11
92.745461737253649
 21
49.526457216391861
 31
0.0
  0
LINE
  5
48F
  8
0
 10
92.745461737253649
 20
49.526458899161021
 30
0.0
 11
92.745461737253649
 21
50.871320424643933
 31
0.0
  0
LINE
  5
490
  8
0
 10
92.745461737253649
 20
50.871323090195013
 30
0.0
 11
92.745461737253649
 21
51.348076292437618
 31
0.0
  0
LINE
  5
491
  8
0
 10
92.745461737253649
 20
51.348078340036302
 30
0.0
 11
92.745461737253649
 21
51.750000081084309
 31
0.0
  0
LINE
  5
492
  8
0
 10
92.745461737253649
 20
45.750000081084309
 30
0.0
 11
92.745461737253649
 21
45.852220549670683
 31
0.0
  0
LINE
  5
493
  8
0
 10
92.745461737253649
 20
45.852222602217083
 30
0.0
 11
92.745461737253649
 21
46.151923869731
 31
0.0
  0
LINE
  5
494
  8
0
 10
92.745461737253649
 20
46.151924939151833
 30
0.0
 11
92.745461737253649
 21
46.628679737524678
 31
0.0
  0
LINE
  5
495
  8
0
 10
92.745461737253649
 20
46.628680249467891
 30
0.0
 11
92.745461737253649
 21
48.750000081084288
 31
0.0
  0
ARC
  5
496
  8
0
 10
126.3704617372539
 20
20.000000081084181
 30
0.0
 40
0.5000000000000036
 50
0.0
 51
180.0
  0
ARC
  5
497
  8
0
 10
126.3704617372539
 20
20.000000081084181
 30
0.0
 40
0.5000000000000056
 50
180.0000000000002
 51
359.99999999999937
  0
ARC
  5
498
  8
0
 10
140.37046173725381
 20
11.625000081084179
 30
0.0
 40
1.0000000000000031
 50
359.9999999999992
 51
179.9999999999994
  0
ARC
  5
499
  8
0
 10
140.37046173725381
 20
11.625000081084179
 30
0.0
 40
0.9999999999999992
 50
180.0000000000004
 51
359.99999999999949
  0
ARC
  5
49A
  8
0
 10
157.49546173725381
 20
2.6250000810841789
 30
0.0
 40
1.0000000000000011
 50
359.9999999999992
 51
179.9999999999994
  0
ARC
  5
49B
  8
0
 10
157.49546173725381
 20
2.6250000810841789
 30
0.0
 40
0.9999999999999992
 50
180.0000000000004
 51
359.99999999999949
  0
CIRCLE
  5
4A7
  8
0
 10
151.30796173725381
 20
20.625000081084181
 30
0.0
 40
8.4999999999999876
  0
LINE
  5
4A9
  8
0
 10
264.3801350990837
 20
14.85057662357047
 30
0.0
 11
264.3801350990837
 21
52.418741307280321
 31
0.0
  0
LINE
  5
4AA
  8
0
 10
264.3801350990837
 20
52.45191689697436
 30
0.0
 11
264.3801350990837
 21
52.758615008646068
 31
0.0
  0
LINE
  5
4AB
  8
0
 10
271.88479232230821
 20
27.929413589063319
 30
0.0
 11
271.88479232230821
 21
14.850576623570459
 31
0.0
  0
LINE
  5
4AE
  8
0
 10
312.64980378270712
 20
48.000000081084622
 30
0.0
 11
312.64980378270712
 21
42.155410819542297
 31
0.0
  0
LINE
  5
4AF
  8
0
 10
312.64980378270712
 20
42.155409635400332
 30
0.0
 11
312.64980378270712
 21
36.944171945286953
 31
0.0
  0
LINE
  5
4B0
  8
0
 10
312.64980378270712
 20
36.944171252670628
 30
0.0
 11
312.64980378270712
 21
34.756969688968269
 31
0.0
  0
LINE
  5
4B1
  8
0
 10
312.64980378270712
 20
34.756968463977252
 30
0.0
 11
312.64980378270712
 21
31.51608020129359
 31
0.0
  0
LINE
  5
4B2
  8
0
 10
312.64980378270712
 20
31.516078750672438
 30
0.0
 11
312.64980378270712
 21
30.06147920696451
 31
0.0
  0
LINE
  5
4B4
  8
0
 10
312.64980378270712
 20
65.938520955204623
 30
0.0
 11
312.64980378270712
 21
65.44920862924522
 31
0.0
  0
LINE
  5
4B5
  8
0
 10
312.64980378270712
 20
65.449204867992492
 30
0.0
 11
312.64980378270712
 21
64.4839214114957
 31
0.0
  0
LINE
  5
4B6
  8
0
 10
312.64980378270712
 20
64.483919960875596
 30
0.0
 11
312.64980378270712
 21
59.055828909498622
 31
0.0
  0
LINE
  5
4B7
  8
0
 10
312.64980378270712
 20
59.055828216881601
 30
0.0
 11
312.64980378270712
 21
53.844590526768897
 31
0.0
  0
LINE
  5
4B8
  8
0
 10
312.64980378270712
 20
53.84458934262593
 30
0.0
 11
312.64980378270712
 21
50.96270380606294
 31
0.0
  0
LINE
  5
4B9
  8
0
 10
312.64980378270712
 20
50.96270270613779
 30
0.0
 11
312.64980378270712
 21
48.000000081084622
 31
0.0
  0
LINE
  5
4BA
  8
0
 10
285.8847923223081
 20
16.000000081084291
 30
0.0
 11
271.88479232230821
 21
16.000000081084291
 31
0.0
  0
LINE
  5
4BB
  8
0
 10
271.88479232230821
 20
6.0000000810842709
 30
0.0
 11
271.88479232230821
 21
6.1703709496389294
 31
0.0
  0
LINE
  5
4BC
  8
0
 10
285.8847923223081
 20
16.000000081084242
 30
0.0
 11
285.8847923223081
 21
15.829629788792291
 31
0.0
  0
LINE
  5
4BD
  8
0
 10
285.8847923223081
 20
15.829629212529589
 30
0.0
 11
285.8847923223081
 21
15.330128013472869
 31
0.0
  0
LINE
  5
4BE
  8
0
 10
285.8847923223081
 20
15.33012710000645
 30
0.0
 11
285.8847923223081
 21
14.53553454141964
 31
0.0
  0
LINE
  5
4BF
  8
0
 10
285.8847923223081
 20
14.535533987017001
 30
0.0
 11
285.8847923223081
 21
12.29409530659688
 31
0.0
  0
LINE
  5
4C0
  8
0
 10
285.8847923223081
 20
12.294094658831151
 30
0.0
 11
285.8847923223081
 21
11.000000322248111
 31
0.0
  0
LINE
  5
4C1
  8
0
 10
285.8847923223081
 20
11.000000081084281
 30
0.0
 11
285.8847923223081
 21
9.705904855571676
 31
0.0
  0
LINE
  5
4C2
  8
0
 10
285.8847923223081
 20
9.7059045507801152
 30
0.0
 11
285.8847923223081
 21
8.5000000810842753
 31
0.0
  0
LINE
  5
4C3
  8
0
 10
285.8847923223081
 20
8.4999998200814222
 30
0.0
 11
285.8847923223081
 21
6.669873062162071
 31
0.0
  0
LINE
  5
4C4
  8
0
 10
285.8847923223081
 20
6.6698727734958787
 30
0.0
 11
285.8847923223081
 21
6.0000000810842522
 31
0.0
  0
LINE
  5
4C5
  8
0
 10
264.3801350990837
 20
52.766580887776527
 30
0.0
 11
264.3801350990837
 21
55.230517724838101
 31
0.0
  0
LINE
  5
4C6
  8
0
 10
264.3801350990837
 20
55.230520440094388
 30
0.0
 11
264.3801350990837
 21
60.191068370347942
 31
0.0
  0
LINE
  5
4C7
  8
0
 10
264.3801350990837
 20
60.191070836183577
 30
0.0
 11
264.3801350990837
 21
65.024710431696079
 31
0.0
  0
LINE
  5
4C8
  8
0
 10
264.3801350990837
 20
65.024712097891438
 30
0.0
 11
264.3801350990837
 21
66.000000081084679
 31
0.0
  0
LINE
  5
4C9
  8
0
 10
264.3801350990837
 20
6.000000081084182
 30
0.0
 11
264.3801350990837
 21
6.238519248868732
 31
0.0
  0
LINE
  5
4CA
  8
0
 10
264.3801350990837
 20
6.2385192970607051
 30
0.0
 11
264.3801350990837
 21
6.9378218504605202
 31
0.0
  0
LINE
  5
4CB
  8
0
 10
264.3801350990837
 20
6.9378222545931134
 30
0.0
 11
264.3801350990837
 21
9.5000000810841758
 31
0.0
  0
LINE
  5
4CC
  8
0
 10
264.3801350990837
 20
9.5000003052122803
 30
0.0
 11
264.3801350990837
 21
11.18826676536653
 31
0.0
  0
LINE
  5
4CD
  8
0
 10
264.3801350990837
 20
11.18826706657754
 30
0.0
 11
264.3801350990837
 21
13.00000008108417
 31
0.0
  0
LINE
  5
4CE
  8
0
 10
264.3801350990837
 20
13.00000056341214
 30
0.0
 11
264.3801350990837
 21
14.81173332853732
 31
0.0
  0
LINE
  5
4CF
  8
0
 10
264.3801350990837
 20
14.811733396801801
 30
0.0
 11
264.3801350990837
 21
14.852427497646421
 31
0.0
  0
LINE
  5
4D0
  8
0
 10
271.88479232230821
 20
14.85242749764646
 30
0.0
 11
271.88479232230821
 21
14.81173339680185
 31
0.0
  0
LINE
  5
4D1
  8
0
 10
271.88479232230821
 20
14.81173332853735
 30
0.0
 11
271.88479232230821
 21
13.000000563412179
 31
0.0
  0
LINE
  5
4D2
  8
0
 10
271.88479232230821
 20
13.00000008108421
 30
0.0
 11
271.88479232230821
 21
11.188267066577721
 31
0.0
  0
LINE
  5
4D3
  8
0
 10
271.88479232230821
 20
11.18826676536656
 30
0.0
 11
271.88479232230821
 21
9.5000003052123034
 31
0.0
  0
LINE
  5
4D4
  8
0
 10
271.88479232230821
 20
9.5000000810842078
 30
0.0
 11
271.88479232230821
 21
6.9378222545931214
 31
0.0
  0
LINE
  5
4D5
  8
0
 10
271.88479232230821
 20
6.9378218504605282
 30
0.0
 11
271.88479232230821
 21
6.238519297060706
 31
0.0
  0
LINE
  5
4D6
  8
0
 10
271.88479232230821
 20
6.238519248868732
 30
0.0
 11
271.88479232230821
 21
6.000000081084174
 31
0.0
  0
LINE
  5
4D8
  8
0
 10
264.3801350990837
 20
14.850576623570561
 30
0.0
 11
264.3801350990837
 21
52.418741307280492
 31
0.0
  0
LINE
  5
4D9
  8
0
 10
264.3801350990837
 20
52.451916896973657
 30
0.0
 11
264.3801350990837
 21
52.758615008645712
 31
0.0
  0
LINE
  5
4DA
  8
0
 10
271.88479232230821
 20
27.929413589063309
 30
0.0
 11
271.88479232230821
 21
14.85057662357055
 31
0.0
  0
LINE
  5
4DD
  8
0
 10
312.64980378270752
 20
48.000000081084288
 30
0.0
 11
312.64980378270752
 21
42.155410819542382
 31
0.0
  0
LINE
  5
4DE
  8
0
 10
312.64980378270752
 20
42.155409635399963
 30
0.0
 11
312.64980378270752
 21
36.94417194528689
 31
0.0
  0
LINE
  5
4DF
  8
0
 10
312.64980378270752
 20
36.944171252670287
 30
0.0
 11
312.64980378270752
 21
34.756969688967928
 31
0.0
  0
LINE
  5
4E0
  8
0
 10
312.64980378270752
 20
34.75696846397723
 30
0.0
 11
312.64980378270752
 21
31.516080201293239
 31
0.0
  0
LINE
  5
4E1
  8
0
 10
312.64980378270752
 20
31.516078750672619
 30
0.0
 11
312.64980378270752
 21
30.061479206964169
 31
0.0
  0
LINE
  5
4E3
  8
0
 10
312.64980378270752
 20
66.000000081084679
 30
0.0
 11
312.64980378270752
 21
65.449208629245476
 31
0.0
  0
LINE
  5
4E4
  8
0
 10
312.64980378270752
 20
65.449204867992179
 30
0.0
 11
312.64980378270752
 21
64.483921411495714
 31
0.0
  0
LINE
  5
4E5
  8
0
 10
312.64980378270752
 20
64.483919960875284
 30
0.0
 11
312.64980378270752
 21
59.05582890949826
 31
0.0
  0
LINE
  5
4E6
  8
0
 10
312.64980378270752
 20
59.055828216881523
 30
0.0
 11
312.64980378270752
 21
53.844590526768549
 31
0.0
  0
LINE
  5
4E7
  8
0
 10
312.64980378270752
 20
53.844589342625852
 30
0.0
 11
312.64980378270752
 21
50.962703806062898
 31
0.0
  0
LINE
  5
4E8
  8
0
 10
312.64980378270752
 20
50.96270270613747
 30
0.0
 11
312.64980378270752
 21
48.000000081084288
 31
0.0
  0
LINE
  5
4E9
  8
0
 10
285.8847923223081
 20
16.00000008108395
 30
0.0
 11
271.88479232230821
 21
16.00000008108395
 31
0.0
  0
LINE
  5
4EA
  8
0
 10
271.88479232230821
 20
6.0000000810839342
 30
0.0
 11
271.88479232230821
 21
6.170370949638591
 31
0.0
  0
LINE
  5
4EB
  8
0
 10
285.8847923223081
 20
16.000000081083911
 30
0.0
 11
285.8847923223081
 21
15.829629788792801
 31
0.0
  0
LINE
  5
4EC
  8
0
 10
285.8847923223081
 20
15.829629212529239
 30
0.0
 11
285.8847923223081
 21
15.33012801347291
 31
0.0
  0
LINE
  5
4ED
  8
0
 10
285.8847923223081
 20
15.330127100006109
 30
0.0
 11
285.8847923223081
 21
14.535534541419629
 31
0.0
  0
LINE
  5
4EE
  8
0
 10
285.8847923223081
 20
14.53553398701666
 30
0.0
 11
285.8847923223081
 21
12.294095306596541
 31
0.0
  0
LINE
  5
4EF
  8
0
 10
285.8847923223081
 20
12.29409465883108
 30
0.0
 11
285.8847923223081
 21
11.00000032224821
 31
0.0
  0
LINE
  5
4F0
  8
0
 10
285.8847923223081
 20
11.000000081083931
 30
0.0
 11
285.8847923223081
 21
9.7059048555713314
 31
0.0
  0
LINE
  5
4F1
  8
0
 10
285.8847923223081
 20
9.7059045507800779
 30
0.0
 11
285.8847923223081
 21
8.500000081083936
 31
0.0
  0
LINE
  5
4F2
  8
0
 10
285.8847923223081
 20
8.4999998200813973
 30
0.0
 11
285.8847923223081
 21
6.6698730621617281
 31
0.0
  0
LINE
  5
4F3
  8
0
 10
285.8847923223081
 20
6.6698727734959116
 30
0.0
 11
285.8847923223081
 21
6.0000000810839067
 31
0.0
  0
LINE
  5
4F4
  8
0
 10
264.3801350990837
 20
52.766580887776513
 30
0.0
 11
264.3801350990837
 21
55.230517724837753
 31
0.0
  0
LINE
  5
4F5
  8
0
 10
264.3801350990837
 20
55.230520440094502
 30
0.0
 11
264.3801350990837
 21
60.191068370347637
 31
0.0
  0
LINE
  5
4F6
  8
0
 10
264.3801350990837
 20
60.191070836183542
 30
0.0
 11
264.3801350990837
 21
65.024710431695723
 31
0.0
  0
LINE
  5
4F7
  8
0
 10
264.3801350990837
 20
65.024712097891467
 30
0.0
 11
264.3801350990841
 21
66.000000081084679
 31
0.0
  0
LINE
  5
4F8
  8
0
 10
264.3801350990837
 20
6.0000000810838472
 30
0.0
 11
264.3801350990837
 21
6.238519248868962
 31
0.0
  0
LINE
  5
4F9
  8
0
 10
264.3801350990837
 20
6.2385192970603667
 30
0.0
 11
264.3801350990837
 21
6.9378218504607432
 31
0.0
  0
LINE
  5
4FA
  8
0
 10
264.3801350990837
 20
6.9378222545927679
 30
0.0
 11
264.3801350990837
 21
9.5000000810838383
 31
0.0
  0
LINE
  5
4FB
  8
0
 10
264.3801350990837
 20
9.5000003052122075
 30
0.0
 11
264.3801350990837
 21
11.18826676536619
 31
0.0
  0
LINE
  5
4FC
  8
0
 10
264.3801350990837
 20
11.188267066577611
 30
0.0
 11
264.3801350990837
 21
13.000000081083829
 31
0.0
  0
LINE
  5
4FD
  8
0
 10
264.3801350990837
 20
13.00000056341224
 30
0.0
 11
264.3801350990837
 21
14.81173332853726
 31
0.0
  0
LINE
  5
4FE
  8
0
 10
264.3801350990837
 20
14.81173339680147
 30
0.0
 11
264.3801350990837
 21
14.85242749764639
 31
0.0
  0
LINE
  5
4FF
  8
0
 10
271.88479232230821
 20
14.852427497646421
 30
0.0
 11
271.88479232230821
 21
14.8117333968015
 31
0.0
  0
LINE
  5
500
  8
0
 10
271.88479232230821
 20
14.81173332853729
 30
0.0
 11
271.88479232230821
 21
13.00000056341228
 31
0.0
  0
LINE
  5
501
  8
0
 10
271.88479232230821
 20
13.00000008108386
 30
0.0
 11
271.88479232230821
 21
11.18826706657766
 31
0.0
  0
LINE
  5
502
  8
0
 10
271.88479232230821
 20
11.188266765366221
 30
0.0
 11
271.88479232230821
 21
9.5000003052122342
 31
0.0
  0
LINE
  5
503
  8
0
 10
271.88479232230821
 20
9.5000000810838685
 30
0.0
 11
271.88479232230821
 21
6.9378222545927812
 31
0.0
  0
LINE
  5
504
  8
0
 10
271.88479232230821
 20
6.9378218504607521
 30
0.0
 11
271.88479232230821
 21
6.2385192970603631
 31
0.0
  0
LINE
  5
505
  8
0
 10
271.88479232230821
 20
6.2385192488692471
 30
0.0
 11
271.88479232230821
 21
6.0000000810838321
 31
0.0
  0
LINE
  5
506
  8
0
 10
313.13479232230861
 20
6.0000000810863421
 30
0.0
 11
313.13479232230861
 21
62.000000081084721
 31
0.0
  0
LINE
  5
507
  8
0
 10
313.13479232230861
 20
62.000000081084721
 30
0.0
 11
312.64980392775561
 21
62.000000081084721
 31
0.0
  0
LINE
  5
508
  8
0
 10
264.38013248763059
 20
62.000000081084721
 30
0.0
 11
263.88479232230861
 21
62.000000081084721
 31
0.0
  0
LINE
  5
509
  8
0
 10
263.88479232230861
 20
62.000000081084721
 30
0.0
 11
263.88479232230861
 21
6.0000000810863421
 31
0.0
  0
LINE
  5
50A
  8
0
 10
305.13479232230821
 20
70.62500008108438
 30
0.0
 11
271.8847923223077
 21
70.625000081084224
 31
0.0
  0
LINE
  5
50B
  8
0
 10
271.88479232230821
 20
27.92394738201321
 30
0.0
 11
271.88479232230821
 21
31.28105455483691
 31
0.0
  0
LINE
  5
50C
  8
0
 10
271.88479232230821
 20
31.281055524981092
 30
0.0
 11
271.88479232230821
 21
35.002733300994613
 31
0.0
  0
LINE
  5
50D
  8
0
 10
271.88479232230821
 20
35.002734015327249
 30
0.0
 11
271.88479232230821
 21
38.816704449157989
 31
0.0
  0
LINE
  5
50E
  8
0
 10
271.88479232230821
 20
38.816705783313949
 30
0.0
 11
271.88479232230821
 21
46.47060193627572
 31
0.0
  0
LINE
  5
50F
  8
0
 10
271.88479232230821
 20
46.470603088082058
 30
0.0
 11
271.88479232230821
 21
50.184886932417783
 31
0.0
  0
LINE
  5
510
  8
0
 10
271.88479232230821
 20
50.184888970241943
 30
0.0
 11
271.88479232230821
 21
53.742242226784242
 31
0.0
  0
LINE
  5
511
  8
0
 10
271.88479232230821
 20
53.74224489178328
 30
0.0
 11
271.88479232230821
 21
57.084272284560093
 31
0.0
  0
LINE
  5
512
  8
0
 10
271.88479232230821
 20
57.084274470909328
 30
0.0
 11
271.88479232230821
 21
62.907348403438263
 31
0.0
  0
LINE
  5
513
  8
0
 10
271.88479232230821
 20
62.907348738616179
 30
0.0
 11
271.88479232230821
 21
65.292806136669896
 31
0.0
  0
LINE
  5
514
  8
0
 10
271.88479232230821
 20
65.29280676642189
 30
0.0
 11
271.88479232230821
 21
67.273331101558
 31
0.0
  0
LINE
  5
515
  8
0
 10
271.88479232230821
 20
67.273332905142283
 30
0.0
 11
271.88479232230821
 21
68.81641211915958
 31
0.0
  0
LINE
  5
516
  8
0
 10
271.88479232230821
 20
68.816414361000511
 30
0.0
 11
271.88479232230821
 21
69.896718843239952
 31
0.0
  0
LINE
  5
517
  8
0
 10
271.88479232230821
 20
69.896719147610455
 30
0.0
 11
271.88479232230821
 21
70.496516256458563
 31
0.0
  0
LINE
  5
518
  8
0
 10
271.88479232230821
 20
70.496517568926635
 30
0.0
 11
271.88479232230821
 21
70.605962339189972
 31
0.0
  0
LINE
  5
519
  8
0
 10
305.13479232230821
 20
70.605962339190313
 30
0.0
 11
305.13479232230821
 21
70.496517568927032
 31
0.0
  0
LINE
  5
51A
  8
0
 10
305.13479232230821
 20
70.496516256458776
 30
0.0
 11
305.1347923223077
 21
69.896719147610455
 31
0.0
  0
LINE
  5
51B
  8
0
 10
305.1347923223077
 20
69.89671884324035
 30
0.0
 11
305.13479232230821
 21
68.816414361000611
 31
0.0
  0
LINE
  5
51C
  8
0
 10
305.13479232230821
 20
68.816412119159992
 30
0.0
 11
305.13479232230821
 21
67.273332905142396
 31
0.0
  0
LINE
  5
51D
  8
0
 10
305.13479232230821
 20
67.273331101558455
 30
0.0
 11
305.13479232230821
 21
65.292806766422075
 31
0.0
  0
LINE
  5
51E
  8
0
 10
305.13479232230821
 20
65.292806136670379
 30
0.0
 11
305.13479232230821
 21
62.9073487386162
 31
0.0
  0
LINE
  5
51F
  8
0
 10
305.13479232230821
 20
62.907348403438768
 30
0.0
 11
305.13479232230821
 21
57.08427447090957
 31
0.0
  0
LINE
  5
520
  8
0
 10
305.13479232230821
 20
57.084272284560612
 30
0.0
 11
305.13479232230821
 21
53.742244891783422
 31
0.0
  0
LINE
  5
521
  8
0
 10
305.13479232230821
 20
53.742242226784789
 30
0.0
 11
305.13479232230821
 21
50.184888970242177
 31
0.0
  0
LINE
  5
522
  8
0
 10
305.13479232230821
 20
50.184886932418351
 30
0.0
 11
305.13479232230821
 21
46.470603088082321
 31
0.0
  0
LINE
  5
523
  8
0
 10
305.13479232230821
 20
46.470601936276282
 30
0.0
 11
305.13479232230821
 21
38.81670578331407
 31
0.0
  0
LINE
  5
524
  8
0
 10
305.13479232230821
 20
38.81670444915855
 30
0.0
 11
305.13479232230821
 21
35.002734015327817
 31
0.0
  0
LINE
  5
525
  8
0
 10
305.13479232230821
 20
35.002733300994727
 30
0.0
 11
305.13479232230821
 21
31.28105552498166
 31
0.0
  0
LINE
  5
526
  8
0
 10
305.13479232230821
 20
31.281054554837169
 30
0.0
 11
305.13479232230821
 21
27.71276194968733
 31
0.0
  0
LINE
  5
527
  8
0
 10
305.13479232230821
 20
27.71276097392014
 30
0.0
 11
305.13479232230861
 21
14.08194104351325
 31
0.0
  0
LINE
  5
528
  8
0
 10
305.13479232230861
 20
14.08194068781995
 30
0.0
 11
305.13479232230861
 21
12.512205110968329
 31
0.0
  0
LINE
  5
529
  8
0
 10
305.13479232230861
 20
12.51220464717427
 30
0.0
 11
305.13479232230861
 21
11.40395310980111
 31
0.0
  0
LINE
  5
52A
  8
0
 10
305.13479232230861
 20
11.40395293857099
 30
0.0
 11
305.13479232230861
 21
10.775376967885769
 31
0.0
  0
LINE
  5
52B
  8
0
 10
305.13479232230861
 20
10.775376967885791
 30
0.0
 11
305.13479232230861
 21
6.0000000810839271
 31
0.0
  0
LINE
  5
52C
  8
0
 10
305.13479232230861
 20
10.77537696788575
 30
0.0
 11
285.88479118666618
 21
10.775376967885551
 31
0.0
  0
LINE
  5
52D
  8
0
 10
263.88479232230912
 20
0.0000000810848375
 30
0.0
 11
313.13479232230912
 21
0.0000000810848366
 31
0.0
  0
LINE
  5
52E
  8
0
 10
313.13479232230912
 20
0.0000000810848366
 30
0.0
 11
313.13479232230912
 21
6.0000000810872551
 31
0.0
  0
LINE
  5
52F
  8
0
 10
313.13479232230912
 20
6.0000000810872551
 30
0.0
 11
263.88479232230912
 21
6.0000000810872551
 31
0.0
  0
LINE
  5
530
  8
0
 10
263.88479232230912
 20
6.0000000810872551
 30
0.0
 11
263.88479232230912
 21
0.0000000810848366
 31
0.0
  0
LINE
  5
533
  8
0
 10
0.4849891214221316
 20
62.04692558718196
 30
0.0
 11
0.4849891214221316
 21
64.483919960875596
 31
0.0
  0
LINE
  5
534
  8
0
 10
0.4849891214221316
 20
64.483921411495672
 30
0.0
 11
0.4849891214221316
 21
65.449204867992492
 31
0.0
  0
LINE
  5
535
  8
0
 10
0.4849891214221316
 20
65.449208629245192
 30
0.0
 11
0.4849891214221316
 21
65.938520955204623
 31
0.0
  0
LINE
  5
537
  8
0
 10
48.754657805045539
 20
66.000000081084679
 30
0.0
 11
48.754657805045539
 21
65.024712097891481
 31
0.0
  0
LINE
  5
538
  8
0
 10
48.754657805045539
 20
65.024710431696121
 30
0.0
 11
48.754657805045539
 21
62.016839662254412
 31
0.0
  0
LINE
  5
539
  8
0
 10
0.4849891214219042
 20
62.04692558718196
 30
0.0
 11
0.4849891214219042
 21
64.483919960875255
 31
0.0
1001
ACAD
1000
ASC_BOUNDS
1002
{
1070
    19
1005
648
1002
}
  0
LINE
  5
53A
  8
0
 10
0.4849891214219042
 20
64.483921411495871
 30
0.0
 11
0.4849891214219042
 21
66.000000081084352
 31
0.0
1001
ACAD
1000
ASC_BOUNDS
1002
{
1070
    19
1005
648
1002
}
  0
LINE
  5
53B
  8
0
 10
0.4849891214219042
 20
65.449208629245476
 30
0.0
 11
0.4849891214219042
 21
65.938520955204282
 31
0.0
  0
LINE
  5
53D
  8
0
 10
48.754657805045333
 20
66.000000081084352
 30
0.0
 11
48.754657805045333
 21
65.024712097891523
 31
0.0
1001
ACAD
1000
ASC_BOUNDS
1002
{
1070
    19
1005
648
1002
}
  0
LINE
  5
53E
  8
0
 10
48.754657805045333
 20
65.02471043169578
 30
0.0
 11
48.754657805045333
 21
62.01683966225449
 31
0.0
1001
ACAD
1000
ASC_BOUNDS
1002
{
1070
    19
1005
648
1002
}
  0
LINE
  5
53F
  8
0
 10
49.250000581820572
 20
6.0000000810863421
 30
0.0
 11
49.250000581820572
 21
62.000000081084721
 31
0.0
  0
LINE
  5
540
  8
0
 10
49.250000581820572
 20
62.000000081084721
 30
0.0
 11
0.0000005818205864
 21
62.000000081084721
 31
0.0
1001
ACAD
1000
ASC_BOUNDS
1002
{
1070
    19
1005
648
1005
648
1002
}
  0
LINE
  5
541
  8
0
 10
0.0000005818205864
 20
62.000000081084721
 30
0.0
 11
0.0000005818205864
 21
6.0000000810863421
 31
0.0
  0
LINE
  5
542
  8
0
 10
0.0000005818205864
 20
6.0000000810863421
 30
0.0
 11
5.4876299277098042
 21
6.0000000810863421
 31
0.0
  0
LINE
  5
543
  8
0
 10
10.012371235931591
 20
6.0000000810863421
 30
0.0
 11
49.250000581820572
 21
6.0000000810863421
 31
0.0
  0
LINE
  5
544
  8
0
 10
41.250000581821489
 20
70.625000081084224
 30
0.0
 11
8.0000005818214959
 21
70.62500008108438
 31
0.0
  0
LINE
  5
545
  8
0
 10
41.250000581821489
 20
70.622207615611515
 30
0.0
 11
41.250000581821489
 21
70.223260640378115
 31
0.0
  0
LINE
  5
546
  8
0
 10
41.250000581821489
 20
70.223256570511069
 30
0.0
 11
41.250000581821489
 21
69.35468254458236
 31
0.0
  0
LINE
  5
547
  8
0
 10
41.250000581821489
 20
69.354681347682529
 30
0.0
 11
41.250000581821489
 21
68.014498281919956
 31
0.0
  0
LINE
  5
548
  8
0
 10
41.250000581821489
 20
68.014498281919884
 30
0.0
 11
41.250000581821261
 21
62.000000081084742
 31
0.0
1001
ACAD
1000
ASC_BOUNDS
1002
{
1070
    19
1005
648
1002
}
  0
LINE
  5
549
  8
0
 10
8.0000005818212632
 20
62.000000081084821
 30
0.0
 11
8.0000005818214959
 21
68.014498281920226
 31
0.0
1001
ACAD
1000
ASC_BOUNDS
1002
{
1070
    19
1005
648
1002
}
  0
LINE
  5
54A
  8
0
 10
8.0000005818214959
 20
68.014498281920197
 30
0.0
 11
8.0000005818214959
 21
69.354681347682572
 31
0.0
  0
LINE
  5
54B
  8
0
 10
8.0000005818214959
 20
69.35468254458263
 30
0.0
 11
8.0000005818214959
 21
70.223256570511396
 31
0.0
  0
LINE
  5
54C
  8
0
 10
8.0000005818214959
 20
70.223260640377973
 30
0.0
 11
8.0000005818214959
 21
70.622207615611728
 31
0.0
  0
LINE
  5
54E
  8
0
 10
49.250000581820132
 20
0.0000000810830159
 30
0.0
 11
49.250000581820132
 21
6.0000000810854353
 31
0.0
  0
LINE
  5
54F
  8
0
 10
49.250000581820132
 20
6.0000000810854353
 30
0.0
 11
10.01237123593228
 21
6.0000000810854353
 31
0.0
  0
LINE
  5
550
  8
0
 10
5.487629927708892
 20
6.0000000810854353
 30
0.0
 11
0.000000581820359
 21
6.0000000810854353
 31
0.0
  0
LINE
  5
551
  8
0
 10
0.000000581820359
 20
6.0000000810854353
 30
0.0
 11
0.000000581820359
 21
0.0000000810830159
 31
0.0
  0
LINE
  5
552
  8
0
 10
0.000000581820359
 20
0.000000081083015
 30
0.0
 11
49.250000581820132
 21
0.0000000810830159
 31
0.0
  0
ARC
  5
553
  8
0
 10
7.7500005818205828
 20
4.0625000810843028
 30
0.0
 40
2.9999999999999911
 50
359.9999999999996
 51
179.99999999999969
  0
ARC
  5
554
  8
0
 10
7.7500005818205828
 20
4.0625000810843028
 30
0.0
 40
3.0000000000000062
 50
180.0
 51
359.9999999999992
  0
ARC
  5
555
  8
0
 10
24.625000581820821
 20
48.750000081084323
 30
0.0
 40
2.999999999999996
 50
359.9999999999996
 51
179.9999999999994
  0
ARC
  5
556
  8
0
 10
24.625000581820821
 20
48.750000081084323
 30
0.0
 40
3.0000000000000062
 50
180.0000000000002
 51
359.9999999999992
  0
LINE
  5
559
  8
0
 10
225.24641585696961
 20
110.84553934680569
 30
0.0
 11
214.8550580450943
 21
110.84553934680569
 31
0.0
  0
LINE
  5
55A
  8
0
 10
214.8550580450943
 20
110.84553934680569
 30
0.0
 11
214.83031594734641
 21
110.84553934680569
 31
0.0
  0
LINE
  5
55B
  8
0
 10
224.4409134737086
 20
118.35019657003021
 30
0.0
 11
225.24641585696961
 21
118.35019657003021
 31
0.0
  0
LINE
  5
55C
  8
0
 10
225.24641585696961
 20
118.35019657003021
 30
0.0
 11
225.24641585696961
 21
110.84553934680569
 31
0.0
  0
LINE
  5
55E
  8
0
 10
179.49546173725369
 20
159.11520803042919
 30
0.0
 11
179.74095826615701
 21
159.11520803042919
 31
0.0
  0
LINE
  5
55F
  8
0
 10
179.7409582760047
 20
159.11520803042919
 30
0.0
 11
181.66493411838181
 21
159.11520803042919
 31
0.0
  0
LINE
  5
560
  8
0
 10
181.6649342155369
 20
159.11520803042919
 30
0.0
 11
185.30439331574121
 21
159.11520803042919
 31
0.0
  0
LINE
  5
561
  8
0
 10
185.30439344799049
 20
159.11520803042919
 30
0.0
 11
190.26494409350019
 21
159.11520803042919
 31
0.0
  0
LINE
  5
562
  8
0
 10
190.26494434200771
 20
159.11520803042919
 30
0.0
 11
193.07672296871939
 21
159.11520803042919
 31
0.0
  0
LINE
  5
563
  8
0
 10
193.076723365601
 20
159.11520803042919
 30
0.0
 11
196.00903299363941
 21
159.11520803042919
 31
0.0
  0
LINE
  5
564
  8
0
 10
196.00903351875169
 20
159.11520803042919
 30
0.0
 11
198.98188995575569
 21
159.11520803042919
 31
0.0
  0
LINE
  5
565
  8
0
 10
198.98189048087769
 20
159.11520803042919
 30
0.0
 11
201.91420010891591
 21
159.11520803042919
 31
0.0
  0
LINE
  5
566
  8
0
 10
201.91420050578819
 20
159.11520803042919
 30
0.0
 11
204.72597913250891
 21
159.11520803042919
 31
0.0
  0
LINE
  5
567
  8
0
 10
204.72597938100719
 20
159.11520803042919
 30
0.0
 11
211.69999090638879
 21
159.11520803042919
 31
0.0
  0
LINE
  5
568
  8
0
 10
211.6999915732311
 20
159.11520803042919
 30
0.0
 11
214.52017208786521
 21
159.11520803042919
 31
0.0
  0
LINE
  5
569
  8
0
 10
214.5201737540676
 20
159.11520803042919
 30
0.0
 11
215.24996519850279
 21
159.11520803042919
 31
0.0
  0
LINE
  5
56A
  8
0
 10
215.2499666802197
 20
159.11520803042919
 30
0.0
 11
215.49546173725381
 21
159.11520803042919
 31
0.0
  0
LINE
  5
56B
  8
0
 10
197.49546173725381
 20
110.84553934680569
 30
0.0
 11
191.6508712915695
 21
110.84553934680569
 31
0.0
  0
LINE
  5
56C
  8
0
 10
191.65087106593251
 20
110.84553934680569
 30
0.0
 11
184.25243134513741
 21
110.84553934680569
 31
0.0
  0
LINE
  5
56D
  8
0
 10
184.25243130455081
 20
110.84553934680569
 30
0.0
 11
179.5569408631336
 21
110.84553934680569
 31
0.0
  0
LINE
  5
56E
  8
0
 10
214.85477221577969
 20
110.84553934680569
 30
0.0
 11
213.97938306767139
 21
110.84553934680569
 31
0.0
  0
LINE
  5
56F
  8
0
 10
213.97938161704471
 20
110.84553934680569
 30
0.0
 11
210.7384933543658
 21
110.84553934680569
 31
0.0
  0
LINE
  5
570
  8
0
 10
210.7384921293702
 20
110.84553934680569
 30
0.0
 11
203.340052408585
 21
110.84553934680569
 31
0.0
  0
LINE
  5
571
  8
0
 10
203.340052182938
 20
110.84553934680569
 30
0.0
 11
197.49546173725381
 21
110.84553934680569
 31
0.0
  0
LINE
  5
578
  8
0
 10
225.24641585696961
 20
110.84553934680569
 30
0.0
 11
214.8550580450943
 21
110.84553934680601
 31
0.0
  0
LINE
  5
579
  8
0
 10
214.8550580450943
 20
110.84553934680601
 30
0.0
 11
214.83031594734641
 21
110.84553934680601
 31
0.0
  0
LINE
  5
57A
  8
0
 10
224.4409134737086
 20
118.35019657003021
 30
0.0
 11
225.24641585696961
 21
118.35019657003021
 31
0.0
  0
LINE
  5
57B
  8
0
 10
225.24641585696961
 20
118.35019657003021
 30
0.0
 11
225.24641585696961
 21
110.84553934680569
 31
0.0
  0
LINE
  5
57D
  8
0
 10
179.49546173725369
 20
159.11520803042939
 30
0.0
 11
179.74095826615681
 21
159.11520803042939
 31
0.0
  0
LINE
  5
57E
  8
0
 10
179.7409582760047
 20
159.11520803042939
 30
0.0
 11
181.66493411838161
 21
159.11520803042939
 31
0.0
  0
LINE
  5
57F
  8
0
 10
181.6649342155369
 20
159.11520803042939
 30
0.0
 11
185.30439331574121
 21
159.11520803042939
 31
0.0
  0
LINE
  5
580
  8
0
 10
185.30439344799049
 20
159.11520803042939
 30
0.0
 11
190.2649440935003
 21
159.11520803042939
 31
0.0
  0
LINE
  5
581
  8
0
 10
190.26494434200771
 20
159.11520803042939
 30
0.0
 11
193.07672296871939
 21
159.11520803042939
 31
0.0
  0
LINE
  5
582
  8
0
 10
193.076723365601
 20
159.11520803042939
 30
0.0
 11
196.00903299363961
 21
159.11520803042939
 31
0.0
  0
LINE
  5
583
  8
0
 10
196.00903351875169
 20
159.11520803042939
 30
0.0
 11
198.98188995575569
 21
159.11520803042939
 31
0.0
  0
LINE
  5
584
  8
0
 10
198.9818904808775
 20
159.11520803042939
 30
0.0
 11
201.91420010891599
 21
159.11520803042939
 31
0.0
  0
LINE
  5
585
  8
0
 10
201.91420050578819
 20
159.11520803042939
 30
0.0
 11
204.725979132509
 21
159.11520803042939
 31
0.0
  0
LINE
  5
586
  8
0
 10
204.72597938100731
 20
159.11520803042939
 30
0.0
 11
211.6999909063889
 21
159.11520803042939
 31
0.0
  0
LINE
  5
587
  8
0
 10
211.6999915732311
 20
159.11520803042939
 30
0.0
 11
214.52017208786521
 21
159.11520803042939
 31
0.0
  0
LINE
  5
588
  8
0
 10
214.5201737540676
 20
159.11520803042939
 30
0.0
 11
215.24996519850279
 21
159.11520803042939
 31
0.0
  0
LINE
  5
589
  8
0
 10
215.2499666802197
 20
159.11520803042939
 30
0.0
 11
215.49546173725381
 21
159.11520803042939
 31
0.0
  0
LINE
  5
58A
  8
0
 10
197.49546173725381
 20
110.84553934680601
 30
0.0
 11
191.6508712915695
 21
110.84553934680601
 31
0.0
  0
LINE
  5
58B
  8
0
 10
191.65087106593231
 20
110.84553934680601
 30
0.0
 11
184.25243134513741
 21
110.84553934680601
 31
0.0
  0
LINE
  5
58C
  8
0
 10
184.25243130455081
 20
110.84553934680601
 30
0.0
 11
179.49546173725369
 21
110.84553934680601
 31
0.0
  0
LINE
  5
58D
  8
0
 10
214.85477221577969
 20
110.84553934680601
 30
0.0
 11
213.97938306767139
 21
110.84553934680601
 31
0.0
  0
LINE
  5
58E
  8
0
 10
213.97938161704491
 20
110.84553934680601
 30
0.0
 11
210.738493354366
 21
110.84553934680601
 31
0.0
  0
LINE
  5
58F
  8
0
 10
210.7384921293702
 20
110.84553934680601
 30
0.0
 11
203.340052408585
 21
110.84553934680601
 31
0.0
  0
LINE
  5
590
  8
0
 10
203.34005218293819
 20
110.84553934680601
 30
0.0
 11
197.49546173725381
 21
110.84553934680601
 31
0.0
  0
LINE
  5
595
  8
0
 10
167.37046173725381
 20
159.6001965700305
 30
0.0
 11
167.37046173725361
 21
110.3501965700305
 31
0.0
  0
LINE
  5
596
  8
0
 10
95.745461737253635
 20
110.3501965700307
 30
0.0
 11
95.745461737253663
 21
159.6001965700307
 31
0.0
  0
LINE
  5
597
  8
0
 10
95.745461737253663
 20
159.6001965700307
 30
0.0
 11
167.37046173725381
 21
159.6001965700305
 31
0.0
  0
LINE
  5
598
  8
0
 10
97.370461737253876
 20
157.9751965700307
 30
0.0
 11
165.74546173725389
 21
157.9751965700305
 31
0.0
1001
ACAD
1000
ASC_BOUNDS
1002
{
1070
    19
1005
685
1002
}
  0
LINE
  5
599
  8
0
 10
165.74546173725389
 20
157.9751965700305
 30
0.0
 11
165.74546173725361
 21
111.9751965700305
 31
0.0
1001
ACAD
1000
ASC_BOUNDS
1002
{
1070
    19
1005
685
1002
}
  0
LINE
  5
59A
  8
0
 10
165.74546173725361
 20
111.9751965700305
 30
0.0
 11
97.370461737253649
 21
111.9751965700307
 31
0.0
1001
ACAD
1000
ASC_BOUNDS
1002
{
1070
    19
1005
685
1002
}
  0
LINE
  5
59B
  8
0
 10
97.370461737253649
 20
111.9751965700307
 30
0.0
 11
97.370461737253876
 21
157.9751965700307
 31
0.0
1001
ACAD
1000
ASC_BOUNDS
1002
{
1070
    19
1005
685
1002
}
  0
LINE
  5
59C
  8
0
 10
95.745461737253635
 20
110.3501965700307
 30
0.0
 11
167.37046173725361
 21
110.3501965700305
 31
0.0
  0
LINE
  5
59D
  8
0
 10
224.495461737254
 20
118.35019657003021
 30
0.0
 11
224.495461737254
 21
151.60019657003019
 31
0.0
  0
LINE
  5
59E
  8
0
 10
224.44091326010729
 20
118.35019657003021
 30
0.0
 11
223.9204334287225
 21
118.35019657003021
 31
0.0
  0
LINE
  5
59F
  8
0
 10
223.92043308729239
 20
118.35019657003021
 30
0.0
 11
222.93150674340359
 21
118.35019657003021
 31
0.0
  0
LINE
  5
5A0
  8
0
 10
222.9315051221854
 20
118.35019657003021
 30
0.0
 11
221.4757871335695
 21
118.35019657002999
 31
0.0
  0
LINE
  5
5A1
  8
0
 10
221.47578655680351
 20
118.35019657002999
 30
0.0
 11
219.57717536555049
 21
118.35019657002999
 31
0.0
  0
LINE
  5
5A2
  8
0
 10
219.5771745384591
 20
118.35019657002999
 30
0.0
 11
208.27466613175869
 21
118.35019657002999
 31
0.0
  0
LINE
  5
5A3
  8
0
 10
208.2746654088472
 20
118.35019657002999
 30
0.0
 11
204.7543261550571
 21
118.35019657002999
 31
0.0
  0
LINE
  5
5A4
  8
0
 10
204.75432557782881
 20
118.35019657002999
 30
0.0
 11
197.2689874551603
 21
118.35019657002999
 31
0.0
  0
LINE
  5
5A5
  8
0
 10
197.26898710643931
 20
118.35019657002999
 30
0.0
 11
193.4268639438574
 21
118.35019657002999
 31
0.0
  0
LINE
  5
5A6
  8
0
 10
193.42686355363691
 20
118.35019657002999
 30
0.0
 11
189.60228150492139
 21
118.35019657002999
 31
0.0
  0
LINE
  5
5A7
  8
0
 10
189.60228136506501
 20
118.35019657002999
 30
0.0
 11
182.25555208454779
 21
118.35019657002999
 31
0.0
  0
LINE
  5
5A8
  8
0
 10
182.2555520845477
 20
118.35019657002999
 30
0.0
 11
167.37046173725389
 21
118.35019657002999
 31
0.0
  0
LINE
  5
5A9
  8
0
 10
167.37046173725389
 20
151.60019657002999
 30
0.0
 11
182.2555520845477
 21
151.60019657002999
 31
0.0
  0
LINE
  5
5AA
  8
0
 10
182.25555208454759
 20
151.60019657002999
 30
0.0
 11
189.6022813650647
 21
151.60019657002999
 31
0.0
  0
LINE
  5
5AB
  8
0
 10
189.602281504921
 20
151.60019657002999
 30
0.0
 11
193.42686355363651
 21
151.60019657002999
 31
0.0
  0
LINE
  5
5AC
  8
0
 10
193.42686394385709
 20
151.60019657002999
 30
0.0
 11
197.26898710643891
 21
151.60019657002999
 31
0.0
  0
LINE
  5
5AD
  8
0
 10
197.26898745515999
 20
151.60019657002999
 30
0.0
 11
204.75432557782861
 21
151.60019657002999
 31
0.0
  0
LINE
  5
5AE
  8
0
 10
204.7543261550567
 20
151.60019657002999
 30
0.0
 11
208.274665408847
 21
151.60019657002999
 31
0.0
  0
LINE
  5
5AF
  8
0
 10
208.27466613175849
 20
151.60019657002999
 30
0.0
 11
219.57717453845899
 21
151.60019657002999
 31
0.0
  0
LINE
  5
5B0
  8
0
 10
219.57717536555049
 20
151.60019657002999
 30
0.0
 11
221.47578655680351
 21
151.60019657002999
 31
0.0
  0
LINE
  5
5B1
  8
0
 10
221.4757871335693
 20
151.60019657002999
 30
0.0
 11
222.93150512218531
 21
151.60019657003019
 31
0.0
  0
LINE
  5
5B2
  8
0
 10
222.9315067434035
 20
151.60019657003019
 30
0.0
 11
223.92043308729239
 21
151.60019657003019
 31
0.0
  0
LINE
  5
5B3
  8
0
 10
223.9204334287225
 20
151.60019657003019
 30
0.0
 11
224.44091326010729
 21
151.60019657003019
 31
0.0
  0
LINE
  5
5B5
  8
0
 10
227.49546173725381
 20
159.6001965700309
 30
0.0
 11
227.49546173725381
 21
110.3501965700309
 31
0.0
  0
LINE
  5
5B6
  8
0
 10
227.49546173725381
 20
110.3501965700309
 30
0.0
 11
167.37046173725361
 21
110.3501965700309
 31
0.0
  0
LINE
  5
5B7
  8
0
 10
227.49546173725381
 20
159.6001965700309
 30
0.0
 11
167.37046173725389
 21
159.6001965700309
 31
0.0
  0
LINE
  5
5B8
  8
0
 10
92.745461737253734
 20
148.8501965700305
 30
0.0
 11
95.745461737253564
 21
148.8501965700305
 31
0.0
  0
LINE
  5
5B9
  8
0
 10
95.745461737253564
 20
154.8501965700305
 30
0.0
 11
92.745461737253734
 21
154.8501965700305
 31
0.0
  0
LINE
  5
5BA
  8
0
 10
92.745461737253734
 20
131.9751965700305
 30
0.0
 11
95.745461737253564
 21
131.9751965700305
 31
0.0
  0
LINE
  5
5BB
  8
0
 10
95.745461737253564
 20
137.9751965700305
 30
0.0
 11
92.745461737253734
 21
137.9751965700305
 31
0.0
  0
LINE
  5
5BC
  8
0
 10
92.745461737253734
 20
148.8501965700305
 30
0.0
 11
92.745461737253734
 21
148.95241909116339
 31
0.0
  0
LINE
  5
5BD
  8
0
 10
92.745461737253734
 20
148.9524195613358
 30
0.0
 11
92.745461737253734
 21
149.72887557076891
 31
0.0
  0
LINE
  5
5BE
  8
0
 10
92.745461737253734
 20
149.7288762264709
 30
0.0
 11
92.745461737253734
 21
150.35019532681531
 31
0.0
  0
LINE
  5
5BF
  8
0
 10
92.745461737253734
 20
150.3501965700305
 30
0.0
 11
92.745461737253734
 21
151.85019542131141
 31
0.0
  0
LINE
  5
5C0
  8
0
 10
92.745461737253734
 20
151.8501965700305
 30
0.0
 11
92.745461737253734
 21
152.62665370533821
 31
0.0
  0
LINE
  5
5C1
  8
0
 10
92.745461737253734
 20
152.6266541973842
 30
0.0
 11
92.745461737253734
 21
153.3501965700305
 31
0.0
  0
LINE
  5
5C2
  8
0
 10
92.745461737253734
 20
153.35019689283149
 30
0.0
 11
92.745461737253734
 21
154.44827278138391
 31
0.0
  0
LINE
  5
5C3
  8
0
 10
92.745461737253734
 20
154.4482733409514
 30
0.0
 11
92.745461737253734
 21
154.74797397872339
 31
0.0
  0
LINE
  5
5C4
  8
0
 10
92.745461737253734
 20
154.74797404889779
 30
0.0
 11
92.745461737253734
 21
154.8501965700305
 31
0.0
  0
LINE
  5
5C5
  8
0
 10
92.745461737253734
 20
131.97519657003019
 30
0.0
 11
92.745461737253734
 21
132.07741909116319
 31
0.0
  0
LINE
  5
5C6
  8
0
 10
92.745461737253734
 20
132.0774195613356
 30
0.0
 11
92.745461737253734
 21
132.85387557076911
 31
0.0
  0
LINE
  5
5C7
  8
0
 10
92.745461737253734
 20
132.8538762264707
 30
0.0
 11
92.745461737253734
 21
133.4751953268154
 31
0.0
  0
LINE
  5
5C8
  8
0
 10
92.745461737253734
 20
133.47519657003031
 30
0.0
 11
92.745461737253734
 21
134.97519542131141
 31
0.0
  0
LINE
  5
5C9
  8
0
 10
92.745461737253734
 20
134.97519657003019
 30
0.0
 11
92.745461737253734
 21
135.75165370533799
 31
0.0
  0
LINE
  5
5CA
  8
0
 10
92.745461737253734
 20
135.7516541973844
 30
0.0
 11
92.745461737253734
 21
136.47519550245721
 31
0.0
  0
LINE
  5
5CB
  8
0
 10
92.745461737253734
 20
136.47519657003031
 30
0.0
 11
92.745461737253734
 21
137.09651691358999
 31
0.0
  0
LINE
  5
5CC
  8
0
 10
92.745461737253734
 20
137.09651825626321
 30
0.0
 11
92.745461737253734
 21
137.57327278138359
 31
0.0
  0
LINE
  5
5CD
  8
0
 10
92.745461737253734
 20
137.5732733409514
 30
0.0
 11
92.745461737253734
 21
137.87297397872339
 31
0.0
  0
LINE
  5
5CE
  8
0
 10
92.745461737253734
 20
137.8729740488975
 30
0.0
 11
92.745461737253734
 21
137.97519657003031
 31
0.0
  0
LINE
  5
5E1
  8
0
 10
215.49546173725381
 20
159.11520803042939
 30
0.0
 11
215.49546173725381
 21
151.60019657002999
 31
0.0
  0
LINE
  5
5E2
  8
0
 10
179.49546173725369
 20
159.11520803042919
 30
0.0
 11
179.49546173725369
 21
151.60019657002999
 31
0.0
  0
LINE
  5
5E3
  8
0
 10
179.49546173725361
 20
118.35019657002999
 30
0.0
 11
179.49546173725369
 21
110.84553934680601
 31
0.0
  0
LINE
  5
5E8
  8
0
 10
48.754657805045333
 20
66.000000081084352
 30
0.0
 11
41.250000581821404
 21
66.000000081084352
 31
0.0
1001
ACAD
1000
ASC_BOUNDS
1002
{
1070
    19
1005
648
1002
}
  0
LINE
  5
5E9
  8
0
 10
8.0000005818214213
 20
66.000000081084323
 30
0.0
 11
0.4849891214219042
 21
66.000000081084352
 31
0.0
1001
ACAD
1000
ASC_BOUNDS
1002
{
1070
    19
1005
648
1002
}
  0
LINE
  5
5EC
  8
0
 10
264.3801350990841
 20
66.000000081084679
 30
0.0
 11
271.88479232230821
 21
66.000000081084679
 31
0.0
  0
LINE
  5
5ED
  8
0
 10
312.64980378270712
 20
65.938520955204623
 30
0.0
 11
305.1347923223081
 21
65.938520955204623
 31
0.0
  0
LINE
  5
5EE
  8
0
 10
312.64980378270712
 20
30.06147920696451
 30
0.0
 11
305.1347923223081
 21
30.061479206964268
 31
0.0
  0
INSERT
  5
62D
  8
0
  6
CONTINUOUS
  2
*X2
 10
0.0
 20
0.0
 30
0.0
1001
GRADIENTCOLOR1ACI
1070
     5
1001
GRADIENTCOLOR2ACI
1070
     2
1001
ACAD
1000
HATCH
1002
{
1070
    19
1000
NET
1040
12.0
1040
0.7853981633974483
1000
R14_HATCH_DATA
1000
62D
1011
1.0
1021
0.0
1031
0.0
1021
0.0
1031
0.0
1011
0.0
1021
0.0
1031
0.0
1021
1.0
1031
0.0
1011
0.0
1021
0.0
1031
0.0
1021
0.0
1031
1.0
1040
0.0
1010
0.0
1020
0.0
1030
1.0
1000
NET
1070
     0
1070
     0
1071
        2
1071
        7
1070
     0
1070
     1
1071
       32
1040
271.88479232230821
1040
57.084272284560093
1040
271.88479232230821
1040
62.907348403438263
1040
271.88479232230821
1040
65.292806136669896
1040
271.88479232230821
1040
66.000000081084679
1040
264.3801350990841
1040
66.000000081084679
1040
264.3801350990837
1040
65.024712097891467
1040
264.3801350990837
1040
60.191070836183542
1040
264.3801350990837
1040
55.230520440094502
1040
264.3801350990837
1040
52.766580887776513
1040
264.3801350990837
1040
52.451916896973657
1040
264.3801350990837
1040
14.850576623570561
1040
264.3801350990837
1040
14.81173339680147
1040
264.3801350990837
1040
13.00000056341224
1040
264.3801350990837
1040
11.188267066577611
1040
264.3801350990837
1040
9.5000003052122111
1040
264.3801350990837
1040
6.9378222545927741
1040
264.3801350990837
1040
6.2385192970603631
1040
264.3801350990837
1040
6.0000000810872551
1040
271.88479232230821
1040
6.000000081087248
1040
271.88479232230821
1040
6.2385192488692498
1040
271.88479232230821
1040
6.9378218504607503
1040
271.88479232230821
1040
9.5000000810838685
1040
271.88479232230821
1040
11.188266765366221
1040
271.88479232230821
1040
13.00000008108386
1040
271.88479232230821
1040
14.81173332853729
1040
271.88479232230821
1040
27.929413589063309
1040
271.88479232230821
1040
31.28105455483691
1040
271.88479232230821
1040
35.002733300994613
1040
271.88479232230821
1040
38.816704449157989
1040
271.88479232230821
1040
46.47060193627572
1040
271.88479232230821
1040
50.184886932417783
1040
271.88479232230821
1040
53.742242226784242
1071
        0
1071
        7
1070
     0
1070
     1
1071
       23
1040
312.64980378270752
1040
59.055828216881523
1040
312.64980378270752
1040
64.483919960875284
1040
312.64980378270752
1040
65.449204867992179
1040
312.64980378270752
1040
65.938520955204623
1040
305.13479232230821
1040
65.938520955204623
1040
305.13479232230821
1040
65.292806766422075
1040
305.13479232230821
1040
62.9073487386162
1040
305.13479232230821
1040
57.08427447090957
1040
305.13479232230821
1040
53.742244891783422
1040
305.13479232230821
1040
50.184888970242177
1040
305.13479232230821
1040
46.470603088082321
1040
305.13479232230821
1040
38.81670578331407
1040
305.13479232230821
1040
35.002734015327817
1040
305.13479232230821
1040
31.28105552498166
1040
305.13479232230821
1040
30.06147920696425
1040
312.64980378270752
1040
30.06147920696451
1040
312.64980378270752
1040
31.516078750672619
1040
312.64980378270752
1040
34.75696846397723
1040
312.64980378270752
1040
36.944171252670287
1040
312.64980378270752
1040
42.155409635399963
1040
312.64980378270752
1040
48.000000081084288
1040
312.64980378270752
1040
50.96270270613747
1040
312.64980378270752
1040
53.844589342625852
1071
        0
1070
     1
1070
     1
1040
0.7853981633974483
1040
12.0
1070
     0
1070
     2
1040
0.7853981633974483
1040
-58.501074975582249
1040
0.0
1040
-1.0606601717798201
1040
1.0606601717798201
1070
     0
1040
2.3561944901923431
1040
-58.501074975582249
1040
0.0
1040
-1.0606601717798201
1040
-1.0606601717798201
1070
     0
1040
0.1329622227146186
1071
        2
1040
267.83451955994008
1040
54.516029320577559
1040
0.0
1040
307.60941183659031
1040
56.643424854453201
1040
0.0
1002
}
  0
INSERT
  5
638
  8
0
  6
CONTINUOUS
  2
*X3
 10
0.0
 20
0.0
 30
0.0
1001
GRADIENTCOLOR1ACI
1070
     5
1001
GRADIENTCOLOR2ACI
1070
     2
1001
ACAD
1000
HATCH
1002
{
1070
    19
1000
NET
1040
12.0
1040
0.7853981633974483
1000
ASC_BOUNDS
1070
     1
1070
     1
1070
     6
1005
40C
1005
404
1005
403
1005
408
1005
429
1005
42A
1000
ASC_SEEDPOINT
1011
197.8456988730768
1021
0.0
1031
0.0
1021
47.768355286281569
1031
0.0
1000
R14_HATCH_DATA
1000
638
1011
1.0
1021
0.0
1031
0.0
1021
0.0
1031
0.0
1011
0.0
1021
0.0
1031
0.0
1021
1.0
1031
0.0
1011
0.0
1021
0.0
1031
0.0
1021
0.0
1031
1.0
1040
0.0
1010
0.0
1020
0.0
1030
1.0
1000
NET
1070
     0
1070
     1
1071
        1
1071
        7
1070
     1
1070
     1
1071
        6
1040
197.49546173725389
1040
66.000000081084295
1040
0.6783124970280917
1040
185.12746206806881
1040
34.922057422430527
1040
0.0
1040
213.68568408812629
1040
7.9141334916077319
1040
0.1916731857395717
1040
218.49546173725389
1040
6.0000000810841811
1040
0.4949333602420844
1040
225.24641585696969
1040
14.85057255291356
1040
0.0
1040
214.85505804509441
1040
52.758615008645712
1040
0.337852277024659
1071
        6
1005
42A
1005
429
1005
408
1005
403
1005
404
1005
40C
1070
     1
1070
     1
1040
0.7853981633974483
1040
12.0
1070
     0
1070
     2
1040
0.7853981633974483
1040
-38.443563057019908
1040
0.0
1040
-1.0606601717798201
1040
1.0606601717798201
1070
     0
1040
2.3561944901923431
1040
-38.443563057019908
1040
0.0
1040
-1.0606601717798201
1040
-1.0606601717798201
1070
     0
1040
0.1341369876310985
1071
        1
1040
197.8456988730768
1040
47.768355286281569
1040
0.0
1002
}
  0
INSERT
  5
648
  8
0
  6
CONTINUOUS
  2
*X4
 10
0.0
 20
0.0
 30
0.0
1001
GRADIENTCOLOR1ACI
1070
     5
1001
GRADIENTCOLOR2ACI
1070
     2
1001
ACAD
1000
HATCH
1002
{
1070
    19
1000
NET
1040
12.0
1040
0.7853981633974483
1000
ASC_BOUNDS
1070
     2
1070
     1
1070
     5
1005
53E
1005
540
1005
548
1005
5E8
1005
53D
1070
     1
1070
     5
1005
549
1005
540
1005
539
1005
53A
1005
5E9
1000
ASC_SEEDPOINT
1011
5.0335780765851723
1021
0.0
1031
0.0
1021
63.818496937129453
1031
0.0
1000
R14_HATCH_DATA
1000
648
1011
1.0
1021
0.0
1031
0.0
1021
0.0
1031
0.0
1011
0.0
1021
0.0
1031
0.0
1021
1.0
1031
0.0
1011
0.0
1021
0.0
1031
0.0
1021
0.0
1031
1.0
1040
0.0
1010
0.0
1020
0.0
1030
1.0
1000
NET
1070
     0
1070
     1
1071
        2
1071
        7
1070
     0
1070
     1
1071
        5
1040
8.0000005818214195
1040
66.000000081084323
1040
0.4849891214219042
1040
66.000000081084352
1040
0.4849891214219042
1040
64.483921411495871
1040
0.4849891214219034
1040
62.000000081084721
1040
8.0000005818212632
1040
62.000000081084721
1071
        5
1005
5E9
1005
53A
1005
539
1005
540
1005
549
1071
        7
1070
     0
1070
     1
1071
        5
1040
48.754657805045333
1040
65.02471043169578
1040
48.754657805045333
1040
66.000000081084352
1040
41.250000581821404
1040
66.000000081084352
1040
41.250000581821261
1040
62.000000081084721
1040
48.754657805045333
1040
62.000000081084721
1071
        5
1005
53D
1005
5E8
1005
548
1005
540
1005
53E
1070
     1
1070
     1
1040
0.7853981633974483
1040
12.0
1070
     0
1070
     2
1040
0.7853981633974483
1040
0.0
1040
0.0
1040
-1.0606601717798201
1040
1.0606601717798201
1070
     0
1040
2.3561944901923431
1040
0.0
1040
0.0
1040
-1.0606601717798201
1040
-1.0606601717798201
1070
     0
1040
0.0846094869376603
1071
        2
1040
5.0335780765851723
1040
63.818496937129453
1040
0.0
1040
44.057376544971021
1040
63.818496937129453
1040
0.0
1002
}
  0
INSERT
  5
67B
  8
0
  6
CONTINUOUS
  2
*X5
 10
-10.05340525285993
 20
159.60019715185129
 30
0.0
 50
270.0
1001
GRADIENTCOLOR1ACI
1070
     5
1001
GRADIENTCOLOR2ACI
1070
     2
1001
ACAD
1000
HATCH
1002
{
1070
    19
1000
NET
1040
12.0
1040
0.7853981633974483
1000
R14_HATCH_DATA
1000
67B
1011
-10.05340525285993
1021
0.0
1031
0.0
1021
158.60019715185129
1031
0.0
1011
-9.0534052528599318
1021
0.0
1031
0.0
1021
159.60019715185129
1031
0.0
1011
-10.05340525285993
1021
0.0
1031
0.0
1021
159.60019715185129
1031
1.0
1040
0.0
1010
0.0
1020
0.0
1030
1.0
1000
NET
1070
     0
1070
     0
1071
        2
1071
        7
1070
     0
1070
     1
1071
       22
1040
8.0000005818212632
1040
214.80773083068851
1040
8.0000005818212632
1040
218.3280706617069
1040
8.0000005818212632
1040
225.54886699011371
1040
0.4849891214219042
1040
225.54886699011371
1040
0.4849891214219042
1040
225.3033719330796
1040
0.4849891214219042
1040
224.5735790069275
1040
0.4849891214219042
1040
221.75339682609101
1040
0.4849891214219042
1040
214.77938463386721
1040
0.4849891214219042
1040
211.96760575864809
1040
0.4849891214219042
1040
209.03529573373751
1040
0.4849891214219042
1040
206.06243877161171
1040
0.4849891214219042
1040
203.13012861846099
1040
0.4849891214219042
1040
200.3183495948677
1040
0.4849891214219042
1040
195.3577987008504
1040
0.4849891214219042
1040
191.71833946839681
1040
0.4849891214219042
1040
189.79436352886469
1040
0.484989121421904
1040
189.54886699011371
1040
8.0000005818212632
1040
189.54886699011371
1040
8.0000005818212632
1040
192.30895733740769
1040
8.0000005818212632
1040
199.65568661792469
1040
8.0000005818212632
1040
203.4802688064965
1040
8.0000005818212632
1040
207.3223923592989
1071
        0
1071
        7
1070
     0
1070
     1
1071
       23
1040
48.754657805045333
1040
213.3934574357981
1040
48.754657805045333
1040
220.7918973822301
1040
48.754657805045333
1040
224.03278686990481
1040
48.754657805045333
1040
224.90817746863959
1040
48.754657805045333
1040
224.9084632979542
1040
48.754657805045539
1040
235.29982110982951
1040
41.250000581821041
1040
235.29982110982951
1040
41.250000581821041
1040
234.49431872656859
1040
41.250000581821041
1040
233.97383868158241
1040
41.250000581821041
1040
232.98491199626361
1040
41.250000581821261
1040
231.5291923864294
1040
41.250000581821261
1040
229.63058061841051
1040
41.250000581821261
1040
218.3280713846186
1040
41.250000581821261
1040
214.807731407917
1040
41.250000581821261
1040
207.32239270802029
1040
41.250000581821261
1040
203.48026919671739
1040
41.250000581821261
1040
199.6556867577813
1040
41.250000581821261
1040
192.3089573374078
1040
41.250000581821261
1040
189.54886699011359
1040
48.754657805045319
1040
189.54886699011371
1040
48.754657805045333
1040
194.3058365574108
1040
48.754657805045333
1040
201.7042763187923
1040
48.754657805045333
1040
207.54886699011379
1071
        0
1070
     1
1070
     1
1040
0.7853981633974483
1040
12.0
1070
     0
1070
     2
1040
0.7853981633974483
1040
0.0
1040
-11.137687076906561
1040
-1.0606601717798201
1040
1.0606601717798201
1070
     0
1040
2.3561944901923431
1040
0.0
1040
-11.137687076906561
1040
-1.0606601717798201
1040
-1.0606601717798201
1070
     0
1040
0.1361180399285352
1071
        2
1040
4.135831204299051
1040
210.54186809140541
1040
0.0
1040
46.080421555024692
1040
211.7669304276296
1040
0.0
1002
}
  0
INSERT
  5
685
  8
0
  6
CONTINUOUS
  2
*X7
 10
0.0
 20
0.0
 30
0.0
1001
GRADIENTCOLOR1ACI
1070
     5
1001
GRADIENTCOLOR2ACI
1070
     2
1001
ACAD
1000
HATCH
1002
{
1070
    19
1000
ANSI31
1040
12.0
1040
-0.7853981633974485
1000
ASC_BOUNDS
1070
     1
1070
     1
1070
     4
1005
59A
1005
59B
1005
598
1005
599
1000
ASC_SEEDPOINT
1011
143.04664991416499
1021
0.0
1031
0.0
1021
141.7098084090095
1031
0.0
1000
R14_HATCH_DATA
1000
685
1011
1.0
1021
0.0
1031
0.0
1021
0.0
1031
0.0
1011
0.0
1021
0.0
1031
0.0
1021
1.0
1031
0.0
1011
0.0
1021
0.0
1031
0.0
1021
0.0
1031
1.0
1040
0.0
1010
0.0
1020
0.0
1030
1.0
1000
ANSI31
1070
     0
1070
     1
1071
        1
1071
        7
1070
     0
1070
     1
1071
        4
1040
97.370461737253876
1040
157.9751965700307
1040
97.370461737253635
1040
111.9751965700307
1040
165.74546173725361
1040
111.9751965700305
1040
165.74546173725389
1040
157.9751965700305
1071
        4
1005
599
1005
598
1005
59B
1005
59A
1070
     1
1070
     1
1040
-0.7853981633974485
1040
12.0
1070
     0
1070
     1
1040
6.2831853071795836
1040
-21.191092329766491
1040
159.60019715185129
1040
0.0000000000000005
1040
1.5
1070
     0
1040
0.1361180399285352
1071
        1
1040
143.04664991416499
1040
141.7098084090095
1040
0.0
1002
}
  0
ENDSEC
  0
EOF
