  0
SECTION
  2
HEADER
  9
$ACADVER
  1
AC1009
  9
$INSBASE
 10
0.0
 20
0.0
 30
0.0
  9
$EXTMIN
 10
-0.0095553864257454
 20
-0.0072488630287921
 30
-0.0015258207003583
  9
$EXTMAX
 10
313.14434916688231
 20
177.58532214536831
 30
0.0000000349246037
  9
$LIMMIN
 10
0.0
 20
0.0
  9
$LIMMAX
 10
12.0
 20
9.0
  9
$ORTHOMODE
 70
     1
  9
$REGENMODE
 70
     1
  9
$FILLMODE
 70
     1
  9
$QTEXTMODE
 70
     0
  9
$MIRRTEXT
 70
     0
  9
$DRAGMODE
 70
     2
  9
$LTSCALE
 40
1.0
  9
$OSMODE
 70
    37
  9
$ATTMODE
 70
     1
  9
$TEXTSIZE
 40
0.2
  9
$TRACEWID
 40
0.05
  9
$TEXTSTYLE
  7
ROMANS
  9
$CLAYER
  8
0
  9
$CELTYPE
  6
BYLAYER
  9
$CECOLOR
 62
   256
  9
$DIMSCALE
 40
1.0
  9
$DIMASZ
 40
0.09375
  9
$DIMEXO
 40
0.0625
  9
$DIMDLI
 40
0.375
  9
$DIMRND
 40
0.0
  9
$DIMDLE
 40
0.0
  9
$DIMEXE
 40
0.03125
  9
$DIMTP
 40
0.0
  9
$DIMTM
 40
0.0
  9
$DIMTXT
 40
0.09375
  9
$DIMCEN
 40
0.09375
  9
$DIMTSZ
 40
0.0
  9
$DIMTOL
 70
     0
  9
$DIMLIM
 70
     0
  9
$DIMTIH
 70
     0
  9
$DIMTOH
 70
     0
  9
$DIMSE1
 70
     0
  9
$DIMSE2
 70
     0
  9
$DIMTAD
 70
     0
  9
$DIMZIN
 70
     0
  9
$DIMBLK
  1

  9
$DIMASO
 70
     1
  9
$DIMSHO
 70
     1
  9
$DIMPOST
  1

  9
$DIMAPOST
  1

  9
$DIMALT
 70
     0
  9
$DIMALTD
 70
     2
  9
$DIMALTF
 40
25.399999999999999
  9
$DIMLFAC
 40
1.0
  9
$DIMTOFL
 70
     0
  9
$DIMTVP
 40
0.0
  9
$DIMTIX
 70
     0
  9
$DIMSOXD
 70
     0
  9
$DIMSAH
 70
     0
  9
$DIMBLK1
  1

  9
$DIMBLK2
  1

  9
$DIMSTYLE
  2
BAC
  9
$DIMCLRD
 70
     0
  9
$DIMCLRE
 70
     6
  9
$DIMCLRT
 70
     0
  9
$DIMTFAC
 40
1.0
  9
$DIMGAP
 40
0.0625
  9
$LUNITS
 70
     5
  9
$LUPREC
 70
     6
  9
$SKETCHINC
 40
0.1
  9
$FILLETRAD
 40
0.0
  9
$AUNITS
 70
     0
  9
$AUPREC
 70
     0
  9
$MENU
  1
.
  9
$ELEVATION
 40
0.0
  9
$PELEVATION
 40
0.0
  9
$THICKNESS
 40
0.0
  9
$LIMCHECK
 70
     0
  9
$BLIPMODE
 70
     0
  9
$CHAMFERA
 40
0.5
  9
$CHAMFERB
 40
0.5
  9
$SKPOLY
 70
     0
  9
$TDCREATE
 40
2456826.7180415159
  9
$TDUPDATE
 40
2456827.5655707992
  9
$TDINDWG
 40
0.0072893866
  9
$TDUSRTIMER
 40
0.0072889815
  9
$USRTIMER
 70
     1
  9
$ANGBASE
 50
0.0
  9
$ANGDIR
 70
     0
  9
$PDMODE
 70
     0
  9
$PDSIZE
 40
0.0
  9
$PLINEWID
 40
0.0
  9
$COORDS
 70
     1
  9
$SPLFRAME
 70
     0
  9
$SPLINETYPE
 70
     6
  9
$SPLINESEGS
 70
     8
  9
$ATTDIA
 70
     0
  9
$ATTREQ
 70
     1
  9
$HANDLING
 70
     1
  9
$HANDSEED
  5
7BA3
  9
$SURFTAB1
 70
     6
  9
$SURFTAB2
 70
     6
  9
$SURFTYPE
 70
     6
  9
$SURFU
 70
     6
  9
$SURFV
 70
     6
  9
$UCSNAME
  2

  9
$UCSORG
 10
0.0
 20
0.0
 30
0.0
  9
$UCSXDIR
 10
1.0
 20
0.0
 30
0.0
  9
$UCSYDIR
 10
0.0
 20
1.0
 30
0.0
  9
$PUCSNAME
  2

  9
$PUCSORG
 10
0.0
 20
0.0
 30
0.0
  9
$PUCSXDIR
 10
1.0
 20
0.0
 30
0.0
  9
$PUCSYDIR
 10
0.0
 20
1.0
 30
0.0
  9
$USERI1
 70
     0
  9
$USERI2
 70
     0
  9
$USERI3
 70
     0
  9
$USERI4
 70
     0
  9
$USERI5
 70
     0
  9
$USERR1
 40
0.0
  9
$USERR2
 40
0.0
  9
$USERR3
 40
0.0
  9
$USERR4
 40
0.0
  9
$USERR5
 40
0.0
  9
$WORLDVIEW
 70
     1
  9
$SHADEDGE
 70
     3
  9
$SHADEDIF
 70
    70
  9
$TILEMODE
 70
     1
  9
$MAXACTVP
 70
    48
  9
$PLIMCHECK
 70
     0
  9
$PEXTMIN
 10
1.0000000000000000E+020
 20
1.0000000000000000E+020
 30
1.0000000000000000E+020
  9
$PEXTMAX
 10
-1.0000000000000000E+020
 20
-1.0000000000000000E+020
 30
-1.0000000000000000E+020
  9
$PLIMMIN
 10
0.0
 20
0.0
  9
$PLIMMAX
 10
12.0
 20
9.0
  9
$UNITMODE
 70
     0
  9
$VISRETAIN
 70
     1
  9
$PLINEGEN
 70
     0
  9
$PSLTSCALE
 70
     1
  0
ENDSEC
  0
SECTION
  2
TABLES
  0
TABLE
  2
VPORT
 70
     1
  0
VPORT
  2
*ACTIVE
 70
     0
 10
0.0
 20
0.0
 11
1.0
 21
1.0
 12
156.56739689022831
 22
88.789036641169773
 13
0.0
 23
0.0
 14
0.5
 24
0.5
 15
0.5
 25
0.5
 16
0.0
 26
0.0
 36
1.0
 17
0.0
 27
0.0
 37
0.0
 40
178.7738963144397
 41
1.7702552719200879
 42
50.0
 43
0.0
 44
0.0
 50
0.0
 51
0.0
 71
     0
 72
   100
 73
     1
 74
     1
 75
     0
 76
     0
 77
     0
 78
     0
  0
ENDTAB
  0
TABLE
  2
LTYPE
 70
     2
  0
LTYPE
  2
CONTINUOUS
 70
     0
  3
Solid line
 72
    65
 73
     0
 40
0.0
  0
LTYPE
  2
PHANTOM2
 70
     0
  3
Phantom (.5x) ___ _ _ ___ _ _ ___ _ _ ___ _ _
 72
    65
 73
     6
 40
1.25
 49
0.625
 49
-0.125
 49
0.125
 49
-0.125
 49
0.125
 49
-0.125
  0
ENDTAB
  0
TABLE
  2
LAYER
 70
     1
  0
LAYER
  2
0
 70
     0
 62
     7
  6
CONTINUOUS
  0
ENDTAB
  0
TABLE
  2
STYLE
 70
     2
  0
STYLE
  2
STANDARD
 70
     0
 40
0.0
 41
1.0
 50
0.0
 71
     0
 42
0.2
  3
txt
  4

  0
STYLE
  2
ROMANS
 70
     0
 40
0.0
 41
0.75
 50
0.0
 71
     0
 42
0.2
  3
romans.shx
  4

  0
ENDTAB
  0
TABLE
  2
VIEW
 70
     0
  0
ENDTAB
  0
TABLE
  2
UCS
 70
     0
  0
ENDTAB
  0
TABLE
  2
APPID
 70
    16
  0
APPID
  2
ACAD
 70
     0
  0
APPID
  2
ACADANNOTATIVE
 70
     0
  0
APPID
  2
ACAD_MLEADERVER
 70
     0
  0
APPID
  2
ACAD_DSTYLE_DIMJAG
 70
     0
  0
APPID
  2
ACAD_DSTYLE_DIMTALN
 70
     0
  0
APPID
  2
ACAD_PSEXT
 70
     0
  0
APPID
  2
ACADANNOPO
 70
     0
  0
APPID
  2
MCAD_NO_VIS
 70
     0
  0
APPID
  2
ACAD_TEMP_GRAPHIC
 70
     0
  0
APPID
  2
ACATTRIBSERVICES
 70
     0
  0
APPID
  2
DESIGNERASSEMBLIES
 70
     0
  0
APPID
  2
ACAD_DSTYLE_DIMBREAK
 70
     0
  0
APPID
  2
ACAD_NAV_VCDISPLAY
 70
     0
  0
APPID
  2
ACAD_EXEMPT_FROM_CAD_STANDARDS
 70
     0
  0
APPID
  2
GRADIENTCOLOR1ACI
 70
     0
  0
APPID
  2
GRADIENTCOLOR2ACI
 70
     0
  0
ENDTAB
  0
TABLE
  2
DIMSTYLE
 70
     2
  0
DIMSTYLE
  2
STANDARD
 70
     0
  3

  4

  5

  6

  7

 40
1.0
 41
0.18
 42
0.0625
 43
0.38
 44
0.18
 45
0.0
 46
0.0
 47
0.0
 48
0.0
140
0.18
141
0.09
142
0.0
143
25.399999999999999
144
1.0
145
0.0
146
1.0
147
0.09
 71
     0
 72
     0
 73
     1
 74
     1
 75
     0
 76
     0
 77
     0
 78
     0
170
     0
171
     2
172
     0
173
     0
174
     0
175
     0
176
     0
177
     0
178
     0
  0
DIMSTYLE
  2
BAC
 70
     0
  3

  4

  5

  6

  7

 40
1.0
 41
0.09375
 42
0.0625
 43
0.375
 44
0.03125
 45
0.0
 46
0.0
 47
0.0
 48
0.0
140
0.09375
141
0.09375
142
0.0
143
25.399999999999999
144
1.0
145
0.0
146
1.0
147
0.0625
 71
     0
 72
     0
 73
     0
 74
     0
 75
     0
 76
     0
 77
     0
 78
     0
170
     0
171
     2
172
     0
173
     0
174
     0
175
     0
176
     0
177
     6
178
     0
  0
ENDTAB
  0
ENDSEC
  0
SECTION
  2
BLOCKS
  0
BLOCK
  8
0
  2
$MODEL_SPACE
 70
     0
 10
0.0
 20
0.0
 30
0.0
  3
$MODEL_SPACE
  1

  0
ENDBLK
  5
7A9F
  8
0
  0
BLOCK
 67
     1
  8
0
  2
$PAPER_SPACE
 70
     0
 10
0.0
 20
0.0
 30
0.0
  3
$PAPER_SPACE
  1

  0
ENDBLK
  5
7A9B
 67
     1
  8
0
  0
BLOCK
  8
0
  2
*X0
 70
     1
 10
0.0
 20
0.0
 30
0.0
  3
*X0
  1

  0
LINE
  5
78FF
  8
0
 62
     0
 10
312.64980378270752
 20
65.841112014996583
 30
0.0
 11
312.55239484249938
 21
65.938520955204638
 31
0.0
  0
LINE
  5
7900
  8
0
 62
     0
 10
312.64980378270752
 20
63.719791671436951
 30
0.0
 11
310.43107449893972
 21
65.938520955204652
 31
0.0
  0
LINE
  5
7901
  8
0
 62
     0
 10
312.64980378270752
 20
61.598471327877292
 30
0.0
 11
308.30975415538018
 21
65.938520955204638
 31
0.0
  0
LINE
  5
7902
  8
0
 62
     0
 10
312.64980378270752
 20
59.477150984317639
 30
0.0
 11
306.18843381182057
 21
65.938520955204595
 31
0.0
  0
LINE
  5
7903
  8
0
 62
     0
 10
312.64980378270752
 20
57.355830640758001
 30
0.0
 11
305.13479232230821
 21
64.870842101157365
 31
0.0
  0
LINE
  5
7904
  8
0
 62
     0
 10
312.64980378270752
 20
55.234510297198362
 30
0.0
 11
305.13479232230821
 21
62.749521757597719
 31
0.0
  0
LINE
  5
7905
  8
0
 62
     0
 10
312.64980378270752
 20
53.113189953638731
 30
0.0
 11
305.13479232230821
 21
60.628201414038081
 31
0.0
  0
LINE
  5
7906
  8
0
 62
     0
 10
312.64980378270752
 20
50.99186961007905
 30
0.0
 11
305.13479232230821
 21
58.506881070478443
 31
0.0
  0
LINE
  5
7907
  8
0
 62
     0
 10
312.64980378270752
 20
48.870549266519447
 30
0.0
 11
305.13479232230821
 21
56.385560726918811
 31
0.0
  0
LINE
  5
7908
  8
0
 62
     0
 10
312.64980378270752
 20
46.74922892295978
 30
0.0
 11
305.13479232230821
 21
54.26424038335913
 31
0.0
  0
LINE
  5
7909
  8
0
 62
     0
 10
312.64980378270752
 20
44.627908579400149
 30
0.0
 11
305.13479232230821
 21
52.14292003979952
 31
0.0
  0
LINE
  5
790A
  8
0
 62
     0
 10
312.64980378270752
 20
42.506588235840532
 30
0.0
 11
305.13479232230821
 21
50.021599696239917
 31
0.0
  0
LINE
  5
790B
  8
0
 62
     0
 10
312.64980378270752
 20
40.385267892280851
 30
0.0
 11
305.13479232230821
 21
47.900279352680208
 31
0.0
  0
LINE
  5
790C
  8
0
 62
     0
 10
312.64980378270752
 20
38.263947548721241
 30
0.0
 11
305.13479232230821
 21
45.778959009120562
 31
0.0
  0
LINE
  5
790D
  8
0
 62
     0
 10
312.64980378270752
 20
36.14262720516161
 30
0.0
 11
305.13479232230821
 21
43.65763866556096
 31
0.0
  0
LINE
  5
790E
  8
0
 62
     0
 10
312.64980378270752
 20
34.021306861601943
 30
0.0
 11
305.13479232230821
 21
41.536318322001321
 31
0.0
  0
LINE
  5
790F
  8
0
 62
     0
 10
312.64980378270752
 20
31.899986518042279
 30
0.0
 11
305.13479232230821
 21
39.414997978441683
 31
0.0
  0
LINE
  5
7910
  8
0
 62
     0
 10
312.36699075022568
 20
30.061479206964488
 30
0.0
 11
305.13479232230821
 21
37.293677634882023
 31
0.0
  0
LINE
  5
7911
  8
0
 62
     0
 10
310.24567040666608
 20
30.061479206964439
 30
0.0
 11
305.13479232230821
 21
35.172357291322378
 31
0.0
  0
LINE
  5
7912
  8
0
 62
     0
 10
308.12435006310648
 20
30.06147920696435
 30
0.0
 11
305.13479232230821
 21
33.051036947762732
 31
0.0
  0
LINE
  5
7913
  8
0
 62
     0
 10
271.88479232230821
 20
64.179716604203094
 30
0.0
 11
270.06450884542659
 21
66.00000008108465
 31
0.0
  0
LINE
  5
7914
  8
0
 62
     0
 10
306.00302971954687
 20
30.061479206964268
 30
0.0
 11
305.13479232230821
 21
30.92971660420309
 31
0.0
  0
LINE
  5
7915
  8
0
 62
     0
 10
271.88479232230821
 20
62.05839626064342
 30
0.0
 11
267.94318850186693
 21
66.00000008108465
 31
0.0
  0
LINE
  5
7916
  8
0
 62
     0
 10
271.88479232230821
 20
59.937075917083781
 30
0.0
 11
265.82186815830732
 21
66.00000008108465
 31
0.0
  0
LINE
  5
7917
  8
0
 62
     0
 10
271.88479232230821
 20
57.81575557352415
 30
0.0
 11
264.38013509908387
 21
65.32041279674857
 31
0.0
  0
LINE
  5
7918
  8
0
 62
     0
 10
271.88479232230821
 20
55.694435229964512
 30
0.0
 11
264.3801350990837
 21
63.199092453189017
 31
0.0
  0
LINE
  5
7919
  8
0
 62
     0
 10
271.88479232230821
 20
53.573114886404888
 30
0.0
 11
264.3801350990837
 21
61.0777721096294
 31
0.0
  0
LINE
  5
791A
  8
0
 62
     0
 10
271.88479232230821
 20
51.451794542845221
 30
0.0
 11
264.3801350990837
 21
58.956451766069762
 31
0.0
  0
LINE
  5
791B
  8
0
 62
     0
 10
271.88479232230821
 20
49.330474199285561
 30
0.0
 11
264.3801350990837
 21
56.835131422510102
 31
0.0
  0
LINE
  5
791C
  8
0
 62
     0
 10
271.88479232230821
 20
47.209153855725951
 30
0.0
 11
264.3801350990837
 21
54.713811078950471
 31
0.0
  0
LINE
  5
791D
  8
0
 62
     0
 10
271.88479232230821
 20
45.087833512166299
 30
0.0
 11
264.3801350990837
 21
52.592490735390811
 31
0.0
  0
LINE
  5
791E
  8
0
 62
     0
 10
271.88479232230821
 20
42.966513168606653
 30
0.0
 11
264.3801350990837
 21
50.47117039183118
 31
0.0
  0
LINE
  5
791F
  8
0
 62
     0
 10
271.88479232230821
 20
40.845192825047029
 30
0.0
 11
264.3801350990837
 21
48.349850048271541
 31
0.0
  0
LINE
  5
7920
  8
0
 62
     0
 10
271.88479232230821
 20
38.72387248148739
 30
0.0
 11
264.3801350990837
 21
46.228529704711917
 31
0.0
  0
LINE
  5
7921
  8
0
 62
     0
 10
271.88479232230821
 20
36.602552137927752
 30
0.0
 11
264.3801350990837
 21
44.107209361152229
 31
0.0
  0
LINE
  5
7922
  8
0
 62
     0
 10
271.88479232230821
 20
34.481231794368092
 30
0.0
 11
264.3801350990837
 21
41.985889017592612
 31
0.0
  0
LINE
  5
7923
  8
0
 62
     0
 10
271.88479232230821
 20
32.359911450808447
 30
0.0
 11
264.3801350990837
 21
39.864568674032967
 31
0.0
  0
LINE
  5
7924
  8
0
 62
     0
 10
271.88479232230821
 20
30.238591107248801
 30
0.0
 11
264.3801350990837
 21
37.743248330473342
 31
0.0
  0
LINE
  5
7925
  8
0
 62
     0
 10
271.88479232230821
 20
28.117270763689159
 30
0.0
 11
264.3801350990837
 21
35.62192798691369
 31
0.0
  0
LINE
  5
7926
  8
0
 62
     0
 10
271.88479232230821
 20
25.995950420129532
 30
0.0
 11
264.3801350990837
 21
33.500607643354051
 31
0.0
  0
LINE
  5
7927
  8
0
 62
     0
 10
271.88479232230821
 20
23.874630076569868
 30
0.0
 11
264.3801350990837
 21
31.379287299794409
 31
0.0
  0
LINE
  5
7928
  8
0
 62
     0
 10
271.88479232230821
 20
21.753309733010202
 30
0.0
 11
264.3801350990837
 21
29.25796695623475
 31
0.0
  0
LINE
  5
7929
  8
0
 62
     0
 10
271.88479232230821
 20
19.631989389450581
 30
0.0
 11
264.3801350990837
 21
27.136646612675118
 31
0.0
  0
LINE
  5
792A
  8
0
 62
     0
 10
271.88479232230821
 20
17.51066904589095
 30
0.0
 11
264.3801350990837
 21
25.015326269115491
 31
0.0
  0
LINE
  5
792B
  8
0
 62
     0
 10
271.88479232230821
 20
15.38934870233129
 30
0.0
 11
264.3801350990837
 21
22.894005925555831
 31
0.0
  0
LINE
  5
792C
  8
0
 62
     0
 10
271.88479232230821
 20
13.268028358771691
 30
0.0
 11
264.3801350990837
 21
20.7726855819962
 31
0.0
  0
LINE
  5
792D
  8
0
 62
     0
 10
271.88479232230821
 20
11.146708015212029
 30
0.0
 11
264.3801350990837
 21
18.65136523843654
 31
0.0
  0
LINE
  5
792E
  8
0
 62
     0
 10
271.88479232230821
 20
9.0253876716523962
 30
0.0
 11
264.3801350990837
 21
16.530044894876909
 31
0.0
  0
LINE
  5
792F
  8
0
 62
     0
 10
271.88479232230821
 20
6.9040673280927622
 30
0.0
 11
264.3801350990837
 21
14.408724551317251
 31
0.0
  0
LINE
  5
7930
  8
0
 62
     0
 10
270.66753922575401
 20
6.0000000810872489
 30
0.0
 11
264.3801350990837
 21
12.28740420775762
 31
0.0
  0
LINE
  5
7931
  8
0
 62
     0
 10
268.54621888219441
 20
6.0000000810872489
 30
0.0
 11
264.3801350990837
 21
10.16608386419796
 31
0.0
  0
LINE
  5
7932
  8
0
 62
     0
 10
266.42489853863469
 20
6.0000000810872489
 30
0.0
 11
264.3801350990837
 21
8.0447635206382984
 31
0.0
  0
LINE
  5
7933
  8
0
 62
     0
 10
310.9716592009251
 20
30.06147920696446
 30
0.0
 11
312.64980378270752
 21
31.739623788746911
 31
0.0
  0
LINE
  5
7934
  8
0
 62
     0
 10
308.85033885736539
 20
30.061479206964378
 30
0.0
 11
312.64980378270752
 21
33.86094413230655
 31
0.0
  0
LINE
  5
7935
  8
0
 62
     0
 10
306.72901851380573
 20
30.06147920696435
 30
0.0
 11
312.64980378270752
 21
35.982264475866209
 31
0.0
  0
LINE
  5
7936
  8
0
 62
     0
 10
305.13479232230821
 20
30.588573359026501
 30
0.0
 11
312.64980378270752
 21
38.103584819425848
 31
0.0
  0
LINE
  5
7937
  8
0
 62
     0
 10
305.13479232230821
 20
32.709893702586101
 30
0.0
 11
312.64980378270752
 21
40.224905162985451
 31
0.0
  0
LINE
  5
7938
  8
0
 62
     0
 10
305.13479232230821
 20
34.83121404614576
 30
0.0
 11
312.64980378270752
 21
42.346225506545117
 31
0.0
  0
LINE
  5
7939
  8
0
 62
     0
 10
305.13479232230821
 20
36.95253438970542
 30
0.0
 11
312.64980378270752
 21
44.467545850104763
 31
0.0
  0
LINE
  5
793A
  8
0
 62
     0
 10
305.13479232230821
 20
39.07385473326508
 30
0.0
 11
312.64980378270752
 21
46.588866193664373
 31
0.0
  0
LINE
  5
793B
  8
0
 62
     0
 10
305.13479232230821
 20
41.195175076824732
 30
0.0
 11
312.64980378270752
 21
48.710186537224047
 31
0.0
  0
LINE
  5
793C
  8
0
 62
     0
 10
269.93961732657073
 20
6.0000000810872489
 30
0.0
 11
271.88479232230821
 21
7.9451750768246807
 31
0.0
  0
LINE
  5
793D
  8
0
 62
     0
 10
305.13479232230821
 20
43.316495420384342
 30
0.0
 11
312.64980378270752
 21
50.831506880783699
 31
0.0
  0
LINE
  5
793E
  8
0
 62
     0
 10
267.81829698301101
 20
6.0000000810872489
 30
0.0
 11
271.88479232230821
 21
10.06649542038434
 31
0.0
  0
LINE
  5
793F
  8
0
 62
     0
 10
305.13479232230821
 20
45.437815763943988
 30
0.0
 11
312.64980378270752
 21
52.952827224343331
 31
0.0
  0
LINE
  5
7940
  8
0
 62
     0
 10
265.69697663945152
 20
6.0000000810872782
 30
0.0
 11
271.88479232230821
 21
12.18781576394397
 31
0.0
  0
LINE
  5
7941
  8
0
 62
     0
 10
305.13479232230821
 20
47.559136107503612
 30
0.0
 11
312.64980378270752
 21
55.074147567902962
 31
0.0
  0
LINE
  5
7942
  8
0
 62
     0
 10
264.3801350990837
 20
6.8044788842790922
 30
0.0
 11
271.88479232230821
 21
14.309136107503599
 31
0.0
  0
LINE
  5
7943
  8
0
 62
     0
 10
305.13479232230821
 20
49.680456451063293
 30
0.0
 11
312.64980378270752
 21
57.195467911462629
 31
0.0
  0
LINE
  5
7944
  8
0
 62
     0
 10
264.3801350990837
 20
8.9257992278387501
 30
0.0
 11
271.88479232230821
 21
16.430456451063261
 31
0.0
  0
LINE
  5
7945
  8
0
 62
     0
 10
305.13479232230821
 20
51.801776794622953
 30
0.0
 11
312.64980378270752
 21
59.31678825502226
 31
0.0
  0
LINE
  5
7946
  8
0
 62
     0
 10
264.3801350990837
 20
11.04711957139838
 30
0.0
 11
271.88479232230821
 21
18.551776794622882
 31
0.0
  0
LINE
  5
7947
  8
0
 62
     0
 10
305.13479232230821
 20
53.923097138182527
 30
0.0
 11
312.64980378270752
 21
61.438108598581877
 31
0.0
  0
LINE
  5
7948
  8
0
 62
     0
 10
264.3801350990837
 20
13.168439914958009
 30
0.0
 11
271.88479232230821
 21
20.673097138182499
 31
0.0
  0
LINE
  5
7949
  8
0
 62
     0
 10
305.13479232230821
 20
56.04441748174218
 30
0.0
 11
312.64980378270752
 21
63.559428942141537
 31
0.0
  0
LINE
  5
794A
  8
0
 62
     0
 10
264.3801350990837
 20
15.289760258517701
 30
0.0
 11
271.88479232230821
 21
22.794417481742158
 31
0.0
  0
LINE
  5
794B
  8
0
 62
     0
 10
305.13479232230821
 20
58.165737825301839
 30
0.0
 11
312.64980378270752
 21
65.680749285701211
 31
0.0
  0
LINE
  5
794C
  8
0
 62
     0
 10
264.3801350990837
 20
17.41108060207733
 30
0.0
 11
271.88479232230821
 21
24.915737825301829
 31
0.0
  0
LINE
  5
794D
  8
0
 62
     0
 10
305.13479232230821
 20
60.287058168861442
 30
0.0
 11
310.78625510865118
 21
65.938520955204581
 31
0.0
  0
LINE
  5
794E
  8
0
 62
     0
 10
264.3801350990837
 20
19.532400945636962
 30
0.0
 11
271.88479232230821
 21
27.03705816886146
 31
0.0
  0
LINE
  5
794F
  8
0
 62
     0
 10
305.13479232230821
 20
62.408378512421109
 30
0.0
 11
308.66493476509157
 21
65.938520955204581
 31
0.0
  0
LINE
  5
7950
  8
0
 62
     0
 10
264.3801350990837
 20
21.6537212891966
 30
0.0
 11
271.88479232230821
 21
29.158378512421081
 31
0.0
  0
LINE
  5
7951
  8
0
 62
     0
 10
305.13479232230821
 20
64.529698855980783
 30
0.0
 11
306.54361442153208
 21
65.938520955204638
 31
0.0
  0
LINE
  5
7952
  8
0
 62
     0
 10
264.3801350990837
 20
23.775041632756249
 30
0.0
 11
271.88479232230821
 21
31.279698855980769
 31
0.0
  0
LINE
  5
7953
  8
0
 62
     0
 10
264.3801350990837
 20
25.896361976315891
 30
0.0
 11
271.88479232230821
 21
33.4010191995404
 31
0.0
  0
LINE
  5
7954
  8
0
 62
     0
 10
264.3801350990837
 20
28.017682319875519
 30
0.0
 11
271.88479232230821
 21
35.52233954310001
 31
0.0
  0
LINE
  5
7955
  8
0
 62
     0
 10
264.3801350990837
 20
30.139002663435178
 30
0.0
 11
271.88479232230821
 21
37.643659886659691
 31
0.0
  0
LINE
  5
7956
  8
0
 62
     0
 10
264.3801350990837
 20
32.26032300699481
 30
0.0
 11
271.88479232230821
 21
39.764980230219351
 31
0.0
  0
LINE
  5
7957
  8
0
 62
     0
 10
264.3801350990837
 20
34.381643350554441
 30
0.0
 11
271.88479232230821
 21
41.886300573778961
 31
0.0
  0
LINE
  5
7958
  8
0
 62
     0
 10
264.3801350990837
 20
36.502963694114086
 30
0.0
 11
271.88479232230821
 21
44.007620917338592
 31
0.0
  0
LINE
  5
7959
  8
0
 62
     0
 10
264.3801350990837
 20
38.624284037673732
 30
0.0
 11
271.88479232230821
 21
46.128941260898237
 31
0.0
  0
LINE
  5
795A
  8
0
 62
     0
 10
264.3801350990837
 20
40.745604381233349
 30
0.0
 11
271.88479232230821
 21
48.250261604457847
 31
0.0
  0
LINE
  5
795B
  8
0
 62
     0
 10
264.3801350990837
 20
42.866924724793023
 30
0.0
 11
271.88479232230821
 21
50.371581948017507
 31
0.0
  0
LINE
  5
795C
  8
0
 62
     0
 10
264.3801350990837
 20
44.988245068352683
 30
0.0
 11
271.88479232230821
 21
52.492902291577167
 31
0.0
  0
LINE
  5
795D
  8
0
 62
     0
 10
264.3801350990837
 20
47.109565411912293
 30
0.0
 11
271.88479232230821
 21
54.614222635136819
 31
0.0
  0
LINE
  5
795E
  8
0
 62
     0
 10
264.3801350990837
 20
49.230885755471917
 30
0.0
 11
271.88479232230821
 21
56.735542978696422
 31
0.0
  0
LINE
  5
795F
  8
0
 62
     0
 10
264.3801350990837
 20
51.352206099031612
 30
0.0
 11
271.88479232230821
 21
58.856863322256103
 31
0.0
  0
LINE
  5
7960
  8
0
 62
     0
 10
264.3801350990837
 20
53.473526442591243
 30
0.0
 11
271.88479232230821
 21
60.978183665815749
 31
0.0
  0
LINE
  5
7961
  8
0
 62
     0
 10
264.3801350990837
 20
55.594846786150868
 30
0.0
 11
271.88479232230821
 21
63.099504009375352
 31
0.0
  0
LINE
  5
7962
  8
0
 62
     0
 10
264.3801350990837
 20
57.71616712971052
 30
0.0
 11
271.88479232230821
 21
65.220824352935011
 31
0.0
  0
LINE
  5
7963
  8
0
 62
     0
 10
264.3801350990837
 20
59.837487473270158
 30
0.0
 11
270.54264770689821
 21
66.000000081084693
 31
0.0
  0
LINE
  5
7964
  8
0
 62
     0
 10
264.3801350990837
 20
61.958807816829832
 30
0.0
 11
268.42132736333849
 21
66.000000081084693
 31
0.0
  0
LINE
  5
7965
  8
0
 62
     0
 10
264.3801350990837
 20
64.080128160389449
 30
0.0
 11
266.30000701977877
 21
66.00000008108465
 31
0.0
  0
ENDBLK
  5
7967
  8
0
  0
BLOCK
  8
0
  2
*X1
 70
     1
 10
0.0
 20
0.0
 30
0.0
  3
*X1
  1

  0
LINE
  5
7969
  8
0
 62
     0
 10
214.02706458519179
 20
55.12082217393651
 30
0.0
 11
204.616283830106
 21
64.531602929022213
 31
0.0
  0
LINE
  5
796A
  8
0
 62
     0
 10
215.07677207895881
 20
51.949794336609742
 30
0.0
 11
201.47110360157171
 21
65.555462813996883
 31
0.0
  0
LINE
  5
796B
  8
0
 62
     0
 10
215.8778641803091
 20
49.027381891699889
 30
0.0
 11
198.96536334761089
 21
65.939882724398032
 31
0.0
  0
LINE
  5
796C
  8
0
 62
     0
 10
216.67895628165931
 20
46.104969446790022
 30
0.0
 11
196.797464091877
 21
65.986461636572329
 31
0.0
  0
LINE
  5
796D
  8
0
 62
     0
 10
217.4800483830094
 20
43.18255700188017
 30
0.0
 11
194.85702593845929
 21
65.8055794464304
 31
0.0
  0
LINE
  5
796E
  8
0
 62
     0
 10
218.2811404843597
 20
40.260144556970289
 30
0.0
 11
193.08898067995929
 21
65.452304361370707
 31
0.0
  0
LINE
  5
796F
  8
0
 62
     0
 10
219.08223258570999
 20
37.337732112060451
 30
0.0
 11
191.46146121342471
 21
64.958503484345712
 31
0.0
  0
LINE
  5
7970
  8
0
 62
     0
 10
219.8833246870602
 20
34.415319667150612
 30
0.0
 11
189.9544404639567
 21
64.34420389025405
 31
0.0
  0
LINE
  5
7971
  8
0
 62
     0
 10
220.68441678841029
 20
31.492907222240749
 30
0.0
 11
188.55477325736359
 21
63.622550753287499
 31
0.0
  0
LINE
  5
7972
  8
0
 62
     0
 10
221.48550888976061
 20
28.5704947773309
 30
0.0
 11
187.2537374327766
 21
62.802266234314921
 31
0.0
  0
LINE
  5
7973
  8
0
 62
     0
 10
222.2866009911109
 20
25.648082332421001
 30
0.0
 11
186.0457177465282
 21
61.888965577003688
 31
0.0
  0
LINE
  5
7974
  8
0
 62
     0
 10
223.087693092461
 20
22.72566988751117
 30
0.0
 11
184.9274828096286
 21
60.88588017034354
 31
0.0
  0
LINE
  5
7975
  8
0
 62
     0
 10
223.88878519381129
 20
19.803257442601279
 30
0.0
 11
183.89781106996421
 21
59.794231566448389
 31
0.0
  0
LINE
  5
7976
  8
0
 62
     0
 10
224.68987729516141
 20
16.880844997691479
 30
0.0
 11
182.9573572081338
 21
58.613365084719057
 31
0.0
  0
LINE
  5
7977
  8
0
 62
     0
 10
225.4192451830281
 20
14.03015676626514
 30
0.0
 11
182.1087232161066
 21
57.340678733186678
 31
0.0
  0
LINE
  5
7978
  8
0
 62
     0
 10
225.4111636602382
 20
11.916917945495429
 30
0.0
 11
181.35675296171311
 21
55.971328644020481
 31
0.0
  0
LINE
  5
7979
  8
0
 62
     0
 10
224.93985465415949
 20
10.266906608014439
 30
0.0
 11
180.70913309566339
 21
54.497628166510538
 31
0.0
  0
LINE
  5
797A
  8
0
 62
     0
 10
224.17593914585319
 20
8.9095017727611605
 30
0.0
 11
180.17749284613501
 21
52.907948072479279
 31
0.0
  0
LINE
  5
797B
  8
0
 62
     0
 10
223.1724036961001
 20
7.7917168789546301
 30
0.0
 11
179.77943081475109
 21
51.184689760303563
 31
0.0
  0
LINE
  5
797C
  8
0
 62
     0
 10
221.93786732010881
 20
6.9049329113862541
 30
0.0
 11
179.5424900178125
 21
49.300310213682543
 31
0.0
  0
LINE
  5
797D
  8
0
 62
     0
 10
220.44462968658129
 20
6.276850201354077
 30
0.0
 11
179.51286720864701
 21
47.208612679288272
 31
0.0
  0
LINE
  5
797E
  8
0
 62
     0
 10
218.59938794529461
 20
6.0007715990811459
 30
0.0
 11
179.77824488284941
 21
44.821914661526272
 31
0.0
  0
LINE
  5
797F
  8
0
 62
     0
 10
216.03046370435101
 20
6.4483754964651157
 30
0.0
 11
180.55035258227471
 21
41.928486618541449
 31
0.0
  0
LINE
  5
7980
  8
0
 62
     0
 10
190.8011543463258
 20
29.556364510930681
 30
0.0
 11
182.92125812018861
 21
37.436260737067897
 31
0.0
  0
LINE
  5
7981
  8
0
 62
     0
 10
220.2056930961806
 20
6.2121352696030501
 30
0.0
 11
225.283326548735
 21
11.289768722157421
 31
0.0
  0
LINE
  5
7982
  8
0
 62
     0
 10
217.8977986059177
 20
6.0255611228996866
 30
0.0
 11
225.46990069543841
 21
13.59766321242043
 31
0.0
  0
LINE
  5
7983
  8
0
 62
     0
 10
216.1540984463237
 20
6.4031813068654202
 30
0.0
 11
225.10766343972551
 21
15.356746300267149
 31
0.0
  0
LINE
  5
7984
  8
0
 62
     0
 10
214.7291695231437
 20
7.099572727245044
 30
0.0
 11
224.65127270606411
 21
17.021675910165431
 31
0.0
  0
LINE
  5
7985
  8
0
 62
     0
 10
213.55037433552499
 20
8.0420978831859866
 30
0.0
 11
224.1948819724027
 21
18.68660552006364
 31
0.0
  0
LINE
  5
7986
  8
0
 62
     0
 10
212.46012169499471
 20
9.0731655862153104
 30
0.0
 11
223.73849123874129
 21
20.35153512996192
 31
0.0
  0
LINE
  5
7987
  8
0
 62
     0
 10
211.36986905446429
 20
10.10423328924462
 30
0.0
 11
223.28210050507991
 21
22.016464739860179
 31
0.0
  0
LINE
  5
7988
  8
0
 62
     0
 10
210.27961641393401
 20
11.135300992273921
 30
0.0
 11
222.8257097714185
 21
23.681394349758389
 31
0.0
  0
LINE
  5
7989
  8
0
 62
     0
 10
209.1893637734037
 20
12.16636869530328
 30
0.0
 11
222.36931903775709
 21
25.346323959656679
 31
0.0
  0
LINE
  5
798A
  8
0
 62
     0
 10
208.09911113287339
 20
13.197436398332551
 30
0.0
 11
221.91292830409569
 21
27.011253569554938
 31
0.0
  0
LINE
  5
798B
  8
0
 62
     0
 10
207.00885849234299
 20
14.22850410136185
 30
0.0
 11
221.45653757043431
 21
28.67618317945313
 31
0.0
  0
LINE
  5
798C
  8
0
 62
     0
 10
205.91860585181271
 20
15.259571804391181
 30
0.0
 11
221.00014683677301
 21
30.341112789351431
 31
0.0
  0
LINE
  5
798D
  8
0
 62
     0
 10
204.8283532112824
 20
16.290639507420501
 30
0.0
 11
220.5437561031116
 21
32.006042399249708
 31
0.0
  0
LINE
  5
798E
  8
0
 62
     0
 10
203.73810057075201
 20
17.321707210449809
 30
0.0
 11
220.08736536945011
 21
33.670972009147931
 31
0.0
  0
LINE
  5
798F
  8
0
 62
     0
 10
202.6478479302217
 20
18.35277491347912
 30
0.0
 11
219.63097463578879
 21
35.33590161904619
 31
0.0
  0
LINE
  5
7990
  8
0
 62
     0
 10
201.55759528969139
 20
19.383842616508439
 30
0.0
 11
219.17458390212741
 21
37.00083122894447
 31
0.0
  0
LINE
  5
7991
  8
0
 62
     0
 10
200.467342649161
 20
20.414910319537729
 30
0.0
 11
218.718193168466
 21
38.665760838842672
 31
0.0
  0
LINE
  5
7992
  8
0
 62
     0
 10
199.37709000863069
 20
21.445978022567079
 30
0.0
 11
218.26180243480451
 21
40.330690448740917
 31
0.0
  0
LINE
  5
7993
  8
0
 62
     0
 10
198.28683736810041
 20
22.47704572559638
 30
0.0
 11
217.80541170114321
 21
41.995620058639219
 31
0.0
  0
LINE
  5
7994
  8
0
 62
     0
 10
197.19658472757001
 20
23.508113428625659
 30
0.0
 11
217.34902096748181
 21
43.660549668537421
 31
0.0
  0
LINE
  5
7995
  8
0
 62
     0
 10
196.10633208703959
 20
24.53918113165502
 30
0.0
 11
216.89263023382051
 21
45.325479278435701
 31
0.0
  0
LINE
  5
7996
  8
0
 62
     0
 10
195.01607944650931
 20
25.570248834684321
 30
0.0
 11
216.4362395001591
 21
46.990408888333967
 31
0.0
  0
LINE
  5
7997
  8
0
 62
     0
 10
193.925826805979
 20
26.601316537713618
 30
0.0
 11
215.9798487664977
 21
48.655338498232219
 31
0.0
  0
LINE
  5
7998
  8
0
 62
     0
 10
192.83557416544869
 20
27.632384240742919
 30
0.0
 11
215.52345803283629
 21
50.32026810813047
 31
0.0
  0
LINE
  5
7999
  8
0
 62
     0
 10
191.74532152491841
 20
28.66345194377223
 30
0.0
 11
215.06706729917491
 21
51.985197718028708
 31
0.0
  0
LINE
  5
799A
  8
0
 62
     0
 10
190.65506888438799
 20
29.694519646801581
 30
0.0
 11
214.5918931412578
 21
53.631343903671286
 31
0.0
  0
LINE
  5
799B
  8
0
 62
     0
 10
189.56481624385759
 20
30.72558734983086
 30
0.0
 11
214.0068345111751
 21
55.167605617148197
 31
0.0
  0
LINE
  5
799C
  8
0
 62
     0
 10
188.4745636033274
 20
31.756655052860179
 30
0.0
 11
213.3115639308206
 21
56.593655380353319
 31
0.0
  0
LINE
  5
799D
  8
0
 62
     0
 10
187.38431096279709
 20
32.78772275588949
 30
0.0
 11
212.51577348556091
 21
57.919185278653259
 31
0.0
  0
LINE
  5
799E
  8
0
 62
     0
 10
186.29405832226681
 20
33.818790458918798
 30
0.0
 11
211.62578369236519
 21
59.150515829017209
 31
0.0
  0
LINE
  5
799F
  8
0
 62
     0
 10
185.20380568173641
 20
34.849858161948148
 30
0.0
 11
210.64538666750551
 21
60.291439147717142
 31
0.0
  0
LINE
  5
79A0
  8
0
 62
     0
 10
184.1517940171729
 20
35.919166840944321
 30
0.0
 11
209.5762949773939
 21
61.343667801165182
 31
0.0
  0
LINE
  5
79A1
  8
0
 62
     0
 10
183.1884378716876
 20
37.07713103901861
 30
0.0
 11
208.4183307793196
 21
62.307023946650581
 31
0.0
  0
LINE
  5
79A2
  8
0
 62
     0
 10
182.31604174061681
 20
38.326055251507469
 30
0.0
 11
207.1694065668307
 21
63.179420077721332
 31
0.0
  0
LINE
  5
79A3
  8
0
 62
     0
 10
181.53883551667161
 20
39.670169371122
 30
0.0
 11
205.8252924472161
 21
63.956626301666432
 31
0.0
  0
LINE
  5
79A4
  8
0
 62
     0
 10
180.8637016824789
 20
41.116355880488811
 30
0.0
 11
204.3791059378494
 21
64.631760135859253
 31
0.0
  0
LINE
  5
79A5
  8
0
 62
     0
 10
180.30112015058731
 20
42.675094692156868
 30
0.0
 11
202.82036712618131
 21
65.194341667750891
 31
0.0
  0
LINE
  5
79A6
  8
0
 62
     0
 10
179.8668956637616
 20
44.362190548890823
 30
0.0
 11
201.13327126944739
 21
65.628566154576575
 31
0.0
  0
LINE
  5
79A7
  8
0
 62
     0
 10
179.58547765796911
 20
46.20209288665805
 30
0.0
 11
199.29336893168011
 21
65.909984160368964
 31
0.0
  0
LINE
  5
79A8
  8
0
 62
     0
 10
179.4969949219668
 20
48.234930494215398
 30
0.0
 11
197.26053132412281
 21
65.998466896371241
 31
0.0
  0
LINE
  5
79A9
  8
0
 62
     0
 10
179.67471573477161
 20
50.533971650579723
 30
0.0
 11
194.9614901677584
 21
65.82074608356659
 31
0.0
  0
LINE
  5
79AA
  8
0
 62
     0
 10
180.28191519567861
 20
53.262491455046529
 30
0.0
 11
192.2329703632916
 21
65.213546622659408
 31
0.0
  0
LINE
  5
79AB
  8
0
 62
     0
 10
181.91920855539041
 20
57.021105158317901
 30
0.0
 11
188.47435666002031
 21
63.576253262947681
 31
0.0
  0
ENDBLK
  5
79AD
  8
0
  0
BLOCK
  8
0
  2
*X2
 70
     1
 10
0.0
 20
0.0
 30
0.0
  3
*X2
  1

  0
LINE
  5
79AF
  8
0
 62
     0
 10
48.754657805045539
 20
234.9711828728382
 30
0.0
 11
48.426019568054258
 21
235.29982110982951
 31
0.0
  0
LINE
  5
79B0
  8
0
 62
     0
 10
48.754657805045511
 20
232.8498625292786
 30
0.0
 11
46.304699224494613
 21
235.29982110982951
 31
0.0
  0
LINE
  5
79B1
  8
0
 62
     0
 10
48.754657805045447
 20
230.72854218571899
 30
0.0
 11
44.183378880934967
 21
235.29982110982951
 31
0.0
  0
LINE
  5
79B2
  8
0
 62
     0
 10
48.754657805045433
 20
228.60722184215939
 30
0.0
 11
42.06205853737535
 21
235.29982110982951
 31
0.0
  0
LINE
  5
79B3
  8
0
 62
     0
 10
48.754657805045369
 20
226.4859014985999
 30
0.0
 11
41.250000581821048
 21
233.9905587218241
 31
0.0
  0
LINE
  5
79B4
  8
0
 62
     0
 10
48.754657805045333
 20
224.3645811550401
 30
0.0
 11
41.250000581821233
 21
231.8692383782643
 31
0.0
  0
LINE
  5
79B5
  8
0
 62
     0
 10
48.754657805045341
 20
222.24326081148061
 30
0.0
 11
41.250000581821297
 21
229.74791803470461
 31
0.0
  0
LINE
  5
79B6
  8
0
 62
     0
 10
48.754657805045341
 20
220.12194046792101
 30
0.0
 11
41.250000581821247
 21
227.62659769114501
 31
0.0
  0
LINE
  5
79B7
  8
0
 62
     0
 10
48.754657805045333
 20
218.00062012436121
 30
0.0
 11
41.250000581821247
 21
225.50527734758541
 31
0.0
  0
LINE
  5
79B8
  8
0
 62
     0
 10
48.754657805045312
 20
215.87929978080169
 30
0.0
 11
41.250000581821247
 21
223.38395700402569
 31
0.0
  0
LINE
  5
79B9
  8
0
 62
     0
 10
48.754657805045341
 20
213.757979437242
 30
0.0
 11
41.250000581821283
 21
221.26263666046609
 31
0.0
  0
LINE
  5
79BA
  8
0
 62
     0
 10
48.754657805045341
 20
211.63665909368231
 30
0.0
 11
41.250000581821247
 21
219.14131631690651
 31
0.0
  0
LINE
  5
79BB
  8
0
 62
     0
 10
48.754657805045333
 20
209.51533875012271
 30
0.0
 11
41.250000581821247
 21
217.01999597334679
 31
0.0
  0
LINE
  5
79BC
  8
0
 62
     0
 10
48.754657805045341
 20
207.39401840656311
 30
0.0
 11
41.250000581821283
 21
214.89867562978719
 31
0.0
  0
LINE
  5
79BD
  8
0
 62
     0
 10
48.754657805045333
 20
205.2726980630035
 30
0.0
 11
41.250000581821283
 21
212.7773552862275
 31
0.0
  0
LINE
  5
79BE
  8
0
 62
     0
 10
48.754657805045333
 20
203.1513777194437
 30
0.0
 11
41.250000581821247
 21
210.6560349426679
 31
0.0
  0
LINE
  5
79BF
  8
0
 62
     0
 10
48.754657805045333
 20
201.03005737588421
 30
0.0
 11
41.250000581821247
 21
208.53471459910821
 31
0.0
  0
LINE
  5
79C0
  8
0
 62
     0
 10
48.754657805045333
 20
198.9087370323245
 30
0.0
 11
41.250000581821247
 21
206.41339425554861
 31
0.0
  0
LINE
  5
79C1
  8
0
 62
     0
 10
48.754657805045341
 20
196.78741668876481
 30
0.0
 11
41.250000581821247
 21
204.29207391198881
 31
0.0
  0
LINE
  5
79C2
  8
0
 62
     0
 10
48.754657805045333
 20
194.6660963452052
 30
0.0
 11
41.250000581821283
 21
202.17075356842929
 31
0.0
  0
LINE
  5
79C3
  8
0
 62
     0
 10
48.754657805045341
 20
192.5447760016454
 30
0.0
 11
41.250000581821247
 21
200.0494332248696
 31
0.0
  0
LINE
  5
79C4
  8
0
 62
     0
 10
48.754657805045341
 20
190.42345565808591
 30
0.0
 11
41.250000581821247
 21
197.92811288131
 31
0.0
  0
LINE
  5
79C5
  8
0
 62
     0
 10
47.507926129457957
 20
189.54886699011371
 30
0.0
 11
41.250000581821283
 21
195.8067925377504
 31
0.0
  0
LINE
  5
79C6
  8
0
 62
     0
 10
45.386605785898332
 20
189.54886699011359
 30
0.0
 11
41.250000581821297
 21
193.68547219419071
 31
0.0
  0
LINE
  5
79C7
  8
0
 62
     0
 10
8.0000005818212951
 20
224.81415185063119
 30
0.0
 11
7.2652854423386639
 21
225.54886699011371
 31
0.0
  0
LINE
  5
79C8
  8
0
 62
     0
 10
43.265285442338687
 20
189.54886699011359
 30
0.0
 11
41.250000581821283
 21
191.56415185063091
 31
0.0
  0
LINE
  5
79C9
  8
0
 62
     0
 10
8.0000005818212792
 20
222.69283150707139
 30
0.0
 11
5.1439650987790051
 21
225.54886699011371
 31
0.0
  0
LINE
  5
79CA
  8
0
 62
     0
 10
8.0000005818212667
 20
220.5715111635117
 30
0.0
 11
3.022644755219372
 21
225.54886699011371
 31
0.0
  0
LINE
  5
79CB
  8
0
 62
     0
 10
8.0000005818212951
 20
218.4501908199521
 30
0.0
 11
0.9013244116597148
 21
225.54886699011371
 31
0.0
  0
LINE
  5
79CC
  8
0
 62
     0
 10
8.0000005818212792
 20
216.3288704763925
 30
0.0
 11
0.4849891214219042
 21
223.84388193679189
 31
0.0
  0
LINE
  5
79CD
  8
0
 62
     0
 10
8.0000005818212951
 20
214.20755013283289
 30
0.0
 11
0.4849891214219185
 21
221.7225615932322
 31
0.0
  0
LINE
  5
79CE
  8
0
 62
     0
 10
8.0000005818212792
 20
212.0862297892732
 30
0.0
 11
0.4849891214219042
 21
219.6012412496726
 31
0.0
  0
LINE
  5
79CF
  8
0
 62
     0
 10
8.0000005818212667
 20
209.9649094457136
 30
0.0
 11
0.4849891214219042
 21
217.47992090611299
 31
0.0
  0
LINE
  5
79D0
  8
0
 62
     0
 10
8.0000005818212543
 20
207.84358910215391
 30
0.0
 11
0.4849891214219042
 21
215.35860056255339
 31
0.0
  0
LINE
  5
79D1
  8
0
 62
     0
 10
8.0000005818212792
 20
205.72226875859431
 30
0.0
 11
0.4849891214218901
 21
213.2372802189937
 31
0.0
  0
LINE
  5
79D2
  8
0
 62
     0
 10
8.0000005818212951
 20
203.60094841503451
 30
0.0
 11
0.4849891214219185
 21
211.1159598754341
 31
0.0
  0
LINE
  5
79D3
  8
0
 62
     0
 10
8.0000005818212792
 20
201.47962807147499
 30
0.0
 11
0.4849891214219042
 21
208.99463953187441
 31
0.0
  0
LINE
  5
79D4
  8
0
 62
     0
 10
8.0000005818212792
 20
199.3583077279153
 30
0.0
 11
0.4849891214219042
 21
206.8733191883147
 31
0.0
  0
LINE
  5
79D5
  8
0
 62
     0
 10
8.0000005818212792
 20
197.2369873843557
 30
0.0
 11
0.4849891214219042
 21
204.75199884475509
 31
0.0
  0
LINE
  5
79D6
  8
0
 62
     0
 10
8.0000005818212792
 20
195.1156670407961
 30
0.0
 11
0.4849891214218901
 21
202.6306785011954
 31
0.0
  0
LINE
  5
79D7
  8
0
 62
     0
 10
8.0000005818212951
 20
192.99434669723641
 30
0.0
 11
0.4849891214219185
 21
200.5093581576358
 31
0.0
  0
LINE
  5
79D8
  8
0
 62
     0
 10
8.0000005818212792
 20
190.87302635367669
 30
0.0
 11
0.4849891214219042
 21
198.388037814076
 31
0.0
  0
LINE
  5
79D9
  8
0
 62
     0
 10
7.2028396018247323
 20
189.54886699011371
 30
0.0
 11
0.4849891214219042
 21
196.26671747051651
 31
0.0
  0
LINE
  5
79DA
  8
0
 62
     0
 10
5.0815192582650877
 20
189.54886699011371
 30
0.0
 11
0.4849891214219042
 21
194.14539712695679
 31
0.0
  0
LINE
  5
79DB
  8
0
 62
     0
 10
2.9601989147054582
 20
189.54886699011371
 30
0.0
 11
0.4849891214219042
 21
192.02407678339719
 31
0.0
  0
LINE
  5
79DC
  8
0
 62
     0
 10
0.8388785711458124
 20
189.54886699011371
 30
0.0
 11
0.4849891214219185
 21
189.90275643983759
 31
0.0
  0
LINE
  5
79DD
  8
0
 62
     0
 10
47.951489330725998
 20
189.54886699011371
 30
0.0
 11
48.754657805045298
 21
190.35203546443299
 31
0.0
  0
LINE
  5
79DE
  8
0
 62
     0
 10
45.830168987166331
 20
189.54886699011371
 30
0.0
 11
48.754657805045312
 21
192.4733558079925
 31
0.0
  0
LINE
  5
79DF
  8
0
 62
     0
 10
43.708848643606672
 20
189.54886699011359
 30
0.0
 11
48.754657805045312
 21
194.59467615155211
 31
0.0
  0
LINE
  5
79E0
  8
0
 62
     0
 10
41.587528300047033
 20
189.54886699011359
 30
0.0
 11
48.754657805045333
 21
196.71599649511191
 31
0.0
  0
LINE
  5
79E1
  8
0
 62
     0
 10
41.250000581821247
 20
191.33265961544751
 30
0.0
 11
48.754657805045333
 21
198.8373168386716
 31
0.0
  0
LINE
  5
79E2
  8
0
 62
     0
 10
41.250000581821247
 20
193.45397995900711
 30
0.0
 11
48.754657805045312
 21
200.9586371822312
 31
0.0
  0
LINE
  5
79E3
  8
0
 62
     0
 10
41.250000581821247
 20
195.5753003025668
 30
0.0
 11
48.754657805045298
 21
203.0799575257908
 31
0.0
  0
LINE
  5
79E4
  8
0
 62
     0
 10
41.250000581821247
 20
197.69662064612641
 30
0.0
 11
48.754657805045333
 21
205.20127786935049
 31
0.0
  0
LINE
  5
79E5
  8
0
 62
     0
 10
41.250000581821247
 20
199.81794098968601
 30
0.0
 11
48.754657805045312
 21
207.32259821291009
 31
0.0
  0
LINE
  5
79E6
  8
0
 62
     0
 10
41.250000581821247
 20
201.9392613332457
 30
0.0
 11
48.754657805045312
 21
209.44391855646981
 31
0.0
  0
LINE
  5
79E7
  8
0
 62
     0
 10
41.250000581821247
 20
204.06058167680541
 30
0.0
 11
48.754657805045298
 21
211.56523890002941
 31
0.0
  0
LINE
  5
79E8
  8
0
 62
     0
 10
41.250000581821283
 20
206.1819020203651
 30
0.0
 11
48.754657805045312
 21
213.68655924358899
 31
0.0
  0
LINE
  5
79E9
  8
0
 62
     0
 10
41.250000581821247
 20
208.3032223639247
 30
0.0
 11
48.754657805045312
 21
215.8078795871487
 31
0.0
  0
LINE
  5
79EA
  8
0
 62
     0
 10
41.250000581821247
 20
210.42454270748431
 30
0.0
 11
48.754657805045298
 21
217.92919993070831
 31
0.0
  0
LINE
  5
79EB
  8
0
 62
     0
 10
41.250000581821247
 20
212.54586305104391
 30
0.0
 11
48.754657805045333
 21
220.050520274268
 31
0.0
  0
LINE
  5
79EC
  8
0
 62
     0
 10
41.250000581821247
 20
214.6671833946036
 30
0.0
 11
48.754657805045312
 21
222.1718406178276
 31
0.0
  0
LINE
  5
79ED
  8
0
 62
     0
 10
41.250000581821247
 20
216.7885037381632
 30
0.0
 11
48.754657805045333
 21
224.29316096138729
 31
0.0
  0
LINE
  5
79EE
  8
0
 62
     0
 10
41.250000581821247
 20
218.90982408172289
 30
0.0
 11
48.754657805045333
 21
226.41448130494689
 31
0.0
  0
LINE
  5
79EF
  8
0
 62
     0
 10
41.250000581821283
 20
221.03114442528249
 30
0.0
 11
48.754657805045397
 21
228.53580164850669
 31
0.0
  0
LINE
  5
79F0
  8
0
 62
     0
 10
41.250000581821247
 20
223.15246476884221
 30
0.0
 11
48.754657805045419
 21
230.65712199206621
 31
0.0
  0
LINE
  5
79F1
  8
0
 62
     0
 10
7.6464028030928111
 20
189.54886699011371
 30
0.0
 11
8.0000005818212543
 21
189.90246476884209
 31
0.0
  0
LINE
  5
79F2
  8
0
 62
     0
 10
41.250000581821247
 20
225.27378511240181
 30
0.0
 11
48.754657805045497
 21
232.7784423356261
 31
0.0
  0
LINE
  5
79F3
  8
0
 62
     0
 10
5.5250824595331522
 20
189.54886699011371
 30
0.0
 11
8.0000005818212792
 21
192.02378511240181
 31
0.0
  0
LINE
  5
79F4
  8
0
 62
     0
 10
41.250000581821283
 20
227.3951054559615
 30
0.0
 11
48.754657805045539
 21
234.8997626791857
 31
0.0
  0
LINE
  5
79F5
  8
0
 62
     0
 10
3.4037621159735201
 20
189.54886699011371
 30
0.0
 11
8.0000005818212792
 21
194.14510545596141
 31
0.0
  0
LINE
  5
79F6
  8
0
 62
     0
 10
41.250000581821247
 20
229.5164257995211
 30
0.0
 11
47.033395892129668
 21
235.29982110982951
 31
0.0
  0
LINE
  5
79F7
  8
0
 62
     0
 10
1.2824417724138599
 20
189.54886699011371
 30
0.0
 11
8.0000005818212543
 21
196.2664257995209
 31
0.0
  0
LINE
  5
79F8
  8
0
 62
     0
 10
41.25000058182124
 20
231.6377461430807
 30
0.0
 11
44.912075548570037
 21
235.29982110982951
 31
0.0
  0
LINE
  5
79F9
  8
0
 62
     0
 10
0.4849891214219042
 20
190.8727346826814
 30
0.0
 11
8.0000005818212792
 21
198.3877461430807
 31
0.0
  0
LINE
  5
79FA
  8
0
 62
     0
 10
41.250000581820998
 20
233.75906648664011
 30
0.0
 11
42.790755205010413
 21
235.29982110982951
 31
0.0
  0
LINE
  5
79FB
  8
0
 62
     0
 10
0.4849891214218901
 20
192.994055026241
 30
0.0
 11
8.0000005818212543
 21
200.50906648664039
 31
0.0
  0
LINE
  5
79FC
  8
0
 62
     0
 10
0.4849891214219042
 20
195.1153753698006
 30
0.0
 11
8.0000005818212792
 21
202.6303868302
 31
0.0
  0
LINE
  5
79FD
  8
0
 62
     0
 10
0.4849891214218901
 20
197.23669571336029
 30
0.0
 11
8.0000005818212667
 21
204.75170717375971
 31
0.0
  0
LINE
  5
79FE
  8
0
 62
     0
 10
0.4849891214219042
 20
199.35801605691981
 30
0.0
 11
8.0000005818212543
 21
206.87302751731929
 31
0.0
  0
LINE
  5
79FF
  8
0
 62
     0
 10
0.4849891214218758
 20
201.47933640047961
 30
0.0
 11
8.0000005818212792
 21
208.994347860879
 31
0.0
  0
LINE
  5
7A00
  8
0
 62
     0
 10
0.4849891214219042
 20
203.60065674403921
 30
0.0
 11
8.0000005818212667
 21
211.11566820443861
 31
0.0
  0
LINE
  5
7A01
  8
0
 62
     0
 10
0.4849891214219042
 20
205.7219770875989
 30
0.0
 11
8.0000005818212792
 21
213.23698854799821
 31
0.0
  0
LINE
  5
7A02
  8
0
 62
     0
 10
0.4849891214219042
 20
207.8432974311585
 30
0.0
 11
8.0000005818212667
 21
215.3583088915579
 31
0.0
  0
LINE
  5
7A03
  8
0
 62
     0
 10
0.4849891214219042
 20
209.96461777471811
 30
0.0
 11
8.0000005818212543
 21
217.4796292351175
 31
0.0
  0
LINE
  5
7A04
  8
0
 62
     0
 10
0.4849891214218901
 20
212.0859381182778
 30
0.0
 11
8.0000005818212667
 21
219.60094957867719
 31
0.0
  0
LINE
  5
7A05
  8
0
 62
     0
 10
0.4849891214218901
 20
214.2072584618374
 30
0.0
 11
8.0000005818212667
 21
221.72226992223679
 31
0.0
  0
LINE
  5
7A06
  8
0
 62
     0
 10
0.4849891214219042
 20
216.32857880539709
 30
0.0
 11
8.0000005818212792
 21
223.84359026579651
 31
0.0
  0
LINE
  5
7A07
  8
0
 62
     0
 10
0.4849891214218901
 20
218.44989914895669
 30
0.0
 11
7.5839569625788927
 21
225.54886699011371
 31
0.0
  0
LINE
  5
7A08
  8
0
 62
     0
 10
0.4849891214219042
 20
220.57121949251641
 30
0.0
 11
5.462636619019233
 21
225.54886699011371
 31
0.0
  0
LINE
  5
7A09
  8
0
 62
     0
 10
0.4849891214218901
 20
222.69253983607601
 30
0.0
 11
3.3413162754596031
 21
225.54886699011371
 31
0.0
  0
LINE
  5
7A0A
  8
0
 62
     0
 10
0.4849891214218901
 20
224.81386017963561
 30
0.0
 11
1.219995931899958
 21
225.54886699011371
 31
0.0
  0
ENDBLK
  5
7A0C
  8
0
  0
BLOCK
  8
0
  2
*X4
 70
     1
 10
0.0
 20
0.0
 30
0.0
  3
*X4
  1

  0
LINE
  5
7B4A
  8
0
 62
     0
 10
97.370461737253649
 20
131.08169992675681
 30
0.0
 11
165.74546173725361
 21
131.0816999267567
 31
0.0
  0
LINE
  5
7B4B
  8
0
 62
     0
 10
97.370461737253635
 20
132.58169992675681
 30
0.0
 11
165.74546173725361
 21
132.5816999267567
 31
0.0
  0
LINE
  5
7B4C
  8
0
 62
     0
 10
97.370461737253635
 20
134.08169992675681
 30
0.0
 11
165.74546173725369
 21
134.0816999267567
 31
0.0
  0
LINE
  5
7B4D
  8
0
 62
     0
 10
97.370461737253663
 20
135.58169992675681
 30
0.0
 11
165.74546173725369
 21
135.5816999267567
 31
0.0
  0
LINE
  5
7B4E
  8
0
 62
     0
 10
97.370461737253663
 20
137.08169992675681
 30
0.0
 11
165.74546173725369
 21
137.0816999267567
 31
0.0
  0
LINE
  5
7B4F
  8
0
 62
     0
 10
97.370461737253663
 20
138.58169992675681
 30
0.0
 11
165.74546173725369
 21
138.5816999267567
 31
0.0
  0
LINE
  5
7B50
  8
0
 62
     0
 10
97.370461737253692
 20
140.08169992675681
 30
0.0
 11
165.74546173725369
 21
140.0816999267567
 31
0.0
  0
LINE
  5
7B51
  8
0
 62
     0
 10
97.370461737253692
 20
141.58169992675681
 30
0.0
 11
165.74546173725369
 21
141.5816999267567
 31
0.0
  0
LINE
  5
7B52
  8
0
 62
     0
 10
97.370461737253692
 20
143.08169992675681
 30
0.0
 11
165.74546173725369
 21
143.0816999267567
 31
0.0
  0
LINE
  5
7B53
  8
0
 62
     0
 10
97.370461737253706
 20
144.58169992675681
 30
0.0
 11
165.74546173725369
 21
144.5816999267567
 31
0.0
  0
LINE
  5
7B54
  8
0
 62
     0
 10
97.370461737253734
 20
146.08169992675681
 30
0.0
 11
165.74546173725369
 21
146.0816999267567
 31
0.0
  0
LINE
  5
7B55
  8
0
 62
     0
 10
97.370461737253734
 20
147.58169992675681
 30
0.0
 11
165.74546173725369
 21
147.5816999267567
 31
0.0
  0
LINE
  5
7B56
  8
0
 62
     0
 10
97.370461737253734
 20
149.08169992675681
 30
0.0
 11
165.74546173725369
 21
149.0816999267567
 31
0.0
  0
LINE
  5
7B57
  8
0
 62
     0
 10
97.370461737253734
 20
150.58169992675681
 30
0.0
 11
165.74546173725369
 21
150.5816999267567
 31
0.0
  0
LINE
  5
7B58
  8
0
 62
     0
 10
97.370461737253763
 20
152.08169992675681
 30
0.0
 11
165.74546173725369
 21
152.0816999267567
 31
0.0
  0
LINE
  5
7B59
  8
0
 62
     0
 10
97.370461737253734
 20
153.58169992675681
 30
0.0
 11
165.74546173725369
 21
153.5816999267567
 31
0.0
  0
LINE
  5
7B5A
  8
0
 62
     0
 10
97.370461737253734
 20
155.08169992675681
 30
0.0
 11
165.74546173725381
 21
155.0816999267567
 31
0.0
  0
LINE
  5
7B5B
  8
0
 62
     0
 10
97.370461737253734
 20
156.58169992675681
 30
0.0
 11
165.74546173725381
 21
156.5816999267567
 31
0.0
  0
LINE
  5
7B5C
  8
0
 62
     0
 10
97.370461737253805
 20
158.08169992675681
 30
0.0
 11
165.74546173725381
 21
158.0816999267567
 31
0.0
  0
LINE
  5
7B5D
  8
0
 62
     0
 10
97.370461737253805
 20
159.58169992675681
 30
0.0
 11
165.74546173725381
 21
159.5816999267567
 31
0.0
  0
LINE
  5
7B5E
  8
0
 62
     0
 10
97.370461737253777
 20
161.08169992675681
 30
0.0
 11
165.74546173725381
 21
161.0816999267567
 31
0.0
  0
LINE
  5
7B5F
  8
0
 62
     0
 10
97.370461737253777
 20
162.58169992675681
 30
0.0
 11
165.74546173725381
 21
162.5816999267567
 31
0.0
  0
LINE
  5
7B60
  8
0
 62
     0
 10
97.370461737253805
 20
164.08169992675681
 30
0.0
 11
165.74546173725381
 21
164.0816999267567
 31
0.0
  0
LINE
  5
7B61
  8
0
 62
     0
 10
97.370461737253805
 20
165.58169992675681
 30
0.0
 11
165.74546173725381
 21
165.5816999267567
 31
0.0
  0
LINE
  5
7B62
  8
0
 62
     0
 10
97.370461737253805
 20
167.08169992675681
 30
0.0
 11
165.74546173725381
 21
167.0816999267567
 31
0.0
  0
LINE
  5
7B63
  8
0
 62
     0
 10
97.370461737253805
 20
168.58169992675681
 30
0.0
 11
165.74546173725389
 21
168.5816999267567
 31
0.0
  0
LINE
  5
7B64
  8
0
 62
     0
 10
97.370461737253834
 20
170.08169992675681
 30
0.0
 11
165.74546173725389
 21
170.0816999267567
 31
0.0
  0
LINE
  5
7B65
  8
0
 62
     0
 10
97.370461737253848
 20
171.58169992675681
 30
0.0
 11
165.74546173725381
 21
171.5816999267567
 31
0.0
  0
LINE
  5
7B66
  8
0
 62
     0
 10
97.370461737253848
 20
173.08169992675681
 30
0.0
 11
165.74546173725389
 21
173.0816999267567
 31
0.0
  0
LINE
  5
7B67
  8
0
 62
     0
 10
97.370461737253876
 20
174.58169992675681
 30
0.0
 11
165.74546173725389
 21
174.5816999267567
 31
0.0
  0
ENDBLK
  5
7B69
  8
0
  0
ENDSEC
  0
SECTION
  2
ENTITIES
  0
LINE
  5
3E0
  8
0
 10
185.1274620680685
 20
34.922057422430903
 30
0.0
 11
213.68568408812621
 21
7.9141334916077062
 31
0.0
  0
LINE
  5
3E4
  8
0
 10
225.24641585696941
 20
14.850572552913601
 30
0.0
 11
214.85505804509401
 21
52.758615008646068
 31
0.0
  0
ARC
  5
403
  8
0
 10
218.49546173725389
 20
13.000000081084179
 30
0.0
 40
7.0
 50
226.5981403622479
 51
270.0
1001
ACAD
1000
ASC_BOUNDS
1002
{
1070
    19
1005
638
1002
}
  0
ARC
  5
404
  8
0
 10
218.49546173725389
 20
13.000000081084179
 30
0.0
 40
6.999999999999992
 50
270.0
 51
15.329372701898659
1001
ACAD
1000
ASC_BOUNDS
1002
{
1070
    19
1005
638
1002
}
  0
LINE
  5
408
  8
0
 10
185.1274620680685
 20
34.922057422430569
 30
0.0
 11
213.68568408812621
 21
7.914133491607366
 31
0.0
1001
ACAD
1000
ASC_BOUNDS
1002
{
1070
    19
1005
638
1002
}
  0
LINE
  5
40C
  8
0
 10
225.24641585696941
 20
14.85057255291327
 30
0.0
 11
214.85505804509441
 21
52.758615008645712
 31
0.0
1001
ACAD
1000
ASC_BOUNDS
1002
{
1070
    19
1005
638
1002
}
  0
ARC
  5
429
  8
0
 10
197.49546173725389
 20
48.000000081084309
 30
0.0
 40
18.0
 50
90.0
 51
226.5981403622479
1001
ACAD
1000
ASC_BOUNDS
1002
{
1070
    19
1005
638
1002
}
  0
ARC
  5
42A
  8
0
 10
197.49546173725389
 20
48.000000081084309
 30
0.0
 40
17.999999999999979
 50
15.3293727018987
 51
90.0
1001
ACAD
1000
ASC_BOUNDS
1002
{
1070
    19
1005
638
1002
}
  0
LINE
  5
42D
  8
0
 10
167.37046173725361
 20
79.000000081084721
 30
0.0
 11
167.37046173725361
 21
6.0000000810863421
 31
0.0
  0
LINE
  5
42E
  8
0
 10
95.745461737253635
 20
6.0000000810863421
 30
0.0
 11
95.745461737253635
 21
79.000000081084721
 31
0.0
  0
LINE
  5
42F
  8
0
 10
167.37046173725361
 20
6.0000000810863421
 30
0.0
 11
95.745461737253635
 21
6.0000000810863421
 31
0.0
  0
LINE
  5
430
  8
0
 10
95.745461737253635
 20
79.000000081084721
 30
0.0
 11
167.37046173725361
 21
79.000000081084721
 31
0.0
  0
LINE
  5
431
  8
0
 10
170.37046173725381
 20
6.000000081083587
 30
0.0
 11
197.49546173725389
 21
10.77537696788545
 31
0.0
  0
ARC
  5
432
  8
0
 10
194.49546173725381
 20
40.625000081084067
 30
0.0
 40
30.000000000000011
 50
275.7391704772615
 51
295.91139169256178
  0
ARC
  5
433
  8
0
 10
194.49546173725381
 20
40.625000081084067
 30
0.0
 40
30.000000000000011
 50
334.95256645166438
 51
114.07907070550461
  0
LINE
  5
434
  8
0
 10
182.25555208454759
 20
68.014498281919884
 30
0.0
 11
167.37046173725381
 21
56.000000081083982
 31
0.0
  0
LINE
  5
435
  8
0
 10
95.745461737253876
 20
0.0000000810830159
 30
0.0
 11
95.745461737253635
 21
6.0000000810854353
 31
0.0
  0
LINE
  5
436
  8
0
 10
227.49546173725349
 20
6.0000000810872551
 30
0.0
 11
227.49546173725389
 21
0.0000000810848366
 31
0.0
  0
LINE
  5
437
  8
0
 10
95.745461737253876
 20
0.0000000810830159
 30
0.0
 11
227.49546173725389
 21
0.0000000810848375
 31
0.0
  0
LINE
  5
438
  8
0
 10
227.49546173725349
 20
6.0000000810872551
 30
0.0
 11
95.745461737253635
 21
6.0000000810854353
 31
0.0
  0
ARC
  5
439
  8
0
 10
131.5579617372548
 20
61.000000081082781
 30
0.0
 40
8.2500000000000018
 50
179.9999999999996
 51
359.99999999999881
  0
ARC
  5
43A
  8
0
 10
131.5579617372548
 20
61.000000081082781
 30
0.0
 40
8.2500000000000089
 50
359.9999999999996
 51
179.9999999999996
  0
ARC
  5
43B
  8
0
 10
131.5579617372548
 20
61.000000081082781
 30
0.0
 40
7.687499999999992
 50
0.0000000000008142
 51
180.0000000000002
  0
ARC
  5
43C
  8
0
 10
131.5579617372548
 20
61.000000081082781
 30
0.0
 40
7.687499999999992
 50
180.0000000000002
 51
0.0
  0
LINE
  5
43D
  8
0
 10
136.68046251124269
 20
58.558144232285393
 30
0.0
 11
136.4855220350521
 21
58.109235502126673
 31
0.0
  0
LINE
  5
43E
  8
0
 10
136.4855220350521
 20
58.109235502126673
 30
0.0
 11
136.03462917790921
 21
57.951993438634602
 31
0.0
  0
LINE
  5
43F
  8
0
 10
136.03462917790921
 20
57.951993438634602
 30
0.0
 11
135.710100408068
 21
58.016229549745717
 31
0.0
  0
LINE
  5
440
  8
0
 10
135.710100408068
 20
58.016229549745717
 30
0.0
 11
135.4746093366395
 21
58.208937883079052
 31
0.0
  0
LINE
  5
441
  8
0
 10
135.4746093366395
 20
58.208937883079052
 30
0.0
 11
135.2836371144171
 21
58.966874391015558
 31
0.0
  0
LINE
  5
442
  8
0
 10
135.2836371144171
 20
58.966874391015558
 30
0.0
 11
135.46766489219499
 21
59.730763279904451
 31
0.0
  0
LINE
  5
443
  8
0
 10
135.46766489219499
 20
59.730763279904451
 30
0.0
 11
135.69745159854409
 21
59.92049542276159
 31
0.0
  0
LINE
  5
444
  8
0
 10
135.69745159854409
 20
59.92049542276159
 30
0.0
 11
136.0187561620362
 21
59.983739470380627
 31
0.0
  0
LINE
  5
445
  8
0
 10
136.0187561620362
 20
59.983739470380627
 30
0.0
 11
136.48701013029
 21
59.840386295777463
 31
0.0
  0
LINE
  5
446
  8
0
 10
136.48701013029
 20
59.840386295777463
 30
0.0
 11
136.68046251124269
 21
59.415287089428261
 31
0.0
  0
LINE
  5
447
  8
0
 10
136.68046251124269
 20
59.415287089428261
 30
0.0
 11
137.82331965409969
 21
59.415287089428261
 31
0.0
  0
LINE
  5
448
  8
0
 10
137.82331965409969
 20
59.415287089428261
 30
0.0
 11
137.66310140013161
 21
60.062980541809218
 31
0.0
  0
LINE
  5
449
  8
0
 10
137.66310140013161
 20
60.062980541809218
 30
0.0
 11
137.29554187632201
 21
60.541775184666349
 31
0.0
  0
LINE
  5
44A
  8
0
 10
137.29554187632201
 20
60.541775184666349
 30
0.0
 11
136.73651409854409
 21
60.83753411323778
 31
0.0
  0
LINE
  5
44B
  8
0
 10
136.73651409854409
 20
60.83753411323778
 30
0.0
 11
136.00189108267111
 21
60.936120422761569
 31
0.0
  0
LINE
  5
44C
  8
0
 10
136.00189108267111
 20
60.936120422761569
 30
0.0
 11
135.20390001124269
 21
60.80417597831714
 31
0.0
  0
LINE
  5
44D
  8
0
 10
135.20390001124269
 20
60.80417597831714
 30
0.0
 11
134.59365695568701
 21
60.408342644983819
 31
0.0
  0
LINE
  5
44E
  8
0
 10
134.59365695568701
 20
60.408342644983819
 30
0.0
 11
134.20638016997279
 21
59.784334708475903
 31
0.0
  0
LINE
  5
44F
  8
0
 10
134.20638016997279
 20
59.784334708475903
 30
0.0
 11
134.077287908068
 21
58.9678664545076
 31
0.0
  0
LINE
  5
450
  8
0
 10
134.077287908068
 20
58.9678664545076
 30
0.0
 11
134.20700020965521
 21
58.149538081491762
 31
0.0
  0
LINE
  5
451
  8
0
 10
134.20700020965521
 20
58.149538081491762
 30
0.0
 11
134.5961371144171
 21
57.525902168793309
 31
0.0
  0
LINE
  5
452
  8
0
 10
134.5961371144171
 20
57.525902168793309
 30
0.0
 11
135.21146449536971
 21
57.131184906888592
 31
0.0
  0
LINE
  5
453
  8
0
 10
135.21146449536971
 20
57.131184906888592
 30
0.0
 11
136.01974822552819
 21
56.999612486253653
 31
0.0
  0
LINE
  5
454
  8
0
 10
136.01974822552819
 20
56.999612486253653
 30
0.0
 11
136.7428385033061
 21
57.101795025936212
 31
0.0
  0
LINE
  5
455
  8
0
 10
136.7428385033061
 20
57.101795025936212
 30
0.0
 11
137.29901409854409
 21
57.408342644983811
 31
0.0
  0
LINE
  5
456
  8
0
 10
137.29901409854409
 20
57.408342644983811
 30
0.0
 11
137.6664496144171
 21
57.900158121174272
 31
0.0
  0
LINE
  5
457
  8
0
 10
137.6664496144171
 20
57.900158121174272
 30
0.0
 11
137.82331965409969
 21
58.558144232285393
 31
0.0
  0
LINE
  5
458
  8
0
 10
137.82331965409969
 20
58.558144232285393
 30
0.0
 11
136.68046251124269
 21
58.558144232285393
 31
0.0
  0
LINE
  5
459
  8
0
 10
129.45873513347479
 20
59.332218421208601
 30
0.0
 11
130.63631449855441
 21
59.332218421208601
 31
0.0
  0
LINE
  5
45A
  8
0
 10
130.63631449855441
 20
59.332218421208601
 30
0.0
 11
130.78313989537969
 21
59.840154929145108
 31
0.0
  0
LINE
  5
45B
  8
0
 10
130.78313989537969
 20
59.840154929145108
 30
0.0
 11
131.9865129112527
 21
59.840154929145108
 31
0.0
  0
LINE
  5
45C
  8
0
 10
131.9865129112527
 20
59.840154929145108
 30
0.0
 11
132.12837799061771
 21
59.332218421208601
 31
0.0
  0
LINE
  5
45D
  8
0
 10
132.12837799061771
 20
59.332218421208601
 30
0.0
 11
133.33175100649069
 21
59.332218421208601
 31
0.0
  0
LINE
  5
45E
  8
0
 10
133.33175100649069
 20
59.332218421208601
 30
0.0
 11
132.00238592712569
 21
63.141742230732412
 31
0.0
  0
LINE
  5
45F
  8
0
 10
132.00238592712569
 20
63.141742230732412
 30
0.0
 11
130.7732192604592
 21
63.141742230732412
 31
0.0
  0
LINE
  5
460
  8
0
 10
130.7732192604592
 20
63.141742230732412
 30
0.0
 11
129.45873513347479
 21
59.332218421208601
 31
0.0
  0
LINE
  5
461
  8
0
 10
131.00337799061771
 20
60.66555175454193
 30
0.0
 11
131.3892906890305
 21
61.969123183113354
 31
0.0
  0
LINE
  5
462
  8
0
 10
131.3892906890305
 20
61.969123183113354
 30
0.0
 11
131.7662748160146
 21
60.66555175454193
 31
0.0
  0
LINE
  5
463
  8
0
 10
131.7662748160146
 20
60.66555175454193
 30
0.0
 11
131.00337799061771
 21
60.66555175454193
 31
0.0
  0
LINE
  5
464
  8
0
 10
125.69800394321349
 20
61.072606730388863
 30
0.0
 11
127.39740870511829
 21
61.072606730388863
 31
0.0
  0
LINE
  5
465
  8
0
 10
127.39740870511829
 20
61.072606730388863
 30
0.0
 11
128.16526584797541
 21
61.111297206579351
 31
0.0
  0
LINE
  5
466
  8
0
 10
128.16526584797541
 20
61.111297206579351
 30
0.0
 11
128.57796426067401
 21
61.24324165102378
 31
0.0
  0
LINE
  5
467
  8
0
 10
128.57796426067401
 20
61.24324165102378
 30
0.0
 11
128.98619838765811
 21
61.626178158960279
 31
0.0
  0
LINE
  5
468
  8
0
 10
128.98619838765811
 20
61.626178158960279
 30
0.0
 11
129.12657537178501
 21
62.213479746261861
 31
0.0
  0
LINE
  5
469
  8
0
 10
129.12657537178501
 20
62.213479746261861
 30
0.0
 11
128.98272616543571
 21
62.776475778007907
 31
0.0
  0
LINE
  5
46A
  8
0
 10
128.98272616543571
 20
62.776475778007907
 30
0.0
 11
128.5392737844833
 21
63.101376571658712
 31
0.0
  0
LINE
  5
46B
  8
0
 10
128.5392737844833
 20
63.101376571658712
 30
0.0
 11
128.8845118797214
 21
63.418836889119007
 31
0.0
  0
LINE
  5
46C
  8
0
 10
128.8845118797214
 20
63.418836889119007
 30
0.0
 11
128.99959124480091
 21
63.871217841499963
 31
0.0
  0
LINE
  5
46D
  8
0
 10
128.99959124480091
 20
63.871217841499963
 30
0.0
 11
128.845821403531
 21
64.431237682769819
 31
0.0
  0
LINE
  5
46E
  8
0
 10
128.845821403531
 20
64.431237682769819
 30
0.0
 11
128.40336108607059
 21
64.77101942880158
 31
0.0
  0
LINE
  5
46F
  8
0
 10
128.40336108607059
 20
64.77101942880158
 30
0.0
 11
128.00802378448341
 21
64.856336889119021
 31
0.0
  0
LINE
  5
470
  8
0
 10
128.00802378448341
 20
64.856336889119021
 30
0.0
 11
127.27439283210239
 21
64.882130539912652
 31
0.0
  0
LINE
  5
471
  8
0
 10
127.27439283210239
 20
64.882130539912652
 30
0.0
 11
125.69800394321349
 21
64.88213053991268
 31
0.0
  0
LINE
  5
472
  8
0
 10
125.69800394321349
 20
64.88213053991268
 30
0.0
 11
125.69800394321349
 21
61.072606730388863
 31
0.0
  0
LINE
  5
473
  8
0
 10
126.9043531495626
 20
61.961495619277741
 30
0.0
 11
126.9043531495626
 21
62.659908317690437
 31
0.0
  0
LINE
  5
474
  8
0
 10
126.9043531495626
 20
62.659908317690437
 30
0.0
 11
127.45296426067399
 21
62.659908317690437
 31
0.0
  0
LINE
  5
475
  8
0
 10
127.45296426067399
 20
62.659908317690437
 30
0.0
 11
127.8621904511501
 21
62.58054323832539
 31
0.0
  0
LINE
  5
476
  8
0
 10
127.8621904511501
 20
62.58054323832539
 30
0.0
 11
127.9837182289279
 21
62.313678158960279
 31
0.0
  0
LINE
  5
477
  8
0
 10
127.9837182289279
 20
62.313678158960279
 30
0.0
 11
127.86467060988021
 21
62.043836889119021
 31
0.0
  0
LINE
  5
478
  8
0
 10
127.86467060988021
 20
62.043836889119021
 30
0.0
 11
127.46387695908651
 21
61.961495619277741
 31
0.0
  0
LINE
  5
479
  8
0
 10
127.46387695908651
 20
61.961495619277741
 30
0.0
 11
126.9043531495626
 21
61.961495619277741
 31
0.0
  0
LINE
  5
47A
  8
0
 10
126.9043531495626
 20
63.35832101610314
 30
0.0
 11
126.9043531495626
 21
63.99324165102378
 31
0.0
  0
LINE
  5
47B
  8
0
 10
126.9043531495626
 20
63.99324165102378
 30
0.0
 11
127.2386785463882
 21
63.99324165102378
 31
0.0
  0
LINE
  5
47C
  8
0
 10
127.2386785463882
 20
63.99324165102378
 30
0.0
 11
127.7471110860706
 21
63.925781333563442
 31
0.0
  0
LINE
  5
47D
  8
0
 10
127.7471110860706
 20
63.925781333563442
 30
0.0
 11
127.8567341019436
 21
63.675781333563457
 31
0.0
  0
LINE
  5
47E
  8
0
 10
127.8567341019436
 20
63.675781333563457
 30
0.0
 11
127.7545515622612
 21
63.43074165102378
 31
0.0
  0
LINE
  5
47F
  8
0
 10
127.7545515622612
 20
63.43074165102378
 30
0.0
 11
127.4023690225785
 21
63.35832101610314
 31
0.0
  0
LINE
  5
480
  8
0
 10
127.4023690225785
 20
63.35832101610314
 30
0.0
 11
126.9043531495626
 21
63.35832101610314
 31
0.0
  0
ARC
  5
481
  8
0
 10
131.55796173725429
 20
61.000000081083421
 30
0.0
 40
9.0000000000000089
 50
179.9999999999996
 51
359.99999999999881
  0
ARC
  5
482
  8
0
 10
131.55796173725429
 20
61.000000081083421
 30
0.0
 40
9.0000000000000195
 50
359.9999999999996
 51
179.9999999999996
  0
LINE
  5
483
  8
0
 10
92.745461737253876
 20
1.0625000810844081
 30
0.0
 11
95.745461737253876
 21
1.0625000810844081
 31
0.0
  0
LINE
  5
484
  8
0
 10
95.745461737253436
 20
7.0625000810842362
 30
0.0
 11
92.745461737253876
 21
7.0625000810842362
 31
0.0
  0
LINE
  5
485
  8
0
 10
92.745461737253436
 20
62.75000008108433
 30
0.0
 11
95.745461737253436
 21
62.75000008108433
 31
0.0
  0
LINE
  5
486
  8
0
 10
95.745461737253436
 20
68.750000081084494
 30
0.0
 11
92.745461737253436
 21
68.750000081084494
 31
0.0
  0
LINE
  5
487
  8
0
 10
92.745461737253649
 20
4.0625000810842931
 30
0.0
 11
92.745461737253649
 21
4.8389572163918571
 31
0.0
  0
LINE
  5
488
  8
0
 10
92.745461737253649
 20
4.8389572742753151
 30
0.0
 11
92.745461737253649
 21
6.1838201258082863
 31
0.0
  0
LINE
  5
489
  8
0
 10
92.745461737253649
 20
6.1838204246439368
 30
0.0
 11
92.745461737253649
 21
6.6605760085492731
 31
0.0
  0
LINE
  5
48A
  8
0
 10
92.745461737253649
 20
6.6605762924376117
 30
0.0
 11
92.745461737253649
 21
7.0625000810843028
 31
0.0
  0
LINE
  5
48B
  8
0
 10
92.745461737253649
 20
1.062500081084307
 30
0.0
 11
92.745461737253649
 21
1.464423869730989
 31
0.0
  0
LINE
  5
48C
  8
0
 10
92.745461737253649
 20
1.464423883592417
 30
0.0
 11
92.745461737253649
 21
1.94117964095137
 31
0.0
  0
LINE
  5
48D
  8
0
 10
92.745461737253649
 20
1.94117973752466
 30
0.0
 11
92.745461737253649
 21
4.0624999605021559
 31
0.0
  0
LINE
  5
48E
  8
0
 10
92.745461737253649
 20
65.750000081084295
 30
0.0
 11
92.745461737253649
 21
66.526457216391861
 31
0.0
  0
LINE
  5
48F
  8
0
 10
92.745461737253649
 20
66.526458899161028
 30
0.0
 11
92.745461737253649
 21
67.871320424643969
 31
0.0
  0
LINE
  5
490
  8
0
 10
92.745461737253649
 20
67.871323090195006
 30
0.0
 11
92.745461737253649
 21
68.348076292437611
 31
0.0
  0
LINE
  5
491
  8
0
 10
92.745461737253649
 20
68.348078340036295
 30
0.0
 11
92.745461737253649
 21
68.750000081084323
 31
0.0
  0
LINE
  5
492
  8
0
 10
92.745461737253649
 20
62.750000081084309
 30
0.0
 11
92.745461737253649
 21
62.852220549670683
 31
0.0
  0
LINE
  5
493
  8
0
 10
92.745461737253649
 20
62.852222602217097
 30
0.0
 11
92.745461737253649
 21
63.151923869731
 31
0.0
  0
LINE
  5
494
  8
0
 10
92.745461737253649
 20
63.15192493915184
 30
0.0
 11
92.745461737253649
 21
63.628679737524678
 31
0.0
  0
LINE
  5
495
  8
0
 10
92.745461737253649
 20
63.628680249467912
 30
0.0
 11
92.745461737253649
 21
65.750000081084295
 31
0.0
  0
ARC
  5
496
  8
0
 10
126.3704617372539
 20
20.000000081084181
 30
0.0
 40
0.5000000000000036
 50
0.0
 51
180.0
  0
ARC
  5
497
  8
0
 10
126.3704617372539
 20
20.000000081084181
 30
0.0
 40
0.5000000000000056
 50
180.0000000000002
 51
359.99999999999937
  0
ARC
  5
498
  8
0
 10
140.37046173725381
 20
11.625000081084179
 30
0.0
 40
1.000000000000002
 50
359.9999999999992
 51
179.9999999999994
  0
ARC
  5
499
  8
0
 10
140.37046173725381
 20
11.625000081084179
 30
0.0
 40
0.9999999999999992
 50
180.0000000000004
 51
359.99999999999949
  0
ARC
  5
49A
  8
0
 10
157.49546173725381
 20
2.6250000810841798
 30
0.0
 40
1.0000000000000011
 50
359.9999999999992
 51
179.9999999999994
  0
ARC
  5
49B
  8
0
 10
157.49546173725381
 20
2.6250000810841798
 30
0.0
 40
0.9999999999999992
 50
180.0000000000004
 51
359.99999999999949
  0
CIRCLE
  5
4A7
  8
0
 10
151.30796173725381
 20
20.625000081084181
 30
0.0
 40
8.4999999999999876
  0
LINE
  5
4A9
  8
0
 10
264.3801350990837
 20
14.85057662357047
 30
0.0
 11
264.3801350990837
 21
52.418741307280321
 31
0.0
  0
LINE
  5
4AA
  8
0
 10
264.3801350990837
 20
52.45191689697436
 30
0.0
 11
264.3801350990837
 21
52.758615008646068
 31
0.0
  0
LINE
  5
4AB
  8
0
 10
271.88479232230821
 20
27.929413589063319
 30
0.0
 11
271.88479232230821
 21
14.850576623570459
 31
0.0
  0
LINE
  5
4AE
  8
0
 10
312.64980378270712
 20
48.000000081084622
 30
0.0
 11
312.64980378270712
 21
42.155410819542297
 31
0.0
  0
LINE
  5
4AF
  8
0
 10
312.64980378270712
 20
42.155409635400332
 30
0.0
 11
312.64980378270712
 21
36.944171945286953
 31
0.0
  0
LINE
  5
4B0
  8
0
 10
312.64980378270712
 20
36.944171252670628
 30
0.0
 11
312.64980378270712
 21
34.756969688968269
 31
0.0
  0
LINE
  5
4B1
  8
0
 10
312.64980378270712
 20
34.756968463977252
 30
0.0
 11
312.64980378270712
 21
31.51608020129359
 31
0.0
  0
LINE
  5
4B2
  8
0
 10
312.64980378270712
 20
31.516078750672438
 30
0.0
 11
312.64980378270712
 21
30.06147920696451
 31
0.0
  0
LINE
  5
4B4
  8
0
 10
312.64980378270712
 20
65.938520955204623
 30
0.0
 11
312.64980378270712
 21
65.44920862924522
 31
0.0
  0
LINE
  5
4B5
  8
0
 10
312.64980378270712
 20
65.449204867992492
 30
0.0
 11
312.64980378270712
 21
64.4839214114957
 31
0.0
  0
LINE
  5
4B6
  8
0
 10
312.64980378270712
 20
64.483919960875596
 30
0.0
 11
312.64980378270712
 21
59.055828909498622
 31
0.0
  0
LINE
  5
4B7
  8
0
 10
312.64980378270712
 20
59.055828216881601
 30
0.0
 11
312.64980378270712
 21
53.844590526768897
 31
0.0
  0
LINE
  5
4B8
  8
0
 10
312.64980378270712
 20
53.84458934262593
 30
0.0
 11
312.64980378270712
 21
50.96270380606294
 31
0.0
  0
LINE
  5
4B9
  8
0
 10
312.64980378270712
 20
50.96270270613779
 30
0.0
 11
312.64980378270712
 21
48.000000081084622
 31
0.0
  0
LINE
  5
4BA
  8
0
 10
285.8847923223081
 20
16.000000081084291
 30
0.0
 11
271.88479232230821
 21
16.000000081084291
 31
0.0
  0
LINE
  5
4BB
  8
0
 10
271.88479232230821
 20
6.0000000810842717
 30
0.0
 11
271.88479232230821
 21
6.1703709496389276
 31
0.0
  0
LINE
  5
4BC
  8
0
 10
285.8847923223081
 20
16.000000081084231
 30
0.0
 11
285.8847923223081
 21
15.829629788792291
 31
0.0
  0
LINE
  5
4BD
  8
0
 10
285.8847923223081
 20
15.829629212529589
 30
0.0
 11
285.8847923223081
 21
15.330128013472869
 31
0.0
  0
LINE
  5
4BE
  8
0
 10
285.8847923223081
 20
15.33012710000645
 30
0.0
 11
285.8847923223081
 21
14.53553454141964
 31
0.0
  0
LINE
  5
4BF
  8
0
 10
285.8847923223081
 20
14.535533987017001
 30
0.0
 11
285.8847923223081
 21
12.29409530659688
 31
0.0
  0
LINE
  5
4C0
  8
0
 10
285.8847923223081
 20
12.294094658831151
 30
0.0
 11
285.8847923223081
 21
11.000000322248111
 31
0.0
  0
LINE
  5
4C1
  8
0
 10
285.8847923223081
 20
11.000000081084281
 30
0.0
 11
285.8847923223081
 21
9.705904855571676
 31
0.0
  0
LINE
  5
4C2
  8
0
 10
285.8847923223081
 20
9.7059045507801152
 30
0.0
 11
285.8847923223081
 21
8.5000000810842753
 31
0.0
  0
LINE
  5
4C3
  8
0
 10
285.8847923223081
 20
8.4999998200814222
 30
0.0
 11
285.8847923223081
 21
6.669873062162071
 31
0.0
  0
LINE
  5
4C4
  8
0
 10
285.8847923223081
 20
6.6698727734958787
 30
0.0
 11
285.8847923223081
 21
6.0000000810842522
 31
0.0
  0
LINE
  5
4C5
  8
0
 10
264.3801350990837
 20
52.766580887776527
 30
0.0
 11
264.3801350990837
 21
55.230517724838101
 31
0.0
  0
LINE
  5
4C6
  8
0
 10
264.3801350990837
 20
55.230520440094388
 30
0.0
 11
264.3801350990837
 21
60.191068370347949
 31
0.0
  0
LINE
  5
4C7
  8
0
 10
264.3801350990837
 20
60.191070836183577
 30
0.0
 11
264.3801350990837
 21
65.024710431696079
 31
0.0
  0
LINE
  5
4C8
  8
0
 10
264.3801350990837
 20
65.024712097891438
 30
0.0
 11
264.3801350990837
 21
66.000000081084679
 31
0.0
  0
LINE
  5
4C9
  8
0
 10
264.3801350990837
 20
6.000000081084182
 30
0.0
 11
264.3801350990837
 21
6.238519248868732
 31
0.0
  0
LINE
  5
4CA
  8
0
 10
264.3801350990837
 20
6.238519297060706
 30
0.0
 11
264.3801350990837
 21
6.9378218504605194
 31
0.0
  0
LINE
  5
4CB
  8
0
 10
264.3801350990837
 20
6.9378222545931116
 30
0.0
 11
264.3801350990837
 21
9.5000000810841758
 31
0.0
  0
LINE
  5
4CC
  8
0
 10
264.3801350990837
 20
9.5000003052122803
 30
0.0
 11
264.3801350990837
 21
11.18826676536653
 31
0.0
  0
LINE
  5
4CD
  8
0
 10
264.3801350990837
 20
11.18826706657754
 30
0.0
 11
264.3801350990837
 21
13.00000008108417
 31
0.0
  0
LINE
  5
4CE
  8
0
 10
264.3801350990837
 20
13.00000056341214
 30
0.0
 11
264.3801350990837
 21
14.81173332853732
 31
0.0
  0
LINE
  5
4CF
  8
0
 10
264.3801350990837
 20
14.811733396801801
 30
0.0
 11
264.3801350990837
 21
14.852427497646421
 31
0.0
  0
LINE
  5
4D0
  8
0
 10
271.88479232230821
 20
14.85242749764646
 30
0.0
 11
271.88479232230821
 21
14.81173339680185
 31
0.0
  0
LINE
  5
4D1
  8
0
 10
271.88479232230821
 20
14.81173332853735
 30
0.0
 11
271.88479232230821
 21
13.000000563412179
 31
0.0
  0
LINE
  5
4D2
  8
0
 10
271.88479232230821
 20
13.00000008108421
 30
0.0
 11
271.88479232230821
 21
11.188267066577721
 31
0.0
  0
LINE
  5
4D3
  8
0
 10
271.88479232230821
 20
11.18826676536656
 30
0.0
 11
271.88479232230821
 21
9.5000003052123052
 31
0.0
  0
LINE
  5
4D4
  8
0
 10
271.88479232230821
 20
9.5000000810842078
 30
0.0
 11
271.88479232230821
 21
6.9378222545931196
 31
0.0
  0
LINE
  5
4D5
  8
0
 10
271.88479232230821
 20
6.9378218504605274
 30
0.0
 11
271.88479232230821
 21
6.238519297060706
 31
0.0
  0
LINE
  5
4D6
  8
0
 10
271.88479232230821
 20
6.238519248868732
 30
0.0
 11
271.88479232230821
 21
6.000000081084174
 31
0.0
  0
LINE
  5
4D8
  8
0
 10
264.3801350990837
 20
14.850576623570561
 30
0.0
 11
264.3801350990837
 21
52.418741307280492
 31
0.0
  0
LINE
  5
4D9
  8
0
 10
264.3801350990837
 20
52.451916896973657
 30
0.0
 11
264.3801350990837
 21
52.758615008645712
 31
0.0
  0
LINE
  5
4DA
  8
0
 10
271.88479232230821
 20
27.929413589063309
 30
0.0
 11
271.88479232230821
 21
14.85057662357055
 31
0.0
  0
LINE
  5
4DD
  8
0
 10
312.64980378270752
 20
48.000000081084288
 30
0.0
 11
312.64980378270752
 21
42.155410819542382
 31
0.0
  0
LINE
  5
4DE
  8
0
 10
312.64980378270752
 20
42.155409635399963
 30
0.0
 11
312.64980378270752
 21
36.94417194528689
 31
0.0
  0
LINE
  5
4DF
  8
0
 10
312.64980378270752
 20
36.944171252670287
 30
0.0
 11
312.64980378270752
 21
34.756969688967928
 31
0.0
  0
LINE
  5
4E0
  8
0
 10
312.64980378270752
 20
34.75696846397723
 30
0.0
 11
312.64980378270752
 21
31.516080201293239
 31
0.0
  0
LINE
  5
4E1
  8
0
 10
312.64980378270752
 20
31.516078750672619
 30
0.0
 11
312.64980378270752
 21
30.061479206964169
 31
0.0
  0
LINE
  5
4E3
  8
0
 10
312.64980378270752
 20
66.000000081084679
 30
0.0
 11
312.64980378270752
 21
65.449208629245476
 31
0.0
  0
LINE
  5
4E4
  8
0
 10
312.64980378270752
 20
65.449204867992179
 30
0.0
 11
312.64980378270752
 21
64.483921411495714
 31
0.0
  0
LINE
  5
4E5
  8
0
 10
312.64980378270752
 20
64.483919960875284
 30
0.0
 11
312.64980378270752
 21
59.05582890949826
 31
0.0
  0
LINE
  5
4E6
  8
0
 10
312.64980378270752
 20
59.055828216881523
 30
0.0
 11
312.64980378270752
 21
53.844590526768549
 31
0.0
  0
LINE
  5
4E7
  8
0
 10
312.64980378270752
 20
53.844589342625852
 30
0.0
 11
312.64980378270752
 21
50.962703806062898
 31
0.0
  0
LINE
  5
4E8
  8
0
 10
312.64980378270752
 20
50.96270270613747
 30
0.0
 11
312.64980378270752
 21
48.000000081084288
 31
0.0
  0
LINE
  5
4E9
  8
0
 10
285.8847923223081
 20
16.00000008108395
 30
0.0
 11
271.88479232230821
 21
16.00000008108395
 31
0.0
  0
LINE
  5
4EA
  8
0
 10
271.88479232230821
 20
6.0000000810839333
 30
0.0
 11
271.88479232230821
 21
6.170370949638591
 31
0.0
  0
LINE
  5
4EB
  8
0
 10
285.8847923223081
 20
16.000000081083911
 30
0.0
 11
285.8847923223081
 21
15.829629788792801
 31
0.0
  0
LINE
  5
4EC
  8
0
 10
285.8847923223081
 20
15.829629212529239
 30
0.0
 11
285.8847923223081
 21
15.33012801347291
 31
0.0
  0
LINE
  5
4ED
  8
0
 10
285.8847923223081
 20
15.330127100006109
 30
0.0
 11
285.8847923223081
 21
14.535534541419629
 31
0.0
  0
LINE
  5
4EE
  8
0
 10
285.8847923223081
 20
14.53553398701666
 30
0.0
 11
285.8847923223081
 21
12.294095306596541
 31
0.0
  0
LINE
  5
4EF
  8
0
 10
285.8847923223081
 20
12.29409465883108
 30
0.0
 11
285.8847923223081
 21
11.00000032224821
 31
0.0
  0
LINE
  5
4F0
  8
0
 10
285.8847923223081
 20
11.000000081083931
 30
0.0
 11
285.8847923223081
 21
9.7059048555713314
 31
0.0
  0
LINE
  5
4F1
  8
0
 10
285.8847923223081
 20
9.7059045507800761
 30
0.0
 11
285.8847923223081
 21
8.500000081083936
 31
0.0
  0
LINE
  5
4F2
  8
0
 10
285.8847923223081
 20
8.4999998200813973
 30
0.0
 11
285.8847923223081
 21
6.6698730621617281
 31
0.0
  0
LINE
  5
4F3
  8
0
 10
285.8847923223081
 20
6.6698727734959116
 30
0.0
 11
285.8847923223081
 21
6.0000000810839058
 31
0.0
  0
LINE
  5
4F4
  8
0
 10
264.3801350990837
 20
52.766580887776513
 30
0.0
 11
264.3801350990837
 21
55.230517724837753
 31
0.0
  0
LINE
  5
4F5
  8
0
 10
264.3801350990837
 20
55.230520440094502
 30
0.0
 11
264.3801350990837
 21
60.191068370347637
 31
0.0
  0
LINE
  5
4F6
  8
0
 10
264.3801350990837
 20
60.191070836183542
 30
0.0
 11
264.3801350990837
 21
65.024710431695723
 31
0.0
  0
LINE
  5
4F7
  8
0
 10
264.3801350990837
 20
65.024712097891467
 30
0.0
 11
264.3801350990841
 21
66.000000081084679
 31
0.0
  0
LINE
  5
4F8
  8
0
 10
264.3801350990837
 20
6.0000000810838472
 30
0.0
 11
264.3801350990837
 21
6.238519248868962
 31
0.0
  0
LINE
  5
4F9
  8
0
 10
264.3801350990837
 20
6.2385192970603658
 30
0.0
 11
264.3801350990837
 21
6.9378218504607423
 31
0.0
  0
LINE
  5
4FA
  8
0
 10
264.3801350990837
 20
6.9378222545927679
 30
0.0
 11
264.3801350990837
 21
9.5000000810838383
 31
0.0
  0
LINE
  5
4FB
  8
0
 10
264.3801350990837
 20
9.5000003052122075
 30
0.0
 11
264.3801350990837
 21
11.18826676536619
 31
0.0
  0
LINE
  5
4FC
  8
0
 10
264.3801350990837
 20
11.188267066577611
 30
0.0
 11
264.3801350990837
 21
13.000000081083829
 31
0.0
  0
LINE
  5
4FD
  8
0
 10
264.3801350990837
 20
13.00000056341224
 30
0.0
 11
264.3801350990837
 21
14.81173332853726
 31
0.0
  0
LINE
  5
4FE
  8
0
 10
264.3801350990837
 20
14.81173339680147
 30
0.0
 11
264.3801350990837
 21
14.85242749764639
 31
0.0
  0
LINE
  5
4FF
  8
0
 10
271.88479232230821
 20
14.852427497646421
 30
0.0
 11
271.88479232230821
 21
14.8117333968015
 31
0.0
  0
LINE
  5
500
  8
0
 10
271.88479232230821
 20
14.81173332853729
 30
0.0
 11
271.88479232230821
 21
13.00000056341228
 31
0.0
  0
LINE
  5
501
  8
0
 10
271.88479232230821
 20
13.00000008108386
 30
0.0
 11
271.88479232230821
 21
11.18826706657766
 31
0.0
  0
LINE
  5
502
  8
0
 10
271.88479232230821
 20
11.188266765366221
 30
0.0
 11
271.88479232230821
 21
9.5000003052122342
 31
0.0
  0
LINE
  5
503
  8
0
 10
271.88479232230821
 20
9.5000000810838667
 30
0.0
 11
271.88479232230821
 21
6.9378222545927812
 31
0.0
  0
LINE
  5
504
  8
0
 10
271.88479232230821
 20
6.9378218504607529
 30
0.0
 11
271.88479232230821
 21
6.2385192970603622
 31
0.0
  0
LINE
  5
505
  8
0
 10
271.88479232230821
 20
6.2385192488692471
 30
0.0
 11
271.88479232230821
 21
6.0000000810838321
 31
0.0
  0
LINE
  5
506
  8
0
 10
313.13479232230861
 20
6.0000000810863421
 30
0.0
 11
313.13479232230861
 21
79.000000081084721
 31
0.0
  0
LINE
  5
509
  8
0
 10
263.88479232230861
 20
79.00000008108448
 30
0.0
 11
263.88479232230861
 21
6.0000000810863421
 31
0.0
  0
LINE
  5
50A
  8
0
 10
313.13479232230861
 20
79.000000081084721
 30
0.0
 11
263.88479232230861
 21
79.00000008108448
 31
0.0
  0
LINE
  5
50B
  8
0
 10
271.88479232230821
 20
27.92394738201321
 30
0.0
 11
271.88479232230821
 21
31.28105455483691
 31
0.0
  0
LINE
  5
50C
  8
0
 10
271.88479232230821
 20
31.281055524981092
 30
0.0
 11
271.88479232230821
 21
35.002733300994613
 31
0.0
  0
LINE
  5
50D
  8
0
 10
271.88479232230821
 20
35.002734015327249
 30
0.0
 11
271.88479232230821
 21
38.816704449157989
 31
0.0
  0
LINE
  5
50E
  8
0
 10
271.88479232230821
 20
38.816705783313949
 30
0.0
 11
271.88479232230821
 21
46.47060193627572
 31
0.0
  0
LINE
  5
50F
  8
0
 10
271.88479232230821
 20
46.470603088082058
 30
0.0
 11
271.88479232230821
 21
50.184886932417783
 31
0.0
  0
LINE
  5
510
  8
0
 10
271.88479232230821
 20
50.184888970241943
 30
0.0
 11
271.88479232230821
 21
53.742242226784242
 31
0.0
  0
LINE
  5
511
  8
0
 10
271.88479232230821
 20
53.74224489178328
 30
0.0
 11
271.88479232230821
 21
57.084272284560093
 31
0.0
  0
LINE
  5
512
  8
0
 10
271.88479232230821
 20
57.084274470909328
 30
0.0
 11
271.88479232230821
 21
62.907348403438263
 31
0.0
  0
LINE
  5
513
  8
0
 10
271.88479232230821
 20
62.907348738616179
 30
0.0
 11
271.88479232230821
 21
65.292806136669896
 31
0.0
  0
LINE
  5
514
  8
0
 10
271.88479232230821
 20
65.29280676642189
 30
0.0
 11
271.88479232230821
 21
67.273331101558
 31
0.0
  0
LINE
  5
515
  8
0
 10
271.88479232230821
 20
67.273332905142283
 30
0.0
 11
271.88479232230821
 21
68.81641211915958
 31
0.0
  0
LINE
  5
516
  8
0
 10
271.88479232230821
 20
68.816414361000511
 30
0.0
 11
271.88479232230821
 21
70.625000081084082
 31
0.0
  0
LINE
  5
51B
  8
0
 10
305.1347923223081
 20
70.625000081084082
 30
0.0
 11
305.13479232230821
 21
68.816414361000611
 31
0.0
  0
LINE
  5
51C
  8
0
 10
305.13479232230821
 20
68.816412119159992
 30
0.0
 11
305.13479232230821
 21
67.273332905142396
 31
0.0
  0
LINE
  5
51D
  8
0
 10
305.13479232230821
 20
67.273331101558455
 30
0.0
 11
305.13479232230821
 21
65.292806766422075
 31
0.0
  0
LINE
  5
51E
  8
0
 10
305.13479232230821
 20
65.292806136670379
 30
0.0
 11
305.13479232230821
 21
62.9073487386162
 31
0.0
  0
LINE
  5
51F
  8
0
 10
305.13479232230821
 20
62.907348403438768
 30
0.0
 11
305.13479232230821
 21
57.08427447090957
 31
0.0
  0
LINE
  5
520
  8
0
 10
305.13479232230821
 20
57.084272284560612
 30
0.0
 11
305.13479232230821
 21
53.742244891783422
 31
0.0
  0
LINE
  5
521
  8
0
 10
305.13479232230821
 20
53.742242226784789
 30
0.0
 11
305.13479232230821
 21
50.184888970242177
 31
0.0
  0
LINE
  5
522
  8
0
 10
305.13479232230821
 20
50.184886932418351
 30
0.0
 11
305.13479232230821
 21
46.470603088082321
 31
0.0
  0
LINE
  5
523
  8
0
 10
305.13479232230821
 20
46.470601936276282
 30
0.0
 11
305.13479232230821
 21
38.81670578331407
 31
0.0
  0
LINE
  5
524
  8
0
 10
305.13479232230821
 20
38.81670444915855
 30
0.0
 11
305.13479232230821
 21
35.002734015327817
 31
0.0
  0
LINE
  5
525
  8
0
 10
305.13479232230821
 20
35.002733300994727
 30
0.0
 11
305.13479232230821
 21
31.28105552498166
 31
0.0
  0
LINE
  5
526
  8
0
 10
305.13479232230821
 20
31.281054554837169
 30
0.0
 11
305.13479232230821
 21
27.71276194968733
 31
0.0
  0
LINE
  5
527
  8
0
 10
305.13479232230821
 20
27.71276097392014
 30
0.0
 11
305.13479232230861
 21
14.08194104351325
 31
0.0
  0
LINE
  5
528
  8
0
 10
305.13479232230861
 20
14.08194068781995
 30
0.0
 11
305.13479232230861
 21
12.512205110968329
 31
0.0
  0
LINE
  5
529
  8
0
 10
305.13479232230861
 20
12.51220464717427
 30
0.0
 11
305.13479232230861
 21
11.40395310980111
 31
0.0
  0
LINE
  5
52A
  8
0
 10
305.13479232230861
 20
11.40395293857099
 30
0.0
 11
305.13479232230861
 21
10.775376967885769
 31
0.0
  0
LINE
  5
52B
  8
0
 10
305.13479232230861
 20
10.775376967885791
 30
0.0
 11
305.13479232230861
 21
6.0000000810839271
 31
0.0
  0
LINE
  5
52C
  8
0
 10
305.13479232230861
 20
10.77537696788575
 30
0.0
 11
285.88479118666618
 21
10.775376967885551
 31
0.0
  0
LINE
  5
52D
  8
0
 10
263.88479232230912
 20
0.0000000810848375
 30
0.0
 11
313.13479232230912
 21
0.0000000810848366
 31
0.0
  0
LINE
  5
52E
  8
0
 10
313.13479232230912
 20
0.0000000810848366
 30
0.0
 11
313.13479232230912
 21
6.0000000810872551
 31
0.0
  0
LINE
  5
52F
  8
0
 10
313.13479232230912
 20
6.0000000810872551
 30
0.0
 11
263.88479232230912
 21
6.0000000810872551
 31
0.0
  0
LINE
  5
530
  8
0
 10
263.88479232230912
 20
6.0000000810872551
 30
0.0
 11
263.88479232230912
 21
0.0000000810848366
 31
0.0
  0
LINE
  5
53F
  8
0
 10
49.250000581820572
 20
6.0000000810863421
 30
0.0
 11
49.250000581820572
 21
79.000000081084721
 31
0.0
  0
LINE
  5
540
  8
0
 10
49.250000581820572
 20
79.000000081084721
 30
0.0
 11
0.0000005818205864
 21
79.000000081084721
 31
0.0
  0
LINE
  5
541
  8
0
 10
0.0000005818205864
 20
79.000000081084721
 30
0.0
 11
0.0000005818205864
 21
6.0000000810863421
 31
0.0
  0
LINE
  5
542
  8
0
 10
0.0000005818205864
 20
6.0000000810863421
 30
0.0
 11
5.4876299277098033
 21
6.0000000810863421
 31
0.0
  0
LINE
  5
543
  8
0
 10
10.012371235931591
 20
6.0000000810863421
 30
0.0
 11
49.250000581820572
 21
6.0000000810863421
 31
0.0
  0
LINE
  5
54E
  8
0
 10
49.250000581820132
 20
0.0000000810830159
 30
0.0
 11
49.250000581820132
 21
6.0000000810854353
 31
0.0
  0
LINE
  5
54F
  8
0
 10
49.250000581820132
 20
6.0000000810854353
 30
0.0
 11
10.01237123593228
 21
6.0000000810854353
 31
0.0
  0
LINE
  5
550
  8
0
 10
5.4876299277088929
 20
6.0000000810854353
 30
0.0
 11
0.000000581820359
 21
6.0000000810854353
 31
0.0
  0
LINE
  5
551
  8
0
 10
0.000000581820359
 20
6.0000000810854353
 30
0.0
 11
0.000000581820359
 21
0.0000000810830159
 31
0.0
  0
LINE
  5
552
  8
0
 10
0.000000581820359
 20
0.000000081083015
 30
0.0
 11
49.250000581820132
 21
0.0000000810830159
 31
0.0
  0
ARC
  5
553
  8
0
 10
7.7500005818205837
 20
4.0625000810843028
 30
0.0
 40
2.9999999999999911
 50
359.9999999999996
 51
179.99999999999969
  0
ARC
  5
554
  8
0
 10
7.7500005818205837
 20
4.0625000810843028
 30
0.0
 40
3.0000000000000062
 50
180.0
 51
359.9999999999992
  0
ARC
  5
555
  8
0
 10
24.625000581820821
 20
65.750000081084323
 30
0.0
 40
2.999999999999996
 50
359.9999999999996
 51
179.9999999999994
  0
ARC
  5
556
  8
0
 10
24.625000581820821
 20
65.750000081084323
 30
0.0
 40
3.0000000000000062
 50
180.0000000000002
 51
359.9999999999992
  0
LINE
  5
559
  8
0
 10
225.24641585696949
 20
128.82704212171149
 30
0.0
 11
214.8550580450943
 21
128.82704212171149
 31
0.0
  0
LINE
  5
55A
  8
0
 10
214.8550580450943
 20
128.82704212171149
 30
0.0
 11
214.83031594734641
 21
128.82704212171149
 31
0.0
  0
LINE
  5
55B
  8
0
 10
224.4409134737086
 20
136.331699344936
 30
0.0
 11
225.24641585696949
 21
136.331699344936
 31
0.0
  0
LINE
  5
55C
  8
0
 10
225.24641585696949
 20
136.331699344936
 30
0.0
 11
225.24641585696949
 21
128.82704212171149
 31
0.0
  0
LINE
  5
55E
  8
0
 10
179.49546173725369
 20
177.09671080533491
 30
0.0
 11
179.74095826615701
 21
177.09671080533491
 31
0.0
  0
LINE
  5
55F
  8
0
 10
179.7409582760047
 20
177.09671080533491
 30
0.0
 11
181.66493411838181
 21
177.09671080533491
 31
0.0
  0
LINE
  5
560
  8
0
 10
181.6649342155369
 20
177.09671080533491
 30
0.0
 11
185.30439331574121
 21
177.09671080533491
 31
0.0
  0
LINE
  5
561
  8
0
 10
185.30439344799049
 20
177.09671080533491
 30
0.0
 11
190.26494409350019
 21
177.09671080533491
 31
0.0
  0
LINE
  5
562
  8
0
 10
190.26494434200771
 20
177.09671080533491
 30
0.0
 11
193.07672296871939
 21
177.09671080533491
 31
0.0
  0
LINE
  5
563
  8
0
 10
193.076723365601
 20
177.09671080533491
 30
0.0
 11
196.00903299363941
 21
177.09671080533491
 31
0.0
  0
LINE
  5
564
  8
0
 10
196.00903351875169
 20
177.09671080533491
 30
0.0
 11
198.98188995575569
 21
177.09671080533491
 31
0.0
  0
LINE
  5
565
  8
0
 10
198.98189048087769
 20
177.09671080533491
 30
0.0
 11
201.91420010891591
 21
177.09671080533491
 31
0.0
  0
LINE
  5
566
  8
0
 10
201.91420050578819
 20
177.09671080533491
 30
0.0
 11
204.72597913250891
 21
177.09671080533491
 31
0.0
  0
LINE
  5
567
  8
0
 10
204.72597938100719
 20
177.09671080533491
 30
0.0
 11
211.69999090638879
 21
177.09671080533491
 31
0.0
  0
LINE
  5
568
  8
0
 10
211.6999915732311
 20
177.09671080533491
 30
0.0
 11
214.52017208786521
 21
177.09671080533491
 31
0.0
  0
LINE
  5
569
  8
0
 10
214.5201737540676
 20
177.09671080533491
 30
0.0
 11
215.24996519850279
 21
177.09671080533491
 31
0.0
  0
LINE
  5
56A
  8
0
 10
215.2499666802197
 20
177.09671080533491
 30
0.0
 11
215.49546173725381
 21
177.09671080533491
 31
0.0
  0
LINE
  5
56B
  8
0
 10
197.49546173725389
 20
128.82704212171149
 30
0.0
 11
191.65087129156959
 21
128.82704212171149
 31
0.0
  0
LINE
  5
56C
  8
0
 10
191.65087106593251
 20
128.82704212171149
 30
0.0
 11
184.25243134513741
 21
128.82704212171149
 31
0.0
  0
LINE
  5
56D
  8
0
 10
184.25243130455081
 20
128.82704212171149
 30
0.0
 11
179.5569408631336
 21
128.82704212171149
 31
0.0
  0
LINE
  5
56E
  8
0
 10
214.85477221577969
 20
128.82704212171149
 30
0.0
 11
213.97938306767139
 21
128.82704212171149
 31
0.0
  0
LINE
  5
56F
  8
0
 10
213.97938161704471
 20
128.82704212171149
 30
0.0
 11
210.7384933543658
 21
128.82704212171149
 31
0.0
  0
LINE
  5
570
  8
0
 10
210.7384921293702
 20
128.82704212171149
 30
0.0
 11
203.340052408585
 21
128.82704212171149
 31
0.0
  0
LINE
  5
571
  8
0
 10
203.340052182938
 20
128.82704212171149
 30
0.0
 11
197.49546173725389
 21
128.82704212171149
 31
0.0
  0
LINE
  5
578
  8
0
 10
225.24641585696949
 20
128.82704212171149
 30
0.0
 11
214.8550580450943
 21
128.82704212171171
 31
0.0
  0
LINE
  5
579
  8
0
 10
214.8550580450943
 20
128.82704212171171
 30
0.0
 11
214.83031594734641
 21
128.82704212171171
 31
0.0
  0
LINE
  5
57A
  8
0
 10
224.4409134737086
 20
136.331699344936
 30
0.0
 11
225.24641585696949
 21
136.331699344936
 31
0.0
  0
LINE
  5
57B
  8
0
 10
225.24641585696949
 20
136.331699344936
 30
0.0
 11
225.24641585696949
 21
128.82704212171149
 31
0.0
  0
LINE
  5
57D
  8
0
 10
179.49546173725369
 20
177.09671080533511
 30
0.0
 11
179.7409582661567
 21
177.09671080533511
 31
0.0
  0
LINE
  5
57E
  8
0
 10
179.7409582760047
 20
177.09671080533511
 30
0.0
 11
181.66493411838161
 21
177.09671080533511
 31
0.0
  0
LINE
  5
57F
  8
0
 10
181.6649342155369
 20
177.09671080533511
 30
0.0
 11
185.30439331574121
 21
177.09671080533511
 31
0.0
  0
LINE
  5
580
  8
0
 10
185.30439344799049
 20
177.09671080533511
 30
0.0
 11
190.26494409350039
 21
177.09671080533511
 31
0.0
  0
LINE
  5
581
  8
0
 10
190.26494434200771
 20
177.09671080533511
 30
0.0
 11
193.07672296871939
 21
177.09671080533511
 31
0.0
  0
LINE
  5
582
  8
0
 10
193.076723365601
 20
177.09671080533511
 30
0.0
 11
196.00903299363949
 21
177.09671080533511
 31
0.0
  0
LINE
  5
583
  8
0
 10
196.00903351875169
 20
177.09671080533511
 30
0.0
 11
198.98188995575569
 21
177.09671080533511
 31
0.0
  0
LINE
  5
584
  8
0
 10
198.9818904808775
 20
177.09671080533511
 30
0.0
 11
201.91420010891599
 21
177.09671080533511
 31
0.0
  0
LINE
  5
585
  8
0
 10
201.91420050578819
 20
177.09671080533511
 30
0.0
 11
204.725979132509
 21
177.09671080533511
 31
0.0
  0
LINE
  5
586
  8
0
 10
204.72597938100731
 20
177.09671080533511
 30
0.0
 11
211.6999909063889
 21
177.09671080533511
 31
0.0
  0
LINE
  5
587
  8
0
 10
211.6999915732311
 20
177.09671080533511
 30
0.0
 11
214.52017208786521
 21
177.09671080533511
 31
0.0
  0
LINE
  5
588
  8
0
 10
214.5201737540676
 20
177.09671080533511
 30
0.0
 11
215.24996519850279
 21
177.09671080533511
 31
0.0
  0
LINE
  5
589
  8
0
 10
215.2499666802197
 20
177.09671080533511
 30
0.0
 11
215.49546173725381
 21
177.09671080533511
 31
0.0
  0
LINE
  5
58A
  8
0
 10
197.49546173725389
 20
128.82704212171171
 30
0.0
 11
191.65087129156959
 21
128.82704212171171
 31
0.0
  0
LINE
  5
58B
  8
0
 10
191.65087106593231
 20
128.82704212171171
 30
0.0
 11
184.25243134513741
 21
128.82704212171171
 31
0.0
  0
LINE
  5
58C
  8
0
 10
184.25243130455081
 20
128.82704212171171
 30
0.0
 11
179.49546173725369
 21
128.82704212171171
 31
0.0
  0
LINE
  5
58D
  8
0
 10
214.85477221577969
 20
128.82704212171171
 30
0.0
 11
213.97938306767139
 21
128.82704212171171
 31
0.0
  0
LINE
  5
58E
  8
0
 10
213.97938161704491
 20
128.82704212171171
 30
0.0
 11
210.738493354366
 21
128.82704212171171
 31
0.0
  0
LINE
  5
58F
  8
0
 10
210.7384921293702
 20
128.82704212171171
 30
0.0
 11
203.340052408585
 21
128.82704212171171
 31
0.0
  0
LINE
  5
590
  8
0
 10
203.34005218293819
 20
128.82704212171171
 30
0.0
 11
197.49546173725389
 21
128.82704212171171
 31
0.0
  0
LINE
  5
595
  8
0
 10
167.37046173725369
 20
177.5816993449362
 30
0.0
 11
167.37046173725361
 21
128.3316993449362
 31
0.0
  0
LINE
  5
596
  8
0
 10
95.745461737253635
 20
128.33169934493651
 30
0.0
 11
95.745461737253663
 21
177.5816993449364
 31
0.0
  0
LINE
  5
597
  8
0
 10
95.745461737253663
 20
177.5816993449364
 30
0.0
 11
167.37046173725369
 21
177.5816993449362
 31
0.0
  0
LINE
  5
598
  8
0
 10
97.370461737253876
 20
175.9566993449364
 30
0.0
 11
165.74546173725389
 21
175.9566993449362
 31
0.0
1001
ACAD
1000
ASC_BOUNDS
1002
{
1070
    19
1005
685
1002
}
  0
LINE
  5
599
  8
0
 10
165.74546173725389
 20
175.9566993449362
 30
0.0
 11
165.74546173725361
 21
129.9566993449362
 31
0.0
1001
ACAD
1000
ASC_BOUNDS
1002
{
1070
    19
1005
685
1002
}
  0
LINE
  5
59A
  8
0
 10
165.74546173725361
 20
129.9566993449362
 30
0.0
 11
97.370461737253649
 21
129.9566993449364
 31
0.0
1001
ACAD
1000
ASC_BOUNDS
1002
{
1070
    19
1005
685
1002
}
  0
LINE
  5
59B
  8
0
 10
97.370461737253649
 20
129.9566993449364
 30
0.0
 11
97.370461737253876
 21
175.9566993449364
 31
0.0
1001
ACAD
1000
ASC_BOUNDS
1002
{
1070
    19
1005
685
1002
}
  0
LINE
  5
59C
  8
0
 10
95.745461737253635
 20
128.33169934493651
 30
0.0
 11
167.37046173725361
 21
128.3316993449362
 31
0.0
  0
LINE
  5
59D
  8
0
 10
224.495461737254
 20
136.331699344936
 30
0.0
 11
224.495461737254
 21
169.581699344936
 31
0.0
  0
LINE
  5
59E
  8
0
 10
224.44091326010741
 20
136.331699344936
 30
0.0
 11
223.9204334287225
 21
136.331699344936
 31
0.0
  0
LINE
  5
59F
  8
0
 10
223.92043308729239
 20
136.331699344936
 30
0.0
 11
222.93150674340359
 21
136.331699344936
 31
0.0
  0
LINE
  5
5A0
  8
0
 10
222.9315051221854
 20
136.331699344936
 30
0.0
 11
221.4757871335695
 21
136.33169934493571
 31
0.0
  0
LINE
  5
5A1
  8
0
 10
221.47578655680351
 20
136.33169934493571
 30
0.0
 11
219.5771753655506
 21
136.33169934493571
 31
0.0
  0
LINE
  5
5A2
  8
0
 10
219.5771745384591
 20
136.33169934493571
 30
0.0
 11
208.27466613175869
 21
136.33169934493571
 31
0.0
  0
LINE
  5
5A3
  8
0
 10
208.2746654088472
 20
136.33169934493571
 30
0.0
 11
204.7543261550571
 21
136.33169934493571
 31
0.0
  0
LINE
  5
5A4
  8
0
 10
204.75432557782881
 20
136.33169934493571
 30
0.0
 11
197.26898745516041
 21
136.33169934493571
 31
0.0
  0
LINE
  5
5A5
  8
0
 10
197.26898710643931
 20
136.33169934493571
 30
0.0
 11
193.42686394385751
 21
136.33169934493571
 31
0.0
  0
LINE
  5
5A6
  8
0
 10
193.42686355363691
 20
136.33169934493571
 30
0.0
 11
189.60228150492139
 21
136.33169934493571
 31
0.0
  0
LINE
  5
5A7
  8
0
 10
189.60228136506501
 20
136.33169934493571
 30
0.0
 11
182.25555208454779
 21
136.33169934493571
 31
0.0
  0
LINE
  5
5A8
  8
0
 10
182.2555520845477
 20
136.33169934493571
 30
0.0
 11
167.37046173725389
 21
136.33169934493571
 31
0.0
  0
LINE
  5
5A9
  8
0
 10
167.37046173725389
 20
169.58169934493571
 30
0.0
 11
182.2555520845477
 21
169.58169934493571
 31
0.0
  0
LINE
  5
5AA
  8
0
 10
182.25555208454759
 20
169.58169934493571
 30
0.0
 11
189.6022813650647
 21
169.58169934493571
 31
0.0
  0
LINE
  5
5AB
  8
0
 10
189.602281504921
 20
169.58169934493571
 30
0.0
 11
193.42686355363651
 21
169.58169934493571
 31
0.0
  0
LINE
  5
5AC
  8
0
 10
193.42686394385709
 20
169.58169934493571
 30
0.0
 11
197.26898710643891
 21
169.58169934493571
 31
0.0
  0
LINE
  5
5AD
  8
0
 10
197.26898745515999
 20
169.58169934493571
 30
0.0
 11
204.75432557782861
 21
169.58169934493571
 31
0.0
  0
LINE
  5
5AE
  8
0
 10
204.7543261550567
 20
169.58169934493571
 30
0.0
 11
208.274665408847
 21
169.58169934493571
 31
0.0
  0
LINE
  5
5AF
  8
0
 10
208.27466613175849
 20
169.58169934493571
 30
0.0
 11
219.57717453845899
 21
169.58169934493571
 31
0.0
  0
LINE
  5
5B0
  8
0
 10
219.5771753655506
 20
169.58169934493571
 30
0.0
 11
221.47578655680351
 21
169.58169934493571
 31
0.0
  0
LINE
  5
5B1
  8
0
 10
221.47578713356941
 20
169.58169934493571
 30
0.0
 11
222.93150512218531
 21
169.581699344936
 31
0.0
  0
LINE
  5
5B2
  8
0
 10
222.93150674340359
 20
169.581699344936
 30
0.0
 11
223.92043308729239
 21
169.581699344936
 31
0.0
  0
LINE
  5
5B3
  8
0
 10
223.9204334287225
 20
169.581699344936
 30
0.0
 11
224.44091326010741
 21
169.581699344936
 31
0.0
  0
LINE
  5
5B5
  8
0
 10
227.49546173725381
 20
177.5816993449366
 30
0.0
 11
227.49546173725381
 21
128.33169934493671
 31
0.0
  0
LINE
  5
5B6
  8
0
 10
227.49546173725381
 20
128.33169934493671
 30
0.0
 11
167.37046173725361
 21
128.33169934493671
 31
0.0
  0
LINE
  5
5B7
  8
0
 10
227.49546173725381
 20
177.5816993449366
 30
0.0
 11
167.37046173725389
 21
177.58169934493671
 31
0.0
  0
LINE
  5
5B8
  8
0
 10
92.745461737253763
 20
166.8316993449362
 30
0.0
 11
95.745461737253564
 21
166.8316993449362
 31
0.0
  0
LINE
  5
5B9
  8
0
 10
95.745461737253564
 20
172.8316993449362
 30
0.0
 11
92.745461737253763
 21
172.8316993449362
 31
0.0
  0
LINE
  5
5BA
  8
0
 10
92.745461737253763
 20
149.9566993449362
 30
0.0
 11
95.745461737253564
 21
149.9566993449362
 31
0.0
  0
LINE
  5
5BB
  8
0
 10
95.745461737253564
 20
155.9566993449362
 30
0.0
 11
92.745461737253763
 21
155.9566993449362
 31
0.0
  0
LINE
  5
5BC
  8
0
 10
92.745461737253763
 20
166.8316993449362
 30
0.0
 11
92.745461737253763
 21
166.93392186606911
 31
0.0
  0
LINE
  5
5BD
  8
0
 10
92.745461737253763
 20
166.93392233624149
 30
0.0
 11
92.745461737253763
 21
167.7103783456746
 31
0.0
  0
LINE
  5
5BE
  8
0
 10
92.745461737253763
 20
167.71037900137671
 30
0.0
 11
92.745461737253763
 21
168.33169810172109
 31
0.0
  0
LINE
  5
5BF
  8
0
 10
92.745461737253763
 20
168.3316993449362
 30
0.0
 11
92.745461737253763
 21
169.8316981962171
 31
0.0
  0
LINE
  5
5C0
  8
0
 10
92.745461737253763
 20
169.8316993449362
 30
0.0
 11
92.745461737253763
 21
170.60815648024391
 31
0.0
  0
LINE
  5
5C1
  8
0
 10
92.745461737253763
 20
170.60815697228989
 30
0.0
 11
92.745461737253763
 21
171.3316993449362
 31
0.0
  0
LINE
  5
5C2
  8
0
 10
92.745461737253763
 20
171.33169966773721
 30
0.0
 11
92.745461737253763
 21
172.4297755562896
 31
0.0
  0
LINE
  5
5C3
  8
0
 10
92.745461737253763
 20
172.42977611585709
 30
0.0
 11
92.745461737253763
 21
172.72947675362909
 31
0.0
  0
LINE
  5
5C4
  8
0
 10
92.745461737253763
 20
172.72947682380351
 30
0.0
 11
92.745461737253763
 21
172.8316993449362
 31
0.0
  0
LINE
  5
5C5
  8
0
 10
92.745461737253763
 20
149.956699344936
 30
0.0
 11
92.745461737253763
 21
150.05892186606891
 31
0.0
  0
LINE
  5
5C6
  8
0
 10
92.745461737253763
 20
150.0589223362413
 30
0.0
 11
92.745461737253763
 21
150.83537834567491
 31
0.0
  0
LINE
  5
5C7
  8
0
 10
92.745461737253763
 20
150.8353790013764
 30
0.0
 11
92.745461737253763
 21
151.45669810172109
 31
0.0
  0
LINE
  5
5C8
  8
0
 10
92.745461737253763
 20
151.456699344936
 30
0.0
 11
92.745461737253763
 21
152.9566981962171
 31
0.0
  0
LINE
  5
5C9
  8
0
 10
92.745461737253763
 20
152.956699344936
 30
0.0
 11
92.745461737253763
 21
153.73315648024371
 31
0.0
  0
LINE
  5
5CA
  8
0
 10
92.745461737253763
 20
153.73315697229009
 30
0.0
 11
92.745461737253763
 21
154.4566982773629
 31
0.0
  0
LINE
  5
5CB
  8
0
 10
92.745461737253763
 20
154.456699344936
 30
0.0
 11
92.745461737253763
 21
155.07801968849569
 31
0.0
  0
LINE
  5
5CC
  8
0
 10
92.745461737253763
 20
155.0780210311689
 30
0.0
 11
92.745461737253763
 21
155.55477555628929
 31
0.0
  0
LINE
  5
5CD
  8
0
 10
92.745461737253763
 20
155.55477611585709
 30
0.0
 11
92.745461737253763
 21
155.85447675362909
 31
0.0
  0
LINE
  5
5CE
  8
0
 10
92.745461737253763
 20
155.85447682380331
 30
0.0
 11
92.745461737253763
 21
155.956699344936
 31
0.0
  0
LINE
  5
5E1
  8
0
 10
215.49546173725381
 20
177.09671080533511
 30
0.0
 11
215.49546173725381
 21
169.58169934493571
 31
0.0
  0
LINE
  5
5E2
  8
0
 10
179.49546173725369
 20
177.09671080533491
 30
0.0
 11
179.49546173725369
 21
169.58169934493571
 31
0.0
  0
LINE
  5
5E3
  8
0
 10
179.49546173725361
 20
136.33169934493571
 30
0.0
 11
179.49546173725369
 21
128.82704212171171
 31
0.0
  0
LINE
  5
5EC
  8
0
 10
264.3801350990841
 20
66.000000081084679
 30
0.0
 11
271.88479232230821
 21
66.000000081084679
 31
0.0
  0
LINE
  5
5ED
  8
0
 10
312.64980378270712
 20
65.938520955204623
 30
0.0
 11
305.1347923223081
 21
65.938520955204623
 31
0.0
  0
LINE
  5
5EE
  8
0
 10
312.64980378270712
 20
30.06147920696451
 30
0.0
 11
305.1347923223081
 21
30.061479206964268
 31
0.0
  0
INSERT
  5
62D
  8
0
  6
CONTINUOUS
  2
*X0
 10
0.0
 20
0.0
 30
0.0
1001
GRADIENTCOLOR1ACI
1070
     5
1001
GRADIENTCOLOR2ACI
1070
     2
1001
ACAD
1000
HATCH
1002
{
1070
    19
1000
NET
1040
12.0
1040
0.7853981633974483
1000
R14_HATCH_DATA
1000
62D
1011
1.0
1021
0.0
1031
0.0
1021
0.0
1031
0.0
1011
0.0
1021
0.0
1031
0.0
1021
1.0
1031
0.0
1011
0.0
1021
0.0
1031
0.0
1021
0.0
1031
1.0
1040
0.0
1010
0.0
1020
0.0
1030
1.0
1000
NET
1070
     0
1070
     0
1071
        2
1071
        7
1070
     0
1070
     1
1071
       32
1040
271.88479232230821
1040
57.084272284560093
1040
271.88479232230821
1040
62.907348403438263
1040
271.88479232230821
1040
65.292806136669896
1040
271.88479232230821
1040
66.000000081084679
1040
264.3801350990841
1040
66.000000081084679
1040
264.3801350990837
1040
65.024712097891467
1040
264.3801350990837
1040
60.191070836183542
1040
264.3801350990837
1040
55.230520440094502
1040
264.3801350990837
1040
52.766580887776513
1040
264.3801350990837
1040
52.451916896973657
1040
264.3801350990837
1040
14.850576623570561
1040
264.3801350990837
1040
14.81173339680147
1040
264.3801350990837
1040
13.00000056341224
1040
264.3801350990837
1040
11.188267066577611
1040
264.3801350990837
1040
9.5000003052122128
1040
264.3801350990837
1040
6.9378222545927741
1040
264.3801350990837
1040
6.2385192970603622
1040
264.3801350990837
1040
6.0000000810872551
1040
271.88479232230821
1040
6.0000000810872489
1040
271.88479232230821
1040
6.2385192488692498
1040
271.88479232230821
1040
6.9378218504607503
1040
271.88479232230821
1040
9.5000000810838667
1040
271.88479232230821
1040
11.188266765366221
1040
271.88479232230821
1040
13.00000008108386
1040
271.88479232230821
1040
14.81173332853729
1040
271.88479232230821
1040
27.929413589063309
1040
271.88479232230821
1040
31.28105455483691
1040
271.88479232230821
1040
35.002733300994613
1040
271.88479232230821
1040
38.816704449157989
1040
271.88479232230821
1040
46.47060193627572
1040
271.88479232230821
1040
50.184886932417783
1040
271.88479232230821
1040
53.742242226784242
1071
        0
1071
        7
1070
     0
1070
     1
1071
       23
1040
312.64980378270752
1040
59.055828216881523
1040
312.64980378270752
1040
64.483919960875284
1040
312.64980378270752
1040
65.449204867992179
1040
312.64980378270752
1040
65.938520955204623
1040
305.13479232230821
1040
65.938520955204623
1040
305.13479232230821
1040
65.292806766422075
1040
305.13479232230821
1040
62.9073487386162
1040
305.13479232230821
1040
57.08427447090957
1040
305.13479232230821
1040
53.742244891783422
1040
305.13479232230821
1040
50.184888970242177
1040
305.13479232230821
1040
46.470603088082321
1040
305.13479232230821
1040
38.81670578331407
1040
305.13479232230821
1040
35.002734015327817
1040
305.13479232230821
1040
31.28105552498166
1040
305.13479232230821
1040
30.06147920696425
1040
312.64980378270752
1040
30.06147920696451
1040
312.64980378270752
1040
31.516078750672619
1040
312.64980378270752
1040
34.75696846397723
1040
312.64980378270752
1040
36.944171252670287
1040
312.64980378270752
1040
42.155409635399963
1040
312.64980378270752
1040
48.000000081084288
1040
312.64980378270752
1040
50.96270270613747
1040
312.64980378270752
1040
53.844589342625852
1071
        0
1070
     1
1070
     1
1040
0.7853981633974483
1040
12.0
1070
     0
1070
     2
1040
0.7853981633974483
1040
-58.501074975582249
1040
0.0
1040
-1.060660171779819
1040
1.060660171779819
1070
     0
1040
2.3561944901923431
1040
-58.501074975582249
1040
0.0
1040
-1.060660171779819
1040
-1.060660171779819
1070
     0
1040
0.1329622227146186
1071
        2
1040
267.83451955994008
1040
54.516029320577559
1040
0.0
1040
307.60941183659031
1040
56.643424854453201
1040
0.0
1002
}
  0
INSERT
  5
638
  8
0
  6
CONTINUOUS
  2
*X1
 10
0.0
 20
0.0
 30
0.0
1001
GRADIENTCOLOR1ACI
1070
     5
1001
GRADIENTCOLOR2ACI
1070
     2
1001
ACAD
1000
HATCH
1002
{
1070
    19
1000
NET
1040
12.0
1040
0.7853981633974483
1000
ASC_BOUNDS
1070
     1
1070
     1
1070
     6
1005
40C
1005
404
1005
403
1005
408
1005
429
1005
42A
1000
ASC_SEEDPOINT
1011
197.8456988730768
1021
0.0
1031
0.0
1021
47.768355286281569
1031
0.0
1000
R14_HATCH_DATA
1000
638
1011
1.0
1021
0.0
1031
0.0
1021
0.0
1031
0.0
1011
0.0
1021
0.0
1031
0.0
1021
1.0
1031
0.0
1011
0.0
1021
0.0
1031
0.0
1021
0.0
1031
1.0
1040
0.0
1010
0.0
1020
0.0
1030
1.0
1000
NET
1070
     0
1070
     1
1071
        1
1071
        7
1070
     1
1070
     1
1071
        6
1040
197.49546173725389
1040
66.000000081084295
1040
0.6783124970280917
1040
185.12746206806881
1040
34.922057422430527
1040
0.0
1040
213.68568408812629
1040
7.9141334916077328
1040
0.1916731857395717
1040
218.49546173725389
1040
6.0000000810841811
1040
0.4949333602420844
1040
225.24641585696969
1040
14.85057255291356
1040
0.0
1040
214.85505804509441
1040
52.758615008645712
1040
0.337852277024659
1071
        6
1005
42A
1005
429
1005
408
1005
403
1005
404
1005
40C
1070
     1
1070
     1
1040
0.7853981633974483
1040
12.0
1070
     0
1070
     2
1040
0.7853981633974483
1040
-38.443563057019908
1040
0.0
1040
-1.060660171779819
1040
1.060660171779819
1070
     0
1040
2.3561944901923431
1040
-38.443563057019908
1040
0.0
1040
-1.060660171779819
1040
-1.060660171779819
1070
     0
1040
0.1341369876310985
1071
        1
1040
197.8456988730768
1040
47.768355286281569
1040
0.0
1002
}
  0
INSERT
  5
67B
  8
0
  6
CONTINUOUS
  2
*X2
 10
-10.05340525285993
 20
177.58169992675701
 30
0.0
 50
270.0
1001
GRADIENTCOLOR1ACI
1070
     5
1001
GRADIENTCOLOR2ACI
1070
     2
1001
ACAD
1000
HATCH
1002
{
1070
    19
1000
NET
1040
12.0
1040
0.7853981633974483
1000
R14_HATCH_DATA
1000
67B
1011
-10.05340525285993
1021
0.0
1031
0.0
1021
176.58169992675701
1031
0.0
1011
-9.0534052528599318
1021
0.0
1031
0.0
1021
177.58169992675701
1031
0.0
1011
-10.05340525285993
1021
0.0
1031
0.0
1021
177.58169992675701
1031
1.0
1040
0.0
1010
0.0
1020
0.0
1030
1.0
1000
NET
1070
     0
1070
     0
1071
        2
1071
        7
1070
     0
1070
     1
1071
       22
1040
8.0000005818212667
1040
214.80773083068851
1040
8.0000005818212667
1040
218.3280706617069
1040
8.0000005818212667
1040
225.54886699011371
1040
0.4849891214219042
1040
225.54886699011371
1040
0.4849891214219042
1040
225.3033719330796
1040
0.4849891214219042
1040
224.5735790069275
1040
0.4849891214219042
1040
221.75339682609101
1040
0.4849891214219042
1040
214.77938463386721
1040
0.4849891214219042
1040
211.96760575864809
1040
0.4849891214219042
1040
209.03529573373751
1040
0.4849891214219042
1040
206.06243877161171
1040
0.4849891214219042
1040
203.13012861846099
1040
0.4849891214219042
1040
200.3183495948677
1040
0.4849891214219042
1040
195.3577987008504
1040
0.4849891214219042
1040
191.71833946839681
1040
0.4849891214219042
1040
189.79436352886469
1040
0.484989121421904
1040
189.54886699011371
1040
8.0000005818212667
1040
189.54886699011371
1040
8.0000005818212667
1040
192.30895733740769
1040
8.0000005818212667
1040
199.65568661792469
1040
8.0000005818212667
1040
203.4802688064965
1040
8.0000005818212667
1040
207.3223923592989
1071
        0
1071
        7
1070
     0
1070
     1
1071
       23
1040
48.754657805045333
1040
213.3934574357981
1040
48.754657805045333
1040
220.7918973822301
1040
48.754657805045333
1040
224.03278686990481
1040
48.754657805045333
1040
224.90817746863959
1040
48.754657805045333
1040
224.9084632979542
1040
48.754657805045539
1040
235.29982110982951
1040
41.250000581821041
1040
235.29982110982951
1040
41.250000581821041
1040
234.49431872656859
1040
41.250000581821041
1040
233.97383868158241
1040
41.250000581821041
1040
232.98491199626361
1040
41.250000581821247
1040
231.5291923864294
1040
41.250000581821247
1040
229.63058061841051
1040
41.250000581821247
1040
218.3280713846186
1040
41.250000581821247
1040
214.807731407917
1040
41.250000581821247
1040
207.32239270802029
1040
41.250000581821247
1040
203.48026919671739
1040
41.250000581821247
1040
199.6556867577813
1040
41.250000581821247
1040
192.3089573374078
1040
41.250000581821247
1040
189.54886699011359
1040
48.754657805045319
1040
189.54886699011371
1040
48.754657805045333
1040
194.3058365574108
1040
48.754657805045333
1040
201.7042763187923
1040
48.754657805045333
1040
207.54886699011379
1071
        0
1070
     1
1070
     1
1040
0.7853981633974483
1040
12.0
1070
     0
1070
     2
1040
0.7853981633974483
1040
0.0
1040
-11.137687076906561
1040
-1.060660171779819
1040
1.060660171779819
1070
     0
1040
2.3561944901923431
1040
0.0
1040
-11.137687076906561
1040
-1.060660171779819
1040
-1.060660171779819
1070
     0
1040
0.1361180399285352
1071
        2
1040
4.135831204299051
1040
210.54186809140541
1040
0.0
1040
46.080421555024692
1040
211.7669304276296
1040
0.0
1002
}
  0
INSERT
  5
685
  8
0
  6
CONTINUOUS
  2
*X4
 10
0.0
 20
0.0
 30
0.0
1001
GRADIENTCOLOR1ACI
1070
     5
1001
GRADIENTCOLOR2ACI
1070
     2
1001
ACAD
1000
HATCH
1002
{
1070
    19
1000
ANSI31
1040
12.0
1040
-0.7853981633974485
1000
ASC_BOUNDS
1070
     1
1070
     1
1070
     4
1005
59A
1005
59B
1005
598
1005
599
1000
ASC_SEEDPOINT
1011
143.04664991416499
1021
0.0
1031
0.0
1021
159.6913111839153
1031
0.0
1000
R14_HATCH_DATA
1000
685
1011
1.0
1021
0.0
1031
0.0
1021
0.0
1031
0.0
1011
0.0
1021
0.0
1031
0.0
1021
1.0
1031
0.0
1011
0.0
1021
0.0
1031
0.0
1021
0.0
1031
1.0
1040
0.0
1010
0.0
1020
0.0
1030
1.0
1000
ANSI31
1070
     0
1070
     1
1071
        1
1071
        7
1070
     0
1070
     1
1071
        4
1040
97.370461737253876
1040
175.9566993449364
1040
97.370461737253635
1040
129.9566993449364
1040
165.74546173725361
1040
129.9566993449362
1040
165.74546173725389
1040
175.9566993449362
1071
        4
1005
599
1005
598
1005
59B
1005
59A
1070
     1
1070
     1
1040
-0.7853981633974485
1040
12.0
1070
     0
1070
     1
1040
6.2831853071795836
1040
-21.19109232976648
1040
177.58169992675701
1040
0.0000000000000005
1040
1.5
1070
     0
1040
0.1361180399285352
1071
        1
1040
143.04664991416499
1040
159.6913111839153
1040
0.0
1002
}
  0
LINE
  5
4074
  8
0
 10
271.88479232230821
 20
70.625000081084082
 30
0.0
 11
305.1347923223081
 21
70.625000081084082
 31
0.0
  0
ENDSEC
  0
EOF
