  0
SECTION
  2
HEADER
  9
$ACADVER
  1
AC1009
  9
$INSBASE
 10
0.0
 20
0.0
 30
0.0
  9
$EXTMIN
 10
-0.0245491104693656
 20
-0.0193571308446963
 30
-0.0000000349181948
  9
$EXTMAX
 10
402.25535511844618
 20
178.54196360385981
 30
0.0000000814935747
  9
$LIMMIN
 10
0.0
 20
0.0
  9
$LIMMAX
 10
12.0
 20
9.0
  9
$ORTHOMODE
 70
     1
  9
$REGENMODE
 70
     1
  9
$FILLMODE
 70
     1
  9
$QTEXTMODE
 70
     0
  9
$MIRRTEXT
 70
     0
  9
$DRAGMODE
 70
     2
  9
$LTSCALE
 40
1.0
  9
$OSMODE
 70
    37
  9
$ATTMODE
 70
     1
  9
$TEXTSIZE
 40
0.2
  9
$TRACEWID
 40
0.05
  9
$TEXTSTYLE
  7
ROMANS
  9
$CLAYER
  8
0
  9
$CELTYPE
  6
BYLAYER
  9
$CECOLOR
 62
   256
  9
$DIMSCALE
 40
1.0
  9
$DIMASZ
 40
0.09375
  9
$DIMEXO
 40
0.0625
  9
$DIMDLI
 40
0.375
  9
$DIMRND
 40
0.0
  9
$DIMDLE
 40
0.0
  9
$DIMEXE
 40
0.03125
  9
$DIMTP
 40
0.0
  9
$DIMTM
 40
0.0
  9
$DIMTXT
 40
0.09375
  9
$DIMCEN
 40
0.09375
  9
$DIMTSZ
 40
0.0
  9
$DIMTOL
 70
     0
  9
$DIMLIM
 70
     0
  9
$DIMTIH
 70
     0
  9
$DIMTOH
 70
     0
  9
$DIMSE1
 70
     0
  9
$DIMSE2
 70
     0
  9
$DIMTAD
 70
     0
  9
$DIMZIN
 70
     0
  9
$DIMBLK
  1

  9
$DIMASO
 70
     1
  9
$DIMSHO
 70
     1
  9
$DIMPOST
  1

  9
$DIMAPOST
  1

  9
$DIMALT
 70
     0
  9
$DIMALTD
 70
     2
  9
$DIMALTF
 40
25.399999999999999
  9
$DIMLFAC
 40
1.0
  9
$DIMTOFL
 70
     0
  9
$DIMTVP
 40
0.0
  9
$DIMTIX
 70
     0
  9
$DIMSOXD
 70
     0
  9
$DIMSAH
 70
     0
  9
$DIMBLK1
  1

  9
$DIMBLK2
  1

  9
$DIMSTYLE
  2
BAC
  9
$DIMCLRD
 70
     0
  9
$DIMCLRE
 70
     6
  9
$DIMCLRT
 70
     0
  9
$DIMTFAC
 40
1.0
  9
$DIMGAP
 40
0.0625
  9
$LUNITS
 70
     5
  9
$LUPREC
 70
     6
  9
$SKETCHINC
 40
0.1
  9
$FILLETRAD
 40
0.5
  9
$AUNITS
 70
     0
  9
$AUPREC
 70
     0
  9
$MENU
  1
.
  9
$ELEVATION
 40
0.0
  9
$PELEVATION
 40
0.0
  9
$THICKNESS
 40
0.0
  9
$LIMCHECK
 70
     0
  9
$BLIPMODE
 70
     0
  9
$CHAMFERA
 40
0.5
  9
$CHAMFERB
 40
0.5
  9
$SKPOLY
 70
     0
  9
$TDCREATE
 40
2456827.5518537378
  9
$TDUPDATE
 40
2456827.5662607639
  9
$TDINDWG
 40
0.0015685301
  9
$TDUSRTIMER
 40
0.0015681366
  9
$USRTIMER
 70
     1
  9
$ANGBASE
 50
0.0
  9
$ANGDIR
 70
     0
  9
$PDMODE
 70
     0
  9
$PDSIZE
 40
0.0
  9
$PLINEWID
 40
0.0
  9
$COORDS
 70
     1
  9
$SPLFRAME
 70
     0
  9
$SPLINETYPE
 70
     6
  9
$SPLINESEGS
 70
     8
  9
$ATTDIA
 70
     0
  9
$ATTREQ
 70
     1
  9
$HANDLING
 70
     1
  9
$HANDSEED
  5
8BD
  9
$SURFTAB1
 70
     6
  9
$SURFTAB2
 70
     6
  9
$SURFTYPE
 70
     6
  9
$SURFU
 70
     6
  9
$SURFV
 70
     6
  9
$UCSNAME
  2

  9
$UCSORG
 10
0.0
 20
0.0
 30
0.0
  9
$UCSXDIR
 10
1.0
 20
0.0
 30
0.0
  9
$UCSYDIR
 10
0.0
 20
1.0
 30
0.0
  9
$PUCSNAME
  2

  9
$PUCSORG
 10
0.0
 20
0.0
 30
0.0
  9
$PUCSXDIR
 10
1.0
 20
0.0
 30
0.0
  9
$PUCSYDIR
 10
0.0
 20
1.0
 30
0.0
  9
$USERI1
 70
     0
  9
$USERI2
 70
     0
  9
$USERI3
 70
     0
  9
$USERI4
 70
     0
  9
$USERI5
 70
     0
  9
$USERR1
 40
0.0
  9
$USERR2
 40
0.0
  9
$USERR3
 40
0.0
  9
$USERR4
 40
0.0
  9
$USERR5
 40
0.0
  9
$WORLDVIEW
 70
     1
  9
$SHADEDGE
 70
     3
  9
$SHADEDIF
 70
    70
  9
$TILEMODE
 70
     1
  9
$MAXACTVP
 70
    48
  9
$PLIMCHECK
 70
     0
  9
$PEXTMIN
 10
1.0000000000000000E+020
 20
1.0000000000000000E+020
 30
1.0000000000000000E+020
  9
$PEXTMAX
 10
-1.0000000000000000E+020
 20
-1.0000000000000000E+020
 30
-1.0000000000000000E+020
  9
$PLIMMIN
 10
0.0
 20
0.0
  9
$PLIMMAX
 10
12.0
 20
9.0
  9
$UNITMODE
 70
     0
  9
$VISRETAIN
 70
     1
  9
$PLINEGEN
 70
     0
  9
$PSLTSCALE
 70
     1
  0
ENDSEC
  0
SECTION
  2
TABLES
  0
TABLE
  2
VPORT
 70
     1
  0
VPORT
  2
*ACTIVE
 70
     0
 10
0.0
 20
0.0
 11
1.0
 21
1.0
 12
201.1154030039884
 22
89.261303236507558
 13
0.0
 23
0.0
 14
0.5
 24
0.5
 15
0.5
 25
0.5
 16
0.0
 26
0.0
 36
1.0
 17
0.0
 27
0.0
 37
0.0
 40
228.09789727955069
 41
1.7702552719200879
 42
50.0
 43
0.0
 44
0.0
 50
0.0
 51
0.0
 71
     0
 72
   100
 73
     1
 74
     1
 75
     0
 76
     0
 77
     0
 78
     0
  0
ENDTAB
  0
TABLE
  2
LTYPE
 70
    10
  0
LTYPE
  2
CONTINUOUS
 70
     0
  3
Solid line
 72
    65
 73
     0
 40
0.0
  0
LTYPE
  2
PHANTOM2
 70
     0
  3
Phantom (.5x) ___ _ _ ___ _ _ ___ _ _ ___ _ _
 72
    65
 73
     6
 40
1.25
 49
0.625
 49
-0.125
 49
0.125
 49
-0.125
 49
0.125
 49
-0.125
  0
LTYPE
  2
CENTER
 70
     0
  3
Center ____ _ ____ _ ____ _ ____ _ ____ _ ____
 72
    65
 73
     4
 40
2.0
 49
1.25
 49
-0.25
 49
0.25
 49
-0.25
  0
LTYPE
  2
CENTER2
 70
     0
  3
Center (.5x) ___ _ ___ _ ___ _ ___ _ ___ _ ___
 72
    65
 73
     4
 40
1.125
 49
0.75
 49
-0.125
 49
0.125
 49
-0.125
  0
LTYPE
  2
HIDDEN
 70
     0
  3
Hidden __ __ __ __ __ __ __ __ __ __ __ __ __ _
 72
    65
 73
     2
 40
0.375
 49
0.25
 49
-0.125
  0
LTYPE
  2
HIDDEN2
 70
     0
  3
Hidden (.5x) _ _ _ _ _ _ _ _ _ _ _ _ _ _ _ _ _
 72
    65
 73
     2
 40
0.1875
 49
0.125
 49
-0.0625
  0
LTYPE
  2
AMCONSTR
 70
     0
  3
_______________________
 72
    65
 73
     2
 40
9999.0
 49
9999.0
 49
0.0
  0
LTYPE
  2
AMZIGZAG2
 70
     0
  3
/\/-/\/-/\/-/\/-/\/-/\/
 72
    65
 73
     2
 40
0.4401
 49
0.0001
 49
-0.4400000000000002
  0
LTYPE
  2
ACANSTGB
 70
     0
  3
__ . . __ . .
 72
    65
 73
     6
 40
0.35433070866
 49
0.15748031496
 49
-0.03937007874
 49
0.03937007874
 49
-0.03937007874
 49
0.03937007874
 49
-0.03937007874
  0
LTYPE
  2
ACANSTGL
 70
     0
  3
_ _ _ _ _
 72
    65
 73
     2
 40
0.11811023622
 49
0.07874015748
 49
-0.03937007874
  0
ENDTAB
  0
TABLE
  2
LAYER
 70
     1
  0
LAYER
  2
0
 70
     0
 62
     7
  6
CONTINUOUS
  0
ENDTAB
  0
TABLE
  2
STYLE
 70
     5
  0
STYLE
  2
STANDARD
 70
     0
 40
0.0
 41
1.0
 50
0.0
 71
     0
 42
0.2
  3
txt
  4

  0
STYLE
  2
ANNOTATIVE
 70
     0
 40
0.0
 41
1.0
 50
0.0
 71
     0
 42
0.2
  3
txt
  4

  0
STYLE
  2
ROMANS
 70
     0
 40
0.0
 41
0.75
 50
0.0
 71
     0
 42
0.2
  3
romans.shx
  4

  0
STYLE
  2

 70
     1
 40
0.0
 41
1.0
 50
0.0
 71
     0
 42
0.2
  3
genltshp.shx
  4

  0
STYLE
  2
ACANSGDT
 70
     0
 40
0.0
 41
1.0
 50
0.0
 71
     0
 42
0.2
  3
amgdt.shx
  4

  0
ENDTAB
  0
TABLE
  2
VIEW
 70
     0
  0
ENDTAB
  0
TABLE
  2
UCS
 70
     0
  0
ENDTAB
  0
TABLE
  2
APPID
 70
    15
  0
APPID
  2
ACAD
 70
     0
  0
APPID
  2
ACADANNOTATIVE
 70
     0
  0
APPID
  2
ACAD_MLEADERVER
 70
     0
  0
APPID
  2
ACAD_DSTYLE_DIMJAG
 70
     0
  0
APPID
  2
ACAD_DSTYLE_DIMTALN
 70
     0
  0
APPID
  2
ACAD_PSEXT
 70
     0
  0
APPID
  2
ACADANNOPO
 70
     0
  0
APPID
  2
MCAD_NO_VIS
 70
     0
  0
APPID
  2
ACAD_TEMP_GRAPHIC
 70
     0
  0
APPID
  2
ACATTRIBSERVICES
 70
     0
  0
APPID
  2
DESIGNERASSEMBLIES
 70
     0
  0
APPID
  2
ACAD_DSTYLE_DIMBREAK
 70
     0
  0
APPID
  2
ACAD_NAV_VCDISPLAY
 70
     0
  0
APPID
  2
GRADIENTCOLOR1ACI
 70
     0
  0
APPID
  2
GRADIENTCOLOR2ACI
 70
     0
  0
ENDTAB
  0
TABLE
  2
DIMSTYLE
 70
     9
  0
DIMSTYLE
  2
STANDARD
 70
     0
  3

  4

  5

  6

  7

 40
1.0
 41
0.18
 42
0.0625
 43
0.38
 44
0.18
 45
0.0
 46
0.0
 47
0.0
 48
0.0
140
0.18
141
0.09
142
0.0
143
25.399999999999999
144
1.0
145
0.0
146
1.0
147
0.09
 71
     0
 72
     0
 73
     1
 74
     1
 75
     0
 76
     0
 77
     0
 78
     0
170
     0
171
     2
172
     0
173
     0
174
     0
175
     0
176
     0
177
     0
178
     0
  0
DIMSTYLE
  2
ANNOTATIVE
 70
     0
  3

  4

  5

  6

  7

 40
1.0
 41
0.18
 42
0.0625
 43
0.38
 44
0.18
 45
0.0
 46
0.0
 47
0.0
 48
0.0
140
0.18
141
0.09
142
0.0
143
25.399999999999999
144
1.0
145
0.0
146
1.0
147
0.09
 71
     0
 72
     0
 73
     1
 74
     1
 75
     0
 76
     0
 77
     0
 78
     0
170
     0
171
     2
172
     0
173
     0
174
     0
175
     0
176
     0
177
     0
178
     0
  0
DIMSTYLE
  2
BAC
 70
     0
  3

  4

  5

  6

  7

 40
1.0
 41
0.09375
 42
0.0625
 43
0.375
 44
0.03125
 45
0.0
 46
0.0
 47
0.0
 48
0.0
140
0.09375
141
0.09375
142
0.0
143
25.399999999999999
144
1.0
145
0.0
146
1.0
147
0.0625
 71
     0
 72
     0
 73
     0
 74
     0
 75
     0
 76
     0
 77
     0
 78
     0
170
     0
171
     2
172
     0
173
     0
174
     0
175
     0
176
     0
177
     6
178
     0
  0
DIMSTYLE
  2
AM_ANSI
 70
     0
  3

  4
mm
  5

  6

  7

 40
1.0
 41
0.12
 42
0.05
 43
0.5
 44
0.1
 45
0.0
 46
0.0
 47
0.1
 48
0.1
140
0.12
141
0.0
142
0.0
143
25.399999999999999
144
1.0
145
0.0
146
0.71
147
0.06
 71
     0
 72
     0
 73
     1
 74
     1
 75
     0
 76
     0
 77
     0
 78
     7
170
     0
171
     2
172
     0
173
     0
174
     0
175
     0
176
   256
177
   256
178
     2
  0
DIMSTYLE
  2
AM_ANSI$3
 70
     0
  3

  4
mm
  5

  6

  7

 40
1.0
 41
0.12
 42
0.05
 43
0.5
 44
0.1
 45
0.0
 46
0.0
 47
0.1
 48
0.1
140
0.12
141
0.0
142
0.0
143
25.399999999999999
144
1.0
145
0.0
146
0.71
147
0.06
 71
     0
 72
     0
 73
     1
 74
     1
 75
     0
 76
     0
 77
     0
 78
     7
170
     0
171
     2
172
     0
173
     0
174
     0
175
     0
176
   256
177
   256
178
     2
  0
DIMSTYLE
  2
AM_ANSI$4
 70
     0
  3

  4
mm
  5

  6

  7

 40
1.0
 41
0.12
 42
0.05
 43
0.5
 44
0.1
 45
0.0
 46
0.0
 47
0.1
 48
0.1
140
0.12
141
0.0
142
0.0
143
25.399999999999999
144
1.0
145
0.0
146
0.71
147
0.06
 71
     0
 72
     0
 73
     1
 74
     1
 75
     0
 76
     0
 77
     0
 78
     7
170
     0
171
     2
172
     0
173
     0
174
     0
175
     0
176
   256
177
   256
178
     2
  0
DIMSTYLE
  2
AM_ANSI$7
 70
     0
  3

  4
mm
  5

  6

  7

 40
1.0
 41
0.12
 42
0.05
 43
0.5
 44
0.1
 45
0.0
 46
0.0
 47
0.1
 48
0.1
140
0.12
141
0.0
142
0.0
143
25.399999999999999
144
1.0
145
0.0
146
0.71
147
0.06
 71
     0
 72
     0
 73
     1
 74
     1
 75
     0
 76
     0
 77
     0
 78
     7
170
     0
171
     2
172
     0
173
     0
174
     0
175
     0
176
   256
177
   256
178
     2
  0
DIMSTYLE
  2
AM_ANSI$SF
 70
     0
  3

  4
mm
  5

  6

  7

 40
1.0
 41
0.12
 42
0.05
 43
0.5
 44
0.1
 45
0.0
 46
0.0
 47
0.1
 48
0.1
140
0.12
141
0.0
142
0.0
143
25.399999999999999
144
1.0
145
0.0
146
0.71
147
0.06
 71
     0
 72
     0
 73
     1
 74
     1
 75
     1
 76
     1
 77
     0
 78
     7
170
     0
171
     2
172
     0
173
     0
174
     0
175
     0
176
   256
177
   256
178
     2
  0
DIMSTYLE
  2
AM_ANSI$SH
 70
     0
  3

  4
mm
  5

  6

  7

 40
1.0
 41
0.12
 42
0.05
 43
0.5
 44
0.1
 45
0.0
 46
0.0
 47
0.1
 48
0.1
140
0.12
141
0.0
142
0.0
143
25.399999999999999
144
1.0
145
0.0
146
0.71
147
0.06
 71
     0
 72
     0
 73
     1
 74
     1
 75
     1
 76
     1
 77
     0
 78
     7
170
     0
171
     2
172
     0
173
     1
174
     0
175
     0
176
   256
177
   256
178
     2
  0
ENDTAB
  0
ENDSEC
  0
SECTION
  2
BLOCKS
  0
BLOCK
  8
0
  2
$MODEL_SPACE
 70
     0
 10
0.0
 20
0.0
 30
0.0
  3
$MODEL_SPACE
  1

  0
ENDBLK
  5
7B8
  8
0
  0
BLOCK
 67
     1
  8
0
  2
$PAPER_SPACE
 70
     0
 10
0.0
 20
0.0
 30
0.0
  3
$PAPER_SPACE
  1

  0
ENDBLK
  5
7B4
 67
     1
  8
0
  0
BLOCK
  8
0
  2
*U2
 70
     1
 10
0.0
 20
0.0
 30
0.0
  3
*U2
  1

  0
ENDBLK
  5
17A
  8
0
  0
BLOCK
  8
0
  2
GENAXEH
 70
     0
 10
0.0
 20
0.0
 30
0.0
  3
GENAXEH
  1

  0
LINE
  5
1AD
  8
0
 10
-1.0
 20
0.0
 30
0.0
 11
1.0
 21
0.0
 31
0.0
  0
ENDBLK
  5
1AF
  8
0
  0
BLOCK
  8
0
  2
*X5
 70
     1
 10
0.0
 20
0.0
 30
0.0
  3
*X5
  1

  0
LINE
  5
675
  8
0
 62
     0
 10
274.6595946572952
 20
58.387699281568707
 30
0.0
 11
270.34710050995159
 21
62.7001934289122
 31
0.0
  0
LINE
  5
676
  8
0
 62
     0
 10
276.93214373687078
 20
53.993829858433458
 30
0.0
 11
265.9532310868164
 21
64.972742508487784
 31
0.0
  0
LINE
  5
677
  8
0
 62
     0
 10
277.7997152775863
 20
51.004937974158253
 30
0.0
 11
263.07662786384589
 21
65.72802538789864
 31
0.0
  0
LINE
  5
678
  8
0
 62
     0
 10
278.60080737893651
 20
48.082525529248372
 30
0.0
 11
260.69851432990868
 21
65.984818578276276
 31
0.0
  0
LINE
  5
679
  8
0
 62
     0
 10
279.40189948028677
 20
45.160113084338448
 30
0.0
 11
258.61247811349068
 21
65.949534451134568
 31
0.0
  0
LINE
  5
67A
  8
0
 62
     0
 10
280.20299158163709
 20
42.237700639428603
 30
0.0
 11
256.73233217230018
 21
65.708360048765442
 31
0.0
  0
LINE
  5
67B
  8
0
 62
     0
 10
281.0040836829873
 20
39.315288194518693
 30
0.0
 11
255.0124922309563
 21
65.306879646549746
 31
0.0
  0
LINE
  5
67C
  8
0
 62
     0
 10
281.80517578433762
 20
36.392875749608777
 30
0.0
 11
253.42572219536109
 21
64.772329338585294
 31
0.0
  0
LINE
  5
67D
  8
0
 62
     0
 10
282.60626788568788
 20
33.470463304698903
 30
0.0
 11
251.954599217843
 21
64.122131972543727
 31
0.0
  0
LINE
  5
67E
  8
0
 62
     0
 10
283.40735998703809
 20
30.548050859789019
 30
0.0
 11
250.58760550737489
 21
63.36780533945219
 31
0.0
  0
LINE
  5
67F
  8
0
 62
     0
 10
284.2084520883883
 20
27.62563841487912
 30
0.0
 11
249.31713162454801
 21
62.516958878719457
 31
0.0
  0
LINE
  5
680
  8
0
 62
     0
 10
285.00954418973862
 20
24.703225969969221
 30
0.0
 11
248.13839205460809
 21
61.574378105099782
 31
0.0
  0
LINE
  5
681
  8
0
 62
     0
 10
285.81063629108883
 20
21.78081352505933
 30
0.0
 11
247.04883316363831
 21
60.542616652509892
 31
0.0
  0
LINE
  5
682
  8
0
 62
     0
 10
286.61172839243909
 20
18.858401080149431
 30
0.0
 11
246.04784455795169
 21
59.422284914636869
 31
0.0
  0
LINE
  5
683
  8
0
 62
     0
 10
287.41282049378941
 20
15.935988635239511
 30
0.0
 11
245.13669283964819
 21
58.212116289380731
 31
0.0
  0
LINE
  5
684
  8
0
 62
     0
 10
287.95405854969079
 20
13.2734302357785
 30
0.0
 11
244.3186602443464
 21
56.90882854112283
 31
0.0
  0
LINE
  5
685
  8
0
 62
     0
 10
287.76098718252689
 20
11.3451812593828
 30
0.0
 11
243.599425280129
 21
55.506743161780562
 31
0.0
  0
LINE
  5
686
  8
0
 62
     0
 10
287.18505016638198
 20
9.7997979319678716
 30
0.0
 11
242.98779622975809
 21
53.997051868591761
 31
0.0
  0
LINE
  5
687
  8
0
 62
     0
 10
286.3405251022462
 20
8.5230026525441378
 30
0.0
 11
242.4970460978908
 21
52.366481656899538
 31
0.0
  0
LINE
  5
688
  8
0
 62
     0
 10
285.26299428052039
 20
7.4792131307102352
 30
0.0
 11
242.14740987607831
 21
50.594797535152352
 31
0.0
  0
LINE
  5
689
  8
0
 62
     0
 10
283.94992761045478
 20
6.6709594572162132
 30
0.0
 11
241.97113199673259
 21
48.649755070938397
 31
0.0
  0
LINE
  5
68A
  8
0
 62
     0
 10
282.35835229859589
 20
6.1412144255154129
 30
0.0
 11
242.0240761998088
 21
46.475490524302572
 31
0.0
  0
LINE
  5
68B
  8
0
 62
     0
 10
280.35182951132288
 20
6.0264168692287949
 30
0.0
 11
242.41875372488309
 21
43.959492655668591
 31
0.0
  0
LINE
  5
68C
  8
0
 62
     0
 10
277.09076072023288
 20
7.1661653167590202
 30
0.0
 11
243.46616240681951
 21
40.790763630172613
 31
0.0
  0
LINE
  5
68D
  8
0
 62
     0
 10
281.8254217688135
 20
6.053777106060009
 30
0.0
 11
287.90562345314493
 21
12.13397879039152
 31
0.0
  0
LINE
  5
68E
  8
0
 62
     0
 10
279.75475767590979
 20
6.1044333567158997
 30
0.0
 11
287.85496720248898
 21
14.204642883295151
 31
0.0
  0
LINE
  5
68F
  8
0
 62
     0
 10
278.12744105887691
 20
6.5984370832425707
 30
0.0
 11
287.42404504592508
 21
15.8950410702907
 31
0.0
  0
LINE
  5
690
  8
0
 62
     0
 10
276.7870515646789
 20
7.3793679326043078
 30
0.0
 11
286.96765431226362
 21
17.559970680188972
 31
0.0
  0
LINE
  5
691
  8
0
 62
     0
 10
275.66181946222667
 20
8.3754561737117097
 30
0.0
 11
286.5112635786021
 21
19.22490029008722
 31
0.0
  0
LINE
  5
692
  8
0
 62
     0
 10
274.57156682169642
 20
9.4065238767410317
 30
0.0
 11
286.0548728449408
 21
20.889829899985472
 31
0.0
  0
LINE
  5
693
  8
0
 62
     0
 10
273.481314181166
 20
10.43759157977035
 30
0.0
 11
285.5984821112794
 21
22.554759509883731
 31
0.0
  0
LINE
  5
694
  8
0
 62
     0
 10
272.39106154063569
 20
11.468659282799679
 30
0.0
 11
285.1420913776181
 21
24.219689119781972
 31
0.0
  0
LINE
  5
695
  8
0
 62
     0
 10
271.30080890010538
 20
12.499726985828939
 30
0.0
 11
284.68570064395658
 21
25.88461872968017
 31
0.0
  0
LINE
  5
696
  8
0
 62
     0
 10
270.21055625957518
 20
13.53079468885829
 30
0.0
 11
284.22930991029529
 21
27.549548339578418
 31
0.0
  0
LINE
  5
697
  8
0
 62
     0
 10
269.12030361904471
 20
14.561862391887569
 30
0.0
 11
283.77291917663382
 21
29.21447794947667
 31
0.0
  0
LINE
  5
698
  8
0
 62
     0
 10
268.0300509785144
 20
15.592930094916889
 30
0.0
 11
283.3165284429723
 21
30.879407559374911
 31
0.0
  0
LINE
  5
699
  8
0
 62
     0
 10
266.93979833798397
 20
16.623997797946231
 30
0.0
 11
282.86013770931089
 21
32.544337169273149
 31
0.0
  0
LINE
  5
69A
  8
0
 62
     0
 10
265.84954569745372
 20
17.655065500975478
 30
0.0
 11
282.40374697564971
 21
34.209266779171386
 31
0.0
  0
LINE
  5
69B
  8
0
 62
     0
 10
264.75929305692341
 20
18.6861332040048
 30
0.0
 11
281.94735624198819
 21
35.874196389069638
 31
0.0
  0
LINE
  5
69C
  8
0
 62
     0
 10
263.66904041639299
 20
19.71720090703414
 30
0.0
 11
281.49096550832678
 21
37.539125998967883
 31
0.0
  0
LINE
  5
69D
  8
0
 62
     0
 10
262.57878777586268
 20
20.748268610063452
 30
0.0
 11
281.03457477466537
 21
39.204055608866142
 31
0.0
  0
LINE
  5
69E
  8
0
 62
     0
 10
261.48853513533243
 20
21.77933631309277
 30
0.0
 11
280.57818404100402
 21
40.868985218764351
 31
0.0
  0
LINE
  5
69F
  8
0
 62
     0
 10
260.39828249480212
 20
22.81040401612205
 30
0.0
 11
280.12179330734261
 21
42.533914828662603
 31
0.0
  0
LINE
  5
6A0
  8
0
 62
     0
 10
259.30802985427169
 20
23.841471719151372
 30
0.0
 11
279.66540257368121
 21
44.19884443856084
 31
0.0
  0
LINE
  5
6A1
  8
0
 62
     0
 10
258.21777721374139
 20
24.872539422180679
 30
0.0
 11
279.2090118400198
 21
45.863774048459092
 31
0.0
  0
LINE
  5
6A2
  8
0
 62
     0
 10
257.12752457321108
 20
25.903607125210002
 30
0.0
 11
278.75262110635839
 21
47.528703658357323
 31
0.0
  0
LINE
  5
6A3
  8
0
 62
     0
 10
256.03727193268071
 20
26.934674828239309
 30
0.0
 11
278.29623037269693
 21
49.193633268255567
 31
0.0
  0
LINE
  5
6A4
  8
0
 62
     0
 10
254.9470192921504
 20
27.96574253126866
 30
0.0
 11
277.83983963903557
 21
50.858562878153819
 31
0.0
  0
LINE
  5
6A5
  8
0
 62
     0
 10
253.85676665162009
 20
28.996810234297929
 30
0.0
 11
277.38344890537428
 21
52.523492488052071
 31
0.0
  0
LINE
  5
6A6
  8
0
 62
     0
 10
252.7665140110897
 20
30.027877937327212
 30
0.0
 11
276.87950070175452
 21
54.140864627992002
 31
0.0
  0
LINE
  5
6A7
  8
0
 62
     0
 10
251.67626137055939
 20
31.058945640356541
 30
0.0
 11
276.25749049085982
 21
55.640174760656947
 31
0.0
  0
LINE
  5
6A8
  8
0
 62
     0
 10
250.58600873002911
 20
32.090013343385863
 30
0.0
 11
275.52884565119177
 21
57.032850264548543
 31
0.0
  0
LINE
  5
6A9
  8
0
 62
     0
 10
249.4957560894988
 20
33.121081046415171
 30
0.0
 11
274.70204235979139
 21
58.327367316707878
 31
0.0
  0
LINE
  5
6AA
  8
0
 62
     0
 10
248.4055034489684
 20
34.152148749444478
 30
0.0
 11
273.78251443708552
 21
59.529159737561599
 31
0.0
  0
LINE
  5
6AB
  8
0
 62
     0
 10
247.31808808480619
 20
35.18605372884187
 30
0.0
 11
272.77334683036321
 21
60.64131247439893
 31
0.0
  0
LINE
  5
6AC
  8
0
 62
     0
 10
246.29448383408209
 20
36.283769821677467
 30
0.0
 11
271.67563073752763
 21
61.664916725122978
 31
0.0
  0
LINE
  5
6AD
  8
0
 62
     0
 10
245.36021152098621
 20
37.47081785214116
 30
0.0
 11
270.48858270706398
 21
62.59918903821891
 31
0.0
  0
LINE
  5
6AE
  8
0
 62
     0
 10
244.51801441583629
 20
38.749941090550927
 30
0.0
 11
269.20945946865407
 21
63.441386143368788
 31
0.0
  0
LINE
  5
6AF
  8
0
 62
     0
 10
243.7729076202898
 20
40.126154638564088
 30
0.0
 11
267.83324592064099
 21
64.186492938915265
 31
0.0
  0
LINE
  5
6B0
  8
0
 62
     0
 10
243.13280528458071
 20
41.607372646414653
 30
0.0
 11
266.35202791279039
 21
64.826595274624367
 31
0.0
  0
LINE
  5
6B1
  8
0
 62
     0
 10
242.60966629236719
 20
43.205553997760752
 30
0.0
 11
264.75384656144428
 21
65.349734266837899
 31
0.0
  0
LINE
  5
6B2
  8
0
 62
     0
 10
242.2216114106684
 20
44.938819459621598
 30
0.0
 11
263.02058109958352
 21
65.737789148536692
 31
0.0
  0
LINE
  5
6B3
  8
0
 62
     0
 10
241.99710036233029
 20
46.835628754843142
 30
0.0
 11
261.12377180436198
 21
65.96230019687485
 31
0.0
  0
LINE
  5
6B4
  8
0
 62
     0
 10
241.98417286799901
 20
48.944021604071509
 30
0.0
 11
259.01537895513349
 21
65.975227691206044
 31
0.0
  0
LINE
  5
6B5
  8
0
 62
     0
 10
242.27506658596519
 20
51.356235665597318
 30
0.0
 11
256.6031648936077
 21
65.684333973239873
 31
0.0
  0
LINE
  5
6B6
  8
0
 62
     0
 10
243.09814256960181
 20
54.300631992793598
 30
0.0
 11
253.65876856641151
 21
64.861257989603217
 31
0.0
  0
LINE
  5
6B7
  8
0
 62
     0
 10
245.83799458399631
 20
59.161804350747751
 30
0.0
 11
248.79759620845729
 21
62.12140597520871
 31
0.0
  0
ENDBLK
  5
6B9
  8
0
  0
BLOCK
  8
0
  2
*X6
 70
     1
 10
0.0
 20
0.0
 30
0.0
  3
*X6
  1

  0
LINE
  5
6BB
  8
0
 62
     0
 10
401.74581373664591
 20
64.944661846475412
 30
0.0
 11
400.75195504359073
 21
65.938520539530629
 31
0.0
  0
LINE
  5
6BC
  8
0
 62
     0
 10
401.74581373664591
 20
62.823341502915781
 30
0.0
 11
398.63063470003112
 21
65.938520539530657
 31
0.0
  0
LINE
  5
6BD
  8
0
 62
     0
 10
401.74581373664591
 20
60.702021159356143
 30
0.0
 11
396.50931435647141
 21
65.938520539530657
 31
0.0
  0
LINE
  5
6BE
  8
0
 62
     0
 10
401.74581373664591
 20
58.58070081579649
 30
0.0
 11
394.38799401291192
 21
65.938520539530657
 31
0.0
  0
LINE
  5
6BF
  8
0
 62
     0
 10
401.74581373664591
 20
56.459380472236823
 30
0.0
 11
394.23080227624649
 21
63.974391932636173
 31
0.0
  0
LINE
  5
6C0
  8
0
 62
     0
 10
401.74581373664591
 20
54.338060128677192
 30
0.0
 11
394.23080227624649
 21
61.853071589076563
 31
0.0
  0
LINE
  5
6C1
  8
0
 62
     0
 10
401.74581373664591
 20
52.216739785117561
 30
0.0
 11
394.23080227624649
 21
59.731751245516911
 31
0.0
  0
LINE
  5
6C2
  8
0
 62
     0
 10
401.74581373664591
 20
50.095419441557901
 30
0.0
 11
394.23080227624649
 21
57.610430901957237
 31
0.0
  0
LINE
  5
6C3
  8
0
 62
     0
 10
401.74581373664591
 20
47.97409909799827
 30
0.0
 11
394.23080227624649
 21
55.489110558397599
 31
0.0
  0
LINE
  5
6C4
  8
0
 62
     0
 10
401.74581373664591
 20
45.85277875443866
 30
0.0
 11
394.23080227624649
 21
53.367790214837981
 31
0.0
  0
LINE
  5
6C5
  8
0
 62
     0
 10
401.74581373664591
 20
43.731458410878972
 30
0.0
 11
394.23080227624649
 21
51.246469871278322
 31
0.0
  0
LINE
  5
6C6
  8
0
 62
     0
 10
401.74581373664591
 20
41.610138067319347
 30
0.0
 11
394.23080227624672
 21
49.125149527718612
 31
0.0
  0
LINE
  5
6C7
  8
0
 62
     0
 10
401.74581373664591
 20
39.488817723759752
 30
0.0
 11
394.23080227624689
 21
47.003829184158683
 31
0.0
  0
LINE
  5
6C8
  8
0
 62
     0
 10
401.74581373664591
 20
37.367497380200092
 30
0.0
 11
394.230802276247
 21
44.882508840599002
 31
0.0
  0
LINE
  5
6C9
  8
0
 62
     0
 10
401.74581373664591
 20
35.246177036640439
 30
0.0
 11
394.230802276247
 21
42.761188497039342
 31
0.0
  0
LINE
  5
6CA
  8
0
 62
     0
 10
401.74581373664591
 20
33.124856693080801
 30
0.0
 11
394.230802276247
 21
40.639868153479711
 31
0.0
  0
LINE
  5
6CB
  8
0
 62
     0
 10
401.74581373664591
 20
31.00353634952117
 30
0.0
 11
394.230802276247
 21
38.518547809920051
 31
0.0
  0
LINE
  5
6CC
  8
0
 62
     0
 10
400.56655095131691
 20
30.061478791290511
 30
0.0
 11
394.230802276247
 21
36.39722746636042
 31
0.0
  0
LINE
  5
6CD
  8
0
 62
     0
 10
398.44523060775731
 20
30.061478791290511
 30
0.0
 11
394.230802276247
 21
34.275907122800788
 31
0.0
  0
LINE
  5
6CE
  8
0
 62
     0
 10
360.98080227624649
 20
65.404586779241583
 30
0.0
 11
360.44686851595748
 21
65.938520539530685
 31
0.0
  0
LINE
  5
6CF
  8
0
 62
     0
 10
396.32391026419759
 20
30.06147879129054
 30
0.0
 11
394.230802276247
 21
32.154586779241171
 31
0.0
  0
LINE
  5
6D0
  8
0
 62
     0
 10
360.98080227624649
 20
63.283266435681931
 30
0.0
 11
358.32554817239782
 21
65.938520539530657
 31
0.0
  0
LINE
  5
6D1
  8
0
 62
     0
 10
360.98080227624649
 20
61.161946092122292
 30
0.0
 11
356.20422782883821
 21
65.938520539530629
 31
0.0
  0
LINE
  5
6D2
  8
0
 62
     0
 10
360.98080227624649
 20
59.040625748562661
 30
0.0
 11
354.08290748527861
 21
65.938520539530657
 31
0.0
  0
LINE
  5
6D3
  8
0
 62
     0
 10
360.98080227624649
 20
56.919305405003001
 30
0.0
 11
353.47614505302261
 21
64.423962628227073
 31
0.0
  0
LINE
  5
6D4
  8
0
 62
     0
 10
360.98080227624689
 20
54.797985061443043
 30
0.0
 11
353.47614505302261
 21
62.3026422846674
 31
0.0
  0
LINE
  5
6D5
  8
0
 62
     0
 10
360.980802276247
 20
52.676664717883277
 30
0.0
 11
353.47614505302261
 21
60.181321941107797
 31
0.0
  0
LINE
  5
6D6
  8
0
 62
     0
 10
360.980802276247
 20
50.555344374323617
 30
0.0
 11
353.47614505302261
 21
58.060001597548123
 31
0.0
  0
LINE
  5
6D7
  8
0
 62
     0
 10
360.980802276247
 20
48.434024030763958
 30
0.0
 11
353.47614505302261
 21
55.938681253988477
 31
0.0
  0
LINE
  5
6D8
  8
0
 62
     0
 10
360.980802276247
 20
46.312703687204333
 30
0.0
 11
353.47614505302261
 21
53.817360910428867
 31
0.0
  0
LINE
  5
6D9
  8
0
 62
     0
 10
360.980802276247
 20
44.191383343644702
 30
0.0
 11
353.47614505302261
 21
51.696040566869208
 31
0.0
  0
LINE
  5
6DA
  8
0
 62
     0
 10
360.980802276247
 20
42.070063000085042
 30
0.0
 11
353.47614505302261
 21
49.574720223309541
 31
0.0
  0
LINE
  5
6DB
  8
0
 62
     0
 10
360.980802276247
 20
39.948742656525411
 30
0.0
 11
353.47614505302261
 21
47.453399879749917
 31
0.0
  0
LINE
  5
6DC
  8
0
 62
     0
 10
360.980802276247
 20
37.82742231296578
 30
0.0
 11
353.47614505302261
 21
45.332079536190292
 31
0.0
  0
LINE
  5
6DD
  8
0
 62
     0
 10
360.980802276247
 20
35.70610196940612
 30
0.0
 11
353.47614505302261
 21
43.210759192630633
 31
0.0
  0
LINE
  5
6DE
  8
0
 62
     0
 10
360.980802276247
 20
33.58478162584646
 30
0.0
 11
353.47614505302261
 21
41.089438849070959
 31
0.0
  0
LINE
  5
6DF
  8
0
 62
     0
 10
360.980802276247
 20
31.463461282286861
 30
0.0
 11
353.47614505302261
 21
38.96811850551137
 31
0.0
  0
LINE
  5
6E0
  8
0
 62
     0
 10
360.980802276247
 20
29.342140938727201
 30
0.0
 11
353.47614505302261
 21
36.84679816195171
 31
0.0
  0
LINE
  5
6E1
  8
0
 62
     0
 10
360.98080227624712
 20
27.22082059516751
 30
0.0
 11
353.47614505302261
 21
34.725477818392051
 31
0.0
  0
LINE
  5
6E2
  8
0
 62
     0
 10
360.980802276247
 20
25.09950025160791
 30
0.0
 11
353.47614505302261
 21
32.604157474832448
 31
0.0
  0
LINE
  5
6E3
  8
0
 62
     0
 10
360.980802276247
 20
22.978179908048251
 30
0.0
 11
353.47614505302261
 21
30.482837131272792
 31
0.0
  0
LINE
  5
6E4
  8
0
 62
     0
 10
360.98080227624712
 20
20.856859564488591
 30
0.0
 11
353.47614505302261
 21
28.361516787713128
 31
0.0
  0
LINE
  5
6E5
  8
0
 62
     0
 10
360.980802276247
 20
18.735539220928949
 30
0.0
 11
353.47614505302261
 21
26.240196444153469
 31
0.0
  0
LINE
  5
6E6
  8
0
 62
     0
 10
360.980802276247
 20
16.614218877369321
 30
0.0
 11
353.47614505302261
 21
24.11887610059388
 31
0.0
  0
LINE
  5
6E7
  8
0
 62
     0
 10
360.980802276247
 20
14.49289853380969
 30
0.0
 11
353.47614505302261
 21
21.99755575703421
 31
0.0
  0
LINE
  5
6E8
  8
0
 62
     0
 10
360.980802276247
 20
12.371578190250061
 30
0.0
 11
353.47614505302261
 21
19.87623541347455
 31
0.0
  0
LINE
  5
6E9
  8
0
 62
     0
 10
360.980802276247
 20
10.25025784669042
 30
0.0
 11
353.47614505302261
 21
17.75491506991494
 31
0.0
  0
LINE
  5
6EA
  8
0
 62
     0
 10
360.980802276247
 20
8.1289375031307998
 30
0.0
 11
353.47614505302261
 21
15.63359472635528
 31
0.0
  0
LINE
  5
6EB
  8
0
 62
     0
 10
360.980802276247
 20
6.0076171595711108
 30
0.0
 11
353.47614505302261
 21
13.512274382795621
 31
0.0
  0
LINE
  5
6EC
  8
0
 62
     0
 10
358.86709942684462
 20
5.9999996654139789
 30
0.0
 11
353.47614505302261
 21
11.39095403923602
 31
0.0
  0
LINE
  5
6ED
  8
0
 62
     0
 10
356.7457790832849
 20
5.9999996654139522
 30
0.0
 11
353.47614505302261
 21
9.2696336956763599
 31
0.0
  0
LINE
  5
6EE
  8
0
 62
     0
 10
354.62445873972518
 20
5.9999996654139522
 30
0.0
 11
353.47614505302261
 21
7.148313352116701
 31
0.0
  0
LINE
  5
6EF
  8
0
 62
     0
 10
401.29253891422798
 20
30.06147879129049
 30
0.0
 11
401.74581373664591
 21
30.51475361370845
 31
0.0
  0
LINE
  5
6F0
  8
0
 62
     0
 10
399.17121857066837
 20
30.061478791290511
 30
0.0
 11
401.74581373664591
 21
32.63607395726811
 31
0.0
  0
LINE
  5
6F1
  8
0
 62
     0
 10
397.04989822710883
 20
30.061478791290511
 30
0.0
 11
401.74581373664591
 21
34.757394300827677
 31
0.0
  0
LINE
  5
6F2
  8
0
 62
     0
 10
394.92857788354911
 20
30.061478791290511
 30
0.0
 11
401.74581373664591
 21
36.878714644387323
 31
0.0
  0
LINE
  5
6F3
  8
0
 62
     0
 10
394.230802276247
 20
31.485023527548091
 30
0.0
 11
401.74581373664591
 21
39.000034987947032
 31
0.0
  0
LINE
  5
6F4
  8
0
 62
     0
 10
394.230802276247
 20
33.606343871107732
 30
0.0
 11
401.74581373664591
 21
41.121355331506628
 31
0.0
  0
LINE
  5
6F5
  8
0
 62
     0
 10
394.230802276247
 20
35.727664214667371
 30
0.0
 11
401.74581373664591
 21
43.242675675066288
 31
0.0
  0
LINE
  5
6F6
  8
0
 62
     0
 10
394.230802276247
 20
37.848984558226988
 30
0.0
 11
401.74581373664591
 21
45.363996018625897
 31
0.0
  0
LINE
  5
6F7
  8
0
 62
     0
 10
394.230802276247
 20
39.970304901786648
 30
0.0
 11
401.74581373664591
 21
47.485316362185543
 31
0.0
  0
LINE
  5
6F8
  8
0
 62
     0
 10
360.26049703987428
 20
5.9999996654139522
 30
0.0
 11
360.980802276247
 21
6.7203049017866467
 31
0.0
  0
LINE
  5
6F9
  8
0
 62
     0
 10
394.230802276247
 20
42.0916252453463
 30
0.0
 11
401.74581373664591
 21
49.606636705745181
 31
0.0
  0
LINE
  5
6FA
  8
0
 62
     0
 10
358.13917669631462
 20
5.999999665413922
 30
0.0
 11
360.980802276247
 21
8.8416252453463073
 31
0.0
  0
LINE
  5
6FB
  8
0
 62
     0
 10
394.230802276247
 20
44.21294558890596
 30
0.0
 11
401.74581373664591
 21
51.727957049304877
 31
0.0
  0
LINE
  5
6FC
  8
0
 62
     0
 10
356.01785635275508
 20
5.9999996654139522
 30
0.0
 11
360.980802276247
 21
10.962945588905971
 31
0.0
  0
LINE
  5
6FD
  8
0
 62
     0
 10
394.230802276247
 20
46.334265932465598
 30
0.0
 11
401.74581373664591
 21
53.849277392864501
 31
0.0
  0
LINE
  5
6FE
  8
0
 62
     0
 10
353.89653600919542
 20
5.9999996654139522
 30
0.0
 11
360.980802276247
 21
13.08426593246563
 31
0.0
  0
LINE
  5
6FF
  8
0
 62
     0
 10
394.23080227624672
 20
48.455586276024931
 30
0.0
 11
401.74581373664591
 21
55.970597736424132
 31
0.0
  0
LINE
  5
700
  8
0
 62
     0
 10
353.47614505302261
 20
7.700929052800717
 30
0.0
 11
360.980802276247
 21
15.205586276025199
 31
0.0
  0
LINE
  5
701
  8
0
 62
     0
 10
394.23080227624649
 20
50.576906619584342
 30
0.0
 11
401.74581373664591
 21
58.091918079983799
 31
0.0
  0
LINE
  5
702
  8
0
 62
     0
 10
353.47614505302261
 20
9.8222493963603483
 30
0.0
 11
360.980802276247
 21
17.326906619584861
 31
0.0
  0
LINE
  5
703
  8
0
 62
     0
 10
394.23080227624649
 20
52.698226963144009
 30
0.0
 11
401.74581373664591
 21
60.213238423543459
 31
0.0
  0
LINE
  5
704
  8
0
 62
     0
 10
353.47614505302261
 20
11.94356973992001
 30
0.0
 11
360.980802276247
 21
19.448226963144489
 31
0.0
  0
LINE
  5
705
  8
0
 62
     0
 10
394.23080227624649
 20
54.819547306703647
 30
0.0
 11
401.74581373664591
 21
62.334558767103083
 31
0.0
  0
LINE
  5
706
  8
0
 62
     0
 10
353.47614505302261
 20
14.06489008347967
 30
0.0
 11
360.980802276247
 21
21.569547306704148
 31
0.0
  0
LINE
  5
707
  8
0
 62
     0
 10
394.23080227624649
 20
56.940867650263328
 30
0.0
 11
401.74581373664591
 21
64.455879110662721
 31
0.0
  0
LINE
  5
708
  8
0
 62
     0
 10
353.47614505302261
 20
16.186210427039299
 30
0.0
 11
360.980802276247
 21
23.69086765026378
 31
0.0
  0
LINE
  5
709
  8
0
 62
     0
 10
394.23080227624649
 20
59.062187993822917
 30
0.0
 11
401.10713482195428
 21
65.938520539530657
 31
0.0
  0
LINE
  5
70A
  8
0
 62
     0
 10
353.47614505302261
 20
18.30753077059893
 30
0.0
 11
360.980802276247
 21
25.812187993823439
 31
0.0
  0
LINE
  5
70B
  8
0
 62
     0
 10
394.23080227624649
 20
61.183508337382591
 30
0.0
 11
398.98581447839462
 21
65.938520539530657
 31
0.0
  0
LINE
  5
70C
  8
0
 62
     0
 10
353.47614505302261
 20
20.42885111415859
 30
0.0
 11
360.980802276247
 21
27.933508337383071
 31
0.0
  0
LINE
  5
70D
  8
0
 62
     0
 10
394.23080227624649
 20
63.30482868094218
 30
0.0
 11
396.8644941348349
 21
65.938520539530629
 31
0.0
  0
LINE
  5
70E
  8
0
 62
     0
 10
353.47614505302261
 20
22.550171457718221
 30
0.0
 11
360.980802276247
 21
30.054828680942709
 31
0.0
  0
LINE
  5
70F
  8
0
 62
     0
 10
394.23080227624649
 20
65.426149024501854
 30
0.0
 11
394.7431737912753
 21
65.938520539530657
 31
0.0
  0
LINE
  5
710
  8
0
 62
     0
 10
353.47614505302261
 20
24.67149180127786
 30
0.0
 11
360.980802276247
 21
32.176149024502358
 31
0.0
  0
LINE
  5
711
  8
0
 62
     0
 10
353.47614505302261
 20
26.792812144837509
 30
0.0
 11
360.980802276247
 21
34.297469368062004
 31
0.0
  0
LINE
  5
712
  8
0
 62
     0
 10
353.47614505302261
 20
28.914132488397151
 30
0.0
 11
360.980802276247
 21
36.418789711621621
 31
0.0
  0
LINE
  5
713
  8
0
 62
     0
 10
353.47614505302261
 20
31.035452831956771
 30
0.0
 11
360.980802276247
 21
38.540110055181287
 31
0.0
  0
LINE
  5
714
  8
0
 62
     0
 10
353.47614505302261
 20
33.156773175516442
 30
0.0
 11
360.980802276247
 21
40.661430398740897
 31
0.0
  0
LINE
  5
715
  8
0
 62
     0
 10
353.47614505302261
 20
35.278093519076101
 30
0.0
 11
360.980802276247
 21
42.782750742300578
 31
0.0
  0
LINE
  5
716
  8
0
 62
     0
 10
353.47614505302261
 20
37.39941386263569
 30
0.0
 11
360.980802276247
 21
44.904071085860217
 31
0.0
  0
LINE
  5
717
  8
0
 62
     0
 10
353.47614505302261
 20
39.520734206195357
 30
0.0
 11
360.980802276247
 21
47.025391429419862
 31
0.0
  0
LINE
  5
718
  8
0
 62
     0
 10
353.47614505302261
 20
41.642054549755002
 30
0.0
 11
360.980802276247
 21
49.146711772979501
 31
0.0
  0
LINE
  5
719
  8
0
 62
     0
 10
353.47614505302261
 20
43.763374893314641
 30
0.0
 11
360.980802276247
 21
51.268032116539132
 31
0.0
  0
LINE
  5
71A
  8
0
 62
     0
 10
353.47614505302261
 20
45.884695236874279
 30
0.0
 11
360.980802276247
 21
53.389352460098792
 31
0.0
  0
LINE
  5
71B
  8
0
 62
     0
 10
353.47614505302261
 20
48.006015580433939
 30
0.0
 11
360.98080227624678
 21
55.510672803658203
 31
0.0
  0
LINE
  5
71C
  8
0
 62
     0
 10
353.47614505302261
 20
50.12733592399357
 30
0.0
 11
360.98080227624649
 21
57.631993147217592
 31
0.0
  0
LINE
  5
71D
  8
0
 62
     0
 10
353.47614505302261
 20
52.248656267553201
 30
0.0
 11
360.98080227624649
 21
59.753313490777252
 31
0.0
  0
LINE
  5
71E
  8
0
 62
     0
 10
353.47614505302261
 20
54.369976611112861
 30
0.0
 11
360.98080227624649
 21
61.874633834336919
 31
0.0
  0
LINE
  5
71F
  8
0
 62
     0
 10
353.47614505302261
 20
56.491296954672521
 30
0.0
 11
360.98080227624649
 21
63.995954177896579
 31
0.0
  0
LINE
  5
720
  8
0
 62
     0
 10
353.47614505302261
 20
58.612617298232117
 30
0.0
 11
360.80204829432091
 21
65.938520539530629
 31
0.0
  0
LINE
  5
721
  8
0
 62
     0
 10
353.47614505302261
 20
60.733937641791783
 30
0.0
 11
358.68072795076142
 21
65.938520539530657
 31
0.0
  0
LINE
  5
722
  8
0
 62
     0
 10
353.47614505302261
 20
62.855257985351429
 30
0.0
 11
356.55940760720171
 21
65.938520539530629
 31
0.0
  0
LINE
  5
723
  8
0
 62
     0
 10
353.47614505302261
 20
64.976578328911032
 30
0.0
 11
354.4380872636421
 21
65.938520539530629
 31
0.0
  0
ENDBLK
  5
725
  8
0
  0
BLOCK
  8
0
  2
*X8
 70
     1
 10
0.0
 20
0.0
 30
0.0
  3
*X8
  1

  0
LINE
  5
803
  8
0
 62
     0
 10
286.7942543158905
 20
129.76783664322701
 30
0.0
 11
287.95940089379428
 21
130.93298322113071
 31
0.0
  0
LINE
  5
804
  8
0
 62
     0
 10
284.67293397233101
 20
129.7678366432271
 30
0.0
 11
287.95940089379422
 21
133.05430356469029
 31
0.0
  0
LINE
  5
805
  8
0
 62
     0
 10
282.55161362877141
 20
129.76783664322721
 30
0.0
 11
287.95940089379422
 21
135.17562390825
 31
0.0
  0
LINE
  5
806
  8
0
 62
     0
 10
280.4302932852118
 20
129.76783664322721
 30
0.0
 11
287.93495050843609
 21
137.27249386645161
 31
0.0
  0
LINE
  5
807
  8
0
 62
     0
 10
278.3089729416522
 20
129.76783664322721
 30
0.0
 11
285.81363016487649
 21
137.27249386645161
 31
0.0
  0
LINE
  5
808
  8
0
 62
     0
 10
276.18765259809248
 20
129.7678366432273
 30
0.0
 11
283.6923098213166
 21
137.27249386645141
 31
0.0
  0
LINE
  5
809
  8
0
 62
     0
 10
274.06633225453299
 20
129.7678366432273
 30
0.0
 11
281.57098947775711
 21
137.27249386645141
 31
0.0
  0
LINE
  5
80A
  8
0
 62
     0
 10
271.94501191097328
 20
129.7678366432273
 30
0.0
 11
279.44966913419739
 21
137.27249386645141
 31
0.0
  0
LINE
  5
80B
  8
0
 62
     0
 10
269.82369156741368
 20
129.7678366432273
 30
0.0
 11
277.32834879063768
 21
137.27249386645141
 31
0.0
  0
LINE
  5
80C
  8
0
 62
     0
 10
267.70237122385402
 20
129.7678366432273
 30
0.0
 11
275.20702844707807
 21
137.27249386645141
 31
0.0
  0
LINE
  5
80D
  8
0
 62
     0
 10
265.58105088029441
 20
129.7678366432273
 30
0.0
 11
273.08570810351841
 21
137.27249386645141
 31
0.0
  0
LINE
  5
80E
  8
0
 62
     0
 10
263.45973053673458
 20
129.76783664322721
 30
0.0
 11
270.9643877599587
 21
137.27249386645141
 31
0.0
  0
LINE
  5
80F
  8
0
 62
     0
 10
261.33841019317498
 20
129.7678366432273
 30
0.0
 11
268.84306741639921
 21
137.27249386645141
 31
0.0
  0
LINE
  5
810
  8
0
 62
     0
 10
259.21708984961538
 20
129.76783664322721
 30
0.0
 11
266.72174707283949
 21
137.27249386645141
 31
0.0
  0
LINE
  5
811
  8
0
 62
     0
 10
257.09576950605577
 20
129.7678366432273
 30
0.0
 11
264.60042672927989
 21
137.27249386645141
 31
0.0
  0
LINE
  5
812
  8
0
 62
     0
 10
254.97444916249609
 20
129.7678366432273
 30
0.0
 11
262.47910638572017
 21
137.27249386645141
 31
0.0
  0
LINE
  5
813
  8
0
 62
     0
 10
252.8531288189364
 20
129.76783664322721
 30
0.0
 11
260.35778604216051
 21
137.27249386645141
 31
0.0
  0
LINE
  5
814
  8
0
 62
     0
 10
250.73180847537691
 20
129.7678366432273
 30
0.0
 11
258.23646569860091
 21
137.27249386645141
 31
0.0
  0
LINE
  5
815
  8
0
 62
     0
 10
248.61048813181719
 20
129.7678366432273
 30
0.0
 11
256.11514535504131
 21
137.27249386645141
 31
0.0
  0
LINE
  5
816
  8
0
 62
     0
 10
246.48916778825759
 20
129.76783664322721
 30
0.0
 11
253.9938250114817
 21
137.27249386645141
 31
0.0
  0
LINE
  5
817
  8
0
 62
     0
 10
244.3678474446979
 20
129.7678366432273
 30
0.0
 11
251.87250466792199
 21
137.27249386645141
 31
0.0
  0
LINE
  5
818
  8
0
 62
     0
 10
242.24652710113821
 20
129.76783664322721
 30
0.0
 11
249.7511843243623
 21
137.27249386645141
 31
0.0
  0
LINE
  5
819
  8
0
 62
     0
 10
241.95940089379411
 20
131.60203077944291
 30
0.0
 11
247.6298639808027
 21
137.27249386645141
 31
0.0
  0
LINE
  5
81A
  8
0
 62
     0
 10
241.9594008937942
 20
133.72335112300249
 30
0.0
 11
245.50854363724309
 21
137.27249386645141
 31
0.0
  0
LINE
  5
81B
  8
0
 62
     0
 10
276.63722329368352
 20
170.5224938664513
 30
0.0
 11
277.95940089379422
 21
171.84467146656209
 31
0.0
  0
LINE
  5
81C
  8
0
 62
     0
 10
241.95940089379411
 20
135.84467146656209
 30
0.0
 11
243.38722329368341
 21
137.27249386645141
 31
0.0
  0
LINE
  5
81D
  8
0
 62
     0
 10
274.5159029501238
 20
170.5224938664513
 30
0.0
 11
277.95940089379422
 21
173.96599181012169
 31
0.0
  0
LINE
  5
81E
  8
0
 62
     0
 10
272.3945826065642
 20
170.52249386645141
 30
0.0
 11
277.95940089379422
 21
176.08731215368141
 31
0.0
  0
LINE
  5
81F
  8
0
 62
     0
 10
270.27326226300448
 20
170.5224938664513
 30
0.0
 11
277.7882737234039
 21
178.03750532685069
 31
0.0
  0
LINE
  5
820
  8
0
 62
     0
 10
268.15194191944488
 20
170.5224938664513
 30
0.0
 11
275.6669533798443
 21
178.03750532685069
 31
0.0
  0
LINE
  5
821
  8
0
 62
     0
 10
266.03062157588522
 20
170.5224938664513
 30
0.0
 11
273.54563303628458
 21
178.03750532685081
 31
0.0
  0
LINE
  5
822
  8
0
 62
     0
 10
263.90930123232562
 20
170.52249386645141
 30
0.0
 11
271.42431269272498
 21
178.03750532685069
 31
0.0
  0
LINE
  5
823
  8
0
 62
     0
 10
261.78798088876601
 20
170.52249386645141
 30
0.0
 11
269.30299234916538
 21
178.03750532685069
 31
0.0
  0
LINE
  5
824
  8
0
 62
     0
 10
259.6666605452063
 20
170.52249386645141
 30
0.0
 11
267.18167200560572
 21
178.03750532685069
 31
0.0
  0
LINE
  5
825
  8
0
 62
     0
 10
257.5453402016467
 20
170.52249386645141
 30
0.0
 11
265.060351662046
 21
178.03750532685069
 31
0.0
  0
LINE
  5
826
  8
0
 62
     0
 10
255.42401985808701
 20
170.5224938664513
 30
0.0
 11
262.9390313184864
 21
178.03750532685069
 31
0.0
  0
LINE
  5
827
  8
0
 62
     0
 10
253.3026995145274
 20
170.52249386645141
 30
0.0
 11
260.81771097492668
 21
178.03750532685069
 31
0.0
  0
LINE
  5
828
  8
0
 62
     0
 10
251.1813791709678
 20
170.52249386645141
 30
0.0
 11
258.69639063136719
 21
178.03750532685069
 31
0.0
  0
LINE
  5
829
  8
0
 62
     0
 10
249.06005882740811
 20
170.52249386645141
 30
0.0
 11
256.57507028780748
 21
178.03750532685069
 31
0.0
  0
LINE
  5
82A
  8
0
 62
     0
 10
246.9387384838484
 20
170.5224938664513
 30
0.0
 11
254.45374994424779
 21
178.03750532685069
 31
0.0
  0
LINE
  5
82B
  8
0
 62
     0
 10
244.81741814028891
 20
170.52249386645141
 30
0.0
 11
252.33242960068819
 21
178.03750532685069
 31
0.0
  0
LINE
  5
82C
  8
0
 62
     0
 10
242.69609779672911
 20
170.5224938664513
 30
0.0
 11
250.2111092571285
 21
178.03750532685069
 31
0.0
  0
LINE
  5
82D
  8
0
 62
     0
 10
241.95940089379411
 20
171.90711730707599
 30
0.0
 11
248.0897889135689
 21
178.03750532685069
 31
0.0
  0
LINE
  5
82E
  8
0
 62
     0
 10
241.9594008937942
 20
174.02843765063571
 30
0.0
 11
245.96846857000921
 21
178.03750532685069
 31
0.0
  0
LINE
  5
82F
  8
0
 62
     0
 10
241.95940089379411
 20
176.14975799419531
 30
0.0
 11
243.8471482264496
 21
178.03750532685069
 31
0.0
  0
LINE
  5
830
  8
0
 62
     0
 10
241.95940089379411
 20
129.98354146437481
 30
0.0
 11
242.17510571494159
 21
129.7678366432273
 31
0.0
  0
LINE
  5
831
  8
0
 62
     0
 10
241.95940089379411
 20
132.10486180793441
 30
0.0
 11
244.29642605850131
 21
129.7678366432273
 31
0.0
  0
LINE
  5
832
  8
0
 62
     0
 10
241.95940089379411
 20
134.22618215149399
 30
0.0
 11
246.41774640206091
 21
129.7678366432273
 31
0.0
  0
LINE
  5
833
  8
0
 62
     0
 10
241.95940089379411
 20
136.3475024950537
 30
0.0
 11
248.5390667456206
 21
129.7678366432273
 31
0.0
  0
LINE
  5
834
  8
0
 62
     0
 10
243.15572986595609
 20
137.27249386645141
 30
0.0
 11
250.6603870891802
 21
129.7678366432273
 31
0.0
  0
LINE
  5
835
  8
0
 62
     0
 10
245.27705020951581
 20
137.27249386645141
 30
0.0
 11
252.78170743273981
 21
129.76783664322741
 31
0.0
  0
LINE
  5
836
  8
0
 62
     0
 10
247.39837055307541
 20
137.2724938664513
 30
0.0
 11
254.90302777629941
 21
129.7678366432273
 31
0.0
  0
LINE
  5
837
  8
0
 62
     0
 10
249.5196908966351
 20
137.27249386645141
 30
0.0
 11
257.0243481198591
 21
129.7678366432273
 31
0.0
  0
LINE
  5
838
  8
0
 62
     0
 10
251.6410112401947
 20
137.27249386645141
 30
0.0
 11
259.1456684634187
 21
129.7678366432273
 31
0.0
  0
LINE
  5
839
  8
0
 62
     0
 10
253.7623315837543
 20
137.27249386645141
 30
0.0
 11
261.26698880697842
 21
129.7678366432273
 31
0.0
  0
LINE
  5
83A
  8
0
 62
     0
 10
255.88365192731399
 20
137.27249386645141
 30
0.0
 11
263.38830915053802
 21
129.7678366432273
 31
0.0
  0
LINE
  5
83B
  8
0
 62
     0
 10
258.00497227087362
 20
137.2724938664513
 30
0.0
 11
265.50962949409768
 21
129.7678366432273
 31
0.0
  0
LINE
  5
83C
  8
0
 62
     0
 10
260.12629261443328
 20
137.27249386645141
 30
0.0
 11
267.63094983765728
 21
129.76783664322741
 31
0.0
  0
LINE
  5
83D
  8
0
 62
     0
 10
262.24761295799289
 20
137.2724938664513
 30
0.0
 11
269.752270181217
 21
129.7678366432273
 31
0.0
  0
LINE
  5
83E
  8
0
 62
     0
 10
264.36893330155249
 20
137.27249386645141
 30
0.0
 11
271.8735905247766
 21
129.7678366432273
 31
0.0
  0
LINE
  5
83F
  8
0
 62
     0
 10
266.4902536451122
 20
137.2724938664513
 30
0.0
 11
273.99491086833621
 21
129.7678366432273
 31
0.0
  0
LINE
  5
840
  8
0
 62
     0
 10
268.61157398867181
 20
137.27249386645141
 30
0.0
 11
276.11623121189592
 21
129.7678366432273
 31
0.0
  0
LINE
  5
841
  8
0
 62
     0
 10
270.73289433223152
 20
137.27249386645141
 30
0.0
 11
278.23755155545552
 21
129.7678366432273
 31
0.0
  0
LINE
  5
842
  8
0
 62
     0
 10
272.85421467579113
 20
137.27249386645141
 30
0.0
 11
280.35887189901518
 21
129.76783664322721
 31
0.0
  0
LINE
  5
843
  8
0
 62
     0
 10
274.97553501935067
 20
137.27249386645141
 30
0.0
 11
282.4801922425749
 21
129.76783664322721
 31
0.0
  0
LINE
  5
844
  8
0
 62
     0
 10
277.09685536291028
 20
137.27249386645141
 30
0.0
 11
284.60151258613467
 21
129.7678366432271
 31
0.0
  0
LINE
  5
845
  8
0
 62
     0
 10
241.95940089379411
 20
172.40994833556761
 30
0.0
 11
243.84685536291039
 21
170.5224938664513
 31
0.0
  0
LINE
  5
846
  8
0
 62
     0
 10
279.21817570646999
 20
137.27249386645141
 30
0.0
 11
286.72283292969428
 21
129.76783664322701
 31
0.0
  0
LINE
  5
847
  8
0
 62
     0
 10
241.95940089379411
 20
174.53126867912721
 30
0.0
 11
245.96817570646999
 21
170.52249386645141
 31
0.0
  0
LINE
  5
848
  8
0
 62
     0
 10
281.3394960500296
 20
137.27249386645141
 30
0.0
 11
287.95940089379422
 21
130.65258902268681
 31
0.0
  0
LINE
  5
849
  8
0
 62
     0
 10
241.95940089379411
 20
176.6525890226869
 30
0.0
 11
248.08949605002971
 21
170.52249386645141
 31
0.0
  0
LINE
  5
84A
  8
0
 62
     0
 10
283.46081639358931
 20
137.2724938664513
 30
0.0
 11
287.95940089379422
 21
132.77390936624639
 31
0.0
  0
LINE
  5
84B
  8
0
 62
     0
 10
242.69580493318989
 20
178.03750532685069
 30
0.0
 11
250.21081639358931
 21
170.5224938664513
 31
0.0
  0
LINE
  5
84C
  8
0
 62
     0
 10
285.5821367371488
 20
137.27249386645161
 30
0.0
 11
287.95940089379422
 21
134.8952297098061
 31
0.0
  0
LINE
  5
84D
  8
0
 62
     0
 10
244.81712527674961
 20
178.03750532685081
 30
0.0
 11
252.332136737149
 21
170.52249386645141
 31
0.0
  0
LINE
  5
84E
  8
0
 62
     0
 10
287.70345708070829
 20
137.27249386645161
 30
0.0
 11
287.95940089379422
 21
137.01655005336571
 31
0.0
  0
LINE
  5
84F
  8
0
 62
     0
 10
246.9384456203093
 20
178.03750532685069
 30
0.0
 11
254.45345708070869
 21
170.5224938664513
 31
0.0
  0
LINE
  5
850
  8
0
 62
     0
 10
249.0597659638689
 20
178.03750532685069
 30
0.0
 11
256.57477742426829
 21
170.5224938664513
 31
0.0
  0
LINE
  5
851
  8
0
 62
     0
 10
251.1810863074285
 20
178.03750532685081
 30
0.0
 11
258.69609776782789
 21
170.52249386645141
 31
0.0
  0
LINE
  5
852
  8
0
 62
     0
 10
253.30240665098819
 20
178.03750532685081
 30
0.0
 11
260.8174181113875
 21
170.52249386645141
 31
0.0
  0
LINE
  5
853
  8
0
 62
     0
 10
255.42372699454779
 20
178.03750532685081
 30
0.0
 11
262.93873845494721
 21
170.52249386645141
 31
0.0
  0
LINE
  5
854
  8
0
 62
     0
 10
257.54504733810739
 20
178.03750532685069
 30
0.0
 11
265.06005879850682
 21
170.5224938664513
 31
0.0
  0
LINE
  5
855
  8
0
 62
     0
 10
259.66636768166711
 20
178.03750532685081
 30
0.0
 11
267.18137914206648
 21
170.52249386645141
 31
0.0
  0
LINE
  5
856
  8
0
 62
     0
 10
261.78768802522683
 20
178.03750532685069
 30
0.0
 11
269.30269948562608
 21
170.52249386645141
 31
0.0
  0
LINE
  5
857
  8
0
 62
     0
 10
263.90900836878637
 20
178.03750532685081
 30
0.0
 11
271.42401982918568
 21
170.52249386645141
 31
0.0
  0
LINE
  5
858
  8
0
 62
     0
 10
266.03032871234598
 20
178.03750532685081
 30
0.0
 11
273.5453401727454
 21
170.52249386645141
 31
0.0
  0
LINE
  5
859
  8
0
 62
     0
 10
268.15164905590569
 20
178.03750532685069
 30
0.0
 11
275.666660516305
 21
170.5224938664513
 31
0.0
  0
LINE
  5
85A
  8
0
 62
     0
 10
270.2729693994653
 20
178.03750532685081
 30
0.0
 11
277.78798085986472
 21
170.52249386645141
 31
0.0
  0
LINE
  5
85B
  8
0
 62
     0
 10
272.3942897430249
 20
178.03750532685081
 30
0.0
 11
277.95940089379422
 21
172.47239417608139
 31
0.0
  0
LINE
  5
85C
  8
0
 62
     0
 10
274.51561008658462
 20
178.03750532685081
 30
0.0
 11
277.95940089379422
 21
174.59371451964111
 31
0.0
  0
LINE
  5
85D
  8
0
 62
     0
 10
276.63693043014422
 20
178.03750532685069
 30
0.0
 11
277.95940089379422
 21
176.71503486320071
 31
0.0
  0
ENDBLK
  5
85F
  8
0
  0
BLOCK
  8
0
  2
*X9
 70
     1
 10
0.0
 20
0.0
 30
0.0
  3
*X9
  1

  0
LINE
  5
861
  8
0
 62
     0
 10
111.8344008937941
 20
132.02249385200071
 30
0.0
 11
216.0844008937942
 21
132.02249385200059
 31
0.0
  0
LINE
  5
862
  8
0
 62
     0
 10
111.8344008937941
 20
133.52249385200071
 30
0.0
 11
216.0844008937942
 21
133.52249385200059
 31
0.0
  0
LINE
  5
863
  8
0
 62
     0
 10
111.8344008937941
 20
135.02249385200071
 30
0.0
 11
216.0844008937942
 21
135.02249385200059
 31
0.0
  0
LINE
  5
864
  8
0
 62
     0
 10
111.8344008937941
 20
136.52249385200071
 30
0.0
 11
216.0844008937942
 21
136.52249385200059
 31
0.0
  0
LINE
  5
865
  8
0
 62
     0
 10
111.8344008937941
 20
138.02249385200071
 30
0.0
 11
216.0844008937942
 21
138.02249385200059
 31
0.0
  0
LINE
  5
866
  8
0
 62
     0
 10
111.8344008937942
 20
139.52249385200071
 30
0.0
 11
216.0844008937942
 21
139.52249385200059
 31
0.0
  0
LINE
  5
867
  8
0
 62
     0
 10
111.8344008937941
 20
141.02249385200071
 30
0.0
 11
216.0844008937942
 21
141.02249385200059
 31
0.0
  0
LINE
  5
868
  8
0
 62
     0
 10
111.8344008937941
 20
142.52249385200071
 30
0.0
 11
216.0844008937942
 21
142.52249385200059
 31
0.0
  0
LINE
  5
869
  8
0
 62
     0
 10
111.8344008937941
 20
144.02249385200071
 30
0.0
 11
216.0844008937942
 21
144.02249385200059
 31
0.0
  0
LINE
  5
86A
  8
0
 62
     0
 10
111.8344008937941
 20
145.52249385200071
 30
0.0
 11
216.0844008937942
 21
145.52249385200059
 31
0.0
  0
LINE
  5
86B
  8
0
 62
     0
 10
111.8344008937941
 20
147.02249385200071
 30
0.0
 11
216.0844008937942
 21
147.02249385200059
 31
0.0
  0
LINE
  5
86C
  8
0
 62
     0
 10
111.8344008937941
 20
148.52249385200071
 30
0.0
 11
216.0844008937942
 21
148.52249385200059
 31
0.0
  0
LINE
  5
86D
  8
0
 62
     0
 10
111.8344008937942
 20
150.02249385200071
 30
0.0
 11
216.0844008937942
 21
150.02249385200059
 31
0.0
  0
LINE
  5
86E
  8
0
 62
     0
 10
111.8344008937942
 20
151.52249385200071
 30
0.0
 11
216.0844008937942
 21
151.52249385200059
 31
0.0
  0
LINE
  5
86F
  8
0
 62
     0
 10
111.8344008937942
 20
153.02249385200071
 30
0.0
 11
216.0844008937942
 21
153.02249385200059
 31
0.0
  0
LINE
  5
870
  8
0
 62
     0
 10
111.8344008937942
 20
154.52249385200071
 30
0.0
 11
216.0844008937942
 21
154.52249385200059
 31
0.0
  0
LINE
  5
871
  8
0
 62
     0
 10
111.8344008937942
 20
156.02249385200079
 30
0.0
 11
216.0844008937942
 21
156.02249385200059
 31
0.0
  0
LINE
  5
872
  8
0
 62
     0
 10
111.8344008937942
 20
157.52249385200071
 30
0.0
 11
216.0844008937942
 21
157.52249385200059
 31
0.0
  0
LINE
  5
873
  8
0
 62
     0
 10
111.8344008937942
 20
159.02249385200071
 30
0.0
 11
216.0844008937942
 21
159.02249385200059
 31
0.0
  0
LINE
  5
874
  8
0
 62
     0
 10
111.8344008937942
 20
160.52249385200071
 30
0.0
 11
216.0844008937942
 21
160.52249385200059
 31
0.0
  0
LINE
  5
875
  8
0
 62
     0
 10
111.8344008937942
 20
162.02249385200071
 30
0.0
 11
216.0844008937942
 21
162.02249385200059
 31
0.0
  0
LINE
  5
876
  8
0
 62
     0
 10
111.8344008937943
 20
163.52249385200071
 30
0.0
 11
216.0844008937942
 21
163.52249385200059
 31
0.0
  0
LINE
  5
877
  8
0
 62
     0
 10
111.8344008937943
 20
165.02249385200071
 30
0.0
 11
216.0844008937942
 21
165.02249385200059
 31
0.0
  0
LINE
  5
878
  8
0
 62
     0
 10
111.8344008937943
 20
166.52249385200071
 30
0.0
 11
216.0844008937942
 21
166.52249385200059
 31
0.0
  0
LINE
  5
879
  8
0
 62
     0
 10
111.8344008937943
 20
168.02249385200071
 30
0.0
 11
216.0844008937942
 21
168.02249385200059
 31
0.0
  0
LINE
  5
87A
  8
0
 62
     0
 10
111.8344008937943
 20
169.52249385200071
 30
0.0
 11
216.0844008937942
 21
169.52249385200059
 31
0.0
  0
LINE
  5
87B
  8
0
 62
     0
 10
111.8344008937943
 20
171.02249385200071
 30
0.0
 11
216.0844008937942
 21
171.02249385200059
 31
0.0
  0
LINE
  5
87C
  8
0
 62
     0
 10
111.8344008937943
 20
172.52249385200071
 30
0.0
 11
216.0844008937942
 21
172.52249385200059
 31
0.0
  0
LINE
  5
87D
  8
0
 62
     0
 10
111.8344008937943
 20
174.02249385200071
 30
0.0
 11
216.0844008937942
 21
174.02249385200059
 31
0.0
  0
LINE
  5
87E
  8
0
 62
     0
 10
111.8344008937943
 20
175.52249385200071
 30
0.0
 11
216.0844008937942
 21
175.52249385200059
 31
0.0
  0
ENDBLK
  5
880
  8
0
  0
ENDSEC
  0
SECTION
  2
ENTITIES
  0
LINE
  5
368
  8
0
 10
247.5914012246092
 20
34.922057006757257
 30
0.0
 11
276.14962324466688
 21
7.9141330759340782
 31
0.0
  0
LINE
  5
369
  8
0
 10
287.71035389766092
 20
14.85057620789698
 30
0.0
 11
277.3189972016346
 21
52.758614592972421
 31
0.0
  0
ARC
  5
36A
  8
0
 10
259.95940089379411
 20
47.999999665411032
 30
0.0
 40
17.999999999999979
 50
90.0
 51
226.5981403622487
1001
ACAD
1000
ASC_BOUNDS
1002
{
1070
    19
1005
57F
1002
}
  0
ARC
  5
36B
  8
0
 10
259.95940089379411
 20
47.999999665411032
 30
0.0
 40
17.999999999999972
 50
15.32937270190013
 51
90.0
1001
ACAD
1000
ASC_BOUNDS
1002
{
1070
    19
1005
57F
1002
}
  0
ARC
  5
36C
  8
0
 10
280.95940089379451
 20
12.99999966541054
 30
0.0
 40
6.9999999999999831
 50
226.59814036224799
 51
270.0
1001
ACAD
1000
ASC_BOUNDS
1002
{
1070
    19
1005
57F
1002
}
  0
ARC
  5
36D
  8
0
 10
280.95940089379451
 20
12.99999966541054
 30
0.0
 40
6.999999999999968
 50
270.0
 51
15.32937270190091
1001
ACAD
1000
ASC_BOUNDS
1002
{
1070
    19
1005
57F
1002
}
  0
LINE
  5
36E
  8
0
 10
247.5914012246092
 20
34.922057006756923
 30
0.0
 11
276.14962324466688
 21
7.914133075933738
 31
0.0
1001
ACAD
1000
ASC_BOUNDS
1002
{
1070
    19
1005
57F
1002
}
  0
LINE
  5
36F
  8
0
 10
287.71035501351048
 20
14.850572137239981
 30
0.0
 11
277.3189972016346
 21
52.758614592972087
 31
0.0
1001
ACAD
1000
ASC_BOUNDS
1002
{
1070
    19
1005
57F
1002
}
  0
LINE
  5
370
  8
0
 10
217.709400893794
 20
78.999999665411053
 30
0.0
 11
217.709400893794
 21
5.9999996654127044
 31
0.0
  0
LINE
  5
371
  8
0
 10
110.2094008937942
 20
5.9999996654127044
 30
0.0
 11
110.2094008937942
 21
78.999999665411053
 31
0.0
  0
LINE
  5
372
  8
0
 10
217.709400893794
 20
5.9999996654127044
 30
0.0
 11
110.2094008937942
 21
5.9999996654127044
 31
0.0
  0
LINE
  5
373
  8
0
 10
110.2094008937942
 20
78.999999665411053
 30
0.0
 11
217.709400893794
 21
78.999999665411053
 31
0.0
  0
LINE
  5
374
  8
0
 10
220.70940089379451
 20
5.9999996654099483
 30
0.0
 11
259.95940089379411
 21
10.77537655221181
 31
0.0
  0
ARC
  5
375
  8
0
 10
256.9594008937944
 20
40.624999665410421
 30
0.0
 40
30.000000000000011
 50
275.7391704772615
 51
295.91139169256172
  0
ARC
  5
376
  8
0
 10
256.9594008937944
 20
40.624999665410421
 30
0.0
 40
30.0
 50
334.95256645166887
 51
114.0790707055185
  0
LINE
  5
377
  8
0
 10
244.71949124108849
 20
68.014497866246217
 30
0.0
 11
217.70940089379451
 21
55.99999966541035
 31
0.0
  0
LINE
  5
378
  8
0
 10
110.2094008937944
 20
-0.000000334590956
 30
0.0
 11
110.2094008937942
 21
5.9999996654114627
 31
0.0
  0
LINE
  5
379
  8
0
 10
289.959400893794
 20
5.9999996654139469
 30
0.0
 11
289.95940089379451
 21
-0.0000003345884709
 31
0.0
  0
LINE
  5
37A
  8
0
 10
110.2094008937944
 20
-0.000000334590956
 30
0.0
 11
289.95940089379451
 21
-0.0000003345884704
 31
0.0
  0
LINE
  5
37B
  8
0
 10
289.959400893794
 20
5.9999996654139469
 30
0.0
 11
110.2094008937942
 21
5.9999996654114627
 31
0.0
  0
ARC
  5
37C
  8
0
 10
163.95940089379539
 20
60.999999665409163
 30
0.0
 40
8.2500000000000036
 50
179.99999999999969
 51
359.99999999999881
  0
ARC
  5
37D
  8
0
 10
163.95940089379539
 20
60.999999665409163
 30
0.0
 40
8.2500000000000036
 50
359.9999999999996
 51
179.99999999999969
  0
ARC
  5
37E
  8
0
 10
163.95940089379539
 20
60.999999665409163
 30
0.0
 40
7.687499999999992
 50
0.0000000000007761
 51
180.0000000000002
  0
ARC
  5
37F
  8
0
 10
163.95940089379539
 20
60.999999665409163
 30
0.0
 40
7.687499999999992
 50
180.0000000000002
 51
0.0000000000000509
  0
LINE
  5
380
  8
0
 10
169.08190166778351
 20
58.558143816611789
 30
0.0
 11
168.88696119159269
 21
58.109235086453047
 31
0.0
  0
LINE
  5
381
  8
0
 10
168.88696119159269
 20
58.109235086453047
 30
0.0
 11
168.43606833445
 21
57.951993022960998
 31
0.0
  0
LINE
  5
382
  8
0
 10
168.43606833445
 20
57.951993022960998
 30
0.0
 11
168.11153956460859
 21
58.016229134072113
 31
0.0
  0
LINE
  5
383
  8
0
 10
168.11153956460859
 20
58.016229134072113
 30
0.0
 11
167.87604849318021
 21
58.208937467405427
 31
0.0
  0
LINE
  5
384
  8
0
 10
167.87604849318021
 20
58.208937467405427
 30
0.0
 11
167.68507627095801
 21
58.96687397534194
 31
0.0
  0
LINE
  5
385
  8
0
 10
167.68507627095801
 20
58.96687397534194
 30
0.0
 11
167.86910404873581
 21
59.730762864230833
 31
0.0
  0
LINE
  5
386
  8
0
 10
167.86910404873581
 20
59.730762864230833
 30
0.0
 11
168.09889075508471
 21
59.920495007087972
 31
0.0
  0
LINE
  5
387
  8
0
 10
168.09889075508471
 20
59.920495007087972
 30
0.0
 11
168.42019531857679
 21
59.983739054707009
 31
0.0
  0
LINE
  5
388
  8
0
 10
168.42019531857679
 20
59.983739054707009
 30
0.0
 11
168.88844928683079
 21
59.840385880103852
 31
0.0
  0
LINE
  5
389
  8
0
 10
168.88844928683079
 20
59.840385880103852
 30
0.0
 11
169.08190166778351
 21
59.41528667375465
 31
0.0
  0
LINE
  5
38A
  8
0
 10
169.08190166778351
 20
59.41528667375465
 30
0.0
 11
170.2247588106404
 21
59.41528667375465
 31
0.0
  0
LINE
  5
38B
  8
0
 10
170.2247588106404
 20
59.41528667375465
 30
0.0
 11
170.0645405566722
 21
60.062980126135599
 31
0.0
  0
LINE
  5
38C
  8
0
 10
170.0645405566722
 20
60.062980126135599
 30
0.0
 11
169.6969810328626
 21
60.541774768992731
 31
0.0
  0
LINE
  5
38D
  8
0
 10
169.6969810328626
 20
60.541774768992731
 30
0.0
 11
169.13795325508471
 21
60.83753369756419
 31
0.0
  0
LINE
  5
38E
  8
0
 10
169.13795325508471
 20
60.83753369756419
 30
0.0
 11
168.40333023921201
 21
60.936120007087972
 31
0.0
  0
LINE
  5
38F
  8
0
 10
168.40333023921201
 20
60.936120007087972
 30
0.0
 11
167.60533916778351
 21
60.804175562643529
 31
0.0
  0
LINE
  5
390
  8
0
 10
167.60533916778351
 20
60.804175562643529
 30
0.0
 11
166.99509611222791
 21
60.408342229310207
 31
0.0
  0
LINE
  5
391
  8
0
 10
166.99509611222791
 20
60.408342229310207
 30
0.0
 11
166.60781932651361
 21
59.784334292802257
 31
0.0
  0
LINE
  5
392
  8
0
 10
166.60781932651361
 20
59.784334292802257
 30
0.0
 11
166.47872706460859
 21
58.967866038833989
 31
0.0
  0
LINE
  5
393
  8
0
 10
166.47872706460859
 20
58.967866038833989
 30
0.0
 11
166.60843936619611
 21
58.14953766581813
 31
0.0
  0
LINE
  5
394
  8
0
 10
166.60843936619611
 20
58.14953766581813
 30
0.0
 11
166.99757627095801
 21
57.525901753119719
 31
0.0
  0
LINE
  5
395
  8
0
 10
166.99757627095801
 20
57.525901753119719
 30
0.0
 11
167.6129036519103
 21
57.131184491214967
 31
0.0
  0
LINE
  5
396
  8
0
 10
167.6129036519103
 20
57.131184491214967
 30
0.0
 11
168.42118738206881
 21
56.999612070580021
 31
0.0
  0
LINE
  5
397
  8
0
 10
168.42118738206881
 20
56.999612070580021
 30
0.0
 11
169.14427765984669
 21
57.101794610262573
 31
0.0
  0
LINE
  5
398
  8
0
 10
169.14427765984669
 20
57.101794610262573
 30
0.0
 11
169.70045325508471
 21
57.4083422293102
 31
0.0
  0
LINE
  5
399
  8
0
 10
169.70045325508471
 20
57.4083422293102
 30
0.0
 11
170.06788877095801
 21
57.900157705500682
 31
0.0
  0
LINE
  5
39A
  8
0
 10
170.06788877095801
 20
57.900157705500682
 30
0.0
 11
170.2247588106404
 21
58.558143816611789
 31
0.0
  0
LINE
  5
39B
  8
0
 10
170.2247588106404
 20
58.558143816611789
 30
0.0
 11
169.08190166778351
 21
58.558143816611789
 31
0.0
  0
LINE
  5
39C
  8
0
 10
161.86017429001569
 20
59.332218005534969
 30
0.0
 11
163.0377536550952
 21
59.332218005534969
 31
0.0
  0
LINE
  5
39D
  8
0
 10
163.0377536550952
 20
59.332218005534969
 30
0.0
 11
163.18457905192031
 21
59.840154513471511
 31
0.0
  0
LINE
  5
39E
  8
0
 10
163.18457905192031
 20
59.840154513471511
 30
0.0
 11
164.38795206779341
 21
59.840154513471482
 31
0.0
  0
LINE
  5
39F
  8
0
 10
164.38795206779341
 20
59.840154513471482
 30
0.0
 11
164.52981714715841
 21
59.332218005534969
 31
0.0
  0
LINE
  5
3A0
  8
0
 10
164.52981714715841
 20
59.332218005534969
 30
0.0
 11
165.73319016303159
 21
59.332218005534969
 31
0.0
  0
LINE
  5
3A1
  8
0
 10
165.73319016303159
 20
59.332218005534969
 30
0.0
 11
164.40382508366631
 21
63.141741815058793
 31
0.0
  0
LINE
  5
3A2
  8
0
 10
164.40382508366631
 20
63.141741815058793
 30
0.0
 11
163.17465841699979
 21
63.141741815058793
 31
0.0
  0
LINE
  5
3A3
  8
0
 10
163.17465841699979
 20
63.141741815058793
 30
0.0
 11
161.86017429001569
 21
59.332218005534969
 31
0.0
  0
LINE
  5
3A4
  8
0
 10
163.4048171471583
 20
60.665551338868319
 30
0.0
 11
163.79072984557129
 21
61.96912276743975
 31
0.0
  0
LINE
  5
3A5
  8
0
 10
163.79072984557129
 20
61.96912276743975
 30
0.0
 11
164.1677139725555
 21
60.665551338868319
 31
0.0
  0
LINE
  5
3A6
  8
0
 10
164.1677139725555
 20
60.665551338868319
 30
0.0
 11
163.4048171471583
 21
60.665551338868319
 31
0.0
  0
LINE
  5
3A7
  8
0
 10
158.0994430997541
 20
61.072606314715237
 30
0.0
 11
159.79884786165911
 21
61.072606314715237
 31
0.0
  0
LINE
  5
3A8
  8
0
 10
159.79884786165911
 20
61.072606314715237
 30
0.0
 11
160.566705004516
 21
61.111296790905712
 31
0.0
  0
LINE
  5
3A9
  8
0
 10
160.566705004516
 20
61.111296790905712
 30
0.0
 11
160.9794034172148
 21
61.243241235350141
 31
0.0
  0
LINE
  5
3AA
  8
0
 10
160.9794034172148
 20
61.243241235350141
 30
0.0
 11
161.3876375441989
 21
61.626177743286661
 31
0.0
  0
LINE
  5
3AB
  8
0
 10
161.3876375441989
 20
61.626177743286661
 30
0.0
 11
161.5280145283256
 21
62.213479330588257
 31
0.0
  0
LINE
  5
3AC
  8
0
 10
161.5280145283256
 20
62.213479330588257
 30
0.0
 11
161.3841653219763
 21
62.776475362334303
 31
0.0
  0
LINE
  5
3AD
  8
0
 10
161.3841653219763
 20
62.776475362334303
 30
0.0
 11
160.940712941024
 21
63.101376155985101
 31
0.0
  0
LINE
  5
3AE
  8
0
 10
160.940712941024
 20
63.101376155985101
 30
0.0
 11
161.28595103626211
 21
63.418836473445388
 31
0.0
  0
LINE
  5
3AF
  8
0
 10
161.28595103626211
 20
63.418836473445388
 30
0.0
 11
161.40103040134159
 21
63.871217425826352
 31
0.0
  0
LINE
  5
3B0
  8
0
 10
161.40103040134159
 20
63.871217425826352
 30
0.0
 11
161.24726056007171
 21
64.431237267096179
 31
0.0
  0
LINE
  5
3B1
  8
0
 10
161.24726056007171
 20
64.431237267096179
 30
0.0
 11
160.80480024261141
 21
64.77101901312794
 31
0.0
  0
LINE
  5
3B2
  8
0
 10
160.80480024261141
 20
64.77101901312794
 30
0.0
 11
160.409462941024
 21
64.856336473445396
 31
0.0
  0
LINE
  5
3B3
  8
0
 10
160.409462941024
 20
64.856336473445396
 30
0.0
 11
159.6758319886433
 21
64.882130124239069
 31
0.0
  0
LINE
  5
3B4
  8
0
 10
159.6758319886433
 20
64.882130124239069
 30
0.0
 11
158.0994430997541
 21
64.882130124239069
 31
0.0
  0
LINE
  5
3B5
  8
0
 10
158.0994430997541
 20
64.882130124239069
 30
0.0
 11
158.0994430997541
 21
61.072606314715237
 31
0.0
  0
LINE
  5
3B6
  8
0
 10
159.30579230610351
 20
61.961495203604137
 30
0.0
 11
159.30579230610351
 21
62.65990790201684
 31
0.0
  0
LINE
  5
3B7
  8
0
 10
159.30579230610351
 20
62.65990790201684
 30
0.0
 11
159.8544034172148
 21
62.65990790201684
 31
0.0
  0
LINE
  5
3B8
  8
0
 10
159.8544034172148
 20
62.65990790201684
 30
0.0
 11
160.263629607691
 21
62.580542822651751
 31
0.0
  0
LINE
  5
3B9
  8
0
 10
160.263629607691
 20
62.580542822651751
 30
0.0
 11
160.3851573854688
 21
62.313677743286661
 31
0.0
  0
LINE
  5
3BA
  8
0
 10
160.3851573854688
 20
62.313677743286661
 30
0.0
 11
160.2661097664211
 21
62.043836473445388
 31
0.0
  0
LINE
  5
3BB
  8
0
 10
160.2661097664211
 20
62.043836473445388
 30
0.0
 11
159.86531611562731
 21
61.961495203604137
 31
0.0
  0
LINE
  5
3BC
  8
0
 10
159.86531611562731
 20
61.961495203604137
 30
0.0
 11
159.30579230610351
 21
61.961495203604137
 31
0.0
  0
LINE
  5
3BD
  8
0
 10
159.30579230610351
 20
63.358320600429529
 30
0.0
 11
159.30579230610351
 21
63.993241235350162
 31
0.0
  0
LINE
  5
3BE
  8
0
 10
159.30579230610351
 20
63.993241235350162
 30
0.0
 11
159.64011770292899
 21
63.993241235350162
 31
0.0
  0
LINE
  5
3BF
  8
0
 10
159.64011770292899
 20
63.993241235350162
 30
0.0
 11
160.14855024261149
 21
63.92578091788986
 31
0.0
  0
LINE
  5
3C0
  8
0
 10
160.14855024261149
 20
63.92578091788986
 30
0.0
 11
160.25817325848419
 21
63.67578091788986
 31
0.0
  0
LINE
  5
3C1
  8
0
 10
160.25817325848419
 20
63.67578091788986
 30
0.0
 11
160.1559907188018
 21
63.430741235350183
 31
0.0
  0
LINE
  5
3C2
  8
0
 10
160.1559907188018
 20
63.430741235350183
 30
0.0
 11
159.80380817911939
 21
63.358320600429529
 31
0.0
  0
LINE
  5
3C3
  8
0
 10
159.80380817911939
 20
63.358320600429529
 30
0.0
 11
159.30579230610351
 21
63.358320600429529
 31
0.0
  0
ARC
  5
3C4
  8
0
 10
163.95940089379491
 20
60.999999665409817
 30
0.0
 40
9.0000000000000124
 50
179.99999999999969
 51
359.99999999999881
  0
ARC
  5
3C5
  8
0
 10
163.95940089379491
 20
60.999999665409817
 30
0.0
 40
9.0000000000000195
 50
359.9999999999996
 51
179.99999999999969
  0
LINE
  5
3C6
  8
0
 10
106.0844008937944
 20
2.1249996654106531
 30
0.0
 11
110.2094008937942
 21
2.1249996654106531
 31
0.0
  0
LINE
  5
3C7
  8
0
 10
110.2094008937942
 20
8.124999665410483
 30
0.0
 11
106.0844008937944
 21
8.124999665410483
 31
0.0
  0
LINE
  5
3C8
  8
0
 10
106.0844008937944
 20
63.999999665410641
 30
0.0
 11
110.2094008937942
 21
63.999999665410641
 31
0.0
  0
LINE
  5
3C9
  8
0
 10
110.2094008937942
 20
69.999999665410641
 30
0.0
 11
106.0844008937944
 21
69.999999665410641
 31
0.0
  0
LINE
  5
3CA
  8
0
 10
106.0844008937944
 20
5.1249997859925021
 30
0.0
 11
106.0844008937944
 21
5.9014567381837502
 31
0.0
  0
LINE
  5
3CB
  8
0
 10
106.0844008937944
 20
5.901456800718214
 30
0.0
 11
106.0844008937944
 21
6.6249994412824131
 31
0.0
  0
LINE
  5
3CC
  8
0
 10
106.0844008937944
 20
6.6249996654106518
 30
0.0
 11
106.0844008937944
 21
8.0227771442778657
 31
0.0
  0
LINE
  5
3CD
  8
0
 10
106.0844008937944
 20
8.0227773003914535
 30
0.0
 11
106.0844008937944
 21
8.1249996654106624
 31
0.0
  0
LINE
  5
3CE
  8
0
 10
106.0844008937942
 20
2.1249996654106642
 30
0.0
 11
106.0844008937942
 21
2.2272221489571602
 31
0.0
  0
LINE
  5
3CF
  8
0
 10
106.0844008937942
 20
2.22722218654346
 30
0.0
 11
106.0844008937942
 21
2.5269234370576639
 31
0.0
  0
LINE
  5
3D0
  8
0
 10
106.0844008937942
 20
2.5269234540573482
 30
0.0
 11
106.0844008937942
 21
3.0036792947096029
 31
0.0
  0
LINE
  5
3D1
  8
0
 10
106.0844008937942
 20
3.00367932185102
 30
0.0
 11
106.0844008937942
 21
3.624999665410662
 31
0.0
  0
LINE
  5
3D2
  8
0
 10
106.0844008937942
 20
3.624999777474577
 30
0.0
 11
106.0844008937942
 21
4.3485424722193367
 31
0.0
  0
LINE
  5
3D3
  8
0
 10
106.0844008937942
 20
4.3485425301030949
 30
0.0
 11
106.0844008937942
 21
5.1249996654106553
 31
0.0
  0
LINE
  5
3D4
  8
0
 10
106.0844008937942
 20
67.000001594722548
 30
0.0
 11
106.0844008937942
 21
68.499999665410641
 31
0.0
  0
LINE
  5
3D5
  8
0
 10
106.0844008937942
 20
68.500001753431746
 30
0.0
 11
106.0844008937942
 21
69.121318644595036
 31
0.0
  0
LINE
  5
3D6
  8
0
 10
106.0844008937942
 20
69.121320008970301
 30
0.0
 11
106.0844008937942
 21
69.598074021809524
 31
0.0
  0
LINE
  5
3D7
  8
0
 10
106.0844008937942
 20
69.598075876763971
 30
0.0
 11
106.0844008937942
 21
69.897777144277853
 31
0.0
  0
LINE
  5
3D8
  8
0
 10
106.0844008937942
 20
69.897777300391425
 30
0.0
 11
106.0844008937942
 21
69.999999665410641
 31
0.0
  0
LINE
  5
3D9
  8
0
 10
106.0844008937942
 20
63.999999665410641
 30
0.0
 11
106.0844008937942
 21
64.102218237582335
 31
0.0
  0
LINE
  5
3DA
  8
0
 10
106.0844008937942
 20
64.102222186543429
 30
0.0
 11
106.0844008937942
 21
64.401923454057325
 31
0.0
  0
LINE
  5
3DB
  8
0
 10
106.0844008937942
 20
64.401923737945452
 30
0.0
 11
106.0844008937942
 21
64.878678878118365
 31
0.0
  0
LINE
  5
3DC
  8
0
 10
106.0844008937942
 20
64.878679321851024
 30
0.0
 11
106.0844008937942
 21
66.999999665410641
 31
0.0
  0
ARC
  5
3DD
  8
0
 10
176.70940089379451
 20
19.999999665410549
 30
0.0
 40
0.5
 50
0.0
 51
180.0
  0
ARC
  5
3DE
  8
0
 10
176.70940089379451
 20
19.999999665410549
 30
0.0
 40
0.500000000000004
 50
180.0000000000002
 51
359.99999999999937
  0
ARC
  5
3DF
  8
0
 10
190.64690089379451
 20
11.62499966541054
 30
0.0
 40
1.0000000000000071
 50
359.9999999999992
 51
179.9999999999994
  0
ARC
  5
3E0
  8
0
 10
190.64690089379451
 20
11.62499966541054
 30
0.0
 40
0.9999999999999992
 50
180.0000000000004
 51
359.99999999999949
  0
ARC
  5
3E1
  8
0
 10
197.83440089379451
 20
2.6249996654105399
 30
0.0
 40
1.0000000000000071
 50
359.9999999999992
 51
179.9999999999994
  0
ARC
  5
3E2
  8
0
 10
197.83440089379451
 20
2.6249996654105399
 30
0.0
 40
0.9999999999999927
 50
180.0000000000004
 51
359.99999999999949
  0
CIRCLE
  5
3E3
  8
0
 10
201.64690089379451
 20
20.374999665410549
 30
0.0
 40
8.4999999999999911
  0
LINE
  5
3E4
  8
0
 10
353.47614505302261
 20
14.85057620789698
 30
0.0
 11
353.47614505302261
 21
52.418740891606767
 31
0.0
  0
LINE
  5
3E5
  8
0
 10
353.47614505302261
 20
52.4518898051466
 30
0.0
 11
353.47614505302261
 21
52.758614592972421
 31
0.0
  0
LINE
  5
3E6
  8
0
 10
360.980802276247
 20
27.929417157504439
 30
0.0
 11
360.980802276247
 21
14.850576207896969
 31
0.0
  0
LINE
  5
3E7
  8
0
 10
401.74581373664591
 20
47.999999665410968
 30
0.0
 11
401.74581373664591
 21
42.155410403868672
 31
0.0
  0
LINE
  5
3E8
  8
0
 10
401.74581373664591
 20
42.155409219726678
 30
0.0
 11
401.74581373664591
 21
34.756969273294629
 31
0.0
  0
LINE
  5
3E9
  8
0
 10
401.74581373664591
 20
34.756968048303619
 30
0.0
 11
401.74581373664591
 21
31.516079785619951
 31
0.0
  0
LINE
  5
3EA
  8
0
 10
401.74581373664591
 20
31.51607833499861
 30
0.0
 11
401.74581373664591
 21
30.06147879129086
 31
0.0
  0
LINE
  5
3EC
  8
0
 10
401.74581373664591
 20
65.93852053953097
 30
0.0
 11
401.74581373664591
 21
65.449208213571566
 31
0.0
  0
LINE
  5
3ED
  8
0
 10
401.74581373664591
 20
65.449204452318867
 30
0.0
 11
401.74581373664591
 21
64.483920995822061
 31
0.0
  0
LINE
  5
3EE
  8
0
 10
401.74581373664591
 20
64.483919545201957
 30
0.0
 11
401.74581373664591
 21
61.243030057527321
 31
0.0
  0
LINE
  5
3EF
  8
0
 10
401.74581373664591
 20
61.243028443439833
 30
0.0
 11
401.74581373664591
 21
53.844590111095251
 31
0.0
  0
LINE
  5
3F0
  8
0
 10
401.74581373664591
 20
53.844588926952277
 30
0.0
 11
401.74581373664591
 21
50.962703390389301
 31
0.0
  0
LINE
  5
3F1
  8
0
 10
401.74581373664591
 20
50.962702290464151
 30
0.0
 11
401.74581373664591
 21
47.999999665410968
 31
0.0
  0
LINE
  5
3F2
  8
0
 10
374.98080227624649
 20
15.99999966541065
 30
0.0
 11
360.98080227624649
 21
15.99999966541065
 31
0.0
  0
LINE
  5
3F3
  8
0
 10
360.980802276247
 20
5.999999665410634
 30
0.0
 11
360.980802276247
 21
6.170370533965289
 31
0.0
  0
LINE
  5
3F4
  8
0
 10
374.980802276247
 20
15.9999996654106
 30
0.0
 11
374.980802276247
 21
15.829629373118641
 31
0.0
  0
LINE
  5
3F5
  8
0
 10
374.980802276247
 20
15.82962879685595
 30
0.0
 11
374.980802276247
 21
15.33012759779923
 31
0.0
  0
LINE
  5
3F6
  8
0
 10
374.980802276247
 20
15.330126684332811
 30
0.0
 11
374.980802276247
 21
14.535534125746
 31
0.0
  0
LINE
  5
3F7
  8
0
 10
374.980802276247
 20
14.535533571343359
 30
0.0
 11
374.980802276247
 21
12.29409489092324
 31
0.0
  0
LINE
  5
3F8
  8
0
 10
374.980802276247
 20
12.29409424315751
 30
0.0
 11
374.980802276247
 21
10.99999990657448
 31
0.0
  0
LINE
  5
3F9
  8
0
 10
374.980802276247
 20
10.999999665410639
 30
0.0
 11
374.980802276247
 21
9.7059044398980348
 31
0.0
  0
LINE
  5
3FA
  8
0
 10
374.980802276247
 20
9.7059041351064792
 30
0.0
 11
374.980802276247
 21
8.4999996654106376
 31
0.0
  0
LINE
  5
3FB
  8
0
 10
374.980802276247
 20
8.4999994044077845
 30
0.0
 11
374.980802276247
 21
6.6698726464884324
 31
0.0
  0
LINE
  5
3FC
  8
0
 10
374.980802276247
 20
6.6698723578222401
 30
0.0
 11
374.980802276247
 21
6.1703706608330959
 31
0.0
  0
LINE
  5
3FD
  8
0
 10
374.980802276247
 20
6.1703705339652792
 30
0.0
 11
374.980802276247
 21
5.9999996654106118
 31
0.0
  0
LINE
  5
3FE
  8
0
 10
353.47614505302261
 20
52.766580472102902
 30
0.0
 11
353.47614505302261
 21
55.230517309164462
 31
0.0
  0
LINE
  5
3FF
  8
0
 10
353.47614505302261
 20
55.230520024420741
 30
0.0
 11
353.47614505302261
 21
60.191067954674331
 31
0.0
  0
LINE
  5
400
  8
0
 10
353.47614505302261
 20
60.191070420509931
 30
0.0
 11
353.47614505302261
 21
65.024710016022439
 31
0.0
  0
LINE
  5
401
  8
0
 10
353.47614505302261
 20
65.024711682217799
 30
0.0
 11
353.47614505302261
 21
65.754501704630002
 31
0.0
  0
LINE
  5
402
  8
0
 10
353.47614505302261
 20
65.75450312666004
 30
0.0
 11
353.47614505302261
 21
65.999999665411039
 31
0.0
  0
LINE
  5
403
  8
0
 10
353.47614505302261
 20
5.9999996654105452
 30
0.0
 11
353.47614505302261
 21
6.2385188331950951
 31
0.0
  0
LINE
  5
404
  8
0
 10
353.47614505302261
 20
6.23851888138707
 30
0.0
 11
353.47614505302261
 21
6.937821434786879
 31
0.0
  0
LINE
  5
405
  8
0
 10
353.47614505302261
 20
6.937821838919473
 30
0.0
 11
353.47614505302261
 21
12.999999665410529
 31
0.0
  0
LINE
  5
406
  8
0
 10
353.47614505302261
 20
13.000000147738501
 30
0.0
 11
353.47614505302261
 21
14.852427081972939
 31
0.0
  0
LINE
  5
407
  8
0
 10
360.980802276247
 20
14.85242708197296
 30
0.0
 11
360.980802276247
 21
13.00000014773854
 31
0.0
  0
LINE
  5
408
  8
0
 10
360.980802276247
 20
12.99999966541057
 30
0.0
 11
360.980802276247
 21
6.9378218389194819
 31
0.0
  0
LINE
  5
409
  8
0
 10
360.980802276247
 20
6.937821434786887
 30
0.0
 11
360.980802276247
 21
6.2385188813870673
 31
0.0
  0
LINE
  5
40A
  8
0
 10
360.980802276247
 20
6.2385188331950943
 30
0.0
 11
360.980802276247
 21
6.1220349656797959
 31
0.0
  0
LINE
  5
40B
  8
0
 10
360.980802276247
 20
6.1220346199576747
 30
0.0
 11
360.980802276247
 21
5.9999996654105319
 31
0.0
  0
LINE
  5
40C
  8
0
 10
353.47614505302261
 20
14.85057620789707
 30
0.0
 11
353.47614505302261
 21
52.418740891606902
 31
0.0
1001
ACAD
1000
ASC_BOUNDS
1002
{
1070
    19
1005
5BA
1002
}
  0
LINE
  5
40D
  8
0
 10
353.47614505302261
 20
52.451889805145591
 30
0.0
 11
353.47614505302261
 21
52.758614592972087
 31
0.0
1001
ACAD
1000
ASC_BOUNDS
1002
{
1070
    19
1005
5BA
1002
}
  0
LINE
  5
40E
  8
0
 10
360.980802276247
 20
27.929417157504329
 30
0.0
 11
360.980802276247
 21
14.850576207897049
 31
0.0
1001
ACAD
1000
ASC_BOUNDS
1002
{
1070
    19
1005
5BA
1002
}
  0
LINE
  5
40F
  8
0
 10
401.74581373664591
 20
47.999999665410641
 30
0.0
 11
401.74581373664591
 21
42.155410403868729
 31
0.0
1001
ACAD
1000
ASC_BOUNDS
1002
{
1070
    19
1005
5BA
1002
}
  0
LINE
  5
410
  8
0
 10
401.74581373664591
 20
42.15540921972633
 30
0.0
 11
401.74581373664591
 21
34.756969273294288
 31
0.0
1001
ACAD
1000
ASC_BOUNDS
1002
{
1070
    19
1005
5BA
1002
}
  0
LINE
  5
411
  8
0
 10
401.74581373664591
 20
34.756968048303591
 30
0.0
 11
401.74581373664591
 21
31.51607978561961
 31
0.0
1001
ACAD
1000
ASC_BOUNDS
1002
{
1070
    19
1005
5BA
1002
}
  0
LINE
  5
412
  8
0
 10
401.74581373664591
 20
31.516078334998799
 30
0.0
 11
401.74581373664591
 21
30.061478791290529
 31
0.0
1001
ACAD
1000
ASC_BOUNDS
1002
{
1070
    19
1005
5BA
1002
}
  0
LINE
  5
414
  8
0
 10
401.74581373664591
 20
65.938520539530643
 30
0.0
 11
401.74581373664591
 21
65.44920821357185
 31
0.0
1001
ACAD
1000
ASC_BOUNDS
1002
{
1070
    19
1005
5BA
1002
}
  0
LINE
  5
415
  8
0
 10
401.74581373664591
 20
65.44920445231854
 30
0.0
 11
401.74581373664591
 21
64.483920995822245
 31
0.0
1001
ACAD
1000
ASC_BOUNDS
1002
{
1070
    19
1005
5BA
1002
}
  0
LINE
  5
416
  8
0
 10
401.74581373664591
 20
64.483919545201644
 30
0.0
 11
401.74581373664591
 21
61.243030057526973
 31
0.0
1001
ACAD
1000
ASC_BOUNDS
1002
{
1070
    19
1005
5BA
1002
}
  0
LINE
  5
417
  8
0
 10
401.74581373664591
 20
61.243028443439762
 30
0.0
 11
401.74581373664591
 21
53.844590111094888
 31
0.0
1001
ACAD
1000
ASC_BOUNDS
1002
{
1070
    19
1005
5BA
1002
}
  0
LINE
  5
418
  8
0
 10
401.74581373664591
 20
53.84458892695222
 30
0.0
 11
401.74581373664591
 21
50.962703390389258
 31
0.0
1001
ACAD
1000
ASC_BOUNDS
1002
{
1070
    19
1005
5BA
1002
}
  0
LINE
  5
419
  8
0
 10
401.74581373664591
 20
50.962702290463817
 30
0.0
 11
401.74581373664591
 21
47.999999665410641
 31
0.0
1001
ACAD
1000
ASC_BOUNDS
1002
{
1070
    19
1005
5BA
1002
}
  0
LINE
  5
41A
  8
0
 10
374.980802276247
 20
15.99999966541014
 30
0.0
 11
360.980802276247
 21
15.99999966541014
 31
0.0
  0
LINE
  5
41B
  8
0
 10
360.980802276247
 20
5.9999996654102929
 30
0.0
 11
360.980802276247
 21
6.1703705339649506
 31
0.0
  0
LINE
  5
41C
  8
0
 10
374.980802276247
 20
15.99999966541027
 30
0.0
 11
374.980802276247
 21
15.82962937311917
 31
0.0
  0
LINE
  5
41D
  8
0
 10
374.980802276247
 20
15.82962879685561
 30
0.0
 11
374.980802276247
 21
15.330127597799271
 31
0.0
  0
LINE
  5
41E
  8
0
 10
374.980802276247
 20
15.33012668433247
 30
0.0
 11
374.980802276247
 21
14.53553412574599
 31
0.0
  0
LINE
  5
41F
  8
0
 10
374.980802276247
 20
14.53553357134302
 30
0.0
 11
374.980802276247
 21
12.294094890922899
 31
0.0
  0
LINE
  5
420
  8
0
 10
374.980802276247
 20
12.29409424315744
 30
0.0
 11
374.980802276247
 21
10.999999906574571
 31
0.0
  0
LINE
  5
421
  8
0
 10
374.980802276247
 20
10.999999665410281
 30
0.0
 11
374.980802276247
 21
9.7059044398976901
 31
0.0
  0
LINE
  5
422
  8
0
 10
374.980802276247
 20
9.7059041351064383
 30
0.0
 11
374.980802276247
 21
8.4999996654102965
 31
0.0
  0
LINE
  5
423
  8
0
 10
374.980802276247
 20
8.4999994044077578
 30
0.0
 11
374.980802276247
 21
6.6698726464880913
 31
0.0
  0
LINE
  5
424
  8
0
 10
374.980802276247
 20
6.6698723578222738
 30
0.0
 11
374.980802276247
 21
6.1703706608329476
 31
0.0
  0
LINE
  5
425
  8
0
 10
374.980802276247
 20
6.1703705339649373
 30
0.0
 11
374.980802276247
 21
5.9999996654102681
 31
0.0
  0
LINE
  5
426
  8
0
 10
353.47614505302261
 20
52.766580472102859
 30
0.0
 11
353.47614505302261
 21
55.2305173091641
 31
0.0
1001
ACAD
1000
ASC_BOUNDS
1002
{
1070
    19
1005
5BA
1002
}
  0
LINE
  5
427
  8
0
 10
353.47614505302261
 20
55.230520024420848
 30
0.0
 11
353.47614505302261
 21
60.191067954673997
 31
0.0
1001
ACAD
1000
ASC_BOUNDS
1002
{
1070
    19
1005
5BA
1002
}
  0
LINE
  5
428
  8
0
 10
353.47614505302261
 20
60.191070420509902
 30
0.0
 11
353.47614505302261
 21
65.024710016022084
 31
0.0
1001
ACAD
1000
ASC_BOUNDS
1002
{
1070
    19
1005
5BA
1002
}
  0
LINE
  5
429
  8
0
 10
353.47614505302261
 20
65.024711682218026
 30
0.0
 11
353.47614505302261
 21
65.938520539530643
 31
0.0
1001
ACAD
1000
ASC_BOUNDS
1002
{
1070
    19
1005
5BA
1002
}
  0
LINE
  5
42A
  8
0
 10
353.47614505302261
 20
65.754503126659685
 30
0.0
 11
353.47614505302261
 21
65.999999665410684
 31
0.0
1001
ACAD
1000
ASC_BOUNDS
1002
{
1070
    19
1005
5BA
1002
}
  0
LINE
  5
42B
  8
0
 10
353.47614505302261
 20
5.999999665410205
 30
0.0
 11
353.47614505302261
 21
6.2385188331953252
 31
0.0
1001
ACAD
1000
ASC_BOUNDS
1002
{
1070
    19
1005
5BA
1002
}
  0
LINE
  5
42C
  8
0
 10
353.47614505302261
 20
6.2385188813867281
 30
0.0
 11
353.47614505302261
 21
6.9378214347871028
 31
0.0
1001
ACAD
1000
ASC_BOUNDS
1002
{
1070
    19
1005
5BA
1002
}
  0
LINE
  5
42D
  8
0
 10
353.47614505302261
 20
6.9378218389191311
 30
0.0
 11
353.47614505302261
 21
12.99999966541019
 31
0.0
1001
ACAD
1000
ASC_BOUNDS
1002
{
1070
    19
1005
5BA
1002
}
  0
LINE
  5
42E
  8
0
 10
353.47614505302261
 20
13.0000001477386
 30
0.0
 11
353.47614505302261
 21
14.8524270819729
 31
0.0
1001
ACAD
1000
ASC_BOUNDS
1002
{
1070
    19
1005
5BA
1002
}
  0
LINE
  5
42F
  8
0
 10
360.980802276247
 20
14.85242708197293
 30
0.0
 11
360.980802276247
 21
13.000000147738641
 31
0.0
1001
ACAD
1000
ASC_BOUNDS
1002
{
1070
    19
1005
5BA
1002
}
  0
LINE
  5
430
  8
0
 10
360.980802276247
 20
12.99999966541022
 30
0.0
 11
360.980802276247
 21
6.9378218389191399
 31
0.0
1001
ACAD
1000
ASC_BOUNDS
1002
{
1070
    19
1005
5BA
1002
}
  0
LINE
  5
431
  8
0
 10
360.980802276247
 20
6.9378214347871108
 30
0.0
 11
360.980802276247
 21
6.2385188813867236
 31
0.0
1001
ACAD
1000
ASC_BOUNDS
1002
{
1070
    19
1005
5BA
1002
}
  0
LINE
  5
432
  8
0
 10
360.980802276247
 20
6.2385188331956094
 30
0.0
 11
360.980802276247
 21
6.1220349656791644
 31
0.0
1001
ACAD
1000
ASC_BOUNDS
1002
{
1070
    19
1005
5BA
1002
}
  0
LINE
  5
433
  8
0
 10
360.980802276247
 20
6.1220346199578621
 30
0.0
 11
360.980802276247
 21
5.9999996654101917
 31
0.0
1001
ACAD
1000
ASC_BOUNDS
1002
{
1070
    19
1005
5BA
1002
}
  0
LINE
  5
434
  8
0
 10
402.2308022762474
 20
5.9999996654127044
 30
0.0
 11
402.2308022762474
 21
78.999999665411053
 31
0.0
  0
LINE
  5
435
  8
0
 10
402.2308022762474
 20
78.999999665411053
 30
0.0
 11
352.98080227624752
 21
78.999999665411053
 31
0.0
  0
LINE
  5
436
  8
0
 10
352.98080227624752
 20
78.999999665411053
 30
0.0
 11
352.98080227624752
 21
5.9999996654127044
 31
0.0
  0
LINE
  5
437
  8
0
 10
394.23080227624649
 20
70.624999665410741
 30
0.0
 11
360.98080227624649
 21
70.624999665410428
 31
0.0
  0
LINE
  5
438
  8
0
 10
360.980802276247
 20
27.92394696633945
 30
0.0
 11
360.980802276247
 21
31.28105413916343
 31
0.0
1001
ACAD
1000
ASC_BOUNDS
1002
{
1070
    19
1005
5BA
1002
}
  0
LINE
  5
439
  8
0
 10
360.980802276247
 20
31.281055109307449
 30
0.0
 11
360.980802276247
 21
35.002732885320981
 31
0.0
1001
ACAD
1000
ASC_BOUNDS
1002
{
1070
    19
1005
5BA
1002
}
  0
LINE
  5
43A
  8
0
 10
360.980802276247
 20
35.00273359965361
 30
0.0
 11
360.980802276247
 21
38.816704033484328
 31
0.0
1001
ACAD
1000
ASC_BOUNDS
1002
{
1070
    19
1005
5BA
1002
}
  0
LINE
  5
43B
  8
0
 10
360.980802276247
 20
38.816705367640317
 30
0.0
 11
360.980802276247
 21
42.660358094901717
 31
0.0
1001
ACAD
1000
ASC_BOUNDS
1002
{
1070
    19
1005
5BA
1002
}
  0
LINE
  5
43C
  8
0
 10
360.980802276247
 20
42.660358426827692
 30
0.0
 11
360.980802276247
 21
46.470601520602067
 31
0.0
1001
ACAD
1000
ASC_BOUNDS
1002
{
1070
    19
1005
5BA
1002
}
  0
LINE
  5
43D
  8
0
 10
360.980802276247
 20
46.470602672408582
 30
0.0
 11
360.980802276247
 21
50.184886516744129
 31
0.0
1001
ACAD
1000
ASC_BOUNDS
1002
{
1070
    19
1005
5BA
1002
}
  0
LINE
  5
43E
  8
0
 10
360.980802276247
 20
50.184888554568431
 30
0.0
 11
360.980802276247
 21
53.742241811110617
 31
0.0
1001
ACAD
1000
ASC_BOUNDS
1002
{
1070
    19
1005
5BA
1002
}
  0
LINE
  5
43F
  8
0
 10
360.980802276247
 20
53.742244476109647
 30
0.0
 11
360.98080227624649
 21
57.084271868886447
 31
0.0
1001
ACAD
1000
ASC_BOUNDS
1002
{
1070
    19
1005
5BA
1002
}
  0
LINE
  5
440
  8
0
 10
360.98080227624649
 20
57.084274055235682
 30
0.0
 11
360.98080227624649
 21
62.907347987764616
 31
0.0
1001
ACAD
1000
ASC_BOUNDS
1002
{
1070
    19
1005
5BA
1002
}
  0
LINE
  5
441
  8
0
 10
360.98080227624649
 20
62.907348322942553
 30
0.0
 11
360.98080227624649
 21
65.29280572099627
 31
0.0
1001
ACAD
1000
ASC_BOUNDS
1002
{
1070
    19
1005
5BA
1002
}
  0
LINE
  5
442
  8
0
 10
360.98080227624649
 20
65.292806350748251
 30
0.0
 11
360.98080227624649
 21
67.27333068588436
 31
0.0
1001
ACAD
1000
ASC_BOUNDS
1002
{
1070
    19
1005
5BA
1002
}
  0
LINE
  5
443
  8
0
 10
360.98080227624649
 20
67.273332489468643
 30
0.0
 11
360.98080227624649
 21
68.816411703485926
 31
0.0
  0
LINE
  5
444
  8
0
 10
360.98080227624649
 20
68.816413945326872
 30
0.0
 11
360.98080227624649
 21
69.896718427566313
 31
0.0
  0
LINE
  5
445
  8
0
 10
360.98080227624649
 20
69.896718731936815
 30
0.0
 11
360.98080227624649
 21
70.605961923516332
 31
0.0
  0
LINE
  5
446
  8
0
 10
394.23080227624649
 20
70.605961923516674
 30
0.0
 11
394.23080227624649
 21
69.896718731936815
 31
0.0
  0
LINE
  5
447
  8
0
 10
394.23080227624649
 20
69.896718427566697
 30
0.0
 11
394.23080227624649
 21
68.816413945326957
 31
0.0
  0
LINE
  5
448
  8
0
 10
394.23080227624649
 20
68.816411703486352
 30
0.0
 11
394.23080227624649
 21
67.273332489468757
 31
0.0
  0
LINE
  5
449
  8
0
 10
394.23080227624649
 20
67.273330685884844
 30
0.0
 11
394.23080227624649
 21
65.292806350748435
 31
0.0
1001
ACAD
1000
ASC_BOUNDS
1002
{
1070
    19
1005
5BA
1002
}
  0
LINE
  5
44A
  8
0
 10
394.23080227624649
 20
65.292805720996739
 30
0.0
 11
394.23080227624649
 21
62.907348322942582
 31
0.0
1001
ACAD
1000
ASC_BOUNDS
1002
{
1070
    19
1005
5BA
1002
}
  0
LINE
  5
44B
  8
0
 10
394.23080227624649
 20
62.907347987765121
 30
0.0
 11
394.23080227624649
 21
57.08427405523593
 31
0.0
1001
ACAD
1000
ASC_BOUNDS
1002
{
1070
    19
1005
5BA
1002
}
  0
LINE
  5
44C
  8
0
 10
394.23080227624649
 20
57.084271868886979
 30
0.0
 11
394.23080227624649
 21
53.742244476109931
 31
0.0
1001
ACAD
1000
ASC_BOUNDS
1002
{
1070
    19
1005
5BA
1002
}
  0
LINE
  5
44D
  8
0
 10
394.23080227624649
 20
53.742241811111143
 30
0.0
 11
394.23080227624649
 21
50.184888554568552
 31
0.0
1001
ACAD
1000
ASC_BOUNDS
1002
{
1070
    19
1005
5BA
1002
}
  0
LINE
  5
44E
  8
0
 10
394.23080227624649
 20
50.184886516744697
 30
0.0
 11
394.230802276247
 21
46.470602672408688
 31
0.0
1001
ACAD
1000
ASC_BOUNDS
1002
{
1070
    19
1005
5BA
1002
}
  0
LINE
  5
44F
  8
0
 10
394.230802276247
 20
46.470601520602628
 30
0.0
 11
394.230802276247
 21
42.660358426828253
 31
0.0
1001
ACAD
1000
ASC_BOUNDS
1002
{
1070
    19
1005
5BA
1002
}
  0
LINE
  5
450
  8
0
 10
394.230802276247
 20
42.660358094901888
 30
0.0
 11
394.230802276247
 21
38.816705367640431
 31
0.0
1001
ACAD
1000
ASC_BOUNDS
1002
{
1070
    19
1005
5BA
1002
}
  0
LINE
  5
451
  8
0
 10
394.230802276247
 20
38.81670403348491
 30
0.0
 11
394.230802276247
 21
35.002733599654192
 31
0.0
1001
ACAD
1000
ASC_BOUNDS
1002
{
1070
    19
1005
5BA
1002
}
  0
LINE
  5
452
  8
0
 10
394.230802276247
 20
35.002732885321109
 30
0.0
 11
394.230802276247
 21
31.28105510930801
 31
0.0
1001
ACAD
1000
ASC_BOUNDS
1002
{
1070
    19
1005
5BA
1002
}
  0
LINE
  5
453
  8
0
 10
394.230802276247
 20
31.28105413916353
 30
0.0
 11
394.230802276247
 21
27.712761534013691
 31
0.0
1001
ACAD
1000
ASC_BOUNDS
1002
{
1070
    19
1005
5BA
1002
}
  0
LINE
  5
454
  8
0
 10
394.230802276247
 20
27.712760558246501
 30
0.0
 11
394.230802276247
 21
18.49564037570298
 31
0.0
  0
LINE
  5
455
  8
0
 10
394.230802276247
 20
18.495639714898001
 30
0.0
 11
394.230802276247
 21
16.087392906509411
 31
0.0
  0
LINE
  5
456
  8
0
 10
394.230802276247
 20
16.087392422272249
 30
0.0
 11
394.230802276247
 21
14.081940627839611
 31
0.0
  0
LINE
  5
457
  8
0
 10
394.230802276247
 20
14.08194027214631
 30
0.0
 11
394.230802276247
 21
12.51220469529469
 31
0.0
  0
LINE
  5
458
  8
0
 10
394.230802276247
 20
12.51220423150081
 30
0.0
 11
394.23080227624752
 21
11.40395269412747
 31
0.0
  0
LINE
  5
459
  8
0
 10
394.23080227624752
 20
11.403952522897351
 30
0.0
 11
394.23080227624752
 21
10.77537655221213
 31
0.0
  0
LINE
  5
45A
  8
0
 10
394.23080227624752
 20
10.775376552212149
 30
0.0
 11
394.23080227624752
 21
5.9999996654102867
 31
0.0
  0
LINE
  5
45B
  8
0
 10
352.98080227624752
 20
-0.0000003345884704
 30
0.0
 11
402.2308022762474
 21
-0.0000003345884711
 31
0.0
  0
LINE
  5
45C
  8
0
 10
402.2308022762474
 20
-0.0000003345884709
 30
0.0
 11
402.2308022762474
 21
5.9999996654139469
 31
0.0
  0
LINE
  5
45D
  8
0
 10
402.2308022762474
 20
5.9999996654139469
 30
0.0
 11
352.98080227624752
 21
5.9999996654139469
 31
0.0
1001
ACAD
1000
ASC_BOUNDS
1002
{
1070
    19
1005
5BA
1002
}
  0
LINE
  5
45E
  8
0
 10
352.98080227624752
 20
5.9999996654139469
 30
0.0
 11
352.98080227624752
 21
-0.0000003345884709
 31
0.0
  0
LINE
  5
45F
  8
0
 10
49.249999985548811
 20
5.9999996654127044
 30
0.0
 11
49.249999985548811
 21
78.999999665411053
 31
0.0
  0
LINE
  5
460
  8
0
 10
49.249999985548811
 20
78.999999665411053
 30
0.0
 11
-0.0000000144511887
 21
78.999999665411053
 31
0.0
  0
LINE
  5
461
  8
0
 10
-0.0000000144511887
 20
78.999999665411053
 30
0.0
 11
-0.0000000144511887
 21
5.9999996654127044
 31
0.0
  0
LINE
  5
462
  8
0
 10
-0.0000000144511887
 20
5.9999996654127044
 30
0.0
 11
5.9555402977130143
 21
5.9999996654127044
 31
0.0
  0
LINE
  5
463
  8
0
 10
11.669459673384379
 20
5.9999996654127044
 30
0.0
 11
49.249999985548811
 21
5.9999996654127044
 31
0.0
  0
LINE
  5
464
  8
0
 10
49.249999985548342
 20
-0.000000334590956
 30
0.0
 11
49.249999985548342
 21
5.9999996654114627
 31
0.0
  0
LINE
  5
465
  8
0
 10
49.249999985548342
 20
5.9999996654114627
 30
0.0
 11
11.66945967338483
 21
5.9999996654114627
 31
0.0
  0
LINE
  5
466
  8
0
 10
5.9555402977125587
 20
5.9999996654114627
 30
0.0
 11
-0.0000000144516434
 21
5.9999996654114627
 31
0.0
  0
LINE
  5
467
  8
0
 10
-0.0000000144516434
 20
5.9999996654114627
 30
0.0
 11
-0.0000000144516434
 21
-0.0000003345909569
 31
0.0
  0
LINE
  5
468
  8
0
 10
-0.0000000144516434
 20
-0.0000003345909567
 30
0.0
 11
49.249999985548342
 21
-0.000000334590956
 31
0.0
  0
ARC
  5
469
  8
0
 10
8.8124999855488113
 20
5.1249996654106642
 30
0.0
 40
2.999999999999992
 50
359.9999999999996
 51
179.99999999999969
  0
ARC
  5
46A
  8
0
 10
8.8124999855488113
 20
5.1249996654106642
 30
0.0
 40
3.0000000000000062
 50
180.00000000000011
 51
359.9999999999992
  0
ARC
  5
46B
  8
0
 10
24.624999985549039
 20
66.999999665410641
 30
0.0
 40
2.9999999999999911
 50
359.99999999999949
 51
179.9999999999996
  0
ARC
  5
46C
  8
0
 10
24.624999985549039
 20
66.999999665410641
 30
0.0
 40
3.0000000000000062
 50
180.00000000000011
 51
359.9999999999992
  0
LINE
  5
46D
  8
0
 10
287.71035501351008
 20
129.7678366432271
 30
0.0
 11
277.3189972016346
 21
129.7678366432271
 31
0.0
  0
LINE
  5
46E
  8
0
 10
277.3189972016346
 20
129.7678366432271
 30
0.0
 11
277.29425740905538
 21
129.7678366432271
 31
0.0
  0
LINE
  5
46F
  8
0
 10
286.90485263024908
 20
137.27249386645161
 30
0.0
 11
287.71035501351008
 21
137.27249386645161
 31
0.0
  0
LINE
  5
470
  8
0
 10
287.95940089379422
 20
137.27249386645161
 30
0.0
 11
287.95940089379422
 21
129.7678366432271
 31
0.0
  0
LINE
  5
471
  8
0
 10
241.95940089379411
 20
178.03750532685049
 30
0.0
 11
242.20489743254529
 21
178.03750532685049
 31
0.0
  0
LINE
  5
472
  8
0
 10
242.20489789434481
 20
178.03750532685049
 30
0.0
 11
242.93468887699319
 21
178.03750532685049
 31
0.0
  0
LINE
  5
473
  8
0
 10
242.9346905431828
 20
178.03750532685049
 30
0.0
 11
245.7548710578277
 21
178.03750532685049
 31
0.0
  0
LINE
  5
474
  8
0
 10
245.7548717246591
 20
178.03750532685049
 30
0.0
 11
252.72888325004089
 21
178.03750532685049
 31
0.0
  0
LINE
  5
475
  8
0
 10
252.7288834985483
 20
178.03750532685049
 30
0.0
 11
255.54066212525979
 21
178.03750532685049
 31
0.0
  0
LINE
  5
476
  8
0
 10
255.54066252214159
 20
178.03750532685049
 30
0.0
 11
258.47297267529223
 21
178.03750532685049
 31
0.0
  0
LINE
  5
477
  8
0
 10
258.47297358459258
 20
178.03750532685049
 30
0.0
 11
261.44582820300519
 21
178.03750532685049
 31
0.0
  0
LINE
  5
478
  8
0
 10
261.44582911229622
 20
178.03750532685049
 30
0.0
 11
264.37813926545618
 21
178.03750532685049
 31
0.0
  0
LINE
  5
479
  8
0
 10
264.37813966232852
 20
178.03750532685049
 30
0.0
 11
267.18991853754761
 21
178.03750532685049
 31
0.0
  0
LINE
  5
47A
  8
0
 10
267.18992125280948
 20
178.03750532685049
 30
0.0
 11
272.1504691830574
 21
178.03750532685049
 31
0.0
  0
LINE
  5
47B
  8
0
 10
272.15047164889887
 20
178.03750532685049
 30
0.0
 11
276.98411124440548
 21
178.03750532685049
 31
0.0
  0
LINE
  5
47C
  8
0
 10
276.98411291060808
 20
178.03750532685049
 30
0.0
 11
277.71390293301681
 21
178.03750532685049
 31
0.0
  0
LINE
  5
47D
  8
0
 10
277.71390435504298
 20
178.03750532685049
 30
0.0
 11
277.95940089379422
 21
178.03750532685049
 31
0.0
  0
LINE
  5
47E
  8
0
 10
259.95940089379422
 20
129.7678366432271
 30
0.0
 11
256.99669826874111
 21
129.7678366432271
 31
0.0
  0
LINE
  5
47F
  8
0
 10
256.99669716882039
 20
129.7678366432271
 30
0.0
 11
254.11481163225719
 21
129.7678366432271
 31
0.0
  0
LINE
  5
480
  8
0
 10
254.11481044811001
 20
129.7678366432271
 30
0.0
 11
246.7163705016778
 21
129.7678366432271
 31
0.0
  0
LINE
  5
481
  8
0
 10
246.7163692766926
 20
129.7678366432271
 30
0.0
 11
243.47548101400321
 21
129.7678366432271
 31
0.0
  0
LINE
  5
482
  8
0
 10
243.47547956338849
 20
129.7678366432271
 30
0.0
 11
242.51019636576731
 21
129.7678366432271
 31
0.0
  0
LINE
  5
483
  8
0
 10
242.5101961068863
 20
129.7678366432271
 30
0.0
 11
242.02088001967419
 21
129.7678366432271
 31
0.0
  0
LINE
  5
485
  8
0
 10
277.31871137232031
 20
129.7678366432271
 30
0.0
 11
276.44332222421178
 21
129.7678366432271
 31
0.0
  0
LINE
  5
486
  8
0
 10
276.4433207735853
 20
129.7678366432271
 30
0.0
 11
273.20243128591062
 21
129.7678366432271
 31
0.0
  0
LINE
  5
487
  8
0
 10
273.20242967182782
 20
129.7678366432271
 30
0.0
 11
265.8039913394785
 21
129.7678366432271
 31
0.0
  0
LINE
  5
488
  8
0
 10
265.80399015534073
 20
129.7678366432271
 30
0.0
 11
262.92210461877789
 21
129.7678366432271
 31
0.0
  0
LINE
  5
489
  8
0
 10
262.92210351884751
 20
129.7678366432271
 30
0.0
 11
259.95940089379422
 21
129.7678366432271
 31
0.0
  0
LINE
  5
48A
  8
0
 10
287.95940089379422
 20
129.7678366432271
 30
0.0
 11
287.71368935431559
 21
129.7678366432271
 31
0.0
  0
LINE
  5
48B
  8
0
 10
287.71368935431542
 20
137.27249386645161
 30
0.0
 11
287.95940089379422
 21
137.27249386645161
 31
0.0
  0
LINE
  5
48C
  8
0
 10
287.71035501351008
 20
129.7678366432271
 30
0.0
 11
277.3189972016346
 21
129.7678366432273
 31
0.0
  0
LINE
  5
48D
  8
0
 10
277.3189972016346
 20
129.7678366432273
 30
0.0
 11
277.29425740905549
 21
129.7678366432273
 31
0.0
  0
LINE
  5
48E
  8
0
 10
286.90485263024908
 20
137.27249386645161
 30
0.0
 11
287.71035501351008
 21
137.27249386645161
 31
0.0
  0
LINE
  5
48F
  8
0
 10
287.95940089379422
 20
137.27249386645161
 30
0.0
 11
287.95940089379422
 21
129.7678366432271
 31
0.0
  0
LINE
  5
490
  8
0
 10
241.95940089379431
 20
178.03750532685069
 30
0.0
 11
242.20489743254529
 21
178.03750532685069
 31
0.0
  0
LINE
  5
491
  8
0
 10
242.20489789434481
 20
178.03750532685069
 30
0.0
 11
242.93468887699319
 21
178.03750532685069
 31
0.0
  0
LINE
  5
492
  8
0
 10
242.9346905431828
 20
178.03750532685069
 30
0.0
 11
245.7548710578277
 21
178.03750532685069
 31
0.0
  0
LINE
  5
493
  8
0
 10
245.75487172465921
 20
178.03750532685069
 30
0.0
 11
252.72888325004089
 21
178.03750532685069
 31
0.0
  0
LINE
  5
494
  8
0
 10
252.7288834985483
 20
178.03750532685069
 30
0.0
 11
255.54066212525979
 21
178.03750532685069
 31
0.0
  0
LINE
  5
495
  8
0
 10
255.54066252214159
 20
178.03750532685069
 30
0.0
 11
258.47297267529223
 21
178.03750532685069
 31
0.0
  0
LINE
  5
496
  8
0
 10
258.47297358459269
 20
178.03750532685069
 30
0.0
 11
261.44582820300508
 21
178.03750532685069
 31
0.0
  0
LINE
  5
497
  8
0
 10
261.44582911229622
 20
178.03750532685069
 30
0.0
 11
264.37813926545641
 21
178.03750532685069
 31
0.0
  0
LINE
  5
498
  8
0
 10
264.37813966232858
 20
178.03750532685069
 30
0.0
 11
267.18991853754761
 21
178.03750532685069
 31
0.0
  0
LINE
  5
499
  8
0
 10
267.18992125280948
 20
178.03750532685069
 30
0.0
 11
272.1504691830574
 21
178.03750532685069
 31
0.0
  0
LINE
  5
49A
  8
0
 10
272.15047164889887
 20
178.03750532685069
 30
0.0
 11
276.98411124440548
 21
178.03750532685069
 31
0.0
  0
LINE
  5
49B
  8
0
 10
276.98411291060808
 20
178.03750532685069
 30
0.0
 11
277.71390293301681
 21
178.03750532685069
 31
0.0
  0
LINE
  5
49C
  8
0
 10
277.71390435504333
 20
178.03750532685069
 30
0.0
 11
277.95940089379422
 21
178.03750532685069
 31
0.0
  0
LINE
  5
49D
  8
0
 10
259.95940089379422
 20
129.7678366432273
 30
0.0
 11
256.99669826874111
 21
129.7678366432273
 31
0.0
  0
LINE
  5
49E
  8
0
 10
256.99669716882039
 20
129.7678366432273
 30
0.0
 11
254.11481163225699
 21
129.7678366432273
 31
0.0
  0
LINE
  5
49F
  8
0
 10
254.11481044811001
 20
129.7678366432273
 30
0.0
 11
246.7163705016778
 21
129.7678366432273
 31
0.0
  0
LINE
  5
4A0
  8
0
 10
246.7163692766926
 20
129.7678366432273
 30
0.0
 11
243.47548101400329
 21
129.7678366432273
 31
0.0
  0
LINE
  5
4A1
  8
0
 10
243.47547956338849
 20
129.7678366432273
 30
0.0
 11
242.51019636576731
 21
129.7678366432273
 31
0.0
  0
LINE
  5
4A2
  8
0
 10
242.51019610688641
 20
129.7678366432273
 30
0.0
 11
241.95940089379411
 21
129.7678366432273
 31
0.0
  0
LINE
  5
4A4
  8
0
 10
277.31871137232019
 20
129.7678366432273
 30
0.0
 11
276.44332222421178
 21
129.7678366432273
 31
0.0
  0
LINE
  5
4A5
  8
0
 10
276.4433207735853
 20
129.7678366432273
 30
0.0
 11
273.20243128591062
 21
129.7678366432273
 31
0.0
  0
LINE
  5
4A6
  8
0
 10
273.20242967182782
 20
129.7678366432273
 30
0.0
 11
265.8039913394785
 21
129.7678366432273
 31
0.0
  0
LINE
  5
4A7
  8
0
 10
265.80399015534073
 20
129.7678366432273
 30
0.0
 11
262.92210461877789
 21
129.7678366432273
 31
0.0
  0
LINE
  5
4A8
  8
0
 10
262.92210351884751
 20
129.7678366432273
 30
0.0
 11
259.95940089379422
 21
129.7678366432273
 31
0.0
  0
LINE
  5
4A9
  8
0
 10
287.95940089379422
 20
129.7678366432271
 30
0.0
 11
287.71368935431559
 21
129.7678366432271
 31
0.0
  0
LINE
  5
4AA
  8
0
 10
287.71368935431559
 20
137.27249386645161
 30
0.0
 11
287.95940089379422
 21
137.27249386645161
 31
0.0
  0
LINE
  5
4AB
  8
0
 10
217.7094008937944
 20
178.52249386645181
 30
0.0
 11
217.7094008937942
 21
129.27249386645181
 31
0.0
  0
LINE
  5
4AC
  8
0
 10
110.2094008937942
 20
129.27249386645201
 30
0.0
 11
110.2094008937943
 21
178.52249386645201
 31
0.0
  0
LINE
  5
4AD
  8
0
 10
110.2094008937943
 20
178.52249386645201
 30
0.0
 11
217.7094008937944
 21
178.52249386645181
 31
0.0
  0
LINE
  5
4AE
  8
0
 10
111.8344008937943
 20
176.89749386645201
 30
0.0
 11
216.0844008937942
 21
176.89749386645161
 31
0.0
1001
ACAD
1000
ASC_BOUNDS
1002
{
1070
    19
1005
5C4
1002
}
  0
LINE
  5
4AF
  8
0
 10
216.0844008937942
 20
176.89749386645161
 30
0.0
 11
216.0844008937942
 21
130.89749386645181
 31
0.0
1001
ACAD
1000
ASC_BOUNDS
1002
{
1070
    19
1005
5C4
1002
}
  0
LINE
  5
4B0
  8
0
 10
216.0844008937942
 20
130.89749386645181
 30
0.0
 11
111.8344008937941
 21
130.89749386645201
 31
0.0
1001
ACAD
1000
ASC_BOUNDS
1002
{
1070
    19
1005
5C4
1002
}
  0
LINE
  5
4B1
  8
0
 10
111.8344008937941
 20
130.89749386645201
 30
0.0
 11
111.8344008937943
 21
176.89749386645201
 31
0.0
1001
ACAD
1000
ASC_BOUNDS
1002
{
1070
    19
1005
5C4
1002
}
  0
LINE
  5
4B2
  8
0
 10
110.2094008937942
 20
129.27249386645201
 30
0.0
 11
217.7094008937942
 21
129.27249386645181
 31
0.0
  0
LINE
  5
4B3
  8
0
 10
286.95940089379428
 20
137.27249386645161
 30
0.0
 11
286.95940089379428
 21
170.52249386645161
 31
0.0
  0
LINE
  5
4B4
  8
0
 10
286.90485241664783
 20
137.27249386645161
 30
0.0
 11
286.89028066573781
 21
137.27249386645161
 31
0.0
  0
LINE
  5
4B5
  8
0
 10
286.89027650264228
 20
137.27249386645161
 30
0.0
 11
286.38437224383301
 21
137.27249386645161
 31
0.0
  0
LINE
  5
4B6
  8
0
 10
286.38437025024479
 20
137.27249386645161
 30
0.0
 11
285.39544589994409
 21
137.27249386645161
 31
0.0
  0
LINE
  5
4B7
  8
0
 10
285.39544427872579
 20
137.27249386645161
 30
0.0
 11
283.93972884316179
 21
137.27249386645141
 31
0.0
  0
LINE
  5
4B8
  8
0
 10
283.93972629011
 20
137.27249386645141
 30
0.0
 11
282.04111452209111
 21
137.27249386645141
 31
0.0
  0
LINE
  5
4B9
  8
0
 10
282.04111369499969
 20
137.27249386645141
 30
0.0
 11
277.04663747938338
 21
137.27249386645141
 31
0.0
  0
LINE
  5
4BA
  8
0
 10
277.04663448235209
 20
137.27249386645141
 30
0.0
 11
274.03275575514863
 21
137.27249386645141
 31
0.0
  0
LINE
  5
4BB
  8
0
 10
274.03275277337582
 20
137.27249386645141
 30
0.0
 11
270.73860456538762
 21
137.27249386645141
 31
0.0
  0
LINE
  5
4BC
  8
0
 10
270.73860246514039
 20
137.27249386645141
 30
0.0
 11
267.21826473436931
 21
137.27249386645141
 31
0.0
  0
LINE
  5
4BD
  8
0
 10
267.21826248185567
 20
137.27249386645141
 30
0.0
 11
263.52952119020102
 21
137.27249386645141
 31
0.0
  0
LINE
  5
4BE
  8
0
 10
263.5295198139213
 20
137.27249386645141
 30
0.0
 11
255.89080310039819
 21
137.27249386645141
 31
0.0
  0
LINE
  5
4BF
  8
0
 10
255.89080271017741
 20
137.27249386645141
 30
0.0
 11
252.0662219439179
 21
137.27249386645141
 31
0.0
  0
LINE
  5
4C0
  8
0
 10
252.06622066146181
 20
137.27249386645141
 30
0.0
 11
248.32196229508031
 21
137.27249386645141
 31
0.0
  0
LINE
  5
4C1
  8
0
 10
248.3219611406368
 20
137.27249386645141
 30
0.0
 11
244.71949124108841
 21
137.27249386645141
 31
0.0
  0
LINE
  5
4C2
  8
0
 10
244.7194898143922
 20
137.27249386645141
 30
0.0
 11
217.70940089379451
 21
137.27249386645141
 31
0.0
  0
LINE
  5
4C3
  8
0
 10
217.70940089379451
 20
170.52249386645141
 30
0.0
 11
244.7194898143922
 21
170.52249386645141
 31
0.0
  0
LINE
  5
4C4
  8
0
 10
244.71949124108821
 20
170.52249386645141
 30
0.0
 11
248.32196114063649
 21
170.52249386645141
 31
0.0
  0
LINE
  5
4C5
  8
0
 10
248.32196229508
 20
170.52249386645141
 30
0.0
 11
252.0662206614617
 21
170.52249386645141
 31
0.0
  0
LINE
  5
4C6
  8
0
 10
252.0662219439175
 20
170.52249386645141
 30
0.0
 11
255.8908027101771
 21
170.52249386645141
 31
0.0
  0
LINE
  5
4C7
  8
0
 10
255.8908031003977
 20
170.52249386645141
 30
0.0
 11
263.52951981392113
 21
170.52249386645141
 31
0.0
  0
LINE
  5
4C8
  8
0
 10
263.52952119020063
 20
170.52249386645141
 30
0.0
 11
267.2182624818555
 21
170.52249386645141
 31
0.0
  0
LINE
  5
4C9
  8
0
 10
267.21826473436897
 20
170.52249386645141
 30
0.0
 11
270.7386024651401
 21
170.52249386645141
 31
0.0
  0
LINE
  5
4CA
  8
0
 10
270.73860456538739
 20
170.52249386645141
 30
0.0
 11
274.03275277337548
 21
170.52249386645141
 31
0.0
  0
LINE
  5
4CB
  8
0
 10
274.03275575514829
 20
170.52249386645141
 30
0.0
 11
277.04663448235209
 21
170.52249386645141
 31
0.0
  0
LINE
  5
4CC
  8
0
 10
277.04663747938321
 20
170.52249386645141
 30
0.0
 11
282.04111369499952
 21
170.52249386645141
 31
0.0
  0
LINE
  5
4CD
  8
0
 10
282.04111452209099
 20
170.52249386645141
 30
0.0
 11
283.93972629010989
 21
170.52249386645141
 31
0.0
  0
LINE
  5
4CE
  8
0
 10
283.93972884316167
 20
170.52249386645141
 30
0.0
 11
285.39544427872579
 21
170.52249386645161
 31
0.0
  0
LINE
  5
4CF
  8
0
 10
285.39544589994381
 20
170.52249386645161
 30
0.0
 11
286.38437025024479
 21
170.52249386645161
 31
0.0
  0
LINE
  5
4D0
  8
0
 10
286.38437224383301
 20
170.52249386645161
 30
0.0
 11
286.89027650264228
 21
170.52249386645161
 31
0.0
  0
LINE
  5
4D1
  8
0
 10
286.89028066573781
 20
170.52249386645161
 30
0.0
 11
286.90485241664783
 21
170.52249386645161
 31
0.0
  0
LINE
  5
4D2
  8
0
 10
289.95940089379422
 20
178.52249386645229
 30
0.0
 11
289.95940089379422
 21
129.27249386645229
 31
0.0
  0
LINE
  5
4D3
  8
0
 10
289.95940089379422
 20
129.27249386645229
 30
0.0
 11
217.7094008937942
 21
129.27249386645229
 31
0.0
  0
LINE
  5
4D4
  8
0
 10
289.95940089379422
 20
178.52249386645229
 30
0.0
 11
217.7094008937944
 21
178.52249386645229
 31
0.0
  0
LINE
  5
4D5
  8
0
 10
106.084400893794
 20
166.70999386645201
 30
0.0
 11
110.209400893794
 21
166.70999386645201
 31
0.0
  0
LINE
  5
4D6
  8
0
 10
110.209400893794
 20
172.70999386645201
 30
0.0
 11
106.084400893794
 21
172.70999386645201
 31
0.0
  0
LINE
  5
4D7
  8
0
 10
106.084400893794
 20
150.89749386645181
 30
0.0
 11
110.209400893794
 21
150.89749386645181
 31
0.0
  0
LINE
  5
4D8
  8
0
 10
110.209400893794
 20
156.89749386645181
 30
0.0
 11
106.084400893794
 21
156.89749386645181
 31
0.0
  0
LINE
  5
4D9
  8
0
 10
106.0844008937943
 20
166.70999386645201
 30
0.0
 11
106.0844008937943
 21
166.81221586961681
 31
0.0
  0
LINE
  5
4DA
  8
0
 10
106.0844008937943
 20
166.81221638758481
 30
0.0
 11
106.0844008937943
 21
167.11191661866621
 31
0.0
  0
LINE
  5
4DB
  8
0
 10
106.0844008937943
 20
167.11191765509869
 30
0.0
 11
106.0844008937943
 21
168.933535857511
 31
0.0
  0
LINE
  5
4DC
  8
0
 10
106.0844008937943
 20
168.9335367311443
 30
0.0
 11
106.0844008937943
 21
169.70999386645201
 31
0.0
  0
LINE
  5
4DD
  8
0
 10
106.0844008937943
 20
169.70999464704471
 30
0.0
 11
106.0844008937943
 21
170.48645052848741
 31
0.0
  0
LINE
  5
4DE
  8
0
 10
106.0844008937943
 20
170.4864510017596
 30
0.0
 11
106.0844008937943
 21
171.83131421001161
 31
0.0
  0
LINE
  5
4DF
  8
0
 10
106.0844008937943
 20
171.83131444177471
 30
0.0
 11
106.0844008937943
 21
172.60777134531909
 31
0.0
  0
LINE
  5
4E0
  8
0
 10
106.0844008937943
 20
172.60777208779851
 30
0.0
 11
106.0844008937943
 21
172.70999386645201
 31
0.0
  0
LINE
  5
4E1
  8
0
 10
106.0844008937943
 20
150.89749386645181
 30
0.0
 11
106.0844008937943
 21
151.29941765509841
 31
0.0
  0
LINE
  5
4E2
  8
0
 10
106.0844008937943
 20
151.2994177891016
 30
0.0
 11
106.0844008937943
 21
151.7761728671905
 31
0.0
  0
LINE
  5
4E3
  8
0
 10
106.0844008937943
 20
151.77617352289201
 30
0.0
 11
106.0844008937943
 21
152.3974926232367
 31
0.0
  0
LINE
  5
4E4
  8
0
 10
106.0844008937943
 20
152.39749386645181
 30
0.0
 11
106.0844008937943
 21
153.1210367311441
 31
0.0
  0
LINE
  5
4E5
  8
0
 10
106.0844008937943
 20
153.1210368488338
 30
0.0
 11
106.0844008937943
 21
153.897492717733
 31
0.0
  0
LINE
  5
4E6
  8
0
 10
106.0844008937943
 20
153.89749386645181
 30
0.0
 11
106.0844008937943
 21
154.67395100175929
 31
0.0
  0
LINE
  5
4E7
  8
0
 10
106.0844008937943
 20
154.6739514938057
 30
0.0
 11
106.0844008937943
 21
156.01881421001141
 31
0.0
  0
LINE
  5
4E8
  8
0
 10
106.0844008937943
 20
156.01881555268449
 30
0.0
 11
106.0844008937943
 21
156.49557007780501
 31
0.0
  0
LINE
  5
4E9
  8
0
 10
106.0844008937943
 20
156.49557063737291
 30
0.0
 11
106.0844008937943
 21
156.89749386645181
 31
0.0
  0
LINE
  5
4EA
  8
0
 10
277.95940089379422
 20
178.03750532685049
 30
0.0
 11
277.95940089379422
 21
170.5224938664511
 31
0.0
  0
LINE
  5
4EB
  8
0
 10
241.95940089379411
 20
178.03750532685029
 30
0.0
 11
241.95940089379411
 21
170.5224938664509
 31
0.0
  0
LINE
  5
4EC
  8
0
 10
241.95940089379411
 20
137.27249386645161
 30
0.0
 11
241.95940089379411
 21
129.7678366432273
 31
0.0
  0
LINE
  5
4ED
  8
0
 10
401.74581373664591
 20
65.938520539530643
 30
0.0
 11
394.230802276247
 21
65.938520539530643
 31
0.0
1001
ACAD
1000
ASC_BOUNDS
1002
{
1070
    19
1005
5BA
1002
}
  0
LINE
  5
4EE
  8
0
 10
360.9808022762461
 20
65.938520539530643
 30
0.0
 11
353.47614505302261
 21
65.938520539530643
 31
0.0
1001
ACAD
1000
ASC_BOUNDS
1002
{
1070
    19
1005
5BA
1002
}
  0
LINE
  5
4EF
  8
0
 10
401.74581373664591
 20
30.061478791290529
 30
0.0
 11
394.230802276247
 21
30.061478791290529
 31
0.0
1001
ACAD
1000
ASC_BOUNDS
1002
{
1070
    19
1005
5BA
1002
}
  0
INSERT
  5
532
  8
0
  6
CONTINUOUS
  2
*X8
 10
0.0
 20
0.0
 30
0.0
1001
GRADIENTCOLOR1ACI
1070
     5
1001
GRADIENTCOLOR2ACI
1070
     2
1001
ACAD
1000
HATCH
1002
{
1070
    19
1000
NET
1040
12.0
1040
-0.7853981633974485
1000
R14_HATCH_DATA
1000
532
1011
1.0
1021
0.0
1031
0.0
1021
0.0
1031
0.0
1011
0.0
1021
0.0
1031
0.0
1021
1.0
1031
0.0
1011
0.0
1021
0.0
1031
0.0
1021
0.0
1031
1.0
1040
0.0
1010
0.0
1020
0.0
1030
1.0
1000
NET
1070
     0
1070
     0
1071
        2
1071
        7
1070
     0
1070
     1
1071
       25
1040
267.2182624818555
1040
170.52249386645141
1040
270.7386024651401
1040
170.52249386645141
1040
274.03275277337548
1040
170.52249386645141
1040
277.04663448235209
1040
170.52249386645141
1040
277.95940089379422
1040
170.52249386645141
1040
277.95940089379422
1040
178.03750532685069
1040
277.71390435504333
1040
178.03750532685069
1040
276.98411291060808
1040
178.03750532685069
1040
272.15047164889887
1040
178.03750532685069
1040
267.18992125280948
1040
178.03750532685069
1040
264.37813966232858
1040
178.03750532685069
1040
261.44582911229622
1040
178.03750532685069
1040
258.47297358459269
1040
178.03750532685069
1040
255.54066252214159
1040
178.03750532685069
1040
252.7288834985483
1040
178.03750532685069
1040
245.75487172465921
1040
178.03750532685069
1040
242.9346905431828
1040
178.03750532685069
1040
242.20489789434481
1040
178.03750532685069
1040
241.95940089379411
1040
178.03750532685069
1040
241.95940089379411
1040
170.52249386645141
1040
244.7194898143922
1040
170.52249386645141
1040
248.32196114063649
1040
170.52249386645141
1040
252.0662206614617
1040
170.52249386645141
1040
255.8908027101771
1040
170.52249386645141
1040
263.52951981392113
1040
170.52249386645141
1071
        0
1071
        7
1070
     0
1070
     1
1071
       32
1040
273.20242967182782
1040
129.7678366432273
1040
276.4433207735853
1040
129.7678366432273
1040
277.31871137232019
1040
129.7678366432273
1040
277.3189972016346
1040
129.7678366432273
1040
287.71035501351008
1040
129.76783664322701
1040
287.95940089379422
1040
129.76783664322701
1040
287.95940089379422
1040
137.27249386645161
1040
287.71368935431559
1040
137.27249386645161
1040
286.90485263024908
1040
137.27249386645161
1040
286.38437224383301
1040
137.27249386645161
1040
285.39544589994409
1040
137.27249386645161
1040
283.93972884316179
1040
137.27249386645141
1040
282.04111452209111
1040
137.27249386645141
1040
277.04663747938338
1040
137.27249386645141
1040
274.03275575514863
1040
137.27249386645141
1040
270.73860456538762
1040
137.27249386645141
1040
267.21826473436931
1040
137.27249386645141
1040
263.52952119020102
1040
137.27249386645141
1040
255.89080310039819
1040
137.27249386645141
1040
252.0662219439179
1040
137.27249386645141
1040
248.32196229508031
1040
137.27249386645141
1040
244.71949124108841
1040
137.27249386645141
1040
241.95940089379411
1040
137.27249386645141
1040
241.95940089379411
1040
129.7678366432273
1040
242.51019610688641
1040
129.7678366432273
1040
243.47547956338849
1040
129.7678366432273
1040
246.7163692766926
1040
129.7678366432273
1040
254.11481044811001
1040
129.7678366432273
1040
256.99669716882039
1040
129.7678366432273
1040
259.95940089379422
1040
129.7678366432273
1040
262.92210351884751
1040
129.7678366432273
1040
265.80399015534073
1040
129.7678366432273
1071
        0
1070
     1
1070
     1
1040
-0.7853981633974485
1040
12.0
1070
     0
1070
     2
1040
5.4977871437821371
1040
-27.19686722403468
1040
178.52249385200091
1040
1.060660171779821
1040
1.0606601717798201
1070
     0
1040
0.7853981633974473
1040
-27.19686722403468
1040
178.52249385200091
1040
-1.0606601717798201
1040
1.060660171779821
1070
     0
1040
0.0877938105835827
1071
        2
1040
266.51242568906071
1040
175.7675252203048
1040
0.0
1040
271.16549816506051
1040
134.48451955451671
1040
0.0
1002
}
  0
INSERT
  5
57F
  8
0
  6
CONTINUOUS
  2
*X5
 10
0.0
 20
0.0
 30
0.0
1001
GRADIENTCOLOR1ACI
1070
     5
1001
GRADIENTCOLOR2ACI
1070
     2
1001
ACAD
1000
HATCH
1002
{
1070
    19
1000
NET
1040
12.0
1040
0.7853981633974483
1000
ASC_BOUNDS
1070
     1
1070
     1
1070
     6
1005
36F
1005
36D
1005
36C
1005
36E
1005
36A
1005
36B
1000
ASC_SEEDPOINT
1011
254.84847351809529
1021
0.0
1031
0.0
1021
49.311920063645402
1031
0.0
1000
R14_HATCH_DATA
1000
57F
1011
1.0
1021
0.0
1031
0.0
1021
0.0
1031
0.0
1011
0.0
1021
0.0
1031
0.0
1021
1.0
1031
0.0
1011
0.0
1021
0.0
1031
0.0
1021
0.0
1031
1.0
1040
0.0
1010
0.0
1020
0.0
1030
1.0
1000
NET
1070
     0
1070
     1
1071
        1
1071
        7
1070
     1
1070
     1
1071
        6
1040
277.31899720163437
1040
52.758614592972719
1040
0.3378522770246543
1040
259.95940089379411
1040
65.999999665411011
1040
0.6783124970280924
1040
247.59140122460889
1040
34.922057006757257
1040
0.0
1040
276.149623244667
1040
7.9141330759340871
1040
0.1916731857395706
1040
280.95940089379451
1040
5.9999996654105541
1040
0.494933360242091
1040
287.7103550135102
1040
14.850572137240061
1040
0.0
1071
        6
1005
36B
1005
36A
1005
36E
1005
36C
1005
36D
1005
36F
1070
     1
1070
     1
1040
0.7853981633974483
1040
12.0
1070
     0
1070
     2
1040
0.7853981633974483
1040
0.0
1040
0.0
1040
-1.0606601717798201
1040
1.0606601717798201
1070
     0
1040
2.3561944901923431
1040
0.0
1040
0.0
1040
-1.0606601717798201
1040
-1.0606601717798201
1070
     0
1040
0.1412409153776736
1071
        1
1040
254.84847351809529
1040
49.311920063645402
1040
0.0
1002
}
  0
INSERT
  5
5BA
  8
0
  6
CONTINUOUS
  2
*X6
 10
0.0
 20
0.0
 30
0.0
1001
GRADIENTCOLOR1ACI
1070
     5
1001
GRADIENTCOLOR2ACI
1070
     2
1001
ACAD
1000
HATCH
1002
{
1070
    19
1000
NET
1040
12.0
1040
0.7853981633974483
1000
ASC_BOUNDS
1070
     2
1070
     1
1070
    23
1005
40F
1005
410
1005
411
1005
412
1005
4EF
1005
453
1005
452
1005
451
1005
450
1005
44F
1005
44E
1005
44D
1005
44C
1005
44B
1005
44A
1005
449
1005
4ED
1005
414
1005
415
1005
416
1005
417
1005
418
1005
419
1070
     1
1070
    30
1005
43C
1005
43B
1005
43A
1005
439
1005
438
1005
40E
1005
42F
1005
430
1005
431
1005
432
1005
433
1005
45D
1005
42B
1005
42C
1005
42D
1005
42E
1005
40C
1005
40D
1005
426
1005
427
1005
428
1005
429
1005
42A
1005
4EE
1005
442
1005
441
1005
440
1005
43F
1005
43E
1005
43D
1000
ASC_SEEDPOINT
1011
357.72148475657599
1021
0.0
1031
0.0
1021
43.097319660114529
1031
0.0
1000
R14_HATCH_DATA
1000
5BA
1011
1.0
1021
0.0
1031
0.0
1021
0.0
1031
0.0
1011
0.0
1021
0.0
1031
0.0
1021
1.0
1031
0.0
1011
0.0
1021
0.0
1031
0.0
1021
0.0
1031
1.0
1040
0.0
1010
0.0
1020
0.0
1030
1.0
1000
NET
1070
     0
1070
     1
1071
        2
1071
        7
1070
     0
1070
     1
1071
       30
1040
360.980802276247
1040
46.470601520602067
1040
360.980802276247
1040
50.184886516744129
1040
360.980802276247
1040
53.742241811110617
1040
360.98080227624649
1040
57.084271868886447
1040
360.98080227624649
1040
62.907347987764616
1040
360.98080227624649
1040
65.29280572099627
1040
360.98080227624649
1040
65.938520539530643
1040
353.47614505302261
1040
65.938520539530643
1040
353.47614505302261
1040
65.754503126659685
1040
353.47614505302261
1040
65.024711682218026
1040
353.47614505302261
1040
60.191070420509902
1040
353.47614505302261
1040
55.230520024420848
1040
353.47614505302261
1040
52.766580472102859
1040
353.47614505302261
1040
52.451889805145591
1040
353.47614505302261
1040
14.85057620789707
1040
353.47614505302261
1040
13.0000001477386
1040
353.47614505302261
1040
6.9378218389191328
1040
353.47614505302261
1040
6.2385188813867298
1040
353.47614505302261
1040
5.9999996654139522
1040
360.980802276247
1040
5.9999996654139522
1040
360.980802276247
1040
6.1220346199578639
1040
360.980802276247
1040
6.2385188331956121
1040
360.980802276247
1040
6.937821434787109
1040
360.980802276247
1040
12.99999966541022
1040
360.980802276247
1040
14.85242708197293
1040
360.980802276247
1040
27.929417157504329
1040
360.980802276247
1040
31.28105413916343
1040
360.980802276247
1040
35.002732885320981
1040
360.980802276247
1040
38.816704033484328
1040
360.980802276247
1040
42.660358094901717
1071
       30
1005
43D
1005
43E
1005
43F
1005
440
1005
441
1005
442
1005
4EE
1005
42A
1005
429
1005
428
1005
427
1005
426
1005
40D
1005
40C
1005
42E
1005
42D
1005
42C
1005
42B
1005
45D
1005
433
1005
432
1005
431
1005
430
1005
42F
1005
40E
1005
438
1005
439
1005
43A
1005
43B
1005
43C
1071
        7
1070
     0
1070
     1
1071
       23
1040
401.74581373664591
1040
47.999999665410641
1040
401.74581373664591
1040
50.962702290463817
1040
401.74581373664591
1040
53.84458892695222
1040
401.74581373664591
1040
61.243028443439762
1040
401.74581373664591
1040
64.483919545201644
1040
401.74581373664591
1040
65.44920445231854
1040
401.74581373664591
1040
65.938520539530643
1040
394.23080227624649
1040
65.938520539530643
1040
394.23080227624649
1040
65.292806350748435
1040
394.23080227624649
1040
62.907348322942582
1040
394.23080227624649
1040
57.08427405523593
1040
394.23080227624649
1040
53.742244476109931
1040
394.23080227624649
1040
50.184888554568552
1040
394.230802276247
1040
46.470602672408688
1040
394.230802276247
1040
42.660358426828253
1040
394.230802276247
1040
38.816705367640431
1040
394.230802276247
1040
35.002733599654192
1040
394.230802276247
1040
31.28105510930801
1040
394.230802276247
1040
30.061478791290529
1040
401.74581373664591
1040
30.061478791290529
1040
401.74581373664591
1040
31.516078334998799
1040
401.74581373664591
1040
34.756968048303591
1040
401.74581373664591
1040
42.15540921972633
1071
       23
1005
419
1005
418
1005
417
1005
416
1005
415
1005
414
1005
4ED
1005
449
1005
44A
1005
44B
1005
44C
1005
44D
1005
44E
1005
44F
1005
450
1005
451
1005
452
1005
453
1005
4EF
1005
412
1005
411
1005
410
1005
40F
1070
     1
1070
     1
1040
0.7853981633974483
1040
12.0
1070
     0
1070
     2
1040
0.7853981633974483
1040
0.0
1040
0.0
1040
-1.0606601717798201
1040
1.0606601717798201
1070
     0
1040
2.3561944901923431
1040
0.0
1040
0.0
1040
-1.0606601717798201
1040
-1.0606601717798201
1070
     0
1040
0.1412409153776736
1071
        2
1040
357.72148475657599
1040
43.097319660114529
1040
0.0
1040
397.28802743938257
1040
45.215933383362639
1040
0.0
1002
}
  0
INSERT
  5
5C4
  8
0
  6
CONTINUOUS
  2
*X9
 10
0.0
 20
0.0
 30
0.0
1001
GRADIENTCOLOR1ACI
1070
     5
1001
GRADIENTCOLOR2ACI
1070
     2
1001
ACAD
1000
HATCH
1002
{
1070
    19
1000
ANSI31
1040
12.0
1040
-0.7853981633974485
1000
ASC_BOUNDS
1070
     1
1070
     1
1070
     4
1005
4B0
1005
4B1
1005
4AE
1005
4AF
1000
ASC_SEEDPOINT
1011
188.73474930339509
1021
0.0
1031
0.0
1021
164.75213947260309
1031
0.0
1000
R14_HATCH_DATA
1000
5C4
1011
1.0
1021
0.0
1031
0.0
1021
0.0
1031
0.0
1011
0.0
1021
0.0
1031
0.0
1021
1.0
1031
0.0
1011
0.0
1021
0.0
1031
0.0
1021
0.0
1031
1.0
1040
0.0
1010
0.0
1020
0.0
1030
1.0
1000
ANSI31
1070
     0
1070
     1
1071
        1
1071
        7
1070
     0
1070
     1
1071
        4
1040
111.8344008937943
1040
176.89749386645201
1040
111.8344008937941
1040
130.89749386645201
1040
216.0844008937942
1040
130.89749386645181
1040
216.0844008937942
1040
176.89749386645161
1071
        4
1005
4AF
1005
4AE
1005
4B1
1005
4B0
1070
     1
1070
     1
1040
-0.7853981633974485
1040
12.0
1070
     0
1070
     1
1040
6.2831853071795853
1040
-27.19686722403468
1040
178.52249385200091
1040
0.0000000000000005
1040
1.5
1070
     0
1040
0.1433268844722773
1071
        1
1040
188.73474930339509
1040
164.75213947260309
1040
0.0
1002
}
  0
ENDSEC
  0
EOF
