  0
SECTION
  2
HEADER
  9
$ACADVER
  1
AC1009
  9
$INSBASE
 10
0.0
 20
0.0
 30
0.0
  9
$EXTMIN
 10
-0.0245491104693656
 20
-0.0193571308446963
 30
-0.0000000349181948
  9
$EXTMAX
 10
402.25535511844618
 20
198.23960764486969
 30
0.0000000814935747
  9
$LIMMIN
 10
0.0
 20
0.0
  9
$LIMMAX
 10
12.0
 20
9.0
  9
$ORTHOMODE
 70
     1
  9
$REGENMODE
 70
     1
  9
$FILLMODE
 70
     1
  9
$QTEXTMODE
 70
     0
  9
$MIRRTEXT
 70
     0
  9
$DRAGMODE
 70
     2
  9
$LTSCALE
 40
1.0
  9
$OSMODE
 70
    37
  9
$ATTMODE
 70
     1
  9
$TEXTSIZE
 40
0.2
  9
$TRACEWID
 40
0.05
  9
$TEXTSTYLE
  7
ROMANS
  9
$CLAYER
  8
0
  9
$CELTYPE
  6
BYLAYER
  9
$CECOLOR
 62
   256
  9
$DIMSCALE
 40
1.0
  9
$DIMASZ
 40
0.09375
  9
$DIMEXO
 40
0.0625
  9
$DIMDLI
 40
0.375
  9
$DIMRND
 40
0.0
  9
$DIMDLE
 40
0.0
  9
$DIMEXE
 40
0.03125
  9
$DIMTP
 40
0.0
  9
$DIMTM
 40
0.0
  9
$DIMTXT
 40
0.09375
  9
$DIMCEN
 40
0.09375
  9
$DIMTSZ
 40
0.0
  9
$DIMTOL
 70
     0
  9
$DIMLIM
 70
     0
  9
$DIMTIH
 70
     0
  9
$DIMTOH
 70
     0
  9
$DIMSE1
 70
     0
  9
$DIMSE2
 70
     0
  9
$DIMTAD
 70
     0
  9
$DIMZIN
 70
     0
  9
$DIMBLK
  1

  9
$DIMASO
 70
     1
  9
$DIMSHO
 70
     1
  9
$DIMPOST
  1

  9
$DIMAPOST
  1

  9
$DIMALT
 70
     0
  9
$DIMALTD
 70
     2
  9
$DIMALTF
 40
25.399999999999999
  9
$DIMLFAC
 40
1.0
  9
$DIMTOFL
 70
     0
  9
$DIMTVP
 40
0.0
  9
$DIMTIX
 70
     0
  9
$DIMSOXD
 70
     0
  9
$DIMSAH
 70
     0
  9
$DIMBLK1
  1

  9
$DIMBLK2
  1

  9
$DIMSTYLE
  2
BAC
  9
$DIMCLRD
 70
     0
  9
$DIMCLRE
 70
     6
  9
$DIMCLRT
 70
     0
  9
$DIMTFAC
 40
1.0
  9
$DIMGAP
 40
0.0625
  9
$LUNITS
 70
     5
  9
$LUPREC
 70
     6
  9
$SKETCHINC
 40
0.1
  9
$FILLETRAD
 40
0.0
  9
$AUNITS
 70
     0
  9
$AUPREC
 70
     0
  9
$MENU
  1
.
  9
$ELEVATION
 40
0.0
  9
$PELEVATION
 40
0.0
  9
$THICKNESS
 40
0.0
  9
$LIMCHECK
 70
     0
  9
$BLIPMODE
 70
     0
  9
$CHAMFERA
 40
0.5
  9
$CHAMFERB
 40
0.5
  9
$SKPOLY
 70
     0
  9
$TDCREATE
 40
2456827.5518537378
  9
$TDUPDATE
 40
2456827.5667837271
  9
$TDINDWG
 40
0.0031358912
  9
$TDUSRTIMER
 40
0.0031355208
  9
$USRTIMER
 70
     1
  9
$ANGBASE
 50
0.0
  9
$ANGDIR
 70
     0
  9
$PDMODE
 70
     0
  9
$PDSIZE
 40
0.0
  9
$PLINEWID
 40
0.0
  9
$COORDS
 70
     1
  9
$SPLFRAME
 70
     0
  9
$SPLINETYPE
 70
     6
  9
$SPLINESEGS
 70
     8
  9
$ATTDIA
 70
     0
  9
$ATTREQ
 70
     1
  9
$HANDLING
 70
     1
  9
$HANDSEED
  5
C53
  9
$SURFTAB1
 70
     6
  9
$SURFTAB2
 70
     6
  9
$SURFTYPE
 70
     6
  9
$SURFU
 70
     6
  9
$SURFV
 70
     6
  9
$UCSNAME
  2

  9
$UCSORG
 10
0.0
 20
0.0
 30
0.0
  9
$UCSXDIR
 10
1.0
 20
0.0
 30
0.0
  9
$UCSYDIR
 10
0.0
 20
1.0
 30
0.0
  9
$PUCSNAME
  2

  9
$PUCSORG
 10
0.0
 20
0.0
 30
0.0
  9
$PUCSXDIR
 10
1.0
 20
0.0
 30
0.0
  9
$PUCSYDIR
 10
0.0
 20
1.0
 30
0.0
  9
$USERI1
 70
     0
  9
$USERI2
 70
     0
  9
$USERI3
 70
     0
  9
$USERI4
 70
     0
  9
$USERI5
 70
     0
  9
$USERR1
 40
0.0
  9
$USERR2
 40
0.0
  9
$USERR3
 40
0.0
  9
$USERR4
 40
0.0
  9
$USERR5
 40
0.0
  9
$WORLDVIEW
 70
     1
  9
$SHADEDGE
 70
     3
  9
$SHADEDIF
 70
    70
  9
$TILEMODE
 70
     1
  9
$MAXACTVP
 70
    48
  9
$PLIMCHECK
 70
     0
  9
$PEXTMIN
 10
1.0000000000000000E+020
 20
1.0000000000000000E+020
 30
1.0000000000000000E+020
  9
$PEXTMAX
 10
-1.0000000000000000E+020
 20
-1.0000000000000000E+020
 30
-1.0000000000000000E+020
  9
$PLIMMIN
 10
0.0
 20
0.0
  9
$PLIMMAX
 10
12.0
 20
9.0
  9
$UNITMODE
 70
     0
  9
$VISRETAIN
 70
     1
  9
$PLINEGEN
 70
     0
  9
$PSLTSCALE
 70
     1
  0
ENDSEC
  0
SECTION
  2
TABLES
  0
TABLE
  2
VPORT
 70
     1
  0
VPORT
  2
*ACTIVE
 70
     0
 10
0.0
 20
0.0
 11
1.0
 21
1.0
 12
201.1154030039884
 22
99.110125257012498
 13
0.0
 23
0.0
 14
0.5
 24
0.5
 15
0.5
 25
0.5
 16
0.0
 26
0.0
 36
1.0
 17
0.0
 27
0.0
 37
0.0
 40
228.09789727955069
 41
1.7702552719200879
 42
50.0
 43
0.0
 44
0.0
 50
0.0
 51
0.0
 71
     0
 72
   100
 73
     1
 74
     1
 75
     0
 76
     0
 77
     0
 78
     0
  0
ENDTAB
  0
TABLE
  2
LTYPE
 70
    10
  0
LTYPE
  2
CONTINUOUS
 70
     0
  3
Solid line
 72
    65
 73
     0
 40
0.0
  0
LTYPE
  2
PHANTOM2
 70
     0
  3
Phantom (.5x) ___ _ _ ___ _ _ ___ _ _ ___ _ _
 72
    65
 73
     6
 40
1.25
 49
0.625
 49
-0.125
 49
0.125
 49
-0.125
 49
0.125
 49
-0.125
  0
LTYPE
  2
CENTER
 70
     0
  3
Center ____ _ ____ _ ____ _ ____ _ ____ _ ____
 72
    65
 73
     4
 40
2.0
 49
1.25
 49
-0.25
 49
0.25
 49
-0.25
  0
LTYPE
  2
CENTER2
 70
     0
  3
Center (.5x) ___ _ ___ _ ___ _ ___ _ ___ _ ___
 72
    65
 73
     4
 40
1.125
 49
0.75
 49
-0.125
 49
0.125
 49
-0.125
  0
LTYPE
  2
HIDDEN
 70
     0
  3
Hidden __ __ __ __ __ __ __ __ __ __ __ __ __ _
 72
    65
 73
     2
 40
0.375
 49
0.25
 49
-0.125
  0
LTYPE
  2
HIDDEN2
 70
     0
  3
Hidden (.5x) _ _ _ _ _ _ _ _ _ _ _ _ _ _ _ _ _
 72
    65
 73
     2
 40
0.1875
 49
0.125
 49
-0.0625
  0
LTYPE
  2
AMCONSTR
 70
     0
  3
_______________________
 72
    65
 73
     2
 40
9999.0
 49
9999.0
 49
0.0
  0
LTYPE
  2
AMZIGZAG2
 70
     0
  3
/\/-/\/-/\/-/\/-/\/-/\/
 72
    65
 73
     2
 40
0.4401
 49
0.0001
 49
-0.4400000000000002
  0
LTYPE
  2
ACANSTGB
 70
     0
  3
__ . . __ . .
 72
    65
 73
     6
 40
0.35433070866
 49
0.15748031496
 49
-0.03937007874
 49
0.03937007874
 49
-0.03937007874
 49
0.03937007874
 49
-0.03937007874
  0
LTYPE
  2
ACANSTGL
 70
     0
  3
_ _ _ _ _
 72
    65
 73
     2
 40
0.11811023622
 49
0.07874015748
 49
-0.03937007874
  0
ENDTAB
  0
TABLE
  2
LAYER
 70
     1
  0
LAYER
  2
0
 70
     0
 62
     7
  6
CONTINUOUS
  0
ENDTAB
  0
TABLE
  2
STYLE
 70
     5
  0
STYLE
  2
STANDARD
 70
     0
 40
0.0
 41
1.0
 50
0.0
 71
     0
 42
0.2
  3
txt
  4

  0
STYLE
  2
ANNOTATIVE
 70
     0
 40
0.0
 41
1.0
 50
0.0
 71
     0
 42
0.2
  3
txt
  4

  0
STYLE
  2
ROMANS
 70
     0
 40
0.0
 41
0.75
 50
0.0
 71
     0
 42
0.2
  3
romans.shx
  4

  0
STYLE
  2

 70
     1
 40
0.0
 41
1.0
 50
0.0
 71
     0
 42
0.2
  3
genltshp.shx
  4

  0
STYLE
  2
ACANSGDT
 70
     0
 40
0.0
 41
1.0
 50
0.0
 71
     0
 42
0.2
  3
amgdt.shx
  4

  0
ENDTAB
  0
TABLE
  2
VIEW
 70
     0
  0
ENDTAB
  0
TABLE
  2
UCS
 70
     0
  0
ENDTAB
  0
TABLE
  2
APPID
 70
    16
  0
APPID
  2
ACAD
 70
     0
  0
APPID
  2
ACADANNOTATIVE
 70
     0
  0
APPID
  2
ACAD_MLEADERVER
 70
     0
  0
APPID
  2
ACAD_DSTYLE_DIMJAG
 70
     0
  0
APPID
  2
ACAD_DSTYLE_DIMTALN
 70
     0
  0
APPID
  2
ACAD_PSEXT
 70
     0
  0
APPID
  2
ACADANNOPO
 70
     0
  0
APPID
  2
MCAD_NO_VIS
 70
     0
  0
APPID
  2
ACAD_TEMP_GRAPHIC
 70
     0
  0
APPID
  2
ACATTRIBSERVICES
 70
     0
  0
APPID
  2
DESIGNERASSEMBLIES
 70
     0
  0
APPID
  2
ACAD_DSTYLE_DIMBREAK
 70
     0
  0
APPID
  2
ACAD_NAV_VCDISPLAY
 70
     0
  0
APPID
  2
GRADIENTCOLOR1ACI
 70
     0
  0
APPID
  2
GRADIENTCOLOR2ACI
 70
     0
  0
APPID
  2
ACAD_EXEMPT_FROM_CAD_STANDARDS
 70
     0
  0
ENDTAB
  0
TABLE
  2
DIMSTYLE
 70
     9
  0
DIMSTYLE
  2
STANDARD
 70
     0
  3

  4

  5

  6

  7

 40
1.0
 41
0.18
 42
0.0625
 43
0.38
 44
0.18
 45
0.0
 46
0.0
 47
0.0
 48
0.0
140
0.18
141
0.09
142
0.0
143
25.399999999999999
144
1.0
145
0.0
146
1.0
147
0.09
 71
     0
 72
     0
 73
     1
 74
     1
 75
     0
 76
     0
 77
     0
 78
     0
170
     0
171
     2
172
     0
173
     0
174
     0
175
     0
176
     0
177
     0
178
     0
  0
DIMSTYLE
  2
ANNOTATIVE
 70
     0
  3

  4

  5

  6

  7

 40
1.0
 41
0.18
 42
0.0625
 43
0.38
 44
0.18
 45
0.0
 46
0.0
 47
0.0
 48
0.0
140
0.18
141
0.09
142
0.0
143
25.399999999999999
144
1.0
145
0.0
146
1.0
147
0.09
 71
     0
 72
     0
 73
     1
 74
     1
 75
     0
 76
     0
 77
     0
 78
     0
170
     0
171
     2
172
     0
173
     0
174
     0
175
     0
176
     0
177
     0
178
     0
  0
DIMSTYLE
  2
BAC
 70
     0
  3

  4

  5

  6

  7

 40
1.0
 41
0.09375
 42
0.0625
 43
0.375
 44
0.03125
 45
0.0
 46
0.0
 47
0.0
 48
0.0
140
0.09375
141
0.09375
142
0.0
143
25.399999999999999
144
1.0
145
0.0
146
1.0
147
0.0625
 71
     0
 72
     0
 73
     0
 74
     0
 75
     0
 76
     0
 77
     0
 78
     0
170
     0
171
     2
172
     0
173
     0
174
     0
175
     0
176
     0
177
     6
178
     0
  0
DIMSTYLE
  2
AM_ANSI
 70
     0
  3

  4
mm
  5

  6

  7

 40
1.0
 41
0.12
 42
0.05
 43
0.5
 44
0.1
 45
0.0
 46
0.0
 47
0.1
 48
0.1
140
0.12
141
0.0
142
0.0
143
25.399999999999999
144
1.0
145
0.0
146
0.71
147
0.06
 71
     0
 72
     0
 73
     1
 74
     1
 75
     0
 76
     0
 77
     0
 78
     7
170
     0
171
     2
172
     0
173
     0
174
     0
175
     0
176
   256
177
   256
178
     2
  0
DIMSTYLE
  2
AM_ANSI$3
 70
     0
  3

  4
mm
  5

  6

  7

 40
1.0
 41
0.12
 42
0.05
 43
0.5
 44
0.1
 45
0.0
 46
0.0
 47
0.1
 48
0.1
140
0.12
141
0.0
142
0.0
143
25.399999999999999
144
1.0
145
0.0
146
0.71
147
0.06
 71
     0
 72
     0
 73
     1
 74
     1
 75
     0
 76
     0
 77
     0
 78
     7
170
     0
171
     2
172
     0
173
     0
174
     0
175
     0
176
   256
177
   256
178
     2
  0
DIMSTYLE
  2
AM_ANSI$4
 70
     0
  3

  4
mm
  5

  6

  7

 40
1.0
 41
0.12
 42
0.05
 43
0.5
 44
0.1
 45
0.0
 46
0.0
 47
0.1
 48
0.1
140
0.12
141
0.0
142
0.0
143
25.399999999999999
144
1.0
145
0.0
146
0.71
147
0.06
 71
     0
 72
     0
 73
     1
 74
     1
 75
     0
 76
     0
 77
     0
 78
     7
170
     0
171
     2
172
     0
173
     0
174
     0
175
     0
176
   256
177
   256
178
     2
  0
DIMSTYLE
  2
AM_ANSI$7
 70
     0
  3

  4
mm
  5

  6

  7

 40
1.0
 41
0.12
 42
0.05
 43
0.5
 44
0.1
 45
0.0
 46
0.0
 47
0.1
 48
0.1
140
0.12
141
0.0
142
0.0
143
25.399999999999999
144
1.0
145
0.0
146
0.71
147
0.06
 71
     0
 72
     0
 73
     1
 74
     1
 75
     0
 76
     0
 77
     0
 78
     7
170
     0
171
     2
172
     0
173
     0
174
     0
175
     0
176
   256
177
   256
178
     2
  0
DIMSTYLE
  2
AM_ANSI$SF
 70
     0
  3

  4
mm
  5

  6

  7

 40
1.0
 41
0.12
 42
0.05
 43
0.5
 44
0.1
 45
0.0
 46
0.0
 47
0.1
 48
0.1
140
0.12
141
0.0
142
0.0
143
25.399999999999999
144
1.0
145
0.0
146
0.71
147
0.06
 71
     0
 72
     0
 73
     1
 74
     1
 75
     1
 76
     1
 77
     0
 78
     7
170
     0
171
     2
172
     0
173
     0
174
     0
175
     0
176
   256
177
   256
178
     2
  0
DIMSTYLE
  2
AM_ANSI$SH
 70
     0
  3

  4
mm
  5

  6

  7

 40
1.0
 41
0.12
 42
0.05
 43
0.5
 44
0.1
 45
0.0
 46
0.0
 47
0.1
 48
0.1
140
0.12
141
0.0
142
0.0
143
25.399999999999999
144
1.0
145
0.0
146
0.71
147
0.06
 71
     0
 72
     0
 73
     1
 74
     1
 75
     1
 76
     1
 77
     0
 78
     7
170
     0
171
     2
172
     0
173
     1
174
     0
175
     0
176
   256
177
   256
178
     2
  0
ENDTAB
  0
ENDSEC
  0
SECTION
  2
BLOCKS
  0
BLOCK
  8
0
  2
$MODEL_SPACE
 70
     0
 10
0.0
 20
0.0
 30
0.0
  3
$MODEL_SPACE
  1

  0
ENDBLK
  5
ABD
  8
0
  0
BLOCK
 67
     1
  8
0
  2
$PAPER_SPACE
 70
     0
 10
0.0
 20
0.0
 30
0.0
  3
$PAPER_SPACE
  1

  0
ENDBLK
  5
AB9
 67
     1
  8
0
  0
BLOCK
  8
0
  2
*U2
 70
     1
 10
0.0
 20
0.0
 30
0.0
  3
*U2
  1

  0
ENDBLK
  5
17A
  8
0
  0
BLOCK
  8
0
  2
GENAXEH
 70
     0
 10
0.0
 20
0.0
 30
0.0
  3
GENAXEH
  1

  0
LINE
  5
1AD
  8
0
 10
-1.0
 20
0.0
 30
0.0
 11
1.0
 21
0.0
 31
0.0
  0
ENDBLK
  5
1AF
  8
0
  0
BLOCK
  8
0
  2
*X5
 70
     1
 10
0.0
 20
0.0
 30
0.0
  3
*X5
  1

  0
LINE
  5
977
  8
0
 62
     0
 10
274.6595946572952
 20
58.387699281568707
 30
0.0
 11
270.34710050995159
 21
62.7001934289122
 31
0.0
  0
LINE
  5
978
  8
0
 62
     0
 10
276.93214373687078
 20
53.993829858433458
 30
0.0
 11
265.9532310868164
 21
64.972742508487784
 31
0.0
  0
LINE
  5
979
  8
0
 62
     0
 10
277.7997152775863
 20
51.004937974158253
 30
0.0
 11
263.07662786384589
 21
65.72802538789864
 31
0.0
  0
LINE
  5
97A
  8
0
 62
     0
 10
278.60080737893651
 20
48.082525529248372
 30
0.0
 11
260.69851432990868
 21
65.984818578276276
 31
0.0
  0
LINE
  5
97B
  8
0
 62
     0
 10
279.40189948028677
 20
45.160113084338448
 30
0.0
 11
258.61247811349068
 21
65.949534451134568
 31
0.0
  0
LINE
  5
97C
  8
0
 62
     0
 10
280.20299158163709
 20
42.237700639428603
 30
0.0
 11
256.73233217230018
 21
65.708360048765442
 31
0.0
  0
LINE
  5
97D
  8
0
 62
     0
 10
281.0040836829873
 20
39.315288194518693
 30
0.0
 11
255.0124922309563
 21
65.306879646549746
 31
0.0
  0
LINE
  5
97E
  8
0
 62
     0
 10
281.80517578433762
 20
36.392875749608777
 30
0.0
 11
253.42572219536109
 21
64.772329338585294
 31
0.0
  0
LINE
  5
97F
  8
0
 62
     0
 10
282.60626788568788
 20
33.470463304698903
 30
0.0
 11
251.954599217843
 21
64.122131972543727
 31
0.0
  0
LINE
  5
980
  8
0
 62
     0
 10
283.40735998703809
 20
30.548050859789019
 30
0.0
 11
250.58760550737489
 21
63.36780533945219
 31
0.0
  0
LINE
  5
981
  8
0
 62
     0
 10
284.2084520883883
 20
27.62563841487912
 30
0.0
 11
249.31713162454801
 21
62.516958878719457
 31
0.0
  0
LINE
  5
982
  8
0
 62
     0
 10
285.00954418973862
 20
24.703225969969221
 30
0.0
 11
248.13839205460809
 21
61.574378105099782
 31
0.0
  0
LINE
  5
983
  8
0
 62
     0
 10
285.81063629108883
 20
21.78081352505933
 30
0.0
 11
247.04883316363831
 21
60.542616652509892
 31
0.0
  0
LINE
  5
984
  8
0
 62
     0
 10
286.61172839243909
 20
18.858401080149431
 30
0.0
 11
246.04784455795169
 21
59.422284914636869
 31
0.0
  0
LINE
  5
985
  8
0
 62
     0
 10
287.41282049378941
 20
15.935988635239511
 30
0.0
 11
245.13669283964819
 21
58.212116289380731
 31
0.0
  0
LINE
  5
986
  8
0
 62
     0
 10
287.95405854969079
 20
13.2734302357785
 30
0.0
 11
244.3186602443464
 21
56.90882854112283
 31
0.0
  0
LINE
  5
987
  8
0
 62
     0
 10
287.76098718252689
 20
11.3451812593828
 30
0.0
 11
243.599425280129
 21
55.506743161780562
 31
0.0
  0
LINE
  5
988
  8
0
 62
     0
 10
287.18505016638198
 20
9.7997979319678716
 30
0.0
 11
242.98779622975809
 21
53.997051868591761
 31
0.0
  0
LINE
  5
989
  8
0
 62
     0
 10
286.3405251022462
 20
8.5230026525441378
 30
0.0
 11
242.4970460978908
 21
52.366481656899538
 31
0.0
  0
LINE
  5
98A
  8
0
 62
     0
 10
285.26299428052039
 20
7.4792131307102352
 30
0.0
 11
242.14740987607831
 21
50.594797535152352
 31
0.0
  0
LINE
  5
98B
  8
0
 62
     0
 10
283.94992761045478
 20
6.6709594572162132
 30
0.0
 11
241.97113199673259
 21
48.649755070938397
 31
0.0
  0
LINE
  5
98C
  8
0
 62
     0
 10
282.35835229859589
 20
6.1412144255154129
 30
0.0
 11
242.0240761998088
 21
46.475490524302572
 31
0.0
  0
LINE
  5
98D
  8
0
 62
     0
 10
280.35182951132288
 20
6.0264168692287949
 30
0.0
 11
242.41875372488309
 21
43.959492655668591
 31
0.0
  0
LINE
  5
98E
  8
0
 62
     0
 10
277.09076072023288
 20
7.1661653167590202
 30
0.0
 11
243.46616240681951
 21
40.790763630172613
 31
0.0
  0
LINE
  5
98F
  8
0
 62
     0
 10
281.8254217688135
 20
6.053777106060009
 30
0.0
 11
287.90562345314493
 21
12.13397879039152
 31
0.0
  0
LINE
  5
990
  8
0
 62
     0
 10
279.75475767590979
 20
6.1044333567158997
 30
0.0
 11
287.85496720248898
 21
14.204642883295151
 31
0.0
  0
LINE
  5
991
  8
0
 62
     0
 10
278.12744105887691
 20
6.5984370832425707
 30
0.0
 11
287.42404504592508
 21
15.8950410702907
 31
0.0
  0
LINE
  5
992
  8
0
 62
     0
 10
276.7870515646789
 20
7.3793679326043078
 30
0.0
 11
286.96765431226362
 21
17.559970680188972
 31
0.0
  0
LINE
  5
993
  8
0
 62
     0
 10
275.66181946222667
 20
8.3754561737117097
 30
0.0
 11
286.5112635786021
 21
19.22490029008722
 31
0.0
  0
LINE
  5
994
  8
0
 62
     0
 10
274.57156682169642
 20
9.4065238767410317
 30
0.0
 11
286.0548728449408
 21
20.889829899985472
 31
0.0
  0
LINE
  5
995
  8
0
 62
     0
 10
273.481314181166
 20
10.43759157977035
 30
0.0
 11
285.5984821112794
 21
22.554759509883731
 31
0.0
  0
LINE
  5
996
  8
0
 62
     0
 10
272.39106154063569
 20
11.468659282799679
 30
0.0
 11
285.1420913776181
 21
24.219689119781972
 31
0.0
  0
LINE
  5
997
  8
0
 62
     0
 10
271.30080890010538
 20
12.499726985828939
 30
0.0
 11
284.68570064395658
 21
25.88461872968017
 31
0.0
  0
LINE
  5
998
  8
0
 62
     0
 10
270.21055625957518
 20
13.53079468885829
 30
0.0
 11
284.22930991029529
 21
27.549548339578418
 31
0.0
  0
LINE
  5
999
  8
0
 62
     0
 10
269.12030361904471
 20
14.561862391887569
 30
0.0
 11
283.77291917663382
 21
29.21447794947667
 31
0.0
  0
LINE
  5
99A
  8
0
 62
     0
 10
268.0300509785144
 20
15.592930094916889
 30
0.0
 11
283.3165284429723
 21
30.879407559374911
 31
0.0
  0
LINE
  5
99B
  8
0
 62
     0
 10
266.93979833798397
 20
16.623997797946231
 30
0.0
 11
282.86013770931089
 21
32.544337169273149
 31
0.0
  0
LINE
  5
99C
  8
0
 62
     0
 10
265.84954569745372
 20
17.655065500975478
 30
0.0
 11
282.40374697564971
 21
34.209266779171386
 31
0.0
  0
LINE
  5
99D
  8
0
 62
     0
 10
264.75929305692341
 20
18.6861332040048
 30
0.0
 11
281.94735624198819
 21
35.874196389069638
 31
0.0
  0
LINE
  5
99E
  8
0
 62
     0
 10
263.66904041639299
 20
19.71720090703414
 30
0.0
 11
281.49096550832678
 21
37.539125998967883
 31
0.0
  0
LINE
  5
99F
  8
0
 62
     0
 10
262.57878777586268
 20
20.748268610063452
 30
0.0
 11
281.03457477466537
 21
39.204055608866142
 31
0.0
  0
LINE
  5
9A0
  8
0
 62
     0
 10
261.48853513533243
 20
21.77933631309277
 30
0.0
 11
280.57818404100402
 21
40.868985218764351
 31
0.0
  0
LINE
  5
9A1
  8
0
 62
     0
 10
260.39828249480212
 20
22.81040401612205
 30
0.0
 11
280.12179330734261
 21
42.533914828662603
 31
0.0
  0
LINE
  5
9A2
  8
0
 62
     0
 10
259.30802985427169
 20
23.841471719151372
 30
0.0
 11
279.66540257368121
 21
44.19884443856084
 31
0.0
  0
LINE
  5
9A3
  8
0
 62
     0
 10
258.21777721374139
 20
24.872539422180679
 30
0.0
 11
279.2090118400198
 21
45.863774048459092
 31
0.0
  0
LINE
  5
9A4
  8
0
 62
     0
 10
257.12752457321108
 20
25.903607125210002
 30
0.0
 11
278.75262110635839
 21
47.528703658357323
 31
0.0
  0
LINE
  5
9A5
  8
0
 62
     0
 10
256.03727193268071
 20
26.934674828239309
 30
0.0
 11
278.29623037269693
 21
49.193633268255567
 31
0.0
  0
LINE
  5
9A6
  8
0
 62
     0
 10
254.9470192921504
 20
27.96574253126866
 30
0.0
 11
277.83983963903557
 21
50.858562878153819
 31
0.0
  0
LINE
  5
9A7
  8
0
 62
     0
 10
253.85676665162009
 20
28.996810234297929
 30
0.0
 11
277.38344890537428
 21
52.523492488052071
 31
0.0
  0
LINE
  5
9A8
  8
0
 62
     0
 10
252.7665140110897
 20
30.027877937327212
 30
0.0
 11
276.87950070175452
 21
54.140864627992002
 31
0.0
  0
LINE
  5
9A9
  8
0
 62
     0
 10
251.67626137055939
 20
31.058945640356541
 30
0.0
 11
276.25749049085982
 21
55.640174760656947
 31
0.0
  0
LINE
  5
9AA
  8
0
 62
     0
 10
250.58600873002911
 20
32.090013343385863
 30
0.0
 11
275.52884565119177
 21
57.032850264548543
 31
0.0
  0
LINE
  5
9AB
  8
0
 62
     0
 10
249.4957560894988
 20
33.121081046415171
 30
0.0
 11
274.70204235979139
 21
58.327367316707878
 31
0.0
  0
LINE
  5
9AC
  8
0
 62
     0
 10
248.4055034489684
 20
34.152148749444478
 30
0.0
 11
273.78251443708552
 21
59.529159737561599
 31
0.0
  0
LINE
  5
9AD
  8
0
 62
     0
 10
247.31808808480619
 20
35.18605372884187
 30
0.0
 11
272.77334683036321
 21
60.64131247439893
 31
0.0
  0
LINE
  5
9AE
  8
0
 62
     0
 10
246.29448383408209
 20
36.283769821677467
 30
0.0
 11
271.67563073752763
 21
61.664916725122978
 31
0.0
  0
LINE
  5
9AF
  8
0
 62
     0
 10
245.36021152098621
 20
37.47081785214116
 30
0.0
 11
270.48858270706398
 21
62.59918903821891
 31
0.0
  0
LINE
  5
9B0
  8
0
 62
     0
 10
244.51801441583629
 20
38.749941090550927
 30
0.0
 11
269.20945946865407
 21
63.441386143368788
 31
0.0
  0
LINE
  5
9B1
  8
0
 62
     0
 10
243.7729076202898
 20
40.126154638564088
 30
0.0
 11
267.83324592064099
 21
64.186492938915265
 31
0.0
  0
LINE
  5
9B2
  8
0
 62
     0
 10
243.13280528458071
 20
41.607372646414653
 30
0.0
 11
266.35202791279039
 21
64.826595274624367
 31
0.0
  0
LINE
  5
9B3
  8
0
 62
     0
 10
242.60966629236719
 20
43.205553997760752
 30
0.0
 11
264.75384656144428
 21
65.349734266837899
 31
0.0
  0
LINE
  5
9B4
  8
0
 62
     0
 10
242.2216114106684
 20
44.938819459621598
 30
0.0
 11
263.02058109958352
 21
65.737789148536692
 31
0.0
  0
LINE
  5
9B5
  8
0
 62
     0
 10
241.99710036233029
 20
46.835628754843142
 30
0.0
 11
261.12377180436198
 21
65.96230019687485
 31
0.0
  0
LINE
  5
9B6
  8
0
 62
     0
 10
241.98417286799901
 20
48.944021604071509
 30
0.0
 11
259.01537895513349
 21
65.975227691206044
 31
0.0
  0
LINE
  5
9B7
  8
0
 62
     0
 10
242.27506658596519
 20
51.356235665597318
 30
0.0
 11
256.6031648936077
 21
65.684333973239873
 31
0.0
  0
LINE
  5
9B8
  8
0
 62
     0
 10
243.09814256960181
 20
54.300631992793598
 30
0.0
 11
253.65876856641151
 21
64.861257989603217
 31
0.0
  0
LINE
  5
9B9
  8
0
 62
     0
 10
245.83799458399631
 20
59.161804350747751
 30
0.0
 11
248.79759620845729
 21
62.12140597520871
 31
0.0
  0
ENDBLK
  5
9BB
  8
0
  0
BLOCK
  8
0
  2
*X6
 70
     1
 10
0.0
 20
0.0
 30
0.0
  3
*X6
  1

  0
LINE
  5
9BD
  8
0
 62
     0
 10
401.74581373664591
 20
64.944661846475412
 30
0.0
 11
400.75195504359073
 21
65.938520539530629
 31
0.0
  0
LINE
  5
9BE
  8
0
 62
     0
 10
401.74581373664591
 20
62.823341502915781
 30
0.0
 11
398.63063470003112
 21
65.938520539530657
 31
0.0
  0
LINE
  5
9BF
  8
0
 62
     0
 10
401.74581373664591
 20
60.702021159356143
 30
0.0
 11
396.50931435647141
 21
65.938520539530657
 31
0.0
  0
LINE
  5
9C0
  8
0
 62
     0
 10
401.74581373664591
 20
58.58070081579649
 30
0.0
 11
394.38799401291192
 21
65.938520539530657
 31
0.0
  0
LINE
  5
9C1
  8
0
 62
     0
 10
401.74581373664591
 20
56.459380472236823
 30
0.0
 11
394.23080227624649
 21
63.974391932636173
 31
0.0
  0
LINE
  5
9C2
  8
0
 62
     0
 10
401.74581373664591
 20
54.338060128677192
 30
0.0
 11
394.23080227624649
 21
61.853071589076563
 31
0.0
  0
LINE
  5
9C3
  8
0
 62
     0
 10
401.74581373664591
 20
52.216739785117561
 30
0.0
 11
394.23080227624649
 21
59.731751245516911
 31
0.0
  0
LINE
  5
9C4
  8
0
 62
     0
 10
401.74581373664591
 20
50.095419441557901
 30
0.0
 11
394.23080227624649
 21
57.610430901957237
 31
0.0
  0
LINE
  5
9C5
  8
0
 62
     0
 10
401.74581373664591
 20
47.97409909799827
 30
0.0
 11
394.23080227624649
 21
55.489110558397599
 31
0.0
  0
LINE
  5
9C6
  8
0
 62
     0
 10
401.74581373664591
 20
45.85277875443866
 30
0.0
 11
394.23080227624649
 21
53.367790214837981
 31
0.0
  0
LINE
  5
9C7
  8
0
 62
     0
 10
401.74581373664591
 20
43.731458410878972
 30
0.0
 11
394.23080227624649
 21
51.246469871278322
 31
0.0
  0
LINE
  5
9C8
  8
0
 62
     0
 10
401.74581373664591
 20
41.610138067319347
 30
0.0
 11
394.23080227624672
 21
49.125149527718612
 31
0.0
  0
LINE
  5
9C9
  8
0
 62
     0
 10
401.74581373664591
 20
39.488817723759752
 30
0.0
 11
394.23080227624689
 21
47.003829184158683
 31
0.0
  0
LINE
  5
9CA
  8
0
 62
     0
 10
401.74581373664591
 20
37.367497380200092
 30
0.0
 11
394.230802276247
 21
44.882508840599002
 31
0.0
  0
LINE
  5
9CB
  8
0
 62
     0
 10
401.74581373664591
 20
35.246177036640439
 30
0.0
 11
394.230802276247
 21
42.761188497039342
 31
0.0
  0
LINE
  5
9CC
  8
0
 62
     0
 10
401.74581373664591
 20
33.124856693080801
 30
0.0
 11
394.230802276247
 21
40.639868153479711
 31
0.0
  0
LINE
  5
9CD
  8
0
 62
     0
 10
401.74581373664591
 20
31.00353634952117
 30
0.0
 11
394.230802276247
 21
38.518547809920051
 31
0.0
  0
LINE
  5
9CE
  8
0
 62
     0
 10
400.56655095131691
 20
30.061478791290511
 30
0.0
 11
394.230802276247
 21
36.39722746636042
 31
0.0
  0
LINE
  5
9CF
  8
0
 62
     0
 10
398.44523060775731
 20
30.061478791290511
 30
0.0
 11
394.230802276247
 21
34.275907122800788
 31
0.0
  0
LINE
  5
9D0
  8
0
 62
     0
 10
360.98080227624649
 20
65.404586779241583
 30
0.0
 11
360.44686851595748
 21
65.938520539530685
 31
0.0
  0
LINE
  5
9D1
  8
0
 62
     0
 10
396.32391026419759
 20
30.06147879129054
 30
0.0
 11
394.230802276247
 21
32.154586779241171
 31
0.0
  0
LINE
  5
9D2
  8
0
 62
     0
 10
360.98080227624649
 20
63.283266435681931
 30
0.0
 11
358.32554817239782
 21
65.938520539530657
 31
0.0
  0
LINE
  5
9D3
  8
0
 62
     0
 10
360.98080227624649
 20
61.161946092122292
 30
0.0
 11
356.20422782883821
 21
65.938520539530629
 31
0.0
  0
LINE
  5
9D4
  8
0
 62
     0
 10
360.98080227624649
 20
59.040625748562661
 30
0.0
 11
354.08290748527861
 21
65.938520539530657
 31
0.0
  0
LINE
  5
9D5
  8
0
 62
     0
 10
360.98080227624649
 20
56.919305405003001
 30
0.0
 11
353.47614505302261
 21
64.423962628227073
 31
0.0
  0
LINE
  5
9D6
  8
0
 62
     0
 10
360.98080227624689
 20
54.797985061443043
 30
0.0
 11
353.47614505302261
 21
62.3026422846674
 31
0.0
  0
LINE
  5
9D7
  8
0
 62
     0
 10
360.980802276247
 20
52.676664717883277
 30
0.0
 11
353.47614505302261
 21
60.181321941107797
 31
0.0
  0
LINE
  5
9D8
  8
0
 62
     0
 10
360.980802276247
 20
50.555344374323617
 30
0.0
 11
353.47614505302261
 21
58.060001597548123
 31
0.0
  0
LINE
  5
9D9
  8
0
 62
     0
 10
360.980802276247
 20
48.434024030763958
 30
0.0
 11
353.47614505302261
 21
55.938681253988477
 31
0.0
  0
LINE
  5
9DA
  8
0
 62
     0
 10
360.980802276247
 20
46.312703687204333
 30
0.0
 11
353.47614505302261
 21
53.817360910428867
 31
0.0
  0
LINE
  5
9DB
  8
0
 62
     0
 10
360.980802276247
 20
44.191383343644702
 30
0.0
 11
353.47614505302261
 21
51.696040566869208
 31
0.0
  0
LINE
  5
9DC
  8
0
 62
     0
 10
360.980802276247
 20
42.070063000085042
 30
0.0
 11
353.47614505302261
 21
49.574720223309541
 31
0.0
  0
LINE
  5
9DD
  8
0
 62
     0
 10
360.980802276247
 20
39.948742656525411
 30
0.0
 11
353.47614505302261
 21
47.453399879749917
 31
0.0
  0
LINE
  5
9DE
  8
0
 62
     0
 10
360.980802276247
 20
37.82742231296578
 30
0.0
 11
353.47614505302261
 21
45.332079536190292
 31
0.0
  0
LINE
  5
9DF
  8
0
 62
     0
 10
360.980802276247
 20
35.70610196940612
 30
0.0
 11
353.47614505302261
 21
43.210759192630633
 31
0.0
  0
LINE
  5
9E0
  8
0
 62
     0
 10
360.980802276247
 20
33.58478162584646
 30
0.0
 11
353.47614505302261
 21
41.089438849070959
 31
0.0
  0
LINE
  5
9E1
  8
0
 62
     0
 10
360.980802276247
 20
31.463461282286861
 30
0.0
 11
353.47614505302261
 21
38.96811850551137
 31
0.0
  0
LINE
  5
9E2
  8
0
 62
     0
 10
360.980802276247
 20
29.342140938727201
 30
0.0
 11
353.47614505302261
 21
36.84679816195171
 31
0.0
  0
LINE
  5
9E3
  8
0
 62
     0
 10
360.98080227624712
 20
27.22082059516751
 30
0.0
 11
353.47614505302261
 21
34.725477818392051
 31
0.0
  0
LINE
  5
9E4
  8
0
 62
     0
 10
360.980802276247
 20
25.09950025160791
 30
0.0
 11
353.47614505302261
 21
32.604157474832448
 31
0.0
  0
LINE
  5
9E5
  8
0
 62
     0
 10
360.980802276247
 20
22.978179908048251
 30
0.0
 11
353.47614505302261
 21
30.482837131272792
 31
0.0
  0
LINE
  5
9E6
  8
0
 62
     0
 10
360.98080227624712
 20
20.856859564488591
 30
0.0
 11
353.47614505302261
 21
28.361516787713128
 31
0.0
  0
LINE
  5
9E7
  8
0
 62
     0
 10
360.980802276247
 20
18.735539220928949
 30
0.0
 11
353.47614505302261
 21
26.240196444153469
 31
0.0
  0
LINE
  5
9E8
  8
0
 62
     0
 10
360.980802276247
 20
16.614218877369321
 30
0.0
 11
353.47614505302261
 21
24.11887610059388
 31
0.0
  0
LINE
  5
9E9
  8
0
 62
     0
 10
360.980802276247
 20
14.49289853380969
 30
0.0
 11
353.47614505302261
 21
21.99755575703421
 31
0.0
  0
LINE
  5
9EA
  8
0
 62
     0
 10
360.980802276247
 20
12.371578190250061
 30
0.0
 11
353.47614505302261
 21
19.87623541347455
 31
0.0
  0
LINE
  5
9EB
  8
0
 62
     0
 10
360.980802276247
 20
10.25025784669042
 30
0.0
 11
353.47614505302261
 21
17.75491506991494
 31
0.0
  0
LINE
  5
9EC
  8
0
 62
     0
 10
360.980802276247
 20
8.1289375031307998
 30
0.0
 11
353.47614505302261
 21
15.63359472635528
 31
0.0
  0
LINE
  5
9ED
  8
0
 62
     0
 10
360.980802276247
 20
6.0076171595711108
 30
0.0
 11
353.47614505302261
 21
13.512274382795621
 31
0.0
  0
LINE
  5
9EE
  8
0
 62
     0
 10
358.86709942684462
 20
5.9999996654139789
 30
0.0
 11
353.47614505302261
 21
11.39095403923602
 31
0.0
  0
LINE
  5
9EF
  8
0
 62
     0
 10
356.7457790832849
 20
5.9999996654139522
 30
0.0
 11
353.47614505302261
 21
9.2696336956763599
 31
0.0
  0
LINE
  5
9F0
  8
0
 62
     0
 10
354.62445873972518
 20
5.9999996654139522
 30
0.0
 11
353.47614505302261
 21
7.148313352116701
 31
0.0
  0
LINE
  5
9F1
  8
0
 62
     0
 10
401.29253891422798
 20
30.06147879129049
 30
0.0
 11
401.74581373664591
 21
30.51475361370845
 31
0.0
  0
LINE
  5
9F2
  8
0
 62
     0
 10
399.17121857066837
 20
30.061478791290511
 30
0.0
 11
401.74581373664591
 21
32.63607395726811
 31
0.0
  0
LINE
  5
9F3
  8
0
 62
     0
 10
397.04989822710883
 20
30.061478791290511
 30
0.0
 11
401.74581373664591
 21
34.757394300827677
 31
0.0
  0
LINE
  5
9F4
  8
0
 62
     0
 10
394.92857788354911
 20
30.061478791290511
 30
0.0
 11
401.74581373664591
 21
36.878714644387323
 31
0.0
  0
LINE
  5
9F5
  8
0
 62
     0
 10
394.230802276247
 20
31.485023527548091
 30
0.0
 11
401.74581373664591
 21
39.000034987947032
 31
0.0
  0
LINE
  5
9F6
  8
0
 62
     0
 10
394.230802276247
 20
33.606343871107732
 30
0.0
 11
401.74581373664591
 21
41.121355331506628
 31
0.0
  0
LINE
  5
9F7
  8
0
 62
     0
 10
394.230802276247
 20
35.727664214667371
 30
0.0
 11
401.74581373664591
 21
43.242675675066288
 31
0.0
  0
LINE
  5
9F8
  8
0
 62
     0
 10
394.230802276247
 20
37.848984558226988
 30
0.0
 11
401.74581373664591
 21
45.363996018625897
 31
0.0
  0
LINE
  5
9F9
  8
0
 62
     0
 10
394.230802276247
 20
39.970304901786648
 30
0.0
 11
401.74581373664591
 21
47.485316362185543
 31
0.0
  0
LINE
  5
9FA
  8
0
 62
     0
 10
360.26049703987428
 20
5.9999996654139522
 30
0.0
 11
360.980802276247
 21
6.7203049017866467
 31
0.0
  0
LINE
  5
9FB
  8
0
 62
     0
 10
394.230802276247
 20
42.0916252453463
 30
0.0
 11
401.74581373664591
 21
49.606636705745181
 31
0.0
  0
LINE
  5
9FC
  8
0
 62
     0
 10
358.13917669631462
 20
5.999999665413922
 30
0.0
 11
360.980802276247
 21
8.8416252453463073
 31
0.0
  0
LINE
  5
9FD
  8
0
 62
     0
 10
394.230802276247
 20
44.21294558890596
 30
0.0
 11
401.74581373664591
 21
51.727957049304877
 31
0.0
  0
LINE
  5
9FE
  8
0
 62
     0
 10
356.01785635275508
 20
5.9999996654139522
 30
0.0
 11
360.980802276247
 21
10.962945588905971
 31
0.0
  0
LINE
  5
9FF
  8
0
 62
     0
 10
394.230802276247
 20
46.334265932465598
 30
0.0
 11
401.74581373664591
 21
53.849277392864501
 31
0.0
  0
LINE
  5
A00
  8
0
 62
     0
 10
353.89653600919542
 20
5.9999996654139522
 30
0.0
 11
360.980802276247
 21
13.08426593246563
 31
0.0
  0
LINE
  5
A01
  8
0
 62
     0
 10
394.23080227624672
 20
48.455586276024931
 30
0.0
 11
401.74581373664591
 21
55.970597736424132
 31
0.0
  0
LINE
  5
A02
  8
0
 62
     0
 10
353.47614505302261
 20
7.700929052800717
 30
0.0
 11
360.980802276247
 21
15.205586276025199
 31
0.0
  0
LINE
  5
A03
  8
0
 62
     0
 10
394.23080227624649
 20
50.576906619584342
 30
0.0
 11
401.74581373664591
 21
58.091918079983799
 31
0.0
  0
LINE
  5
A04
  8
0
 62
     0
 10
353.47614505302261
 20
9.8222493963603483
 30
0.0
 11
360.980802276247
 21
17.326906619584861
 31
0.0
  0
LINE
  5
A05
  8
0
 62
     0
 10
394.23080227624649
 20
52.698226963144009
 30
0.0
 11
401.74581373664591
 21
60.213238423543459
 31
0.0
  0
LINE
  5
A06
  8
0
 62
     0
 10
353.47614505302261
 20
11.94356973992001
 30
0.0
 11
360.980802276247
 21
19.448226963144489
 31
0.0
  0
LINE
  5
A07
  8
0
 62
     0
 10
394.23080227624649
 20
54.819547306703647
 30
0.0
 11
401.74581373664591
 21
62.334558767103083
 31
0.0
  0
LINE
  5
A08
  8
0
 62
     0
 10
353.47614505302261
 20
14.06489008347967
 30
0.0
 11
360.980802276247
 21
21.569547306704148
 31
0.0
  0
LINE
  5
A09
  8
0
 62
     0
 10
394.23080227624649
 20
56.940867650263328
 30
0.0
 11
401.74581373664591
 21
64.455879110662721
 31
0.0
  0
LINE
  5
A0A
  8
0
 62
     0
 10
353.47614505302261
 20
16.186210427039299
 30
0.0
 11
360.980802276247
 21
23.69086765026378
 31
0.0
  0
LINE
  5
A0B
  8
0
 62
     0
 10
394.23080227624649
 20
59.062187993822917
 30
0.0
 11
401.10713482195428
 21
65.938520539530657
 31
0.0
  0
LINE
  5
A0C
  8
0
 62
     0
 10
353.47614505302261
 20
18.30753077059893
 30
0.0
 11
360.980802276247
 21
25.812187993823439
 31
0.0
  0
LINE
  5
A0D
  8
0
 62
     0
 10
394.23080227624649
 20
61.183508337382591
 30
0.0
 11
398.98581447839462
 21
65.938520539530657
 31
0.0
  0
LINE
  5
A0E
  8
0
 62
     0
 10
353.47614505302261
 20
20.42885111415859
 30
0.0
 11
360.980802276247
 21
27.933508337383071
 31
0.0
  0
LINE
  5
A0F
  8
0
 62
     0
 10
394.23080227624649
 20
63.30482868094218
 30
0.0
 11
396.8644941348349
 21
65.938520539530629
 31
0.0
  0
LINE
  5
A10
  8
0
 62
     0
 10
353.47614505302261
 20
22.550171457718221
 30
0.0
 11
360.980802276247
 21
30.054828680942709
 31
0.0
  0
LINE
  5
A11
  8
0
 62
     0
 10
394.23080227624649
 20
65.426149024501854
 30
0.0
 11
394.7431737912753
 21
65.938520539530657
 31
0.0
  0
LINE
  5
A12
  8
0
 62
     0
 10
353.47614505302261
 20
24.67149180127786
 30
0.0
 11
360.980802276247
 21
32.176149024502358
 31
0.0
  0
LINE
  5
A13
  8
0
 62
     0
 10
353.47614505302261
 20
26.792812144837509
 30
0.0
 11
360.980802276247
 21
34.297469368062004
 31
0.0
  0
LINE
  5
A14
  8
0
 62
     0
 10
353.47614505302261
 20
28.914132488397151
 30
0.0
 11
360.980802276247
 21
36.418789711621621
 31
0.0
  0
LINE
  5
A15
  8
0
 62
     0
 10
353.47614505302261
 20
31.035452831956771
 30
0.0
 11
360.980802276247
 21
38.540110055181287
 31
0.0
  0
LINE
  5
A16
  8
0
 62
     0
 10
353.47614505302261
 20
33.156773175516442
 30
0.0
 11
360.980802276247
 21
40.661430398740897
 31
0.0
  0
LINE
  5
A17
  8
0
 62
     0
 10
353.47614505302261
 20
35.278093519076101
 30
0.0
 11
360.980802276247
 21
42.782750742300578
 31
0.0
  0
LINE
  5
A18
  8
0
 62
     0
 10
353.47614505302261
 20
37.39941386263569
 30
0.0
 11
360.980802276247
 21
44.904071085860217
 31
0.0
  0
LINE
  5
A19
  8
0
 62
     0
 10
353.47614505302261
 20
39.520734206195357
 30
0.0
 11
360.980802276247
 21
47.025391429419862
 31
0.0
  0
LINE
  5
A1A
  8
0
 62
     0
 10
353.47614505302261
 20
41.642054549755002
 30
0.0
 11
360.980802276247
 21
49.146711772979501
 31
0.0
  0
LINE
  5
A1B
  8
0
 62
     0
 10
353.47614505302261
 20
43.763374893314641
 30
0.0
 11
360.980802276247
 21
51.268032116539132
 31
0.0
  0
LINE
  5
A1C
  8
0
 62
     0
 10
353.47614505302261
 20
45.884695236874279
 30
0.0
 11
360.980802276247
 21
53.389352460098792
 31
0.0
  0
LINE
  5
A1D
  8
0
 62
     0
 10
353.47614505302261
 20
48.006015580433939
 30
0.0
 11
360.98080227624678
 21
55.510672803658203
 31
0.0
  0
LINE
  5
A1E
  8
0
 62
     0
 10
353.47614505302261
 20
50.12733592399357
 30
0.0
 11
360.98080227624649
 21
57.631993147217592
 31
0.0
  0
LINE
  5
A1F
  8
0
 62
     0
 10
353.47614505302261
 20
52.248656267553201
 30
0.0
 11
360.98080227624649
 21
59.753313490777252
 31
0.0
  0
LINE
  5
A20
  8
0
 62
     0
 10
353.47614505302261
 20
54.369976611112861
 30
0.0
 11
360.98080227624649
 21
61.874633834336919
 31
0.0
  0
LINE
  5
A21
  8
0
 62
     0
 10
353.47614505302261
 20
56.491296954672521
 30
0.0
 11
360.98080227624649
 21
63.995954177896579
 31
0.0
  0
LINE
  5
A22
  8
0
 62
     0
 10
353.47614505302261
 20
58.612617298232117
 30
0.0
 11
360.80204829432091
 21
65.938520539530629
 31
0.0
  0
LINE
  5
A23
  8
0
 62
     0
 10
353.47614505302261
 20
60.733937641791783
 30
0.0
 11
358.68072795076142
 21
65.938520539530657
 31
0.0
  0
LINE
  5
A24
  8
0
 62
     0
 10
353.47614505302261
 20
62.855257985351429
 30
0.0
 11
356.55940760720171
 21
65.938520539530629
 31
0.0
  0
LINE
  5
A25
  8
0
 62
     0
 10
353.47614505302261
 20
64.976578328911032
 30
0.0
 11
354.4380872636421
 21
65.938520539530629
 31
0.0
  0
ENDBLK
  5
A27
  8
0
  0
BLOCK
  8
0
  2
*X8
 70
     1
 10
0.0
 20
0.0
 30
0.0
  3
*X8
  1

  0
LINE
  5
B99
  8
0
 62
     0
 10
286.7942543158905
 20
149.47589967262579
 30
0.0
 11
287.95940089379428
 21
150.64104625052951
 31
0.0
  0
LINE
  5
B9A
  8
0
 62
     0
 10
284.67293397233101
 20
149.4758996726259
 30
0.0
 11
287.95940089379422
 21
152.76236659408909
 31
0.0
  0
LINE
  5
B9B
  8
0
 62
     0
 10
282.55161362877141
 20
149.4758996726259
 30
0.0
 11
287.95940089379422
 21
154.8836869376488
 31
0.0
  0
LINE
  5
B9C
  8
0
 62
     0
 10
280.4302932852118
 20
149.47589967262601
 30
0.0
 11
287.93495050843609
 21
156.98055689585041
 31
0.0
  0
LINE
  5
B9D
  8
0
 62
     0
 10
278.3089729416522
 20
149.47589967262601
 30
0.0
 11
285.81363016487649
 21
156.9805568958503
 31
0.0
  0
LINE
  5
B9E
  8
0
 62
     0
 10
276.18765259809248
 20
149.4758996726261
 30
0.0
 11
283.6923098213166
 21
156.9805568958501
 31
0.0
  0
LINE
  5
B9F
  8
0
 62
     0
 10
274.06633225453299
 20
149.4758996726261
 30
0.0
 11
281.570989477757
 21
156.9805568958501
 31
0.0
  0
LINE
  5
BA0
  8
0
 62
     0
 10
271.94501191097328
 20
149.4758996726261
 30
0.0
 11
279.44966913419739
 21
156.9805568958501
 31
0.0
  0
LINE
  5
BA1
  8
0
 62
     0
 10
269.82369156741368
 20
149.4758996726261
 30
0.0
 11
277.32834879063768
 21
156.9805568958501
 31
0.0
  0
LINE
  5
BA2
  8
0
 62
     0
 10
267.70237122385402
 20
149.4758996726261
 30
0.0
 11
275.20702844707802
 21
156.9805568958501
 31
0.0
  0
LINE
  5
BA3
  8
0
 62
     0
 10
265.58105088029441
 20
149.4758996726261
 30
0.0
 11
273.08570810351841
 21
156.9805568958501
 31
0.0
  0
LINE
  5
BA4
  8
0
 62
     0
 10
263.45973053673458
 20
149.47589967262601
 30
0.0
 11
270.9643877599587
 21
156.9805568958501
 31
0.0
  0
LINE
  5
BA5
  8
0
 62
     0
 10
261.33841019317498
 20
149.47589967262601
 30
0.0
 11
268.84306741639909
 21
156.9805568958501
 31
0.0
  0
LINE
  5
BA6
  8
0
 62
     0
 10
259.21708984961538
 20
149.47589967262601
 30
0.0
 11
266.72174707283949
 21
156.9805568958501
 31
0.0
  0
LINE
  5
BA7
  8
0
 62
     0
 10
257.09576950605577
 20
149.4758996726261
 30
0.0
 11
264.60042672927989
 21
156.9805568958501
 31
0.0
  0
LINE
  5
BA8
  8
0
 62
     0
 10
254.97444916249609
 20
149.47589967262601
 30
0.0
 11
262.47910638572017
 21
156.9805568958501
 31
0.0
  0
LINE
  5
BA9
  8
0
 62
     0
 10
252.8531288189364
 20
149.47589967262601
 30
0.0
 11
260.35778604216051
 21
156.9805568958501
 31
0.0
  0
LINE
  5
BAA
  8
0
 62
     0
 10
250.73180847537691
 20
149.4758996726261
 30
0.0
 11
258.23646569860091
 21
156.9805568958501
 31
0.0
  0
LINE
  5
BAB
  8
0
 62
     0
 10
248.61048813181719
 20
149.4758996726261
 30
0.0
 11
256.11514535504119
 21
156.9805568958501
 31
0.0
  0
LINE
  5
BAC
  8
0
 62
     0
 10
246.48916778825759
 20
149.47589967262601
 30
0.0
 11
253.99382501148159
 21
156.9805568958501
 31
0.0
  0
LINE
  5
BAD
  8
0
 62
     0
 10
244.3678474446979
 20
149.47589967262601
 30
0.0
 11
251.87250466792199
 21
156.9805568958501
 31
0.0
  0
LINE
  5
BAE
  8
0
 62
     0
 10
242.24652710113821
 20
149.47589967262601
 30
0.0
 11
249.7511843243623
 21
156.9805568958501
 31
0.0
  0
LINE
  5
BAF
  8
0
 62
     0
 10
241.95940089379411
 20
151.3100938088416
 30
0.0
 11
247.62986398080261
 21
156.9805568958501
 31
0.0
  0
LINE
  5
BB0
  8
0
 62
     0
 10
241.9594008937942
 20
153.43141415240129
 30
0.0
 11
245.50854363724309
 21
156.9805568958501
 31
0.0
  0
LINE
  5
BB1
  8
0
 62
     0
 10
276.63722329368352
 20
190.2305568958501
 30
0.0
 11
277.95940089379422
 21
191.55273449596081
 31
0.0
  0
LINE
  5
BB2
  8
0
 62
     0
 10
241.95940089379411
 20
155.55273449596089
 30
0.0
 11
243.38722329368341
 21
156.9805568958501
 31
0.0
  0
LINE
  5
BB3
  8
0
 62
     0
 10
274.5159029501238
 20
190.2305568958501
 30
0.0
 11
277.95940089379422
 21
193.67405483952049
 31
0.0
  0
LINE
  5
BB4
  8
0
 62
     0
 10
272.3945826065642
 20
190.2305568958501
 30
0.0
 11
277.95940089379422
 21
195.79537518308021
 31
0.0
  0
LINE
  5
BB5
  8
0
 62
     0
 10
270.27326226300448
 20
190.2305568958501
 30
0.0
 11
277.7882737234039
 21
197.74556835624949
 31
0.0
  0
LINE
  5
BB6
  8
0
 62
     0
 10
268.15194191944488
 20
190.2305568958501
 30
0.0
 11
275.6669533798443
 21
197.74556835624949
 31
0.0
  0
LINE
  5
BB7
  8
0
 62
     0
 10
266.03062157588522
 20
190.2305568958501
 30
0.0
 11
273.54563303628458
 21
197.74556835624949
 31
0.0
  0
LINE
  5
BB8
  8
0
 62
     0
 10
263.90930123232562
 20
190.2305568958501
 30
0.0
 11
271.42431269272498
 21
197.74556835624949
 31
0.0
  0
LINE
  5
BB9
  8
0
 62
     0
 10
261.78798088876601
 20
190.2305568958501
 30
0.0
 11
269.30299234916538
 21
197.74556835624949
 31
0.0
  0
LINE
  5
BBA
  8
0
 62
     0
 10
259.6666605452063
 20
190.2305568958501
 30
0.0
 11
267.18167200560572
 21
197.74556835624949
 31
0.0
  0
LINE
  5
BBB
  8
0
 62
     0
 10
257.5453402016467
 20
190.2305568958501
 30
0.0
 11
265.060351662046
 21
197.74556835624949
 31
0.0
  0
LINE
  5
BBC
  8
0
 62
     0
 10
255.42401985808701
 20
190.2305568958501
 30
0.0
 11
262.9390313184864
 21
197.74556835624949
 31
0.0
  0
LINE
  5
BBD
  8
0
 62
     0
 10
253.3026995145274
 20
190.2305568958501
 30
0.0
 11
260.81771097492668
 21
197.74556835624949
 31
0.0
  0
LINE
  5
BBE
  8
0
 62
     0
 10
251.1813791709678
 20
190.2305568958501
 30
0.0
 11
258.69639063136719
 21
197.74556835624949
 31
0.0
  0
LINE
  5
BBF
  8
0
 62
     0
 10
249.06005882740811
 20
190.2305568958501
 30
0.0
 11
256.57507028780748
 21
197.74556835624949
 31
0.0
  0
LINE
  5
BC0
  8
0
 62
     0
 10
246.9387384838484
 20
190.2305568958501
 30
0.0
 11
254.45374994424779
 21
197.74556835624949
 31
0.0
  0
LINE
  5
BC1
  8
0
 62
     0
 10
244.81741814028891
 20
190.2305568958501
 30
0.0
 11
252.33242960068819
 21
197.74556835624949
 31
0.0
  0
LINE
  5
BC2
  8
0
 62
     0
 10
242.69609779672911
 20
190.2305568958501
 30
0.0
 11
250.2111092571285
 21
197.74556835624949
 31
0.0
  0
LINE
  5
BC3
  8
0
 62
     0
 10
241.95940089379411
 20
191.61518033647479
 30
0.0
 11
248.0897889135689
 21
197.74556835624949
 31
0.0
  0
LINE
  5
BC4
  8
0
 62
     0
 10
241.9594008937942
 20
193.7365006800344
 30
0.0
 11
245.96846857000921
 21
197.74556835624949
 31
0.0
  0
LINE
  5
BC5
  8
0
 62
     0
 10
241.95940089379411
 20
195.857821023594
 30
0.0
 11
243.8471482264496
 21
197.74556835624949
 31
0.0
  0
LINE
  5
BC6
  8
0
 62
     0
 10
241.95940089379411
 20
149.6916044937735
 30
0.0
 11
242.17510571494171
 21
149.47589967262601
 31
0.0
  0
LINE
  5
BC7
  8
0
 62
     0
 10
241.95940089379411
 20
151.81292483733321
 30
0.0
 11
244.29642605850131
 21
149.47589967262601
 31
0.0
  0
LINE
  5
BC8
  8
0
 62
     0
 10
241.95940089379411
 20
153.93424518089279
 30
0.0
 11
246.41774640206091
 21
149.4758996726261
 31
0.0
  0
LINE
  5
BC9
  8
0
 62
     0
 10
241.95940089379411
 20
156.0555655244525
 30
0.0
 11
248.5390667456206
 21
149.4758996726261
 31
0.0
  0
LINE
  5
BCA
  8
0
 62
     0
 10
243.15572986595609
 20
156.98055689585021
 30
0.0
 11
250.6603870891802
 21
149.4758996726261
 31
0.0
  0
LINE
  5
BCB
  8
0
 62
     0
 10
245.27705020951581
 20
156.9805568958501
 30
0.0
 11
252.78170743273981
 21
149.4758996726261
 31
0.0
  0
LINE
  5
BCC
  8
0
 62
     0
 10
247.39837055307541
 20
156.9805568958501
 30
0.0
 11
254.90302777629941
 21
149.47589967262601
 31
0.0
  0
LINE
  5
BCD
  8
0
 62
     0
 10
249.5196908966351
 20
156.9805568958501
 30
0.0
 11
257.0243481198591
 21
149.4758996726261
 31
0.0
  0
LINE
  5
BCE
  8
0
 62
     0
 10
251.6410112401947
 20
156.9805568958501
 30
0.0
 11
259.1456684634187
 21
149.47589967262601
 31
0.0
  0
LINE
  5
BCF
  8
0
 62
     0
 10
253.76233158375439
 20
156.9805568958501
 30
0.0
 11
261.26698880697842
 21
149.4758996726261
 31
0.0
  0
LINE
  5
BD0
  8
0
 62
     0
 10
255.88365192731399
 20
156.9805568958501
 30
0.0
 11
263.38830915053802
 21
149.4758996726261
 31
0.0
  0
LINE
  5
BD1
  8
0
 62
     0
 10
258.00497227087362
 20
156.9805568958501
 30
0.0
 11
265.50962949409768
 21
149.47589967262601
 31
0.0
  0
LINE
  5
BD2
  8
0
 62
     0
 10
260.12629261443328
 20
156.9805568958501
 30
0.0
 11
267.6309498376574
 21
149.4758996726261
 31
0.0
  0
LINE
  5
BD3
  8
0
 62
     0
 10
262.24761295799289
 20
156.9805568958501
 30
0.0
 11
269.752270181217
 21
149.47589967262601
 31
0.0
  0
LINE
  5
BD4
  8
0
 62
     0
 10
264.36893330155249
 20
156.9805568958501
 30
0.0
 11
271.8735905247766
 21
149.4758996726261
 31
0.0
  0
LINE
  5
BD5
  8
0
 62
     0
 10
266.49025364511209
 20
156.98055689585021
 30
0.0
 11
273.99491086833621
 21
149.47589967262601
 31
0.0
  0
LINE
  5
BD6
  8
0
 62
     0
 10
268.61157398867181
 20
156.9805568958501
 30
0.0
 11
276.11623121189592
 21
149.4758996726261
 31
0.0
  0
LINE
  5
BD7
  8
0
 62
     0
 10
270.73289433223152
 20
156.98055689585021
 30
0.0
 11
278.23755155545558
 21
149.47589967262601
 31
0.0
  0
LINE
  5
BD8
  8
0
 62
     0
 10
272.85421467579113
 20
156.9805568958501
 30
0.0
 11
280.3588718990153
 21
149.4758996726259
 31
0.0
  0
LINE
  5
BD9
  8
0
 62
     0
 10
274.97553501935067
 20
156.98055689585021
 30
0.0
 11
282.4801922425749
 21
149.4758996726259
 31
0.0
  0
LINE
  5
BDA
  8
0
 62
     0
 10
277.09685536291039
 20
156.9805568958501
 30
0.0
 11
284.60151258613467
 21
149.47589967262579
 31
0.0
  0
LINE
  5
BDB
  8
0
 62
     0
 10
241.95940089379411
 20
192.11801136496641
 30
0.0
 11
243.84685536291039
 21
190.2305568958501
 31
0.0
  0
LINE
  5
BDC
  8
0
 62
     0
 10
279.21817570646999
 20
156.9805568958501
 30
0.0
 11
286.72283292969439
 21
149.47589967262579
 31
0.0
  0
LINE
  5
BDD
  8
0
 62
     0
 10
241.95940089379411
 20
194.23933170852601
 30
0.0
 11
245.96817570646999
 21
190.2305568958501
 31
0.0
  0
LINE
  5
BDE
  8
0
 62
     0
 10
281.3394960500296
 20
156.98055689585021
 30
0.0
 11
287.95940089379428
 21
150.36065205208561
 31
0.0
  0
LINE
  5
BDF
  8
0
 62
     0
 10
241.95940089379411
 20
196.3606520520857
 30
0.0
 11
248.08949605002971
 21
190.2305568958501
 31
0.0
  0
LINE
  5
BE0
  8
0
 62
     0
 10
283.46081639358931
 20
156.9805568958501
 30
0.0
 11
287.95940089379422
 21
152.48197239564519
 31
0.0
  0
LINE
  5
BE1
  8
0
 62
     0
 10
242.69580493319
 20
197.74556835624941
 30
0.0
 11
250.21081639358931
 21
190.2305568958501
 31
0.0
  0
LINE
  5
BE2
  8
0
 62
     0
 10
285.5821367371488
 20
156.98055689585041
 30
0.0
 11
287.95940089379422
 21
154.6032927392049
 31
0.0
  0
LINE
  5
BE3
  8
0
 62
     0
 10
244.81712527674969
 20
197.74556835624949
 30
0.0
 11
252.332136737149
 21
190.2305568958501
 31
0.0
  0
LINE
  5
BE4
  8
0
 62
     0
 10
287.70345708070829
 20
156.98055689585041
 30
0.0
 11
287.95940089379422
 21
156.72461308276451
 31
0.0
  0
LINE
  5
BE5
  8
0
 62
     0
 10
246.9384456203093
 20
197.74556835624949
 30
0.0
 11
254.45345708070869
 21
190.2305568958501
 31
0.0
  0
LINE
  5
BE6
  8
0
 62
     0
 10
249.0597659638689
 20
197.74556835624949
 30
0.0
 11
256.57477742426829
 21
190.2305568958501
 31
0.0
  0
LINE
  5
BE7
  8
0
 62
     0
 10
251.1810863074285
 20
197.74556835624949
 30
0.0
 11
258.69609776782789
 21
190.2305568958501
 31
0.0
  0
LINE
  5
BE8
  8
0
 62
     0
 10
253.30240665098819
 20
197.74556835624949
 30
0.0
 11
260.8174181113875
 21
190.2305568958501
 31
0.0
  0
LINE
  5
BE9
  8
0
 62
     0
 10
255.42372699454779
 20
197.74556835624949
 30
0.0
 11
262.93873845494721
 21
190.2305568958501
 31
0.0
  0
LINE
  5
BEA
  8
0
 62
     0
 10
257.54504733810751
 20
197.74556835624941
 30
0.0
 11
265.06005879850682
 21
190.2305568958501
 31
0.0
  0
LINE
  5
BEB
  8
0
 62
     0
 10
259.66636768166711
 20
197.74556835624949
 30
0.0
 11
267.18137914206648
 21
190.2305568958501
 31
0.0
  0
LINE
  5
BEC
  8
0
 62
     0
 10
261.78768802522683
 20
197.74556835624949
 30
0.0
 11
269.30269948562608
 21
190.2305568958501
 31
0.0
  0
LINE
  5
BED
  8
0
 62
     0
 10
263.90900836878637
 20
197.74556835624949
 30
0.0
 11
271.42401982918568
 21
190.2305568958501
 31
0.0
  0
LINE
  5
BEE
  8
0
 62
     0
 10
266.03032871234598
 20
197.74556835624949
 30
0.0
 11
273.5453401727454
 21
190.2305568958501
 31
0.0
  0
LINE
  5
BEF
  8
0
 62
     0
 10
268.15164905590569
 20
197.74556835624941
 30
0.0
 11
275.66666051630511
 21
190.2305568958501
 31
0.0
  0
LINE
  5
BF0
  8
0
 62
     0
 10
270.2729693994653
 20
197.74556835624949
 30
0.0
 11
277.78798085986472
 21
190.2305568958501
 31
0.0
  0
LINE
  5
BF1
  8
0
 62
     0
 10
272.39428974302501
 20
197.74556835624949
 30
0.0
 11
277.95940089379422
 21
192.1804572054802
 31
0.0
  0
LINE
  5
BF2
  8
0
 62
     0
 10
274.51561008658462
 20
197.74556835624949
 30
0.0
 11
277.95940089379422
 21
194.30177754903991
 31
0.0
  0
LINE
  5
BF3
  8
0
 62
     0
 10
276.63693043014422
 20
197.74556835624949
 30
0.0
 11
277.95940089379422
 21
196.42309789259949
 31
0.0
  0
ENDBLK
  5
BF5
  8
0
  0
BLOCK
  8
0
  2
*X9
 70
     1
 10
0.0
 20
0.0
 30
0.0
  3
*X9
  1

  0
LINE
  5
BF7
  8
0
 62
     0
 10
111.8344008937941
 20
151.73055688139951
 30
0.0
 11
216.0844008937942
 21
151.73055688139939
 31
0.0
  0
LINE
  5
BF8
  8
0
 62
     0
 10
111.8344008937941
 20
153.23055688139951
 30
0.0
 11
216.0844008937942
 21
153.23055688139939
 31
0.0
  0
LINE
  5
BF9
  8
0
 62
     0
 10
111.8344008937941
 20
154.73055688139951
 30
0.0
 11
216.0844008937942
 21
154.73055688139939
 31
0.0
  0
LINE
  5
BFA
  8
0
 62
     0
 10
111.8344008937941
 20
156.23055688139951
 30
0.0
 11
216.0844008937942
 21
156.23055688139939
 31
0.0
  0
LINE
  5
BFB
  8
0
 62
     0
 10
111.8344008937941
 20
157.73055688139951
 30
0.0
 11
216.0844008937942
 21
157.73055688139939
 31
0.0
  0
LINE
  5
BFC
  8
0
 62
     0
 10
111.8344008937942
 20
159.23055688139951
 30
0.0
 11
216.0844008937942
 21
159.23055688139939
 31
0.0
  0
LINE
  5
BFD
  8
0
 62
     0
 10
111.8344008937941
 20
160.73055688139951
 30
0.0
 11
216.0844008937942
 21
160.73055688139939
 31
0.0
  0
LINE
  5
BFE
  8
0
 62
     0
 10
111.8344008937941
 20
162.23055688139951
 30
0.0
 11
216.0844008937942
 21
162.23055688139939
 31
0.0
  0
LINE
  5
BFF
  8
0
 62
     0
 10
111.8344008937941
 20
163.73055688139951
 30
0.0
 11
216.0844008937942
 21
163.73055688139939
 31
0.0
  0
LINE
  5
C00
  8
0
 62
     0
 10
111.8344008937941
 20
165.23055688139951
 30
0.0
 11
216.0844008937942
 21
165.23055688139939
 31
0.0
  0
LINE
  5
C01
  8
0
 62
     0
 10
111.8344008937941
 20
166.73055688139951
 30
0.0
 11
216.0844008937942
 21
166.73055688139939
 31
0.0
  0
LINE
  5
C02
  8
0
 62
     0
 10
111.8344008937941
 20
168.23055688139951
 30
0.0
 11
216.0844008937942
 21
168.23055688139939
 31
0.0
  0
LINE
  5
C03
  8
0
 62
     0
 10
111.8344008937942
 20
169.73055688139951
 30
0.0
 11
216.0844008937942
 21
169.73055688139939
 31
0.0
  0
LINE
  5
C04
  8
0
 62
     0
 10
111.8344008937942
 20
171.23055688139951
 30
0.0
 11
216.0844008937942
 21
171.23055688139939
 31
0.0
  0
LINE
  5
C05
  8
0
 62
     0
 10
111.8344008937942
 20
172.73055688139951
 30
0.0
 11
216.0844008937942
 21
172.73055688139939
 31
0.0
  0
LINE
  5
C06
  8
0
 62
     0
 10
111.8344008937942
 20
174.23055688139951
 30
0.0
 11
216.0844008937942
 21
174.23055688139939
 31
0.0
  0
LINE
  5
C07
  8
0
 62
     0
 10
111.8344008937942
 20
175.73055688139951
 30
0.0
 11
216.0844008937942
 21
175.73055688139939
 31
0.0
  0
LINE
  5
C08
  8
0
 62
     0
 10
111.8344008937942
 20
177.23055688139951
 30
0.0
 11
216.0844008937942
 21
177.23055688139939
 31
0.0
  0
LINE
  5
C09
  8
0
 62
     0
 10
111.8344008937942
 20
178.73055688139951
 30
0.0
 11
216.0844008937942
 21
178.73055688139939
 31
0.0
  0
LINE
  5
C0A
  8
0
 62
     0
 10
111.8344008937942
 20
180.23055688139951
 30
0.0
 11
216.0844008937942
 21
180.23055688139939
 31
0.0
  0
LINE
  5
C0B
  8
0
 62
     0
 10
111.8344008937942
 20
181.73055688139951
 30
0.0
 11
216.0844008937942
 21
181.73055688139939
 31
0.0
  0
LINE
  5
C0C
  8
0
 62
     0
 10
111.8344008937943
 20
183.23055688139951
 30
0.0
 11
216.0844008937942
 21
183.23055688139939
 31
0.0
  0
LINE
  5
C0D
  8
0
 62
     0
 10
111.8344008937943
 20
184.73055688139951
 30
0.0
 11
216.0844008937942
 21
184.73055688139939
 31
0.0
  0
LINE
  5
C0E
  8
0
 62
     0
 10
111.8344008937943
 20
186.23055688139951
 30
0.0
 11
216.0844008937942
 21
186.23055688139939
 31
0.0
  0
LINE
  5
C0F
  8
0
 62
     0
 10
111.8344008937943
 20
187.73055688139951
 30
0.0
 11
216.0844008937942
 21
187.73055688139939
 31
0.0
  0
LINE
  5
C10
  8
0
 62
     0
 10
111.8344008937943
 20
189.23055688139951
 30
0.0
 11
216.0844008937942
 21
189.23055688139939
 31
0.0
  0
LINE
  5
C11
  8
0
 62
     0
 10
111.8344008937943
 20
190.73055688139951
 30
0.0
 11
216.0844008937942
 21
190.73055688139939
 31
0.0
  0
LINE
  5
C12
  8
0
 62
     0
 10
111.8344008937943
 20
192.23055688139951
 30
0.0
 11
216.0844008937942
 21
192.23055688139939
 31
0.0
  0
LINE
  5
C13
  8
0
 62
     0
 10
111.8344008937943
 20
193.73055688139951
 30
0.0
 11
216.0844008937942
 21
193.73055688139939
 31
0.0
  0
LINE
  5
C14
  8
0
 62
     0
 10
111.8344008937943
 20
195.23055688139951
 30
0.0
 11
216.0844008937942
 21
195.23055688139939
 31
0.0
  0
ENDBLK
  5
C16
  8
0
  0
ENDSEC
  0
SECTION
  2
ENTITIES
  0
LINE
  5
368
  8
0
 10
247.5914012246092
 20
34.922057006757257
 30
0.0
 11
276.14962324466688
 21
7.9141330759340782
 31
0.0
  0
LINE
  5
369
  8
0
 10
287.71035389766092
 20
14.85057620789698
 30
0.0
 11
277.3189972016346
 21
52.758614592972421
 31
0.0
  0
ARC
  5
36A
  8
0
 10
259.95940089379411
 20
47.999999665411032
 30
0.0
 40
17.999999999999979
 50
90.0
 51
226.5981403622487
1001
ACAD
1000
ASC_BOUNDS
1002
{
1070
    19
1005
57F
1002
}
  0
ARC
  5
36B
  8
0
 10
259.95940089379411
 20
47.999999665411032
 30
0.0
 40
17.999999999999972
 50
15.32937270190013
 51
90.0
1001
ACAD
1000
ASC_BOUNDS
1002
{
1070
    19
1005
57F
1002
}
  0
ARC
  5
36C
  8
0
 10
280.95940089379451
 20
12.99999966541054
 30
0.0
 40
6.9999999999999831
 50
226.59814036224799
 51
270.0
1001
ACAD
1000
ASC_BOUNDS
1002
{
1070
    19
1005
57F
1002
}
  0
ARC
  5
36D
  8
0
 10
280.95940089379451
 20
12.99999966541054
 30
0.0
 40
6.999999999999968
 50
270.0
 51
15.32937270190091
1001
ACAD
1000
ASC_BOUNDS
1002
{
1070
    19
1005
57F
1002
}
  0
LINE
  5
36E
  8
0
 10
247.5914012246092
 20
34.922057006756923
 30
0.0
 11
276.14962324466688
 21
7.914133075933738
 31
0.0
1001
ACAD
1000
ASC_BOUNDS
1002
{
1070
    19
1005
57F
1002
}
  0
LINE
  5
36F
  8
0
 10
287.71035501351048
 20
14.850572137239981
 30
0.0
 11
277.3189972016346
 21
52.758614592972087
 31
0.0
1001
ACAD
1000
ASC_BOUNDS
1002
{
1070
    19
1005
57F
1002
}
  0
LINE
  5
370
  8
0
 10
217.709400893794
 20
97.999999665411082
 30
0.0
 11
217.709400893794
 21
5.9999996654127044
 31
0.0
  0
LINE
  5
371
  8
0
 10
110.2094008937942
 20
5.9999996654127044
 30
0.0
 11
110.2094008937942
 21
97.999999665411082
 31
0.0
  0
LINE
  5
372
  8
0
 10
217.709400893794
 20
5.9999996654127044
 30
0.0
 11
110.2094008937942
 21
5.9999996654127044
 31
0.0
  0
LINE
  5
373
  8
0
 10
110.2094008937942
 20
97.999999665411082
 30
0.0
 11
217.709400893794
 21
97.999999665411082
 31
0.0
  0
LINE
  5
374
  8
0
 10
220.70940089379451
 20
5.9999996654099483
 30
0.0
 11
259.95940089379411
 21
10.77537655221181
 31
0.0
  0
ARC
  5
375
  8
0
 10
256.9594008937944
 20
40.624999665410421
 30
0.0
 40
30.000000000000011
 50
275.7391704772615
 51
295.91139169256172
  0
ARC
  5
376
  8
0
 10
256.9594008937944
 20
40.624999665410421
 30
0.0
 40
30.0
 50
334.95256645166887
 51
114.0790707055185
  0
LINE
  5
377
  8
0
 10
244.71949124108849
 20
68.014497866246217
 30
0.0
 11
217.70940089379451
 21
55.99999966541035
 31
0.0
  0
LINE
  5
378
  8
0
 10
110.2094008937944
 20
-0.000000334590956
 30
0.0
 11
110.2094008937942
 21
5.9999996654114627
 31
0.0
  0
LINE
  5
379
  8
0
 10
289.959400893794
 20
5.9999996654139469
 30
0.0
 11
289.95940089379451
 21
-0.0000003345884709
 31
0.0
  0
LINE
  5
37A
  8
0
 10
110.2094008937944
 20
-0.000000334590956
 30
0.0
 11
289.95940089379451
 21
-0.0000003345884704
 31
0.0
  0
LINE
  5
37B
  8
0
 10
289.959400893794
 20
5.9999996654139469
 30
0.0
 11
110.2094008937942
 21
5.9999996654114627
 31
0.0
  0
ARC
  5
37C
  8
0
 10
163.95940089379539
 20
79.999999665409149
 30
0.0
 40
8.2500000000000036
 50
179.9999999999996
 51
359.99999999999881
  0
ARC
  5
37D
  8
0
 10
163.95940089379539
 20
79.999999665409149
 30
0.0
 40
8.2500000000000036
 50
359.9999999999996
 51
179.9999999999996
  0
ARC
  5
37E
  8
0
 10
163.95940089379539
 20
79.999999665409149
 30
0.0
 40
7.687499999999992
 50
0.0000000000008142
 51
180.0000000000002
  0
ARC
  5
37F
  8
0
 10
163.95940089379539
 20
79.999999665409149
 30
0.0
 40
7.687499999999992
 50
180.0000000000002
 51
0.0
  0
LINE
  5
380
  8
0
 10
169.08190166778351
 20
77.558143816611789
 30
0.0
 11
168.88696119159269
 21
77.109235086453069
 31
0.0
  0
LINE
  5
381
  8
0
 10
168.88696119159269
 20
77.109235086453069
 30
0.0
 11
168.43606833445
 21
76.951993022960991
 31
0.0
  0
LINE
  5
382
  8
0
 10
168.43606833445
 20
76.951993022960991
 30
0.0
 11
168.11153956460859
 21
77.016229134072091
 31
0.0
  0
LINE
  5
383
  8
0
 10
168.11153956460859
 20
77.016229134072091
 30
0.0
 11
167.87604849318021
 21
77.20893746740542
 31
0.0
  0
LINE
  5
384
  8
0
 10
167.87604849318021
 20
77.20893746740542
 30
0.0
 11
167.68507627095801
 21
77.96687397534194
 31
0.0
  0
LINE
  5
385
  8
0
 10
167.68507627095801
 20
77.96687397534194
 30
0.0
 11
167.86910404873581
 21
78.730762864230812
 31
0.0
  0
LINE
  5
386
  8
0
 10
167.86910404873581
 20
78.730762864230812
 30
0.0
 11
168.09889075508471
 21
78.920495007087979
 31
0.0
  0
LINE
  5
387
  8
0
 10
168.09889075508471
 20
78.920495007087979
 30
0.0
 11
168.42019531857679
 21
78.983739054707016
 31
0.0
  0
LINE
  5
388
  8
0
 10
168.42019531857679
 20
78.983739054707016
 30
0.0
 11
168.88844928683079
 21
78.840385880103852
 31
0.0
  0
LINE
  5
389
  8
0
 10
168.88844928683079
 20
78.840385880103852
 30
0.0
 11
169.08190166778351
 21
78.415286673754622
 31
0.0
  0
LINE
  5
38A
  8
0
 10
169.08190166778351
 20
78.415286673754622
 30
0.0
 11
170.2247588106404
 21
78.415286673754622
 31
0.0
  0
LINE
  5
38B
  8
0
 10
170.2247588106404
 20
78.415286673754622
 30
0.0
 11
170.0645405566722
 21
79.062980126135585
 31
0.0
  0
LINE
  5
38C
  8
0
 10
170.0645405566722
 20
79.062980126135585
 30
0.0
 11
169.6969810328626
 21
79.541774768992724
 31
0.0
  0
LINE
  5
38D
  8
0
 10
169.6969810328626
 20
79.541774768992724
 30
0.0
 11
169.13795325508471
 21
79.837533697564197
 31
0.0
  0
LINE
  5
38E
  8
0
 10
169.13795325508471
 20
79.837533697564197
 30
0.0
 11
168.40333023921201
 21
79.936120007087979
 31
0.0
  0
LINE
  5
38F
  8
0
 10
168.40333023921201
 20
79.936120007087979
 30
0.0
 11
167.60533916778351
 21
79.80417556264355
 31
0.0
  0
LINE
  5
390
  8
0
 10
167.60533916778351
 20
79.80417556264355
 30
0.0
 11
166.99509611222791
 21
79.408342229310193
 31
0.0
  0
LINE
  5
391
  8
0
 10
166.99509611222791
 20
79.408342229310193
 30
0.0
 11
166.60781932651361
 21
78.784334292802271
 31
0.0
  0
LINE
  5
392
  8
0
 10
166.60781932651361
 20
78.784334292802271
 30
0.0
 11
166.47872706460859
 21
77.967866038834003
 31
0.0
  0
LINE
  5
393
  8
0
 10
166.47872706460859
 20
77.967866038834003
 30
0.0
 11
166.60843936619611
 21
77.14953766581813
 31
0.0
  0
LINE
  5
394
  8
0
 10
166.60843936619611
 20
77.14953766581813
 30
0.0
 11
166.99757627095801
 21
76.525901753119712
 31
0.0
  0
LINE
  5
395
  8
0
 10
166.99757627095801
 20
76.525901753119712
 30
0.0
 11
167.6129036519103
 21
76.131184491214952
 31
0.0
  0
LINE
  5
396
  8
0
 10
167.6129036519103
 20
76.131184491214952
 30
0.0
 11
168.42118738206881
 21
75.999612070580028
 31
0.0
  0
LINE
  5
397
  8
0
 10
168.42118738206881
 20
75.999612070580028
 30
0.0
 11
169.14427765984669
 21
76.101794610262573
 31
0.0
  0
LINE
  5
398
  8
0
 10
169.14427765984669
 20
76.101794610262573
 30
0.0
 11
169.70045325508471
 21
76.408342229310193
 31
0.0
  0
LINE
  5
399
  8
0
 10
169.70045325508471
 20
76.408342229310193
 30
0.0
 11
170.06788877095801
 21
76.900157705500675
 31
0.0
  0
LINE
  5
39A
  8
0
 10
170.06788877095801
 20
76.900157705500675
 30
0.0
 11
170.2247588106404
 21
77.558143816611789
 31
0.0
  0
LINE
  5
39B
  8
0
 10
170.2247588106404
 20
77.558143816611789
 30
0.0
 11
169.08190166778351
 21
77.558143816611789
 31
0.0
  0
LINE
  5
39C
  8
0
 10
161.86017429001569
 20
78.332218005534983
 30
0.0
 11
163.0377536550952
 21
78.332218005534983
 31
0.0
  0
LINE
  5
39D
  8
0
 10
163.0377536550952
 20
78.332218005534983
 30
0.0
 11
163.18457905192031
 21
78.840154513471504
 31
0.0
  0
LINE
  5
39E
  8
0
 10
163.18457905192031
 20
78.840154513471504
 30
0.0
 11
164.38795206779341
 21
78.840154513471475
 31
0.0
  0
LINE
  5
39F
  8
0
 10
164.38795206779341
 20
78.840154513471475
 30
0.0
 11
164.52981714715841
 21
78.332218005534983
 31
0.0
  0
LINE
  5
3A0
  8
0
 10
164.52981714715841
 20
78.332218005534983
 30
0.0
 11
165.73319016303159
 21
78.332218005534983
 31
0.0
  0
LINE
  5
3A1
  8
0
 10
165.73319016303159
 20
78.332218005534983
 30
0.0
 11
164.40382508366631
 21
82.141741815058779
 31
0.0
  0
LINE
  5
3A2
  8
0
 10
164.40382508366631
 20
82.141741815058779
 30
0.0
 11
163.17465841699979
 21
82.141741815058779
 31
0.0
  0
LINE
  5
3A3
  8
0
 10
163.17465841699979
 20
82.141741815058779
 30
0.0
 11
161.86017429001569
 21
78.332218005534983
 31
0.0
  0
LINE
  5
3A4
  8
0
 10
163.4048171471583
 20
79.665551338868298
 30
0.0
 11
163.79072984557129
 21
80.969122767439742
 31
0.0
  0
LINE
  5
3A5
  8
0
 10
163.79072984557129
 20
80.969122767439742
 30
0.0
 11
164.1677139725555
 21
79.665551338868298
 31
0.0
  0
LINE
  5
3A6
  8
0
 10
164.1677139725555
 20
79.665551338868298
 30
0.0
 11
163.4048171471583
 21
79.665551338868298
 31
0.0
  0
LINE
  5
3A7
  8
0
 10
158.0994430997541
 20
80.072606314715216
 30
0.0
 11
159.79884786165911
 21
80.072606314715216
 31
0.0
  0
LINE
  5
3A8
  8
0
 10
159.79884786165911
 20
80.072606314715216
 30
0.0
 11
160.566705004516
 21
80.111296790905726
 31
0.0
  0
LINE
  5
3A9
  8
0
 10
160.566705004516
 20
80.111296790905726
 30
0.0
 11
160.9794034172148
 21
80.243241235350155
 31
0.0
  0
LINE
  5
3AA
  8
0
 10
160.9794034172148
 20
80.243241235350155
 30
0.0
 11
161.3876375441989
 21
80.626177743286661
 31
0.0
  0
LINE
  5
3AB
  8
0
 10
161.3876375441989
 20
80.626177743286661
 30
0.0
 11
161.5280145283256
 21
81.213479330588257
 31
0.0
  0
LINE
  5
3AC
  8
0
 10
161.5280145283256
 20
81.213479330588257
 30
0.0
 11
161.3841653219763
 21
81.776475362334295
 31
0.0
  0
LINE
  5
3AD
  8
0
 10
161.3841653219763
 20
81.776475362334295
 30
0.0
 11
160.940712941024
 21
82.101376155985093
 31
0.0
  0
LINE
  5
3AE
  8
0
 10
160.940712941024
 20
82.101376155985093
 30
0.0
 11
161.28595103626211
 21
82.418836473445381
 31
0.0
  0
LINE
  5
3AF
  8
0
 10
161.28595103626211
 20
82.418836473445381
 30
0.0
 11
161.40103040134159
 21
82.871217425826373
 31
0.0
  0
LINE
  5
3B0
  8
0
 10
161.40103040134159
 20
82.871217425826373
 30
0.0
 11
161.24726056007171
 21
83.431237267096179
 31
0.0
  0
LINE
  5
3B1
  8
0
 10
161.24726056007171
 20
83.431237267096179
 30
0.0
 11
160.80480024261141
 21
83.77101901312794
 31
0.0
  0
LINE
  5
3B2
  8
0
 10
160.80480024261141
 20
83.77101901312794
 30
0.0
 11
160.409462941024
 21
83.856336473445396
 31
0.0
  0
LINE
  5
3B3
  8
0
 10
160.409462941024
 20
83.856336473445396
 30
0.0
 11
159.6758319886433
 21
83.882130124239069
 31
0.0
  0
LINE
  5
3B4
  8
0
 10
159.6758319886433
 20
83.882130124239069
 30
0.0
 11
158.0994430997541
 21
83.882130124239069
 31
0.0
  0
LINE
  5
3B5
  8
0
 10
158.0994430997541
 20
83.882130124239069
 30
0.0
 11
158.0994430997541
 21
80.072606314715216
 31
0.0
  0
LINE
  5
3B6
  8
0
 10
159.30579230610351
 20
80.96149520360413
 30
0.0
 11
159.30579230610351
 21
81.659907902016798
 31
0.0
  0
LINE
  5
3B7
  8
0
 10
159.30579230610351
 20
81.659907902016798
 30
0.0
 11
159.8544034172148
 21
81.659907902016798
 31
0.0
  0
LINE
  5
3B8
  8
0
 10
159.8544034172148
 20
81.659907902016798
 30
0.0
 11
160.263629607691
 21
81.580542822651736
 31
0.0
  0
LINE
  5
3B9
  8
0
 10
160.263629607691
 20
81.580542822651736
 30
0.0
 11
160.3851573854688
 21
81.313677743286661
 31
0.0
  0
LINE
  5
3BA
  8
0
 10
160.3851573854688
 20
81.313677743286661
 30
0.0
 11
160.2661097664211
 21
81.043836473445396
 31
0.0
  0
LINE
  5
3BB
  8
0
 10
160.2661097664211
 20
81.043836473445396
 30
0.0
 11
159.86531611562731
 21
80.96149520360413
 31
0.0
  0
LINE
  5
3BC
  8
0
 10
159.86531611562731
 20
80.96149520360413
 30
0.0
 11
159.30579230610351
 21
80.96149520360413
 31
0.0
  0
LINE
  5
3BD
  8
0
 10
159.30579230610351
 20
82.358320600429522
 30
0.0
 11
159.30579230610351
 21
82.993241235350126
 31
0.0
  0
LINE
  5
3BE
  8
0
 10
159.30579230610351
 20
82.993241235350126
 30
0.0
 11
159.64011770292899
 21
82.993241235350126
 31
0.0
  0
LINE
  5
3BF
  8
0
 10
159.64011770292899
 20
82.993241235350126
 30
0.0
 11
160.14855024261149
 21
82.925780917889867
 31
0.0
  0
LINE
  5
3C0
  8
0
 10
160.14855024261149
 20
82.925780917889867
 30
0.0
 11
160.25817325848419
 21
82.675780917889867
 31
0.0
  0
LINE
  5
3C1
  8
0
 10
160.25817325848419
 20
82.675780917889867
 30
0.0
 11
160.1559907188018
 21
82.430741235350183
 31
0.0
  0
LINE
  5
3C2
  8
0
 10
160.1559907188018
 20
82.430741235350183
 30
0.0
 11
159.80380817911939
 21
82.358320600429522
 31
0.0
  0
LINE
  5
3C3
  8
0
 10
159.80380817911939
 20
82.358320600429522
 30
0.0
 11
159.30579230610351
 21
82.358320600429522
 31
0.0
  0
ARC
  5
3C4
  8
0
 10
163.95940089379491
 20
79.999999665409817
 30
0.0
 40
9.0000000000000124
 50
179.9999999999996
 51
359.99999999999881
  0
ARC
  5
3C5
  8
0
 10
163.95940089379491
 20
79.999999665409817
 30
0.0
 40
9.0000000000000195
 50
359.9999999999996
 51
179.9999999999996
  0
LINE
  5
3C6
  8
0
 10
106.0844008937944
 20
2.1249996654106531
 30
0.0
 11
110.2094008937942
 21
2.1249996654106531
 31
0.0
  0
LINE
  5
3C7
  8
0
 10
110.2094008937942
 20
8.124999665410483
 30
0.0
 11
106.0844008937944
 21
8.124999665410483
 31
0.0
  0
LINE
  5
3C8
  8
0
 10
106.0844008937944
 20
82.999999665410627
 30
0.0
 11
110.2094008937942
 21
82.999999665410627
 31
0.0
  0
LINE
  5
3C9
  8
0
 10
110.2094008937942
 20
88.999999665410655
 30
0.0
 11
106.0844008937944
 21
88.999999665410655
 31
0.0
  0
LINE
  5
3CA
  8
0
 10
106.0844008937944
 20
5.1249997859925021
 30
0.0
 11
106.0844008937944
 21
5.9014567381837502
 31
0.0
  0
LINE
  5
3CB
  8
0
 10
106.0844008937944
 20
5.901456800718214
 30
0.0
 11
106.0844008937944
 21
6.6249994412824131
 31
0.0
  0
LINE
  5
3CC
  8
0
 10
106.0844008937944
 20
6.6249996654106518
 30
0.0
 11
106.0844008937944
 21
8.0227771442778657
 31
0.0
  0
LINE
  5
3CD
  8
0
 10
106.0844008937944
 20
8.0227773003914535
 30
0.0
 11
106.0844008937944
 21
8.1249996654106624
 31
0.0
  0
LINE
  5
3CE
  8
0
 10
106.0844008937942
 20
2.1249996654106642
 30
0.0
 11
106.0844008937942
 21
2.2272221489571602
 31
0.0
  0
LINE
  5
3CF
  8
0
 10
106.0844008937942
 20
2.22722218654346
 30
0.0
 11
106.0844008937942
 21
2.5269234370576639
 31
0.0
  0
LINE
  5
3D0
  8
0
 10
106.0844008937942
 20
2.5269234540573482
 30
0.0
 11
106.0844008937942
 21
3.0036792947096029
 31
0.0
  0
LINE
  5
3D1
  8
0
 10
106.0844008937942
 20
3.00367932185102
 30
0.0
 11
106.0844008937942
 21
3.624999665410662
 31
0.0
  0
LINE
  5
3D2
  8
0
 10
106.0844008937942
 20
3.624999777474577
 30
0.0
 11
106.0844008937942
 21
4.3485424722193367
 31
0.0
  0
LINE
  5
3D3
  8
0
 10
106.0844008937942
 20
4.3485425301030949
 30
0.0
 11
106.0844008937942
 21
5.1249996654106553
 31
0.0
  0
LINE
  5
3D4
  8
0
 10
106.0844008937942
 20
86.000001594722576
 30
0.0
 11
106.0844008937942
 21
87.499999665410627
 31
0.0
  0
LINE
  5
3D5
  8
0
 10
106.0844008937942
 20
87.500001753431746
 30
0.0
 11
106.0844008937942
 21
88.121318644594993
 31
0.0
  0
LINE
  5
3D6
  8
0
 10
106.0844008937942
 20
88.121320008970301
 30
0.0
 11
106.0844008937942
 21
88.598074021809524
 31
0.0
  0
LINE
  5
3D7
  8
0
 10
106.0844008937942
 20
88.598075876763986
 30
0.0
 11
106.0844008937942
 21
88.897777144277839
 31
0.0
  0
LINE
  5
3D8
  8
0
 10
106.0844008937942
 20
88.897777300391425
 30
0.0
 11
106.0844008937942
 21
88.999999665410655
 31
0.0
  0
LINE
  5
3D9
  8
0
 10
106.0844008937942
 20
82.999999665410627
 30
0.0
 11
106.0844008937942
 21
83.102218237582335
 31
0.0
  0
LINE
  5
3DA
  8
0
 10
106.0844008937942
 20
83.102222186543429
 30
0.0
 11
106.0844008937942
 21
83.401923454057339
 31
0.0
  0
LINE
  5
3DB
  8
0
 10
106.0844008937942
 20
83.401923737945452
 30
0.0
 11
106.0844008937942
 21
83.878678878118379
 31
0.0
  0
LINE
  5
3DC
  8
0
 10
106.0844008937942
 20
83.878679321850996
 30
0.0
 11
106.0844008937942
 21
85.999999665410627
 31
0.0
  0
ARC
  5
3DD
  8
0
 10
176.70940089379451
 20
19.999999665410549
 30
0.0
 40
0.5
 50
0.0
 51
180.0
  0
ARC
  5
3DE
  8
0
 10
176.70940089379451
 20
19.999999665410549
 30
0.0
 40
0.500000000000004
 50
180.0000000000002
 51
359.99999999999937
  0
ARC
  5
3DF
  8
0
 10
190.64690089379451
 20
11.62499966541054
 30
0.0
 40
1.0000000000000071
 50
359.9999999999992
 51
179.9999999999994
  0
ARC
  5
3E0
  8
0
 10
190.64690089379451
 20
11.62499966541054
 30
0.0
 40
0.9999999999999992
 50
180.0000000000004
 51
359.99999999999949
  0
ARC
  5
3E1
  8
0
 10
197.83440089379451
 20
2.6249996654105399
 30
0.0
 40
1.0000000000000071
 50
359.9999999999992
 51
179.9999999999994
  0
ARC
  5
3E2
  8
0
 10
197.83440089379451
 20
2.6249996654105399
 30
0.0
 40
0.9999999999999927
 50
180.0000000000004
 51
359.99999999999949
  0
CIRCLE
  5
3E3
  8
0
 10
201.64690089379451
 20
20.374999665410549
 30
0.0
 40
8.4999999999999911
  0
LINE
  5
3E4
  8
0
 10
353.47614505302261
 20
14.85057620789698
 30
0.0
 11
353.47614505302261
 21
52.418740891606767
 31
0.0
  0
LINE
  5
3E5
  8
0
 10
353.47614505302261
 20
52.4518898051466
 30
0.0
 11
353.47614505302261
 21
52.758614592972421
 31
0.0
  0
LINE
  5
3E6
  8
0
 10
360.980802276247
 20
27.929417157504439
 30
0.0
 11
360.980802276247
 21
14.850576207896969
 31
0.0
  0
LINE
  5
3E7
  8
0
 10
401.74581373664591
 20
47.999999665410968
 30
0.0
 11
401.74581373664591
 21
42.155410403868672
 31
0.0
  0
LINE
  5
3E8
  8
0
 10
401.74581373664591
 20
42.155409219726678
 30
0.0
 11
401.74581373664591
 21
34.756969273294629
 31
0.0
  0
LINE
  5
3E9
  8
0
 10
401.74581373664591
 20
34.756968048303619
 30
0.0
 11
401.74581373664591
 21
31.516079785619951
 31
0.0
  0
LINE
  5
3EA
  8
0
 10
401.74581373664591
 20
31.51607833499861
 30
0.0
 11
401.74581373664591
 21
30.06147879129086
 31
0.0
  0
LINE
  5
3EC
  8
0
 10
401.74581373664591
 20
65.93852053953097
 30
0.0
 11
401.74581373664591
 21
65.449208213571566
 31
0.0
  0
LINE
  5
3ED
  8
0
 10
401.74581373664591
 20
65.449204452318867
 30
0.0
 11
401.74581373664591
 21
64.483920995822061
 31
0.0
  0
LINE
  5
3EE
  8
0
 10
401.74581373664591
 20
64.483919545201957
 30
0.0
 11
401.74581373664591
 21
61.243030057527321
 31
0.0
  0
LINE
  5
3EF
  8
0
 10
401.74581373664591
 20
61.243028443439833
 30
0.0
 11
401.74581373664591
 21
53.844590111095251
 31
0.0
  0
LINE
  5
3F0
  8
0
 10
401.74581373664591
 20
53.844588926952277
 30
0.0
 11
401.74581373664591
 21
50.962703390389301
 31
0.0
  0
LINE
  5
3F1
  8
0
 10
401.74581373664591
 20
50.962702290464151
 30
0.0
 11
401.74581373664591
 21
47.999999665410968
 31
0.0
  0
LINE
  5
3F2
  8
0
 10
374.98080227624649
 20
15.99999966541065
 30
0.0
 11
360.98080227624649
 21
15.99999966541065
 31
0.0
  0
LINE
  5
3F3
  8
0
 10
360.980802276247
 20
5.999999665410634
 30
0.0
 11
360.980802276247
 21
6.170370533965289
 31
0.0
  0
LINE
  5
3F4
  8
0
 10
374.980802276247
 20
15.9999996654106
 30
0.0
 11
374.980802276247
 21
15.829629373118641
 31
0.0
  0
LINE
  5
3F5
  8
0
 10
374.980802276247
 20
15.82962879685595
 30
0.0
 11
374.980802276247
 21
15.33012759779923
 31
0.0
  0
LINE
  5
3F6
  8
0
 10
374.980802276247
 20
15.330126684332811
 30
0.0
 11
374.980802276247
 21
14.535534125746
 31
0.0
  0
LINE
  5
3F7
  8
0
 10
374.980802276247
 20
14.535533571343359
 30
0.0
 11
374.980802276247
 21
12.29409489092324
 31
0.0
  0
LINE
  5
3F8
  8
0
 10
374.980802276247
 20
12.29409424315751
 30
0.0
 11
374.980802276247
 21
10.99999990657448
 31
0.0
  0
LINE
  5
3F9
  8
0
 10
374.980802276247
 20
10.999999665410639
 30
0.0
 11
374.980802276247
 21
9.7059044398980348
 31
0.0
  0
LINE
  5
3FA
  8
0
 10
374.980802276247
 20
9.7059041351064792
 30
0.0
 11
374.980802276247
 21
8.4999996654106376
 31
0.0
  0
LINE
  5
3FB
  8
0
 10
374.980802276247
 20
8.4999994044077845
 30
0.0
 11
374.980802276247
 21
6.6698726464884324
 31
0.0
  0
LINE
  5
3FC
  8
0
 10
374.980802276247
 20
6.6698723578222401
 30
0.0
 11
374.980802276247
 21
6.1703706608330959
 31
0.0
  0
LINE
  5
3FD
  8
0
 10
374.980802276247
 20
6.1703705339652792
 30
0.0
 11
374.980802276247
 21
5.9999996654106118
 31
0.0
  0
LINE
  5
3FE
  8
0
 10
353.47614505302261
 20
52.766580472102902
 30
0.0
 11
353.47614505302261
 21
55.230517309164462
 31
0.0
  0
LINE
  5
3FF
  8
0
 10
353.47614505302261
 20
55.230520024420741
 30
0.0
 11
353.47614505302261
 21
60.191067954674331
 31
0.0
  0
LINE
  5
400
  8
0
 10
353.47614505302261
 20
60.191070420509931
 30
0.0
 11
353.47614505302261
 21
65.024710016022439
 31
0.0
  0
LINE
  5
401
  8
0
 10
353.47614505302261
 20
65.024711682217799
 30
0.0
 11
353.47614505302261
 21
65.754501704630002
 31
0.0
  0
LINE
  5
402
  8
0
 10
353.47614505302261
 20
65.75450312666004
 30
0.0
 11
353.47614505302261
 21
65.999999665411039
 31
0.0
  0
LINE
  5
403
  8
0
 10
353.47614505302261
 20
5.9999996654105452
 30
0.0
 11
353.47614505302261
 21
6.2385188331950951
 31
0.0
  0
LINE
  5
404
  8
0
 10
353.47614505302261
 20
6.23851888138707
 30
0.0
 11
353.47614505302261
 21
6.937821434786879
 31
0.0
  0
LINE
  5
405
  8
0
 10
353.47614505302261
 20
6.937821838919473
 30
0.0
 11
353.47614505302261
 21
12.999999665410529
 31
0.0
  0
LINE
  5
406
  8
0
 10
353.47614505302261
 20
13.000000147738501
 30
0.0
 11
353.47614505302261
 21
14.852427081972939
 31
0.0
  0
LINE
  5
407
  8
0
 10
360.980802276247
 20
14.85242708197296
 30
0.0
 11
360.980802276247
 21
13.00000014773854
 31
0.0
  0
LINE
  5
408
  8
0
 10
360.980802276247
 20
12.99999966541057
 30
0.0
 11
360.980802276247
 21
6.9378218389194819
 31
0.0
  0
LINE
  5
409
  8
0
 10
360.980802276247
 20
6.937821434786887
 30
0.0
 11
360.980802276247
 21
6.2385188813870673
 31
0.0
  0
LINE
  5
40A
  8
0
 10
360.980802276247
 20
6.2385188331950943
 30
0.0
 11
360.980802276247
 21
6.1220349656797959
 31
0.0
  0
LINE
  5
40B
  8
0
 10
360.980802276247
 20
6.1220346199576747
 30
0.0
 11
360.980802276247
 21
5.9999996654105319
 31
0.0
  0
LINE
  5
40C
  8
0
 10
353.47614505302261
 20
14.85057620789707
 30
0.0
 11
353.47614505302261
 21
52.418740891606902
 31
0.0
1001
ACAD
1000
ASC_BOUNDS
1002
{
1070
    19
1005
5BA
1002
}
  0
LINE
  5
40D
  8
0
 10
353.47614505302261
 20
52.451889805145591
 30
0.0
 11
353.47614505302261
 21
52.758614592972087
 31
0.0
1001
ACAD
1000
ASC_BOUNDS
1002
{
1070
    19
1005
5BA
1002
}
  0
LINE
  5
40E
  8
0
 10
360.980802276247
 20
27.929417157504329
 30
0.0
 11
360.980802276247
 21
14.850576207897049
 31
0.0
1001
ACAD
1000
ASC_BOUNDS
1002
{
1070
    19
1005
5BA
1002
}
  0
LINE
  5
40F
  8
0
 10
401.74581373664591
 20
47.999999665410641
 30
0.0
 11
401.74581373664591
 21
42.155410403868729
 31
0.0
1001
ACAD
1000
ASC_BOUNDS
1002
{
1070
    19
1005
5BA
1002
}
  0
LINE
  5
410
  8
0
 10
401.74581373664591
 20
42.15540921972633
 30
0.0
 11
401.74581373664591
 21
34.756969273294288
 31
0.0
1001
ACAD
1000
ASC_BOUNDS
1002
{
1070
    19
1005
5BA
1002
}
  0
LINE
  5
411
  8
0
 10
401.74581373664591
 20
34.756968048303591
 30
0.0
 11
401.74581373664591
 21
31.51607978561961
 31
0.0
1001
ACAD
1000
ASC_BOUNDS
1002
{
1070
    19
1005
5BA
1002
}
  0
LINE
  5
412
  8
0
 10
401.74581373664591
 20
31.516078334998799
 30
0.0
 11
401.74581373664591
 21
30.061478791290529
 31
0.0
1001
ACAD
1000
ASC_BOUNDS
1002
{
1070
    19
1005
5BA
1002
}
  0
LINE
  5
414
  8
0
 10
401.74581373664591
 20
65.938520539530643
 30
0.0
 11
401.74581373664591
 21
65.44920821357185
 31
0.0
1001
ACAD
1000
ASC_BOUNDS
1002
{
1070
    19
1005
5BA
1002
}
  0
LINE
  5
415
  8
0
 10
401.74581373664591
 20
65.44920445231854
 30
0.0
 11
401.74581373664591
 21
64.483920995822245
 31
0.0
1001
ACAD
1000
ASC_BOUNDS
1002
{
1070
    19
1005
5BA
1002
}
  0
LINE
  5
416
  8
0
 10
401.74581373664591
 20
64.483919545201644
 30
0.0
 11
401.74581373664591
 21
61.243030057526973
 31
0.0
1001
ACAD
1000
ASC_BOUNDS
1002
{
1070
    19
1005
5BA
1002
}
  0
LINE
  5
417
  8
0
 10
401.74581373664591
 20
61.243028443439762
 30
0.0
 11
401.74581373664591
 21
53.844590111094888
 31
0.0
1001
ACAD
1000
ASC_BOUNDS
1002
{
1070
    19
1005
5BA
1002
}
  0
LINE
  5
418
  8
0
 10
401.74581373664591
 20
53.84458892695222
 30
0.0
 11
401.74581373664591
 21
50.962703390389258
 31
0.0
1001
ACAD
1000
ASC_BOUNDS
1002
{
1070
    19
1005
5BA
1002
}
  0
LINE
  5
419
  8
0
 10
401.74581373664591
 20
50.962702290463817
 30
0.0
 11
401.74581373664591
 21
47.999999665410641
 31
0.0
1001
ACAD
1000
ASC_BOUNDS
1002
{
1070
    19
1005
5BA
1002
}
  0
LINE
  5
41A
  8
0
 10
374.980802276247
 20
15.99999966541014
 30
0.0
 11
360.980802276247
 21
15.99999966541014
 31
0.0
  0
LINE
  5
41B
  8
0
 10
360.980802276247
 20
5.9999996654102929
 30
0.0
 11
360.980802276247
 21
6.1703705339649506
 31
0.0
  0
LINE
  5
41C
  8
0
 10
374.980802276247
 20
15.99999966541027
 30
0.0
 11
374.980802276247
 21
15.82962937311917
 31
0.0
  0
LINE
  5
41D
  8
0
 10
374.980802276247
 20
15.82962879685561
 30
0.0
 11
374.980802276247
 21
15.330127597799271
 31
0.0
  0
LINE
  5
41E
  8
0
 10
374.980802276247
 20
15.33012668433247
 30
0.0
 11
374.980802276247
 21
14.53553412574599
 31
0.0
  0
LINE
  5
41F
  8
0
 10
374.980802276247
 20
14.53553357134302
 30
0.0
 11
374.980802276247
 21
12.294094890922899
 31
0.0
  0
LINE
  5
420
  8
0
 10
374.980802276247
 20
12.29409424315744
 30
0.0
 11
374.980802276247
 21
10.999999906574571
 31
0.0
  0
LINE
  5
421
  8
0
 10
374.980802276247
 20
10.999999665410281
 30
0.0
 11
374.980802276247
 21
9.7059044398976901
 31
0.0
  0
LINE
  5
422
  8
0
 10
374.980802276247
 20
9.7059041351064383
 30
0.0
 11
374.980802276247
 21
8.4999996654102965
 31
0.0
  0
LINE
  5
423
  8
0
 10
374.980802276247
 20
8.4999994044077578
 30
0.0
 11
374.980802276247
 21
6.6698726464880913
 31
0.0
  0
LINE
  5
424
  8
0
 10
374.980802276247
 20
6.6698723578222738
 30
0.0
 11
374.980802276247
 21
6.1703706608329476
 31
0.0
  0
LINE
  5
425
  8
0
 10
374.980802276247
 20
6.1703705339649373
 30
0.0
 11
374.980802276247
 21
5.9999996654102681
 31
0.0
  0
LINE
  5
426
  8
0
 10
353.47614505302261
 20
52.766580472102859
 30
0.0
 11
353.47614505302261
 21
55.2305173091641
 31
0.0
1001
ACAD
1000
ASC_BOUNDS
1002
{
1070
    19
1005
5BA
1002
}
  0
LINE
  5
427
  8
0
 10
353.47614505302261
 20
55.230520024420848
 30
0.0
 11
353.47614505302261
 21
60.191067954673997
 31
0.0
1001
ACAD
1000
ASC_BOUNDS
1002
{
1070
    19
1005
5BA
1002
}
  0
LINE
  5
428
  8
0
 10
353.47614505302261
 20
60.191070420509902
 30
0.0
 11
353.47614505302261
 21
65.024710016022084
 31
0.0
1001
ACAD
1000
ASC_BOUNDS
1002
{
1070
    19
1005
5BA
1002
}
  0
LINE
  5
429
  8
0
 10
353.47614505302261
 20
65.024711682218026
 30
0.0
 11
353.47614505302261
 21
65.938520539530643
 31
0.0
1001
ACAD
1000
ASC_BOUNDS
1002
{
1070
    19
1005
5BA
1002
}
  0
LINE
  5
42A
  8
0
 10
353.47614505302261
 20
65.754503126659685
 30
0.0
 11
353.47614505302261
 21
65.999999665410684
 31
0.0
1001
ACAD
1000
ASC_BOUNDS
1002
{
1070
    19
1005
5BA
1002
}
  0
LINE
  5
42B
  8
0
 10
353.47614505302261
 20
5.999999665410205
 30
0.0
 11
353.47614505302261
 21
6.2385188331953252
 31
0.0
1001
ACAD
1000
ASC_BOUNDS
1002
{
1070
    19
1005
5BA
1002
}
  0
LINE
  5
42C
  8
0
 10
353.47614505302261
 20
6.2385188813867281
 30
0.0
 11
353.47614505302261
 21
6.9378214347871028
 31
0.0
1001
ACAD
1000
ASC_BOUNDS
1002
{
1070
    19
1005
5BA
1002
}
  0
LINE
  5
42D
  8
0
 10
353.47614505302261
 20
6.9378218389191311
 30
0.0
 11
353.47614505302261
 21
12.99999966541019
 31
0.0
1001
ACAD
1000
ASC_BOUNDS
1002
{
1070
    19
1005
5BA
1002
}
  0
LINE
  5
42E
  8
0
 10
353.47614505302261
 20
13.0000001477386
 30
0.0
 11
353.47614505302261
 21
14.8524270819729
 31
0.0
1001
ACAD
1000
ASC_BOUNDS
1002
{
1070
    19
1005
5BA
1002
}
  0
LINE
  5
42F
  8
0
 10
360.980802276247
 20
14.85242708197293
 30
0.0
 11
360.980802276247
 21
13.000000147738641
 31
0.0
1001
ACAD
1000
ASC_BOUNDS
1002
{
1070
    19
1005
5BA
1002
}
  0
LINE
  5
430
  8
0
 10
360.980802276247
 20
12.99999966541022
 30
0.0
 11
360.980802276247
 21
6.9378218389191399
 31
0.0
1001
ACAD
1000
ASC_BOUNDS
1002
{
1070
    19
1005
5BA
1002
}
  0
LINE
  5
431
  8
0
 10
360.980802276247
 20
6.9378214347871108
 30
0.0
 11
360.980802276247
 21
6.2385188813867236
 31
0.0
1001
ACAD
1000
ASC_BOUNDS
1002
{
1070
    19
1005
5BA
1002
}
  0
LINE
  5
432
  8
0
 10
360.980802276247
 20
6.2385188331956094
 30
0.0
 11
360.980802276247
 21
6.1220349656791644
 31
0.0
1001
ACAD
1000
ASC_BOUNDS
1002
{
1070
    19
1005
5BA
1002
}
  0
LINE
  5
433
  8
0
 10
360.980802276247
 20
6.1220346199578621
 30
0.0
 11
360.980802276247
 21
5.9999996654101917
 31
0.0
1001
ACAD
1000
ASC_BOUNDS
1002
{
1070
    19
1005
5BA
1002
}
  0
LINE
  5
434
  8
0
 10
402.2308022762474
 20
5.9999996654127044
 30
0.0
 11
402.2308022762474
 21
97.999999665411082
 31
0.0
  0
LINE
  5
435
  8
0
 10
402.2308022762474
 20
97.999999665411082
 30
0.0
 11
352.98080227624752
 21
97.999999665411082
 31
0.0
  0
LINE
  5
436
  8
0
 10
352.98080227624752
 20
97.999999665411082
 30
0.0
 11
352.98080227624752
 21
5.9999996654127044
 31
0.0
  0
LINE
  5
437
  8
0
 10
394.23080227624649
 20
70.624999665410741
 30
0.0
 11
360.98080227624649
 21
70.624999665410428
 31
0.0
  0
LINE
  5
438
  8
0
 10
360.980802276247
 20
27.92394696633945
 30
0.0
 11
360.980802276247
 21
31.28105413916343
 31
0.0
1001
ACAD
1000
ASC_BOUNDS
1002
{
1070
    19
1005
5BA
1002
}
  0
LINE
  5
439
  8
0
 10
360.980802276247
 20
31.281055109307449
 30
0.0
 11
360.980802276247
 21
35.002732885320981
 31
0.0
1001
ACAD
1000
ASC_BOUNDS
1002
{
1070
    19
1005
5BA
1002
}
  0
LINE
  5
43A
  8
0
 10
360.980802276247
 20
35.00273359965361
 30
0.0
 11
360.980802276247
 21
38.816704033484328
 31
0.0
1001
ACAD
1000
ASC_BOUNDS
1002
{
1070
    19
1005
5BA
1002
}
  0
LINE
  5
43B
  8
0
 10
360.980802276247
 20
38.816705367640317
 30
0.0
 11
360.980802276247
 21
42.660358094901717
 31
0.0
1001
ACAD
1000
ASC_BOUNDS
1002
{
1070
    19
1005
5BA
1002
}
  0
LINE
  5
43C
  8
0
 10
360.980802276247
 20
42.660358426827692
 30
0.0
 11
360.980802276247
 21
46.470601520602067
 31
0.0
1001
ACAD
1000
ASC_BOUNDS
1002
{
1070
    19
1005
5BA
1002
}
  0
LINE
  5
43D
  8
0
 10
360.980802276247
 20
46.470602672408582
 30
0.0
 11
360.980802276247
 21
50.184886516744129
 31
0.0
1001
ACAD
1000
ASC_BOUNDS
1002
{
1070
    19
1005
5BA
1002
}
  0
LINE
  5
43E
  8
0
 10
360.980802276247
 20
50.184888554568431
 30
0.0
 11
360.980802276247
 21
53.742241811110617
 31
0.0
1001
ACAD
1000
ASC_BOUNDS
1002
{
1070
    19
1005
5BA
1002
}
  0
LINE
  5
43F
  8
0
 10
360.980802276247
 20
53.742244476109647
 30
0.0
 11
360.98080227624649
 21
57.084271868886447
 31
0.0
1001
ACAD
1000
ASC_BOUNDS
1002
{
1070
    19
1005
5BA
1002
}
  0
LINE
  5
440
  8
0
 10
360.98080227624649
 20
57.084274055235682
 30
0.0
 11
360.98080227624649
 21
62.907347987764616
 31
0.0
1001
ACAD
1000
ASC_BOUNDS
1002
{
1070
    19
1005
5BA
1002
}
  0
LINE
  5
441
  8
0
 10
360.98080227624649
 20
62.907348322942553
 30
0.0
 11
360.98080227624649
 21
65.29280572099627
 31
0.0
1001
ACAD
1000
ASC_BOUNDS
1002
{
1070
    19
1005
5BA
1002
}
  0
LINE
  5
442
  8
0
 10
360.98080227624649
 20
65.292806350748251
 30
0.0
 11
360.98080227624649
 21
67.27333068588436
 31
0.0
1001
ACAD
1000
ASC_BOUNDS
1002
{
1070
    19
1005
5BA
1002
}
  0
LINE
  5
443
  8
0
 10
360.98080227624649
 20
67.273332489468643
 30
0.0
 11
360.98080227624649
 21
68.816411703485926
 31
0.0
  0
LINE
  5
444
  8
0
 10
360.98080227624649
 20
68.816413945326872
 30
0.0
 11
360.98080227624649
 21
69.896718427566313
 31
0.0
  0
LINE
  5
445
  8
0
 10
360.98080227624649
 20
69.896718731936815
 30
0.0
 11
360.98080227624649
 21
70.605961923516332
 31
0.0
  0
LINE
  5
446
  8
0
 10
394.23080227624649
 20
70.605961923516674
 30
0.0
 11
394.23080227624649
 21
69.896718731936815
 31
0.0
  0
LINE
  5
447
  8
0
 10
394.23080227624649
 20
69.896718427566697
 30
0.0
 11
394.23080227624649
 21
68.816413945326957
 31
0.0
  0
LINE
  5
448
  8
0
 10
394.23080227624649
 20
68.816411703486352
 30
0.0
 11
394.23080227624649
 21
67.273332489468757
 31
0.0
  0
LINE
  5
449
  8
0
 10
394.23080227624649
 20
67.273330685884844
 30
0.0
 11
394.23080227624649
 21
65.292806350748435
 31
0.0
1001
ACAD
1000
ASC_BOUNDS
1002
{
1070
    19
1005
5BA
1002
}
  0
LINE
  5
44A
  8
0
 10
394.23080227624649
 20
65.292805720996739
 30
0.0
 11
394.23080227624649
 21
62.907348322942582
 31
0.0
1001
ACAD
1000
ASC_BOUNDS
1002
{
1070
    19
1005
5BA
1002
}
  0
LINE
  5
44B
  8
0
 10
394.23080227624649
 20
62.907347987765121
 30
0.0
 11
394.23080227624649
 21
57.08427405523593
 31
0.0
1001
ACAD
1000
ASC_BOUNDS
1002
{
1070
    19
1005
5BA
1002
}
  0
LINE
  5
44C
  8
0
 10
394.23080227624649
 20
57.084271868886979
 30
0.0
 11
394.23080227624649
 21
53.742244476109931
 31
0.0
1001
ACAD
1000
ASC_BOUNDS
1002
{
1070
    19
1005
5BA
1002
}
  0
LINE
  5
44D
  8
0
 10
394.23080227624649
 20
53.742241811111143
 30
0.0
 11
394.23080227624649
 21
50.184888554568552
 31
0.0
1001
ACAD
1000
ASC_BOUNDS
1002
{
1070
    19
1005
5BA
1002
}
  0
LINE
  5
44E
  8
0
 10
394.23080227624649
 20
50.184886516744697
 30
0.0
 11
394.230802276247
 21
46.470602672408688
 31
0.0
1001
ACAD
1000
ASC_BOUNDS
1002
{
1070
    19
1005
5BA
1002
}
  0
LINE
  5
44F
  8
0
 10
394.230802276247
 20
46.470601520602628
 30
0.0
 11
394.230802276247
 21
42.660358426828253
 31
0.0
1001
ACAD
1000
ASC_BOUNDS
1002
{
1070
    19
1005
5BA
1002
}
  0
LINE
  5
450
  8
0
 10
394.230802276247
 20
42.660358094901888
 30
0.0
 11
394.230802276247
 21
38.816705367640431
 31
0.0
1001
ACAD
1000
ASC_BOUNDS
1002
{
1070
    19
1005
5BA
1002
}
  0
LINE
  5
451
  8
0
 10
394.230802276247
 20
38.81670403348491
 30
0.0
 11
394.230802276247
 21
35.002733599654192
 31
0.0
1001
ACAD
1000
ASC_BOUNDS
1002
{
1070
    19
1005
5BA
1002
}
  0
LINE
  5
452
  8
0
 10
394.230802276247
 20
35.002732885321109
 30
0.0
 11
394.230802276247
 21
31.28105510930801
 31
0.0
1001
ACAD
1000
ASC_BOUNDS
1002
{
1070
    19
1005
5BA
1002
}
  0
LINE
  5
453
  8
0
 10
394.230802276247
 20
31.28105413916353
 30
0.0
 11
394.230802276247
 21
27.712761534013691
 31
0.0
1001
ACAD
1000
ASC_BOUNDS
1002
{
1070
    19
1005
5BA
1002
}
  0
LINE
  5
454
  8
0
 10
394.230802276247
 20
27.712760558246501
 30
0.0
 11
394.230802276247
 21
18.49564037570298
 31
0.0
  0
LINE
  5
455
  8
0
 10
394.230802276247
 20
18.495639714898001
 30
0.0
 11
394.230802276247
 21
16.087392906509411
 31
0.0
  0
LINE
  5
456
  8
0
 10
394.230802276247
 20
16.087392422272249
 30
0.0
 11
394.230802276247
 21
14.081940627839611
 31
0.0
  0
LINE
  5
457
  8
0
 10
394.230802276247
 20
14.08194027214631
 30
0.0
 11
394.230802276247
 21
12.51220469529469
 31
0.0
  0
LINE
  5
458
  8
0
 10
394.230802276247
 20
12.51220423150081
 30
0.0
 11
394.23080227624752
 21
11.40395269412747
 31
0.0
  0
LINE
  5
459
  8
0
 10
394.23080227624752
 20
11.403952522897351
 30
0.0
 11
394.23080227624752
 21
10.77537655221213
 31
0.0
  0
LINE
  5
45A
  8
0
 10
394.23080227624752
 20
10.775376552212149
 30
0.0
 11
394.23080227624752
 21
5.9999996654102867
 31
0.0
  0
LINE
  5
45B
  8
0
 10
352.98080227624752
 20
-0.0000003345884704
 30
0.0
 11
402.2308022762474
 21
-0.0000003345884711
 31
0.0
  0
LINE
  5
45C
  8
0
 10
402.2308022762474
 20
-0.0000003345884709
 30
0.0
 11
402.2308022762474
 21
5.9999996654139469
 31
0.0
  0
LINE
  5
45D
  8
0
 10
402.2308022762474
 20
5.9999996654139469
 30
0.0
 11
352.98080227624752
 21
5.9999996654139469
 31
0.0
1001
ACAD
1000
ASC_BOUNDS
1002
{
1070
    19
1005
5BA
1002
}
  0
LINE
  5
45E
  8
0
 10
352.98080227624752
 20
5.9999996654139469
 30
0.0
 11
352.98080227624752
 21
-0.0000003345884709
 31
0.0
  0
LINE
  5
45F
  8
0
 10
49.249999985548811
 20
5.9999996654127044
 30
0.0
 11
49.249999985548811
 21
97.999999665411082
 31
0.0
  0
LINE
  5
460
  8
0
 10
49.249999985548811
 20
97.999999665411082
 30
0.0
 11
-0.0000000144511887
 21
97.999999665411082
 31
0.0
  0
LINE
  5
461
  8
0
 10
-0.0000000144511887
 20
97.999999665411082
 30
0.0
 11
-0.0000000144511887
 21
5.9999996654127044
 31
0.0
  0
LINE
  5
462
  8
0
 10
-0.0000000144511887
 20
5.9999996654127044
 30
0.0
 11
5.9555402977130143
 21
5.9999996654127044
 31
0.0
  0
LINE
  5
463
  8
0
 10
11.669459673384379
 20
5.9999996654127044
 30
0.0
 11
49.249999985548811
 21
5.9999996654127044
 31
0.0
  0
LINE
  5
464
  8
0
 10
49.249999985548342
 20
-0.000000334590956
 30
0.0
 11
49.249999985548342
 21
5.9999996654114627
 31
0.0
  0
LINE
  5
465
  8
0
 10
49.249999985548342
 20
5.9999996654114627
 30
0.0
 11
11.66945967338483
 21
5.9999996654114627
 31
0.0
  0
LINE
  5
466
  8
0
 10
5.9555402977125587
 20
5.9999996654114627
 30
0.0
 11
-0.0000000144516434
 21
5.9999996654114627
 31
0.0
  0
LINE
  5
467
  8
0
 10
-0.0000000144516434
 20
5.9999996654114627
 30
0.0
 11
-0.0000000144516434
 21
-0.0000003345909569
 31
0.0
  0
LINE
  5
468
  8
0
 10
-0.0000000144516434
 20
-0.0000003345909567
 30
0.0
 11
49.249999985548342
 21
-0.000000334590956
 31
0.0
  0
ARC
  5
469
  8
0
 10
8.8124999855488113
 20
5.1249996654106642
 30
0.0
 40
2.999999999999992
 50
359.9999999999996
 51
179.99999999999969
  0
ARC
  5
46A
  8
0
 10
8.8124999855488113
 20
5.1249996654106642
 30
0.0
 40
3.0000000000000062
 50
180.00000000000011
 51
359.9999999999992
  0
ARC
  5
46B
  8
0
 10
24.624999985549039
 20
85.999999665410627
 30
0.0
 40
2.9999999999999911
 50
359.99999999999949
 51
179.9999999999996
  0
ARC
  5
46C
  8
0
 10
24.624999985549039
 20
85.999999665410627
 30
0.0
 40
3.0000000000000062
 50
180.00000000000011
 51
359.9999999999992
  0
LINE
  5
46D
  8
0
 10
287.71035501351008
 20
149.47589967262579
 30
0.0
 11
277.3189972016346
 21
149.47589967262579
 31
0.0
  0
LINE
  5
46E
  8
0
 10
277.3189972016346
 20
149.47589967262579
 30
0.0
 11
277.29425740905538
 21
149.47589967262579
 31
0.0
  0
LINE
  5
46F
  8
0
 10
286.90485263024908
 20
156.98055689585041
 30
0.0
 11
287.71035501351008
 21
156.98055689585041
 31
0.0
  0
LINE
  5
470
  8
0
 10
287.95940089379422
 20
156.98055689585041
 30
0.0
 11
287.95940089379422
 21
149.47589967262579
 31
0.0
  0
LINE
  5
471
  8
0
 10
241.95940089379411
 20
197.74556835624929
 30
0.0
 11
242.20489743254529
 21
197.74556835624929
 31
0.0
  0
LINE
  5
472
  8
0
 10
242.20489789434481
 20
197.74556835624929
 30
0.0
 11
242.93468887699319
 21
197.74556835624929
 31
0.0
  0
LINE
  5
473
  8
0
 10
242.9346905431828
 20
197.74556835624929
 30
0.0
 11
245.7548710578277
 21
197.74556835624929
 31
0.0
  0
LINE
  5
474
  8
0
 10
245.7548717246591
 20
197.74556835624929
 30
0.0
 11
252.72888325004089
 21
197.74556835624929
 31
0.0
  0
LINE
  5
475
  8
0
 10
252.7288834985483
 20
197.74556835624929
 30
0.0
 11
255.54066212525979
 21
197.74556835624929
 31
0.0
  0
LINE
  5
476
  8
0
 10
255.54066252214159
 20
197.74556835624929
 30
0.0
 11
258.47297267529223
 21
197.74556835624929
 31
0.0
  0
LINE
  5
477
  8
0
 10
258.47297358459258
 20
197.74556835624929
 30
0.0
 11
261.44582820300519
 21
197.74556835624929
 31
0.0
  0
LINE
  5
478
  8
0
 10
261.44582911229622
 20
197.74556835624929
 30
0.0
 11
264.37813926545618
 21
197.74556835624929
 31
0.0
  0
LINE
  5
479
  8
0
 10
264.37813966232852
 20
197.74556835624929
 30
0.0
 11
267.18991853754761
 21
197.74556835624929
 31
0.0
  0
LINE
  5
47A
  8
0
 10
267.18992125280948
 20
197.74556835624929
 30
0.0
 11
272.1504691830574
 21
197.74556835624929
 31
0.0
  0
LINE
  5
47B
  8
0
 10
272.15047164889887
 20
197.74556835624929
 30
0.0
 11
276.98411124440548
 21
197.74556835624929
 31
0.0
  0
LINE
  5
47C
  8
0
 10
276.98411291060808
 20
197.74556835624929
 30
0.0
 11
277.71390293301681
 21
197.74556835624929
 31
0.0
  0
LINE
  5
47D
  8
0
 10
277.71390435504298
 20
197.74556835624929
 30
0.0
 11
277.95940089379422
 21
197.74556835624929
 31
0.0
  0
LINE
  5
47E
  8
0
 10
259.95940089379422
 20
149.47589967262579
 30
0.0
 11
256.99669826874111
 21
149.47589967262579
 31
0.0
  0
LINE
  5
47F
  8
0
 10
256.99669716882039
 20
149.47589967262579
 30
0.0
 11
254.11481163225719
 21
149.47589967262579
 31
0.0
  0
LINE
  5
480
  8
0
 10
254.11481044811001
 20
149.47589967262579
 30
0.0
 11
246.7163705016778
 21
149.47589967262579
 31
0.0
  0
LINE
  5
481
  8
0
 10
246.7163692766926
 20
149.47589967262579
 30
0.0
 11
243.47548101400321
 21
149.47589967262579
 31
0.0
  0
LINE
  5
482
  8
0
 10
243.47547956338849
 20
149.47589967262579
 30
0.0
 11
242.51019636576731
 21
149.47589967262579
 31
0.0
  0
LINE
  5
483
  8
0
 10
242.5101961068863
 20
149.47589967262579
 30
0.0
 11
242.02088001967419
 21
149.47589967262579
 31
0.0
  0
LINE
  5
485
  8
0
 10
277.31871137232031
 20
149.47589967262579
 30
0.0
 11
276.44332222421178
 21
149.47589967262579
 31
0.0
  0
LINE
  5
486
  8
0
 10
276.4433207735853
 20
149.47589967262579
 30
0.0
 11
273.20243128591062
 21
149.47589967262579
 31
0.0
  0
LINE
  5
487
  8
0
 10
273.20242967182782
 20
149.47589967262579
 30
0.0
 11
265.8039913394785
 21
149.47589967262579
 31
0.0
  0
LINE
  5
488
  8
0
 10
265.80399015534073
 20
149.47589967262579
 30
0.0
 11
262.92210461877789
 21
149.47589967262579
 31
0.0
  0
LINE
  5
489
  8
0
 10
262.92210351884751
 20
149.47589967262579
 30
0.0
 11
259.95940089379422
 21
149.47589967262579
 31
0.0
  0
LINE
  5
48A
  8
0
 10
287.95940089379422
 20
149.47589967262579
 30
0.0
 11
287.71368935431559
 21
149.47589967262579
 31
0.0
  0
LINE
  5
48B
  8
0
 10
287.71368935431542
 20
156.98055689585041
 30
0.0
 11
287.95940089379422
 21
156.98055689585041
 31
0.0
  0
LINE
  5
48C
  8
0
 10
287.71035501351008
 20
149.47589967262579
 30
0.0
 11
277.3189972016346
 21
149.4758996726261
 31
0.0
  0
LINE
  5
48D
  8
0
 10
277.3189972016346
 20
149.4758996726261
 30
0.0
 11
277.29425740905549
 21
149.4758996726261
 31
0.0
  0
LINE
  5
48E
  8
0
 10
286.90485263024908
 20
156.98055689585041
 30
0.0
 11
287.71035501351008
 21
156.98055689585041
 31
0.0
  0
LINE
  5
48F
  8
0
 10
287.95940089379422
 20
156.98055689585041
 30
0.0
 11
287.95940089379422
 21
149.47589967262579
 31
0.0
  0
LINE
  5
490
  8
0
 10
241.95940089379431
 20
197.74556835624949
 30
0.0
 11
242.20489743254529
 21
197.74556835624949
 31
0.0
  0
LINE
  5
491
  8
0
 10
242.20489789434481
 20
197.74556835624949
 30
0.0
 11
242.93468887699319
 21
197.74556835624949
 31
0.0
  0
LINE
  5
492
  8
0
 10
242.9346905431828
 20
197.74556835624949
 30
0.0
 11
245.7548710578277
 21
197.74556835624949
 31
0.0
  0
LINE
  5
493
  8
0
 10
245.75487172465921
 20
197.74556835624949
 30
0.0
 11
252.72888325004089
 21
197.74556835624949
 31
0.0
  0
LINE
  5
494
  8
0
 10
252.7288834985483
 20
197.74556835624949
 30
0.0
 11
255.54066212525979
 21
197.74556835624949
 31
0.0
  0
LINE
  5
495
  8
0
 10
255.54066252214159
 20
197.74556835624949
 30
0.0
 11
258.47297267529223
 21
197.74556835624949
 31
0.0
  0
LINE
  5
496
  8
0
 10
258.47297358459269
 20
197.74556835624949
 30
0.0
 11
261.44582820300508
 21
197.74556835624949
 31
0.0
  0
LINE
  5
497
  8
0
 10
261.44582911229622
 20
197.74556835624949
 30
0.0
 11
264.37813926545641
 21
197.74556835624949
 31
0.0
  0
LINE
  5
498
  8
0
 10
264.37813966232858
 20
197.74556835624949
 30
0.0
 11
267.18991853754761
 21
197.74556835624949
 31
0.0
  0
LINE
  5
499
  8
0
 10
267.18992125280948
 20
197.74556835624949
 30
0.0
 11
272.1504691830574
 21
197.74556835624949
 31
0.0
  0
LINE
  5
49A
  8
0
 10
272.15047164889887
 20
197.74556835624949
 30
0.0
 11
276.98411124440548
 21
197.74556835624949
 31
0.0
  0
LINE
  5
49B
  8
0
 10
276.98411291060808
 20
197.74556835624949
 30
0.0
 11
277.71390293301681
 21
197.74556835624949
 31
0.0
  0
LINE
  5
49C
  8
0
 10
277.71390435504333
 20
197.74556835624949
 30
0.0
 11
277.95940089379422
 21
197.74556835624949
 31
0.0
  0
LINE
  5
49D
  8
0
 10
259.95940089379422
 20
149.4758996726261
 30
0.0
 11
256.99669826874111
 21
149.4758996726261
 31
0.0
  0
LINE
  5
49E
  8
0
 10
256.99669716882039
 20
149.4758996726261
 30
0.0
 11
254.11481163225699
 21
149.4758996726261
 31
0.0
  0
LINE
  5
49F
  8
0
 10
254.11481044811001
 20
149.4758996726261
 30
0.0
 11
246.7163705016778
 21
149.4758996726261
 31
0.0
  0
LINE
  5
4A0
  8
0
 10
246.7163692766926
 20
149.4758996726261
 30
0.0
 11
243.47548101400329
 21
149.4758996726261
 31
0.0
  0
LINE
  5
4A1
  8
0
 10
243.47547956338849
 20
149.4758996726261
 30
0.0
 11
242.51019636576731
 21
149.4758996726261
 31
0.0
  0
LINE
  5
4A2
  8
0
 10
242.51019610688641
 20
149.4758996726261
 30
0.0
 11
241.95940089379411
 21
149.4758996726261
 31
0.0
  0
LINE
  5
4A4
  8
0
 10
277.31871137232019
 20
149.4758996726261
 30
0.0
 11
276.44332222421178
 21
149.4758996726261
 31
0.0
  0
LINE
  5
4A5
  8
0
 10
276.4433207735853
 20
149.4758996726261
 30
0.0
 11
273.20243128591062
 21
149.4758996726261
 31
0.0
  0
LINE
  5
4A6
  8
0
 10
273.20242967182782
 20
149.4758996726261
 30
0.0
 11
265.8039913394785
 21
149.4758996726261
 31
0.0
  0
LINE
  5
4A7
  8
0
 10
265.80399015534073
 20
149.4758996726261
 30
0.0
 11
262.92210461877789
 21
149.4758996726261
 31
0.0
  0
LINE
  5
4A8
  8
0
 10
262.92210351884751
 20
149.4758996726261
 30
0.0
 11
259.95940089379422
 21
149.4758996726261
 31
0.0
  0
LINE
  5
4A9
  8
0
 10
287.95940089379422
 20
149.47589967262579
 30
0.0
 11
287.71368935431559
 21
149.47589967262579
 31
0.0
  0
LINE
  5
4AA
  8
0
 10
287.71368935431559
 20
156.98055689585041
 30
0.0
 11
287.95940089379422
 21
156.98055689585041
 31
0.0
  0
LINE
  5
4AB
  8
0
 10
217.7094008937944
 20
198.23055689585061
 30
0.0
 11
217.7094008937942
 21
148.98055689585061
 31
0.0
  0
LINE
  5
4AC
  8
0
 10
110.2094008937942
 20
148.98055689585081
 30
0.0
 11
110.2094008937943
 21
198.23055689585081
 31
0.0
  0
LINE
  5
4AD
  8
0
 10
110.2094008937943
 20
198.23055689585081
 30
0.0
 11
217.7094008937944
 21
198.23055689585061
 31
0.0
  0
LINE
  5
4AE
  8
0
 10
111.8344008937943
 20
196.60555689585081
 30
0.0
 11
216.0844008937942
 21
196.60555689585041
 31
0.0
1001
ACAD
1000
ASC_BOUNDS
1002
{
1070
    19
1005
5C4
1002
}
  0
LINE
  5
4AF
  8
0
 10
216.0844008937942
 20
196.60555689585041
 30
0.0
 11
216.0844008937942
 21
150.60555689585061
 31
0.0
1001
ACAD
1000
ASC_BOUNDS
1002
{
1070
    19
1005
5C4
1002
}
  0
LINE
  5
4B0
  8
0
 10
216.0844008937942
 20
150.60555689585061
 30
0.0
 11
111.8344008937941
 21
150.60555689585081
 31
0.0
1001
ACAD
1000
ASC_BOUNDS
1002
{
1070
    19
1005
5C4
1002
}
  0
LINE
  5
4B1
  8
0
 10
111.8344008937941
 20
150.60555689585081
 30
0.0
 11
111.8344008937943
 21
196.60555689585081
 31
0.0
1001
ACAD
1000
ASC_BOUNDS
1002
{
1070
    19
1005
5C4
1002
}
  0
LINE
  5
4B2
  8
0
 10
110.2094008937942
 20
148.98055689585081
 30
0.0
 11
217.7094008937942
 21
148.98055689585061
 31
0.0
  0
LINE
  5
4B3
  8
0
 10
286.95940089379428
 20
156.98055689585041
 30
0.0
 11
286.95940089379428
 21
190.2305568958503
 31
0.0
  0
LINE
  5
4B4
  8
0
 10
286.90485241664783
 20
156.98055689585041
 30
0.0
 11
286.89028066573781
 21
156.98055689585041
 31
0.0
  0
LINE
  5
4B5
  8
0
 10
286.89027650264228
 20
156.98055689585041
 30
0.0
 11
286.38437224383301
 21
156.98055689585041
 31
0.0
  0
LINE
  5
4B6
  8
0
 10
286.38437025024479
 20
156.98055689585041
 30
0.0
 11
285.39544589994409
 21
156.98055689585041
 31
0.0
  0
LINE
  5
4B7
  8
0
 10
285.39544427872579
 20
156.98055689585041
 30
0.0
 11
283.93972884316179
 21
156.9805568958501
 31
0.0
  0
LINE
  5
4B8
  8
0
 10
283.93972629011
 20
156.9805568958501
 30
0.0
 11
282.04111452209111
 21
156.9805568958501
 31
0.0
  0
LINE
  5
4B9
  8
0
 10
282.04111369499969
 20
156.9805568958501
 30
0.0
 11
277.04663747938338
 21
156.9805568958501
 31
0.0
  0
LINE
  5
4BA
  8
0
 10
277.04663448235209
 20
156.9805568958501
 30
0.0
 11
274.03275575514863
 21
156.9805568958501
 31
0.0
  0
LINE
  5
4BB
  8
0
 10
274.03275277337582
 20
156.9805568958501
 30
0.0
 11
270.73860456538762
 21
156.9805568958501
 31
0.0
  0
LINE
  5
4BC
  8
0
 10
270.73860246514039
 20
156.9805568958501
 30
0.0
 11
267.21826473436931
 21
156.9805568958501
 31
0.0
  0
LINE
  5
4BD
  8
0
 10
267.21826248185567
 20
156.9805568958501
 30
0.0
 11
263.52952119020102
 21
156.9805568958501
 31
0.0
  0
LINE
  5
4BE
  8
0
 10
263.5295198139213
 20
156.9805568958501
 30
0.0
 11
255.89080310039819
 21
156.9805568958501
 31
0.0
  0
LINE
  5
4BF
  8
0
 10
255.89080271017741
 20
156.9805568958501
 30
0.0
 11
252.0662219439179
 21
156.9805568958501
 31
0.0
  0
LINE
  5
4C0
  8
0
 10
252.06622066146181
 20
156.9805568958501
 30
0.0
 11
248.32196229508031
 21
156.9805568958501
 31
0.0
  0
LINE
  5
4C1
  8
0
 10
248.3219611406368
 20
156.9805568958501
 30
0.0
 11
244.71949124108841
 21
156.9805568958501
 31
0.0
  0
LINE
  5
4C2
  8
0
 10
244.7194898143922
 20
156.9805568958501
 30
0.0
 11
217.70940089379451
 21
156.9805568958501
 31
0.0
  0
LINE
  5
4C3
  8
0
 10
217.70940089379451
 20
190.2305568958501
 30
0.0
 11
244.7194898143922
 21
190.2305568958501
 31
0.0
  0
LINE
  5
4C4
  8
0
 10
244.71949124108821
 20
190.2305568958501
 30
0.0
 11
248.32196114063649
 21
190.2305568958501
 31
0.0
  0
LINE
  5
4C5
  8
0
 10
248.32196229508
 20
190.2305568958501
 30
0.0
 11
252.0662206614617
 21
190.2305568958501
 31
0.0
  0
LINE
  5
4C6
  8
0
 10
252.0662219439175
 20
190.2305568958501
 30
0.0
 11
255.8908027101771
 21
190.2305568958501
 31
0.0
  0
LINE
  5
4C7
  8
0
 10
255.8908031003977
 20
190.2305568958501
 30
0.0
 11
263.52951981392113
 21
190.2305568958501
 31
0.0
  0
LINE
  5
4C8
  8
0
 10
263.52952119020063
 20
190.2305568958501
 30
0.0
 11
267.2182624818555
 21
190.2305568958501
 31
0.0
  0
LINE
  5
4C9
  8
0
 10
267.21826473436897
 20
190.2305568958501
 30
0.0
 11
270.7386024651401
 21
190.2305568958501
 31
0.0
  0
LINE
  5
4CA
  8
0
 10
270.73860456538739
 20
190.2305568958501
 30
0.0
 11
274.03275277337548
 21
190.2305568958501
 31
0.0
  0
LINE
  5
4CB
  8
0
 10
274.03275575514829
 20
190.2305568958501
 30
0.0
 11
277.04663448235209
 21
190.2305568958501
 31
0.0
  0
LINE
  5
4CC
  8
0
 10
277.04663747938321
 20
190.2305568958501
 30
0.0
 11
282.04111369499952
 21
190.2305568958501
 31
0.0
  0
LINE
  5
4CD
  8
0
 10
282.04111452209099
 20
190.2305568958501
 30
0.0
 11
283.93972629010989
 21
190.2305568958501
 31
0.0
  0
LINE
  5
4CE
  8
0
 10
283.93972884316167
 20
190.2305568958501
 30
0.0
 11
285.39544427872579
 21
190.2305568958503
 31
0.0
  0
LINE
  5
4CF
  8
0
 10
285.39544589994381
 20
190.2305568958503
 30
0.0
 11
286.38437025024479
 21
190.2305568958503
 31
0.0
  0
LINE
  5
4D0
  8
0
 10
286.38437224383301
 20
190.2305568958503
 30
0.0
 11
286.89027650264228
 21
190.2305568958503
 31
0.0
  0
LINE
  5
4D1
  8
0
 10
286.89028066573781
 20
190.2305568958503
 30
0.0
 11
286.90485241664783
 21
190.2305568958503
 31
0.0
  0
LINE
  5
4D2
  8
0
 10
289.95940089379422
 20
198.23055689585101
 30
0.0
 11
289.95940089379422
 21
148.98055689585109
 31
0.0
  0
LINE
  5
4D3
  8
0
 10
289.95940089379422
 20
148.98055689585109
 30
0.0
 11
217.7094008937942
 21
148.98055689585109
 31
0.0
  0
LINE
  5
4D4
  8
0
 10
289.95940089379422
 20
198.23055689585101
 30
0.0
 11
217.7094008937944
 21
198.23055689585101
 31
0.0
  0
LINE
  5
4D5
  8
0
 10
106.084400893794
 20
186.41805689585081
 30
0.0
 11
110.209400893794
 21
186.41805689585081
 31
0.0
  0
LINE
  5
4D6
  8
0
 10
110.209400893794
 20
192.41805689585081
 30
0.0
 11
106.084400893794
 21
192.41805689585081
 31
0.0
  0
LINE
  5
4D7
  8
0
 10
106.084400893794
 20
170.60555689585061
 30
0.0
 11
110.209400893794
 21
170.60555689585061
 31
0.0
  0
LINE
  5
4D8
  8
0
 10
110.209400893794
 20
176.60555689585061
 30
0.0
 11
106.084400893794
 21
176.60555689585061
 31
0.0
  0
LINE
  5
4D9
  8
0
 10
106.0844008937943
 20
186.41805689585081
 30
0.0
 11
106.0844008937943
 21
186.52027889901561
 31
0.0
  0
LINE
  5
4DA
  8
0
 10
106.0844008937943
 20
186.5202794169835
 30
0.0
 11
106.0844008937943
 21
186.81997964806499
 31
0.0
  0
LINE
  5
4DB
  8
0
 10
106.0844008937943
 20
186.81998068449749
 30
0.0
 11
106.0844008937943
 21
188.6415988869098
 31
0.0
  0
LINE
  5
4DC
  8
0
 10
106.0844008937943
 20
188.6415997605431
 30
0.0
 11
106.0844008937943
 21
189.41805689585081
 31
0.0
  0
LINE
  5
4DD
  8
0
 10
106.0844008937943
 20
189.41805767644351
 30
0.0
 11
106.0844008937943
 21
190.19451355788621
 31
0.0
  0
LINE
  5
4DE
  8
0
 10
106.0844008937943
 20
190.19451403115829
 30
0.0
 11
106.0844008937943
 21
191.53937723941041
 31
0.0
  0
LINE
  5
4DF
  8
0
 10
106.0844008937943
 20
191.53937747117351
 30
0.0
 11
106.0844008937943
 21
192.31583437471789
 31
0.0
  0
LINE
  5
4E0
  8
0
 10
106.0844008937943
 20
192.31583511719731
 30
0.0
 11
106.0844008937943
 21
192.41805689585081
 31
0.0
  0
LINE
  5
4E1
  8
0
 10
106.0844008937943
 20
170.60555689585061
 30
0.0
 11
106.0844008937943
 21
171.00748068449721
 31
0.0
  0
LINE
  5
4E2
  8
0
 10
106.0844008937943
 20
171.00748081850031
 30
0.0
 11
106.0844008937943
 21
171.48423589658921
 31
0.0
  0
LINE
  5
4E3
  8
0
 10
106.0844008937943
 20
171.48423655229081
 30
0.0
 11
106.0844008937943
 21
172.1055556526355
 31
0.0
  0
LINE
  5
4E4
  8
0
 10
106.0844008937943
 20
172.10555689585061
 30
0.0
 11
106.0844008937943
 21
172.82909976054279
 31
0.0
  0
LINE
  5
4E5
  8
0
 10
106.0844008937943
 20
172.8290998782326
 30
0.0
 11
106.0844008937943
 21
173.60555574713169
 31
0.0
  0
LINE
  5
4E6
  8
0
 10
106.0844008937943
 20
173.60555689585061
 30
0.0
 11
106.0844008937943
 21
174.38201403115809
 31
0.0
  0
LINE
  5
4E7
  8
0
 10
106.0844008937943
 20
174.3820145232045
 30
0.0
 11
106.0844008937943
 21
175.7268772394101
 31
0.0
  0
LINE
  5
4E8
  8
0
 10
106.0844008937943
 20
175.72687858208329
 30
0.0
 11
106.0844008937943
 21
176.2036331072037
 31
0.0
  0
LINE
  5
4E9
  8
0
 10
106.0844008937943
 20
176.20363366677171
 30
0.0
 11
106.0844008937943
 21
176.60555689585061
 31
0.0
  0
LINE
  5
4EA
  8
0
 10
277.95940089379422
 20
197.74556835624929
 30
0.0
 11
277.95940089379422
 21
190.2305568958499
 31
0.0
  0
LINE
  5
4EB
  8
0
 10
241.95940089379411
 20
197.74556835624909
 30
0.0
 11
241.95940089379411
 21
190.2305568958497
 31
0.0
  0
LINE
  5
4EC
  8
0
 10
241.95940089379411
 20
156.98055689585041
 30
0.0
 11
241.95940089379411
 21
149.4758996726261
 31
0.0
  0
LINE
  5
4ED
  8
0
 10
401.74581373664591
 20
65.938520539530643
 30
0.0
 11
394.230802276247
 21
65.938520539530643
 31
0.0
1001
ACAD
1000
ASC_BOUNDS
1002
{
1070
    19
1005
5BA
1002
}
  0
LINE
  5
4EE
  8
0
 10
360.9808022762461
 20
65.938520539530643
 30
0.0
 11
353.47614505302261
 21
65.938520539530643
 31
0.0
1001
ACAD
1000
ASC_BOUNDS
1002
{
1070
    19
1005
5BA
1002
}
  0
LINE
  5
4EF
  8
0
 10
401.74581373664591
 20
30.061478791290529
 30
0.0
 11
394.230802276247
 21
30.061478791290529
 31
0.0
1001
ACAD
1000
ASC_BOUNDS
1002
{
1070
    19
1005
5BA
1002
}
  0
INSERT
  5
532
  8
0
  6
CONTINUOUS
  2
*X8
 10
0.0
 20
0.0
 30
0.0
1001
GRADIENTCOLOR1ACI
1070
     5
1001
GRADIENTCOLOR2ACI
1070
     2
1001
ACAD
1000
HATCH
1002
{
1070
    19
1000
NET
1040
12.0
1040
-0.7853981633974485
1000
R14_HATCH_DATA
1000
532
1011
1.0
1021
0.0
1031
0.0
1021
0.0
1031
0.0
1011
0.0
1021
0.0
1031
0.0
1021
1.0
1031
0.0
1011
0.0
1021
0.0
1031
0.0
1021
0.0
1031
1.0
1040
0.0
1010
0.0
1020
0.0
1030
1.0
1000
NET
1070
     0
1070
     0
1071
        2
1071
        7
1070
     0
1070
     1
1071
       25
1040
267.2182624818555
1040
190.2305568958501
1040
270.7386024651401
1040
190.2305568958501
1040
274.03275277337548
1040
190.2305568958501
1040
277.04663448235209
1040
190.2305568958501
1040
277.95940089379422
1040
190.2305568958501
1040
277.95940089379422
1040
197.74556835624949
1040
277.71390435504333
1040
197.74556835624949
1040
276.98411291060808
1040
197.74556835624949
1040
272.15047164889887
1040
197.74556835624949
1040
267.18992125280948
1040
197.74556835624949
1040
264.37813966232858
1040
197.74556835624949
1040
261.44582911229622
1040
197.74556835624949
1040
258.47297358459269
1040
197.74556835624949
1040
255.54066252214159
1040
197.74556835624949
1040
252.7288834985483
1040
197.74556835624949
1040
245.75487172465921
1040
197.74556835624949
1040
242.9346905431828
1040
197.74556835624949
1040
242.20489789434481
1040
197.74556835624949
1040
241.95940089379411
1040
197.74556835624949
1040
241.95940089379411
1040
190.2305568958501
1040
244.7194898143922
1040
190.2305568958501
1040
248.32196114063649
1040
190.2305568958501
1040
252.0662206614617
1040
190.2305568958501
1040
255.8908027101771
1040
190.2305568958501
1040
263.52951981392113
1040
190.2305568958501
1071
        0
1071
        7
1070
     0
1070
     1
1071
       32
1040
273.20242967182782
1040
149.4758996726261
1040
276.4433207735853
1040
149.4758996726261
1040
277.31871137232019
1040
149.4758996726261
1040
277.3189972016346
1040
149.4758996726261
1040
287.71035501351008
1040
149.47589967262579
1040
287.95940089379422
1040
149.47589967262579
1040
287.95940089379422
1040
156.98055689585041
1040
287.71368935431559
1040
156.98055689585041
1040
286.90485263024908
1040
156.98055689585041
1040
286.38437224383301
1040
156.98055689585041
1040
285.39544589994409
1040
156.98055689585041
1040
283.93972884316179
1040
156.9805568958501
1040
282.04111452209111
1040
156.9805568958501
1040
277.04663747938338
1040
156.9805568958501
1040
274.03275575514863
1040
156.9805568958501
1040
270.73860456538762
1040
156.9805568958501
1040
267.21826473436931
1040
156.9805568958501
1040
263.52952119020102
1040
156.9805568958501
1040
255.89080310039819
1040
156.9805568958501
1040
252.0662219439179
1040
156.9805568958501
1040
248.32196229508031
1040
156.9805568958501
1040
244.71949124108841
1040
156.9805568958501
1040
241.95940089379411
1040
156.9805568958501
1040
241.95940089379411
1040
149.4758996726261
1040
242.51019610688641
1040
149.4758996726261
1040
243.47547956338849
1040
149.4758996726261
1040
246.7163692766926
1040
149.4758996726261
1040
254.11481044811001
1040
149.4758996726261
1040
256.99669716882039
1040
149.4758996726261
1040
259.95940089379422
1040
149.4758996726261
1040
262.92210351884751
1040
149.4758996726261
1040
265.80399015534073
1040
149.4758996726261
1071
        0
1070
     1
1070
     1
1040
-0.7853981633974485
1040
12.0
1070
     0
1070
     2
1040
5.4977871437821371
1040
-27.19686722403468
1040
198.23055688139971
1040
1.060660171779821
1040
1.0606601717798201
1070
     0
1040
0.7853981633974473
1040
-27.19686722403468
1040
198.23055688139971
1040
-1.0606601717798201
1040
1.060660171779821
1070
     0
1040
0.0877938105835827
1071
        2
1040
266.51242568906071
1040
195.47558824970349
1040
0.0
1040
271.16549816506051
1040
154.1925825839154
1040
0.0
1002
}
  0
INSERT
  5
57F
  8
0
  6
CONTINUOUS
  2
*X5
 10
0.0
 20
0.0
 30
0.0
1001
GRADIENTCOLOR1ACI
1070
     5
1001
GRADIENTCOLOR2ACI
1070
     2
1001
ACAD
1000
HATCH
1002
{
1070
    19
1000
NET
1040
12.0
1040
0.7853981633974483
1000
ASC_BOUNDS
1070
     1
1070
     1
1070
     6
1005
36F
1005
36D
1005
36C
1005
36E
1005
36A
1005
36B
1000
ASC_SEEDPOINT
1011
254.84847351809529
1021
0.0
1031
0.0
1021
49.311920063645402
1031
0.0
1000
R14_HATCH_DATA
1000
57F
1011
1.0
1021
0.0
1031
0.0
1021
0.0
1031
0.0
1011
0.0
1021
0.0
1031
0.0
1021
1.0
1031
0.0
1011
0.0
1021
0.0
1031
0.0
1021
0.0
1031
1.0
1040
0.0
1010
0.0
1020
0.0
1030
1.0
1000
NET
1070
     0
1070
     1
1071
        1
1071
        7
1070
     1
1070
     1
1071
        6
1040
277.31899720163437
1040
52.758614592972719
1040
0.3378522770246543
1040
259.95940089379411
1040
65.999999665411011
1040
0.6783124970280924
1040
247.59140122460889
1040
34.922057006757257
1040
0.0
1040
276.149623244667
1040
7.9141330759340871
1040
0.1916731857395706
1040
280.95940089379451
1040
5.9999996654105541
1040
0.494933360242091
1040
287.7103550135102
1040
14.850572137240061
1040
0.0
1071
        6
1005
36B
1005
36A
1005
36E
1005
36C
1005
36D
1005
36F
1070
     1
1070
     1
1040
0.7853981633974483
1040
12.0
1070
     0
1070
     2
1040
0.7853981633974483
1040
0.0
1040
0.0
1040
-1.0606601717798201
1040
1.0606601717798201
1070
     0
1040
2.3561944901923431
1040
0.0
1040
0.0
1040
-1.0606601717798201
1040
-1.0606601717798201
1070
     0
1040
0.1412409153776736
1071
        1
1040
254.84847351809529
1040
49.311920063645402
1040
0.0
1002
}
  0
INSERT
  5
5BA
  8
0
  6
CONTINUOUS
  2
*X6
 10
0.0
 20
0.0
 30
0.0
1001
GRADIENTCOLOR1ACI
1070
     5
1001
GRADIENTCOLOR2ACI
1070
     2
1001
ACAD
1000
HATCH
1002
{
1070
    19
1000
NET
1040
12.0
1040
0.7853981633974483
1000
ASC_BOUNDS
1070
     2
1070
     1
1070
    23
1005
40F
1005
410
1005
411
1005
412
1005
4EF
1005
453
1005
452
1005
451
1005
450
1005
44F
1005
44E
1005
44D
1005
44C
1005
44B
1005
44A
1005
449
1005
4ED
1005
414
1005
415
1005
416
1005
417
1005
418
1005
419
1070
     1
1070
    30
1005
43C
1005
43B
1005
43A
1005
439
1005
438
1005
40E
1005
42F
1005
430
1005
431
1005
432
1005
433
1005
45D
1005
42B
1005
42C
1005
42D
1005
42E
1005
40C
1005
40D
1005
426
1005
427
1005
428
1005
429
1005
42A
1005
4EE
1005
442
1005
441
1005
440
1005
43F
1005
43E
1005
43D
1000
ASC_SEEDPOINT
1011
357.72148475657599
1021
0.0
1031
0.0
1021
43.097319660114529
1031
0.0
1000
R14_HATCH_DATA
1000
5BA
1011
1.0
1021
0.0
1031
0.0
1021
0.0
1031
0.0
1011
0.0
1021
0.0
1031
0.0
1021
1.0
1031
0.0
1011
0.0
1021
0.0
1031
0.0
1021
0.0
1031
1.0
1040
0.0
1010
0.0
1020
0.0
1030
1.0
1000
NET
1070
     0
1070
     1
1071
        2
1071
        7
1070
     0
1070
     1
1071
       30
1040
360.980802276247
1040
46.470601520602067
1040
360.980802276247
1040
50.184886516744129
1040
360.980802276247
1040
53.742241811110617
1040
360.98080227624649
1040
57.084271868886447
1040
360.98080227624649
1040
62.907347987764616
1040
360.98080227624649
1040
65.29280572099627
1040
360.98080227624649
1040
65.938520539530643
1040
353.47614505302261
1040
65.938520539530643
1040
353.47614505302261
1040
65.754503126659685
1040
353.47614505302261
1040
65.024711682218026
1040
353.47614505302261
1040
60.191070420509902
1040
353.47614505302261
1040
55.230520024420848
1040
353.47614505302261
1040
52.766580472102859
1040
353.47614505302261
1040
52.451889805145591
1040
353.47614505302261
1040
14.85057620789707
1040
353.47614505302261
1040
13.0000001477386
1040
353.47614505302261
1040
6.9378218389191328
1040
353.47614505302261
1040
6.2385188813867298
1040
353.47614505302261
1040
5.9999996654139522
1040
360.980802276247
1040
5.9999996654139522
1040
360.980802276247
1040
6.1220346199578639
1040
360.980802276247
1040
6.2385188331956121
1040
360.980802276247
1040
6.937821434787109
1040
360.980802276247
1040
12.99999966541022
1040
360.980802276247
1040
14.85242708197293
1040
360.980802276247
1040
27.929417157504329
1040
360.980802276247
1040
31.28105413916343
1040
360.980802276247
1040
35.002732885320981
1040
360.980802276247
1040
38.816704033484328
1040
360.980802276247
1040
42.660358094901717
1071
       30
1005
43D
1005
43E
1005
43F
1005
440
1005
441
1005
442
1005
4EE
1005
42A
1005
429
1005
428
1005
427
1005
426
1005
40D
1005
40C
1005
42E
1005
42D
1005
42C
1005
42B
1005
45D
1005
433
1005
432
1005
431
1005
430
1005
42F
1005
40E
1005
438
1005
439
1005
43A
1005
43B
1005
43C
1071
        7
1070
     0
1070
     1
1071
       23
1040
401.74581373664591
1040
47.999999665410641
1040
401.74581373664591
1040
50.962702290463817
1040
401.74581373664591
1040
53.84458892695222
1040
401.74581373664591
1040
61.243028443439762
1040
401.74581373664591
1040
64.483919545201644
1040
401.74581373664591
1040
65.44920445231854
1040
401.74581373664591
1040
65.938520539530643
1040
394.23080227624649
1040
65.938520539530643
1040
394.23080227624649
1040
65.292806350748435
1040
394.23080227624649
1040
62.907348322942582
1040
394.23080227624649
1040
57.08427405523593
1040
394.23080227624649
1040
53.742244476109931
1040
394.23080227624649
1040
50.184888554568552
1040
394.230802276247
1040
46.470602672408688
1040
394.230802276247
1040
42.660358426828253
1040
394.230802276247
1040
38.816705367640431
1040
394.230802276247
1040
35.002733599654192
1040
394.230802276247
1040
31.28105510930801
1040
394.230802276247
1040
30.061478791290529
1040
401.74581373664591
1040
30.061478791290529
1040
401.74581373664591
1040
31.516078334998799
1040
401.74581373664591
1040
34.756968048303591
1040
401.74581373664591
1040
42.15540921972633
1071
       23
1005
419
1005
418
1005
417
1005
416
1005
415
1005
414
1005
4ED
1005
449
1005
44A
1005
44B
1005
44C
1005
44D
1005
44E
1005
44F
1005
450
1005
451
1005
452
1005
453
1005
4EF
1005
412
1005
411
1005
410
1005
40F
1070
     1
1070
     1
1040
0.7853981633974483
1040
12.0
1070
     0
1070
     2
1040
0.7853981633974483
1040
0.0
1040
0.0
1040
-1.0606601717798201
1040
1.0606601717798201
1070
     0
1040
2.3561944901923431
1040
0.0
1040
0.0
1040
-1.0606601717798201
1040
-1.0606601717798201
1070
     0
1040
0.1412409153776736
1071
        2
1040
357.72148475657599
1040
43.097319660114529
1040
0.0
1040
397.28802743938257
1040
45.215933383362639
1040
0.0
1002
}
  0
INSERT
  5
5C4
  8
0
  6
CONTINUOUS
  2
*X9
 10
0.0
 20
0.0
 30
0.0
1001
GRADIENTCOLOR1ACI
1070
     5
1001
GRADIENTCOLOR2ACI
1070
     2
1001
ACAD
1000
HATCH
1002
{
1070
    19
1000
ANSI31
1040
12.0
1040
-0.7853981633974485
1000
ASC_BOUNDS
1070
     1
1070
     1
1070
     4
1005
4B0
1005
4B1
1005
4AE
1005
4AF
1000
ASC_SEEDPOINT
1011
188.73474930339509
1021
0.0
1031
0.0
1021
184.46020250200189
1031
0.0
1000
R14_HATCH_DATA
1000
5C4
1011
1.0
1021
0.0
1031
0.0
1021
0.0
1031
0.0
1011
0.0
1021
0.0
1031
0.0
1021
1.0
1031
0.0
1011
0.0
1021
0.0
1031
0.0
1021
0.0
1031
1.0
1040
0.0
1010
0.0
1020
0.0
1030
1.0
1000
ANSI31
1070
     0
1070
     1
1071
        1
1071
        7
1070
     0
1070
     1
1071
        4
1040
111.8344008937943
1040
196.60555689585081
1040
111.8344008937941
1040
150.60555689585081
1040
216.0844008937942
1040
150.60555689585061
1040
216.0844008937942
1040
196.60555689585041
1071
        4
1005
4AF
1005
4AE
1005
4B1
1005
4B0
1070
     1
1070
     1
1040
-0.7853981633974485
1040
12.0
1070
     0
1070
     1
1040
6.2831853071795853
1040
-27.19686722403468
1040
198.23055688139971
1040
0.0000000000000005
1040
1.5
1070
     0
1040
0.1433268844722773
1071
        1
1040
188.73474930339509
1040
184.46020250200189
1040
0.0
1002
}
  0
ENDSEC
  0
EOF
