  0
SECTION
  2
HEADER
  9
$ACADVER
  1
AC1009
  9
$INSBASE
 10
0.0
 20
0.0
 30
0.0
  9
$EXTMIN
 10
-0.0131373456458732
 20
-0.0107561950579793
 30
-0.0015258207003583
  9
$EXTMAX
 10
430.5275425260275
 20
181.46009915012209
 30
0.0000000349246037
  9
$LIMMIN
 10
0.0
 20
0.0
  9
$LIMMAX
 10
12.0
 20
9.0
  9
$ORTHOMODE
 70
     1
  9
$REGENMODE
 70
     1
  9
$FILLMODE
 70
     1
  9
$QTEXTMODE
 70
     0
  9
$MIRRTEXT
 70
     0
  9
$DRAGMODE
 70
     2
  9
$LTSCALE
 40
1.0
  9
$OSMODE
 70
    37
  9
$ATTMODE
 70
     1
  9
$TEXTSIZE
 40
0.2
  9
$TRACEWID
 40
0.05
  9
$TEXTSTYLE
  7
ROMANS
  9
$CLAYER
  8
0
  9
$CELTYPE
  6
BYLAYER
  9
$CECOLOR
 62
   256
  9
$DIMSCALE
 40
1.0
  9
$DIMASZ
 40
0.09375
  9
$DIMEXO
 40
0.0625
  9
$DIMDLI
 40
0.375
  9
$DIMRND
 40
0.0
  9
$DIMDLE
 40
0.0
  9
$DIMEXE
 40
0.03125
  9
$DIMTP
 40
0.0
  9
$DIMTM
 40
0.0
  9
$DIMTXT
 40
0.09375
  9
$DIMCEN
 40
0.09375
  9
$DIMTSZ
 40
0.0
  9
$DIMTOL
 70
     0
  9
$DIMLIM
 70
     0
  9
$DIMTIH
 70
     0
  9
$DIMTOH
 70
     0
  9
$DIMSE1
 70
     0
  9
$DIMSE2
 70
     0
  9
$DIMTAD
 70
     0
  9
$DIMZIN
 70
     0
  9
$DIMBLK
  1

  9
$DIMASO
 70
     1
  9
$DIMSHO
 70
     1
  9
$DIMPOST
  1

  9
$DIMAPOST
  1

  9
$DIMALT
 70
     0
  9
$DIMALTD
 70
     2
  9
$DIMALTF
 40
25.399999999999999
  9
$DIMLFAC
 40
1.0
  9
$DIMTOFL
 70
     0
  9
$DIMTVP
 40
0.0
  9
$DIMTIX
 70
     0
  9
$DIMSOXD
 70
     0
  9
$DIMSAH
 70
     0
  9
$DIMBLK1
  1

  9
$DIMBLK2
  1

  9
$DIMSTYLE
  2
BAC
  9
$DIMCLRD
 70
     0
  9
$DIMCLRE
 70
     6
  9
$DIMCLRT
 70
     0
  9
$DIMTFAC
 40
1.0
  9
$DIMGAP
 40
0.0625
  9
$LUNITS
 70
     5
  9
$LUPREC
 70
     6
  9
$SKETCHINC
 40
0.1
  9
$FILLETRAD
 40
0.5
  9
$AUNITS
 70
     0
  9
$AUPREC
 70
     0
  9
$MENU
  1
.
  9
$ELEVATION
 40
0.0
  9
$PELEVATION
 40
0.0
  9
$THICKNESS
 40
0.0
  9
$LIMCHECK
 70
     0
  9
$BLIPMODE
 70
     0
  9
$CHAMFERA
 40
0.5
  9
$CHAMFERB
 40
0.5
  9
$SKPOLY
 70
     0
  9
$TDCREATE
 40
2456827.5611583339
  9
$TDUPDATE
 40
2456827.5625643982
  9
$TDINDWG
 40
0.0014077083
  9
$TDUSRTIMER
 40
0.0014072801
  9
$USRTIMER
 70
     1
  9
$ANGBASE
 50
0.0
  9
$ANGDIR
 70
     0
  9
$PDMODE
 70
     0
  9
$PDSIZE
 40
0.0
  9
$PLINEWID
 40
0.0
  9
$COORDS
 70
     1
  9
$SPLFRAME
 70
     0
  9
$SPLINETYPE
 70
     6
  9
$SPLINESEGS
 70
     8
  9
$ATTDIA
 70
     0
  9
$ATTREQ
 70
     1
  9
$HANDLING
 70
     1
  9
$HANDSEED
  5
709
  9
$SURFTAB1
 70
     6
  9
$SURFTAB2
 70
     6
  9
$SURFTYPE
 70
     6
  9
$SURFU
 70
     6
  9
$SURFV
 70
     6
  9
$UCSNAME
  2

  9
$UCSORG
 10
0.0
 20
0.0
 30
0.0
  9
$UCSXDIR
 10
1.0
 20
0.0
 30
0.0
  9
$UCSYDIR
 10
0.0
 20
1.0
 30
0.0
  9
$PUCSNAME
  2

  9
$PUCSORG
 10
0.0
 20
0.0
 30
0.0
  9
$PUCSXDIR
 10
1.0
 20
0.0
 30
0.0
  9
$PUCSYDIR
 10
0.0
 20
1.0
 30
0.0
  9
$USERI1
 70
     0
  9
$USERI2
 70
     0
  9
$USERI3
 70
     0
  9
$USERI4
 70
     0
  9
$USERI5
 70
     0
  9
$USERR1
 40
0.0
  9
$USERR2
 40
0.0
  9
$USERR3
 40
0.0
  9
$USERR4
 40
0.0
  9
$USERR5
 40
0.0
  9
$WORLDVIEW
 70
     1
  9
$SHADEDGE
 70
     3
  9
$SHADEDIF
 70
    70
  9
$TILEMODE
 70
     1
  9
$MAXACTVP
 70
    48
  9
$PLIMCHECK
 70
     0
  9
$PEXTMIN
 10
1.0000000000000000E+020
 20
1.0000000000000000E+020
 30
1.0000000000000000E+020
  9
$PEXTMAX
 10
-1.0000000000000000E+020
 20
-1.0000000000000000E+020
 30
-1.0000000000000000E+020
  9
$PLIMMIN
 10
0.0
 20
0.0
  9
$PLIMMAX
 10
12.0
 20
9.0
  9
$UNITMODE
 70
     0
  9
$VISRETAIN
 70
     1
  9
$PLINEGEN
 70
     0
  9
$PSLTSCALE
 70
     1
  0
ENDSEC
  0
SECTION
  2
TABLES
  0
TABLE
  2
VPORT
 70
     1
  0
VPORT
  2
*ACTIVE
 70
     0
 10
0.0
 20
0.0
 11
1.0
 21
1.0
 12
215.25720259019079
 22
90.724671477532056
 13
0.0
 23
0.0
 14
0.5
 24
0.5
 15
0.5
 25
0.5
 16
0.0
 26
0.0
 36
1.0
 17
0.0
 27
0.0
 37
0.0
 40
244.1221217855157
 41
1.7702552719200879
 42
50.0
 43
0.0
 44
0.0
 50
0.0
 51
0.0
 71
     0
 72
   100
 73
     1
 74
     1
 75
     0
 76
     0
 77
     0
 78
     0
  0
ENDTAB
  0
TABLE
  2
LTYPE
 70
    19
  0
LTYPE
  2
CONTINUOUS
 70
     0
  3
Solid line
 72
    65
 73
     0
 40
0.0
  0
LTYPE
  2
CENTER
 70
     0
  3
Center ____ _ ____ _ ____ _ ____ _ ____ _ ____
 72
    65
 73
     4
 40
2.0
 49
1.25
 49
-0.25
 49
0.25
 49
-0.25
  0
LTYPE
  2
CENTER2
 70
     0
  3
Center (.5x) ___ _ ___ _ ___ _ ___ _ ___ _ ___
 72
    65
 73
     4
 40
1.125
 49
0.75
 49
-0.125
 49
0.125
 49
-0.125
  0
LTYPE
  2
HIDDEN
 70
     0
  3
Hidden __ __ __ __ __ __ __ __ __ __ __ __ __ _
 72
    65
 73
     2
 40
0.375
 49
0.25
 49
-0.125
  0
LTYPE
  2
HIDDEN2
 70
     0
  3
Hidden (.5x) _ _ _ _ _ _ _ _ _ _ _ _ _ _ _ _ _
 72
    65
 73
     2
 40
0.1875
 49
0.125
 49
-0.0625
  0
LTYPE
  2
PHANTOM2
 70
     0
  3
Phantom (.5x) ___ _ _ ___ _ _ ___ _ _ ___ _ _
 72
    65
 73
     6
 40
1.25
 49
0.625
 49
-0.125
 49
0.125
 49
-0.125
 49
0.125
 49
-0.125
  0
LTYPE
  2
AMCONSTR
 70
     0
  3
_______________________
 72
    65
 73
     2
 40
9999.0
 49
9999.0
 49
0.0
  0
LTYPE
  2
AMZIGZAG2
 70
     0
  3
/\/-/\/-/\/-/\/-/\/-/\/
 72
    65
 73
     2
 40
0.4401
 49
0.0001
 49
-0.4400000000000001
  0
LTYPE
  2
ACANSTGB
 70
     0
  3
__ . . __ . .
 72
    65
 73
     6
 40
0.35433070866
 49
0.15748031496
 49
-0.03937007874
 49
0.03937007874
 49
-0.03937007874
 49
0.03937007874
 49
-0.03937007874
  0
LTYPE
  2
ACANSTGL
 70
     0
  3
_ _ _ _ _
 72
    65
 73
     2
 40
0.11811023622
 49
0.07874015748
 49
-0.03937007874
  0
ENDTAB
  0
TABLE
  2
LAYER
 70
     8
  0
LAYER
  2
0
 70
     0
 62
     7
  6
CONTINUOUS
  0
ENDTAB
  0
TABLE
  2
STYLE
 70
    11
  0
STYLE
  2
STANDARD
 70
     0
 40
0.0
 41
1.0
 50
0.0
 71
     0
 42
0.2
  3
txt
  4

  0
STYLE
  2
ROMANS
 70
     0
 40
0.0
 41
0.75
 50
0.0
 71
     0
 42
0.2
  3
romans.shx
  4

  0
STYLE
  2

 70
     1
 40
0.0
 41
1.0
 50
0.0
 71
     0
 42
0.2
  3
genltshp.shx
  4

  0
STYLE
  2
ACANSGDT
 70
     0
 40
0.0
 41
1.0
 50
0.0
 71
     0
 42
0.2
  3
amgdt.shx
  4

  0
ENDTAB
  0
TABLE
  2
VIEW
 70
     0
  0
ENDTAB
  0
TABLE
  2
UCS
 70
     0
  0
ENDTAB
  0
TABLE
  2
APPID
 70
    14
  0
APPID
  2
ACAD
 70
     0
  0
APPID
  2
ACAD_MLEADERVER
 70
     0
  0
APPID
  2
ACAD_DSTYLE_DIMJAG
 70
     0
  0
APPID
  2
ACAD_DSTYLE_DIMTALN
 70
     0
  0
APPID
  2
ACAD_PSEXT
 70
     0
  0
APPID
  2
ACADANNOPO
 70
     0
  0
APPID
  2
MCAD_NO_VIS
 70
     0
  0
APPID
  2
ACAD_TEMP_GRAPHIC
 70
     0
  0
APPID
  2
ACATTRIBSERVICES
 70
     0
  0
APPID
  2
DESIGNERASSEMBLIES
 70
     0
  0
APPID
  2
ACAD_DSTYLE_DIMBREAK
 70
     0
  0
APPID
  2
ACAD_NAV_VCDISPLAY
 70
     0
  0
APPID
  2
GRADIENTCOLOR1ACI
 70
     0
  0
APPID
  2
GRADIENTCOLOR2ACI
 70
     0
  0
ENDTAB
  0
TABLE
  2
DIMSTYLE
 70
    13
  0
DIMSTYLE
  2
BAC
 70
     0
  3

  4

  5

  6

  7

 40
1.0
 41
0.09375
 42
0.0625
 43
0.375
 44
0.03125
 45
0.0
 46
0.0
 47
0.0
 48
0.0
140
0.09375
141
0.09375
142
0.0
143
25.399999999999999
144
1.0
145
0.0
146
1.0
147
0.0625
 71
     0
 72
     0
 73
     0
 74
     0
 75
     0
 76
     0
 77
     0
 78
     0
170
     0
171
     2
172
     0
173
     0
174
     0
175
     0
176
     0
177
     6
178
     0
  0
DIMSTYLE
  2
AM_ANSI
 70
     0
  3

  4
mm
  5

  6

  7

 40
1.0
 41
0.12
 42
0.05
 43
0.5
 44
0.1
 45
0.0
 46
0.0
 47
0.1
 48
0.1
140
0.12
141
0.0
142
0.0
143
25.399999999999999
144
1.0
145
0.0
146
0.71
147
0.06
 71
     0
 72
     0
 73
     1
 74
     1
 75
     0
 76
     0
 77
     0
 78
     7
170
     0
171
     2
172
     0
173
     0
174
     0
175
     0
176
   256
177
   256
178
     2
  0
DIMSTYLE
  2
AM_ANSI$3
 70
     0
  3

  4
mm
  5

  6

  7

 40
1.0
 41
0.12
 42
0.05
 43
0.5
 44
0.1
 45
0.0
 46
0.0
 47
0.1
 48
0.1
140
0.12
141
0.0
142
0.0
143
25.399999999999999
144
1.0
145
0.0
146
0.71
147
0.06
 71
     0
 72
     0
 73
     1
 74
     1
 75
     0
 76
     0
 77
     0
 78
     7
170
     0
171
     2
172
     0
173
     0
174
     0
175
     0
176
   256
177
   256
178
     2
  0
DIMSTYLE
  2
AM_ANSI$4
 70
     0
  3

  4
mm
  5

  6

  7

 40
1.0
 41
0.12
 42
0.05
 43
0.5
 44
0.1
 45
0.0
 46
0.0
 47
0.1
 48
0.1
140
0.12
141
0.0
142
0.0
143
25.399999999999999
144
1.0
145
0.0
146
0.71
147
0.06
 71
     0
 72
     0
 73
     1
 74
     1
 75
     0
 76
     0
 77
     0
 78
     7
170
     0
171
     2
172
     0
173
     0
174
     0
175
     0
176
   256
177
   256
178
     2
  0
DIMSTYLE
  2
AM_ANSI$7
 70
     0
  3

  4
mm
  5

  6

  7

 40
1.0
 41
0.12
 42
0.05
 43
0.5
 44
0.1
 45
0.0
 46
0.0
 47
0.1
 48
0.1
140
0.12
141
0.0
142
0.0
143
25.399999999999999
144
1.0
145
0.0
146
0.71
147
0.06
 71
     0
 72
     0
 73
     1
 74
     1
 75
     0
 76
     0
 77
     0
 78
     7
170
     0
171
     2
172
     0
173
     0
174
     0
175
     0
176
   256
177
   256
178
     2
  0
DIMSTYLE
  2
AM_ANSI$SF
 70
     0
  3

  4
mm
  5

  6

  7

 40
1.0
 41
0.12
 42
0.05
 43
0.5
 44
0.1
 45
0.0
 46
0.0
 47
0.1
 48
0.1
140
0.12
141
0.0
142
0.0
143
25.399999999999999
144
1.0
145
0.0
146
0.71
147
0.06
 71
     0
 72
     0
 73
     1
 74
     1
 75
     1
 76
     1
 77
     0
 78
     7
170
     0
171
     2
172
     0
173
     0
174
     0
175
     0
176
   256
177
   256
178
     2
  0
DIMSTYLE
  2
AM_ANSI$SH
 70
     0
  3

  4
mm
  5

  6
GENAXEH
  7

 40
1.0
 41
0.12
 42
0.05
 43
0.5
 44
0.1
 45
0.0
 46
0.0
 47
0.1
 48
0.1
140
0.12
141
0.0
142
0.0
143
25.399999999999999
144
1.0
145
0.0
146
0.71
147
0.06
 71
     0
 72
     0
 73
     1
 74
     1
 75
     1
 76
     1
 77
     0
 78
     7
170
     0
171
     2
172
     0
173
     1
174
     0
175
     0
176
   256
177
   256
178
     2
  0
DIMSTYLE
  2
STANDARD
 70
     0
  3

  4

  5

  6

  7

 40
1.0
 41
0.18
 42
0.0625
 43
0.38
 44
0.18
 45
0.0
 46
0.0
 47
0.0
 48
0.0
140
0.18
141
0.09
142
0.0
143
25.399999999999999
144
1.0
145
0.0
146
1.0
147
0.09
 71
     0
 72
     0
 73
     1
 74
     1
 75
     0
 76
     0
 77
     0
 78
     0
170
     0
171
     2
172
     0
173
     0
174
     0
175
     0
176
     0
177
     0
178
     0
  0
ENDTAB
  0
ENDSEC
  0
SECTION
  2
BLOCKS
  0
BLOCK
  8
0
  2
$MODEL_SPACE
 70
     0
 10
0.0
 20
0.0
 30
0.0
  3
$MODEL_SPACE
  1

  0
ENDBLK
  5
1A
  8
0
  0
BLOCK
 67
     1
  8
0
  2
$PAPER_SPACE
 70
     0
 10
0.0
 20
0.0
 30
0.0
  3
$PAPER_SPACE
  1

  0
ENDBLK
  5
17
 67
     1
  8
0
  0
BLOCK
  8
0
  2
*U0
 70
     1
 10
0.0
 20
0.0
 30
0.0
  3
*U0
  1

  0
ENDBLK
  5
17A
  8
0
  0
BLOCK
  8
0
  2
GENAXEH
 70
     0
 10
0.0
 20
0.0
 30
0.0
  3
GENAXEH
  1

  0
LINE
  5
1AD
  8
0
 10
-1.0
 20
0.0
 30
0.0
 11
1.0
 21
0.0
 31
0.0
  0
ENDBLK
  5
1AF
  8
0
  0
BLOCK
  8
0
  2
*X3
 70
     1
 10
0.0
 20
0.0
 30
0.0
  3
*X3
  1

  0
LINE
  5
5DD
  8
0
 62
     0
 10
310.6355054254247
 20
173.44570478681561
 30
0.0
 11
311.22486077923531
 21
174.03506014062631
 31
0.0
  0
LINE
  5
5DE
  8
0
 62
     0
 10
308.51418508186492
 20
173.4457047868155
 30
0.0
 11
311.22486077923531
 21
176.15638048418589
 31
0.0
  0
LINE
  5
5DF
  8
0
 62
     0
 10
306.39286473830532
 20
173.4457047868155
 30
0.0
 11
311.22486077923531
 21
178.2777008277456
 31
0.0
  0
LINE
  5
5E0
  8
0
 62
     0
 10
304.2715443947456
 20
173.4457047868155
 30
0.0
 11
311.22486077923531
 21
180.39902117130521
 31
0.0
  0
LINE
  5
5E1
  8
0
 62
     0
 10
302.150224051186
 20
173.4457047868155
 30
0.0
 11
309.66523551158531
 21
180.96071624721489
 31
0.0
  0
LINE
  5
5E2
  8
0
 62
     0
 10
300.02890370762628
 20
173.4457047868155
 30
0.0
 11
307.54391516802571
 21
180.96071624721489
 31
0.0
  0
LINE
  5
5E3
  8
0
 62
     0
 10
297.90758336406668
 20
173.44570478681561
 30
0.0
 11
305.42259482446599
 21
180.9607162472148
 31
0.0
  0
LINE
  5
5E4
  8
0
 62
     0
 10
295.78626302050702
 20
173.4457047868155
 30
0.0
 11
303.30127448090639
 21
180.96071624721489
 31
0.0
  0
LINE
  5
5E5
  8
0
 62
     0
 10
293.66494267694742
 20
173.44570478681541
 30
0.0
 11
301.17995413734673
 21
180.96071624721489
 31
0.0
  0
LINE
  5
5E6
  8
0
 62
     0
 10
291.5436223333877
 20
173.44570478681541
 30
0.0
 11
299.05863379378718
 21
180.96071624721489
 31
0.0
  0
LINE
  5
5E7
  8
0
 62
     0
 10
289.4223019898281
 20
173.4457047868155
 30
0.0
 11
296.93731345022752
 21
180.96071624721489
 31
0.0
  0
LINE
  5
5E8
  8
0
 62
     0
 10
287.30098164626838
 20
173.4457047868155
 30
0.0
 11
294.8159931066678
 21
180.96071624721489
 31
0.0
  0
LINE
  5
5E9
  8
0
 62
     0
 10
285.17966130270872
 20
173.4457047868155
 30
0.0
 11
292.6946727631082
 21
180.9607162472148
 31
0.0
  0
LINE
  5
5EA
  8
0
 62
     0
 10
283.05834095914918
 20
173.4457047868155
 30
0.0
 11
290.57335241954848
 21
180.96071624721489
 31
0.0
  0
LINE
  5
5EB
  8
0
 62
     0
 10
280.93702061558952
 20
173.4457047868155
 30
0.0
 11
288.45203207598888
 21
180.9607162472148
 31
0.0
  0
LINE
  5
5EC
  8
0
 62
     0
 10
278.81570027202991
 20
173.4457047868155
 30
0.0
 11
286.33071173242928
 21
180.96071624721489
 31
0.0
  0
LINE
  5
5ED
  8
0
 62
     0
 10
276.69437992847031
 20
173.4457047868155
 30
0.0
 11
284.20939138886968
 21
180.96071624721489
 31
0.0
  0
LINE
  5
5EE
  8
0
 62
     0
 10
275.22486077923531
 20
174.09750598114019
 30
0.0
 11
282.08807104531002
 21
180.96071624721489
 31
0.0
  0
LINE
  5
5EF
  8
0
 62
     0
 10
275.22486077923531
 20
176.21882632469979
 30
0.0
 11
279.9667507017503
 21
180.96071624721489
 31
0.0
  0
LINE
  5
5F0
  8
0
 62
     0
 10
275.22486077923531
 20
178.34014666825951
 30
0.0
 11
277.8454303581907
 21
180.96071624721489
 31
0.0
  0
LINE
  5
5F1
  8
0
 62
     0
 10
275.22486077923531
 20
180.46146701181911
 30
0.0
 11
275.72411001463121
 21
180.96071624721489
 31
0.0
  0
LINE
  5
5F2
  8
0
 62
     0
 10
275.22486077923531
 20
173.94466100545219
 30
0.0
 11
275.72381699787201
 21
173.44570478681541
 31
0.0
  0
LINE
  5
5F3
  8
0
 62
     0
 10
275.22486077923531
 20
176.06598134901191
 30
0.0
 11
277.84513734143161
 21
173.4457047868155
 31
0.0
  0
LINE
  5
5F4
  8
0
 62
     0
 10
275.22486077923531
 20
178.18730169257151
 30
0.0
 11
279.96645768499133
 21
173.44570478681541
 31
0.0
  0
LINE
  5
5F5
  8
0
 62
     0
 10
275.22486077923531
 20
180.30862203613111
 30
0.0
 11
282.08777802855087
 21
173.44570478681541
 31
0.0
  0
LINE
  5
5F6
  8
0
 62
     0
 10
276.69408691171111
 20
180.96071624721489
 30
0.0
 11
284.20909837211059
 21
173.44570478681541
 31
0.0
  0
LINE
  5
5F7
  8
0
 62
     0
 10
278.81540725527083
 20
180.96071624721489
 30
0.0
 11
286.33041871567019
 21
173.44570478681541
 31
0.0
  0
LINE
  5
5F8
  8
0
 62
     0
 10
280.93672759883037
 20
180.960716247215
 30
0.0
 11
288.45173905922991
 21
173.4457047868155
 31
0.0
  0
LINE
  5
5F9
  8
0
 62
     0
 10
283.05804794238998
 20
180.96071624721489
 30
0.0
 11
290.57305940278951
 21
173.44570478681541
 31
0.0
  0
LINE
  5
5FA
  8
0
 62
     0
 10
285.17936828594969
 20
180.96071624721489
 30
0.0
 11
292.69437974634923
 21
173.4457047868155
 31
0.0
  0
LINE
  5
5FB
  8
0
 62
     0
 10
287.30068862950941
 20
180.96071624721489
 30
0.0
 11
294.81570008990877
 21
173.44570478681541
 31
0.0
  0
LINE
  5
5FC
  8
0
 62
     0
 10
289.42200897306901
 20
180.96071624721489
 30
0.0
 11
296.93702043346838
 21
173.4457047868155
 31
0.0
  0
LINE
  5
5FD
  8
0
 62
     0
 10
291.54332931662867
 20
180.9607162472148
 30
0.0
 11
299.05834077702809
 21
173.4457047868155
 31
0.0
  0
LINE
  5
5FE
  8
0
 62
     0
 10
293.66464966018839
 20
180.9607162472148
 30
0.0
 11
301.1796611205877
 21
173.44570478681541
 31
0.0
  0
LINE
  5
5FF
  8
0
 62
     0
 10
295.78597000374799
 20
180.96071624721489
 30
0.0
 11
303.30098146414741
 21
173.4457047868155
 31
0.0
  0
LINE
  5
600
  8
0
 62
     0
 10
297.90729034730759
 20
180.96071624721489
 30
0.0
 11
305.4223018077069
 21
173.44570478681541
 31
0.0
  0
LINE
  5
601
  8
0
 62
     0
 10
300.02861069086731
 20
180.96071624721489
 30
0.0
 11
307.54362215126662
 21
173.4457047868155
 31
0.0
  0
LINE
  5
602
  8
0
 62
     0
 10
302.14993103442691
 20
180.96071624721489
 30
0.0
 11
309.66494249482622
 21
173.4457047868155
 31
0.0
  0
LINE
  5
603
  8
0
 62
     0
 10
304.27125137798652
 20
180.96071624721489
 30
0.0
 11
311.22486077923531
 21
174.00710684596609
 31
0.0
  0
LINE
  5
604
  8
0
 62
     0
 10
306.39257172154618
 20
180.96071624721489
 30
0.0
 11
311.22486077923531
 21
176.12842718952581
 31
0.0
  0
LINE
  5
605
  8
0
 62
     0
 10
308.51389206510578
 20
180.9607162472148
 30
0.0
 11
311.22486077923531
 21
178.24974753308541
 31
0.0
  0
LINE
  5
606
  8
0
 62
     0
 10
310.63521240866538
 20
180.96071624721489
 30
0.0
 11
311.22486077923531
 21
180.3710678766451
 31
0.0
  0
ENDBLK
  5
608
  8
0
  0
BLOCK
  8
0
  2
*X4
 70
     1
 10
0.0
 20
0.0
 30
0.0
  3
*X4
  1

  0
LINE
  5
60A
  8
0
 62
     0
 10
320.79253644763179
 20
132.69104756359141
 30
0.0
 11
321.22486077923531
 21
133.12337189519479
 31
0.0
  0
LINE
  5
60B
  8
0
 62
     0
 10
318.67121610407219
 20
132.69104756359141
 30
0.0
 11
321.22486077923531
 21
135.24469223875451
 31
0.0
  0
LINE
  5
60C
  8
0
 62
     0
 10
316.54989576051258
 20
132.69104756359141
 30
0.0
 11
321.22486077923531
 21
137.36601258231411
 31
0.0
  0
LINE
  5
60D
  8
0
 62
     0
 10
314.42857541695298
 20
132.69104756359141
 30
0.0
 11
321.22486077923531
 21
139.4873329258738
 31
0.0
  0
LINE
  5
60E
  8
0
 62
     0
 10
312.30725507339332
 20
132.6910475635915
 30
0.0
 11
319.81191229661761
 21
140.19570478681581
 31
0.0
  0
LINE
  5
60F
  8
0
 62
     0
 10
310.18593472983372
 20
132.69104756359141
 30
0.0
 11
317.69059195305789
 21
140.1957047868157
 31
0.0
  0
LINE
  5
610
  8
0
 62
     0
 10
308.064614386274
 20
132.69104756359141
 30
0.0
 11
315.56927160949829
 21
140.1957047868157
 31
0.0
  0
LINE
  5
611
  8
0
 62
     0
 10
305.9432940427144
 20
132.6910475635915
 30
0.0
 11
313.44795126593863
 21
140.1957047868157
 31
0.0
  0
LINE
  5
612
  8
0
 62
     0
 10
303.8219736991548
 20
132.6910475635915
 30
0.0
 11
311.32663092237891
 21
140.19570478681561
 31
0.0
  0
LINE
  5
613
  8
0
 62
     0
 10
301.70065335559508
 20
132.6910475635915
 30
0.0
 11
309.20531057881919
 21
140.19570478681561
 31
0.0
  0
LINE
  5
614
  8
0
 62
     0
 10
299.57933301203548
 20
132.6910475635915
 30
0.0
 11
307.08399023525959
 21
140.19570478681561
 31
0.0
  0
LINE
  5
615
  8
0
 62
     0
 10
297.45801266847587
 20
132.6910475635915
 30
0.0
 11
304.96266989169987
 21
140.19570478681561
 31
0.0
  0
LINE
  5
616
  8
0
 62
     0
 10
295.33669232491633
 20
132.6910475635915
 30
0.0
 11
302.84134954814027
 21
140.19570478681561
 31
0.0
  0
LINE
  5
617
  8
0
 62
     0
 10
293.21537198135661
 20
132.6910475635915
 30
0.0
 11
300.7200292045805
 21
140.1957047868155
 31
0.0
  0
LINE
  5
618
  8
0
 62
     0
 10
291.09405163779689
 20
132.6910475635915
 30
0.0
 11
298.59870886102101
 21
140.1957047868155
 31
0.0
  0
LINE
  5
619
  8
0
 62
     0
 10
288.97273129423729
 20
132.69104756359161
 30
0.0
 11
296.47738851746129
 21
140.1957047868155
 31
0.0
  0
LINE
  5
61A
  8
0
 62
     0
 10
286.85141095067769
 20
132.69104756359161
 30
0.0
 11
294.35606817390158
 21
140.1957047868155
 31
0.0
  0
LINE
  5
61B
  8
0
 62
     0
 10
284.73009060711809
 20
132.6910475635915
 30
0.0
 11
292.23474783034197
 21
140.1957047868155
 31
0.0
  0
LINE
  5
61C
  8
0
 62
     0
 10
282.60877026355843
 20
132.6910475635915
 30
0.0
 11
290.11342748678243
 21
140.1957047868155
 31
0.0
  0
LINE
  5
61D
  8
0
 62
     0
 10
280.48744991999882
 20
132.6910475635915
 30
0.0
 11
287.99210714322271
 21
140.1957047868155
 31
0.0
  0
LINE
  5
61E
  8
0
 62
     0
 10
278.36612957643911
 20
132.6910475635915
 30
0.0
 11
285.87078679966311
 21
140.1957047868155
 31
0.0
  0
LINE
  5
61F
  8
0
 62
     0
 10
276.24480923287939
 20
132.6910475635915
 30
0.0
 11
283.74946645610351
 21
140.1957047868155
 31
0.0
  0
LINE
  5
620
  8
0
 62
     0
 10
275.22486077923531
 20
133.79241945350699
 30
0.0
 11
281.62814611254379
 21
140.1957047868155
 31
0.0
  0
LINE
  5
621
  8
0
 62
     0
 10
275.22486077923531
 20
135.9137397970666
 30
0.0
 11
279.50682576898419
 21
140.1957047868155
 31
0.0
  0
LINE
  5
622
  8
0
 62
     0
 10
275.22486077923531
 20
138.03506014062631
 30
0.0
 11
277.38550542542453
 21
140.19570478681561
 31
0.0
  0
LINE
  5
623
  8
0
 62
     0
 10
275.22486077923531
 20
140.15638048418589
 30
0.0
 11
275.26418508186498
 21
140.19570478681561
 31
0.0
  0
LINE
  5
624
  8
0
 62
     0
 10
275.22486077923531
 20
133.639574477819
 30
0.0
 11
276.17338769346281
 21
132.6910475635915
 31
0.0
  0
LINE
  5
625
  8
0
 62
     0
 10
275.22486077923531
 20
135.7608948213786
 30
0.0
 11
278.29470803702242
 21
132.6910475635915
 31
0.0
  0
LINE
  5
626
  8
0
 62
     0
 10
275.22486077923531
 20
137.8822151649382
 30
0.0
 11
280.41602838058208
 21
132.69104756359141
 31
0.0
  0
LINE
  5
627
  8
0
 62
     0
 10
275.22486077923531
 20
140.00353550849789
 30
0.0
 11
282.53734872414168
 21
132.6910475635915
 31
0.0
  0
LINE
  5
628
  8
0
 62
     0
 10
277.15401184447728
 20
140.19570478681561
 30
0.0
 11
284.6586690677014
 21
132.6910475635915
 31
0.0
  0
LINE
  5
629
  8
0
 62
     0
 10
279.275332188037
 20
140.1957047868155
 30
0.0
 11
286.779989411261
 21
132.6910475635915
 31
0.0
  0
LINE
  5
62A
  8
0
 62
     0
 10
281.3966525315966
 20
140.1957047868155
 30
0.0
 11
288.90130975482072
 21
132.6910475635915
 31
0.0
  0
LINE
  5
62B
  8
0
 62
     0
 10
283.51797287515632
 20
140.1957047868155
 30
0.0
 11
291.0226300983802
 21
132.6910475635915
 31
0.0
  0
LINE
  5
62C
  8
0
 62
     0
 10
285.63929321871592
 20
140.19570478681561
 30
0.0
 11
293.14395044193992
 21
132.6910475635915
 31
0.0
  0
LINE
  5
62D
  8
0
 62
     0
 10
287.76061356227552
 20
140.1957047868155
 30
0.0
 11
295.26527078549952
 21
132.6910475635915
 31
0.0
  0
LINE
  5
62E
  8
0
 62
     0
 10
289.88193390583518
 20
140.1957047868155
 30
0.0
 11
297.38659112905918
 21
132.6910475635915
 31
0.0
  0
LINE
  5
62F
  8
0
 62
     0
 10
292.00325424939479
 20
140.1957047868155
 30
0.0
 11
299.5079114726189
 21
132.6910475635915
 31
0.0
  0
LINE
  5
630
  8
0
 62
     0
 10
294.12457459295462
 20
140.19570478681541
 30
0.0
 11
301.6292318161785
 21
132.69104756359141
 31
0.0
  0
LINE
  5
631
  8
0
 62
     0
 10
296.24589493651422
 20
140.1957047868155
 30
0.0
 11
303.75055215973811
 21
132.6910475635915
 31
0.0
  0
LINE
  5
632
  8
0
 62
     0
 10
298.36721528007382
 20
140.1957047868155
 30
0.0
 11
305.87187250329782
 21
132.6910475635915
 31
0.0
  0
LINE
  5
633
  8
0
 62
     0
 10
300.48853562363342
 20
140.1957047868155
 30
0.0
 11
307.99319284685743
 21
132.6910475635915
 31
0.0
  0
LINE
  5
634
  8
0
 62
     0
 10
302.60985596719303
 20
140.1957047868155
 30
0.0
 11
310.11451319041709
 21
132.69104756359141
 31
0.0
  0
LINE
  5
635
  8
0
 62
     0
 10
304.73117631075257
 20
140.19570478681561
 30
0.0
 11
312.2358335339768
 21
132.69104756359141
 31
0.0
  0
LINE
  5
636
  8
0
 62
     0
 10
306.85249665431229
 20
140.19570478681561
 30
0.0
 11
314.35715387753652
 21
132.69104756359141
 31
0.0
  0
LINE
  5
637
  8
0
 62
     0
 10
308.97381699787178
 20
140.1957047868155
 30
0.0
 11
316.47847422109601
 21
132.69104756359141
 31
0.0
  0
LINE
  5
638
  8
0
 62
     0
 10
311.0951373414315
 20
140.19570478681561
 30
0.0
 11
318.59979456465572
 21
132.69104756359141
 31
0.0
  0
LINE
  5
639
  8
0
 62
     0
 10
313.21645768499121
 20
140.19570478681561
 30
0.0
 11
320.72111490821538
 21
132.6910475635913
 31
0.0
  0
LINE
  5
63A
  8
0
 62
     0
 10
315.3377780285507
 20
140.1957047868157
 30
0.0
 11
321.22486077923531
 21
134.30862203613111
 31
0.0
  0
LINE
  5
63B
  8
0
 62
     0
 10
317.45909837211042
 20
140.19570478681561
 30
0.0
 11
321.22486077923531
 21
136.42994237969069
 31
0.0
  0
LINE
  5
63C
  8
0
 62
     0
 10
319.58041871566991
 20
140.1957047868157
 30
0.0
 11
321.22486077923531
 21
138.5512627232504
 31
0.0
  0
ENDBLK
  5
63E
  8
0
  0
BLOCK
  8
0
  2
*X5
 70
     1
 10
0.0
 20
0.0
 30
0.0
  3
*X5
  1

  0
LINE
  5
640
  8
0
 62
     0
 10
309.76415155812481
 20
55.102947534133733
 30
0.0
 11
300.3278080922413
 21
64.539291000017215
 31
0.0
  0
LINE
  5
641
  8
0
 62
     0
 10
310.81001806664642
 20
51.935760682052432
 30
0.0
 11
297.18734018761052
 21
65.55843856108838
 31
0.0
  0
LINE
  5
642
  8
0
 62
     0
 10
311.61111016799669
 20
49.013348237142573
 30
0.0
 11
294.6836701518676
 21
65.940788253271634
 31
0.0
  0
LINE
  5
643
  8
0
 62
     0
 10
312.41220226934678
 20
46.090935792232763
 30
0.0
 11
292.51705941226442
 21
65.986078649315189
 31
0.0
  0
LINE
  5
644
  8
0
 62
     0
 10
313.2132943706971
 20
43.168523347322882
 30
0.0
 11
290.57755477867272
 21
65.804262939347254
 31
0.0
  0
LINE
  5
645
  8
0
 62
     0
 10
314.01438647204731
 20
40.246110902413022
 30
0.0
 11
288.8102480343926
 21
65.450249340067771
 31
0.0
  0
LINE
  5
646
  8
0
 62
     0
 10
314.81547857339751
 20
37.323698457503163
 30
0.0
 11
287.18334815845299
 21
64.955828872447697
 31
0.0
  0
LINE
  5
647
  8
0
 62
     0
 10
315.61657067474772
 20
34.401286012593317
 30
0.0
 11
285.67687007309632
 21
64.340986614244741
 31
0.0
  0
LINE
  5
648
  8
0
 62
     0
 10
316.41766277609793
 20
31.478873567683451
 30
0.0
 11
284.27769446055169
 21
63.618841883229649
 31
0.0
  0
LINE
  5
649
  8
0
 62
     0
 10
317.21875487744808
 20
28.556461122773591
 30
0.0
 11
282.97711660154431
 21
62.798099398677408
 31
0.0
  0
LINE
  5
64A
  8
0
 62
     0
 10
318.01984697879828
 20
25.634048677863738
 30
0.0
 11
281.76953408073553
 21
61.884361575926633
 31
0.0
  0
LINE
  5
64B
  8
0
 62
     0
 10
318.82093908014861
 20
22.711636232953879
 30
0.0
 11
280.65172583317042
 21
60.88084947993201
 31
0.0
  0
LINE
  5
64C
  8
0
 62
     0
 10
319.6220311814987
 20
19.789223788044009
 30
0.0
 11
279.62247946698329
 21
59.788775502559432
 31
0.0
  0
LINE
  5
64D
  8
0
 62
     0
 10
320.42312328284902
 20
16.86681134313417
 30
0.0
 11
278.6824586813766
 21
58.607475944606541
 31
0.0
  0
LINE
  5
64E
  8
0
 62
     0
 10
321.15041241058492
 20
14.018201871838579
 30
0.0
 11
277.83427533042033
 21
57.334338952003179
 31
0.0
  0
LINE
  5
64F
  8
0
 62
     0
 10
321.13917838000441
 20
11.90811555885943
 30
0.0
 11
277.08278519864848
 21
55.964508740215379
 31
0.0
  0
LINE
  5
650
  8
0
 62
     0
 10
320.66621672272549
 20
10.25975687257869
 30
0.0
 11
276.43569072448958
 21
54.490282870814639
 31
0.0
  0
LINE
  5
651
  8
0
 62
     0
 10
319.9010708644073
 20
8.9035823873372522
 30
0.0
 11
275.9046439500417
 21
52.900009301702831
 31
0.0
  0
LINE
  5
652
  8
0
 62
     0
 10
318.89643290456848
 20
7.7869000036164087
 30
0.0
 11
275.50727950558371
 21
51.176053402601262
 31
0.0
  0
LINE
  5
653
  8
0
 62
     0
 10
317.66075336981078
 20
6.901259194814485
 30
0.0
 11
275.27120342649027
 21
49.290809138134946
 31
0.0
  0
LINE
  5
654
  8
0
 62
     0
 10
316.16612754923233
 20
6.2745646718333026
 30
0.0
 11
275.24273850738172
 21
47.197953713684043
 31
0.0
  0
LINE
  5
655
  8
0
 62
     0
 10
314.31874207818868
 20
6.000629799317295
 30
0.0
 11
275.50987612720621
 21
44.80949575029981
 31
0.0
  0
LINE
  5
656
  8
0
 62
     0
 10
311.74349386906471
 20
6.4545576648816327
 30
0.0
 11
276.28545277941021
 21
41.91259875453617
 31
0.0
  0
LINE
  5
657
  8
0
 62
     0
 10
286.34290025602729
 20
29.733830934359499
 30
0.0
 11
278.67775462654208
 21
37.398976563844698
 31
0.0
  0
LINE
  5
658
  8
0
 62
     0
 10
315.9214939182171
 20
6.2087237585091648
 30
0.0
 11
321.01613724185341
 21
11.30336708214551
 31
0.0
  0
LINE
  5
659
  8
0
 62
     0
 10
313.6178209500772
 20
6.0263711339290458
 30
0.0
 11
321.19848986643359
 21
13.60704005028529
 31
0.0
  0
LINE
  5
65A
  8
0
 62
     0
 10
311.87598285687329
 20
6.4058533842846819
 30
0.0
 11
320.83487089587408
 21
15.364741423285521
 31
0.0
  0
LINE
  5
65B
  8
0
 62
     0
 10
310.452353642969
 20
7.1035445139400499
 30
0.0
 11
320.37848016221272
 21
17.029671033183739
 31
0.0
  0
LINE
  5
65C
  8
0
 62
     0
 10
309.2745379902276
 20
8.0470492047583093
 30
0.0
 11
319.92208942855132
 21
18.694600643081991
 31
0.0
  0
LINE
  5
65D
  8
0
 62
     0
 10
308.18428534969729
 20
9.0781169077876598
 30
0.0
 11
319.46569869488991
 21
20.359530252980282
 31
0.0
  0
LINE
  5
65E
  8
0
 62
     0
 10
307.09403270916698
 20
10.10918461081698
 30
0.0
 11
319.0093079612285
 21
22.02445986287853
 31
0.0
  0
LINE
  5
65F
  8
0
 62
     0
 10
306.00378006863662
 20
11.14025231384627
 30
0.0
 11
318.55291722756721
 21
23.689389472776782
 31
0.0
  0
LINE
  5
660
  8
0
 62
     0
 10
304.91352742810631
 20
12.17132001687559
 30
0.0
 11
318.09652649390569
 21
25.35431908267503
 31
0.0
  0
LINE
  5
661
  8
0
 62
     0
 10
303.823274787576
 20
13.20238771990492
 30
0.0
 11
317.64013576024428
 21
27.019248692573289
 31
0.0
  0
LINE
  5
662
  8
0
 62
     0
 10
302.73302214704569
 20
14.23345542293424
 30
0.0
 11
317.18374502658298
 21
28.684178302471508
 31
0.0
  0
LINE
  5
663
  8
0
 62
     0
 10
301.64276950651538
 20
15.26452312596356
 30
0.0
 11
316.72735429292158
 21
30.349107912369789
 31
0.0
  0
LINE
  5
664
  8
0
 62
     0
 10
300.55251686598501
 20
16.295590828992879
 30
0.0
 11
316.27096355926022
 21
32.01403752226804
 31
0.0
  0
LINE
  5
665
  8
0
 62
     0
 10
299.46226422545459
 20
17.326658532022201
 30
0.0
 11
315.81457282559882
 21
33.678967132166321
 31
0.0
  0
LINE
  5
666
  8
0
 62
     0
 10
298.37201158492439
 20
18.35772623505153
 30
0.0
 11
315.35818209193741
 21
35.343896742064551
 31
0.0
  0
LINE
  5
667
  8
0
 62
     0
 10
297.28175894439403
 20
19.38879393808082
 30
0.0
 11
314.901791358276
 21
37.008826351962803
 31
0.0
  0
LINE
  5
668
  8
0
 62
     0
 10
296.19150630386372
 20
20.419861641110149
 30
0.0
 11
314.44540062461459
 21
38.673755961861069
 31
0.0
  0
LINE
  5
669
  8
0
 62
     0
 10
295.10125366333341
 20
21.450929344139471
 30
0.0
 11
313.98900989095318
 21
40.338685571759299
 31
0.0
  0
LINE
  5
66A
  8
0
 62
     0
 10
294.0110010228031
 20
22.48199704716879
 30
0.0
 11
313.53261915729178
 21
42.003615181657551
 31
0.0
  0
LINE
  5
66B
  8
0
 62
     0
 10
292.92074838227268
 20
23.513064750198112
 30
0.0
 11
313.07622842363048
 21
43.668544791555831
 31
0.0
  0
LINE
  5
66C
  8
0
 62
     0
 10
291.83049574174242
 20
24.544132453227402
 30
0.0
 11
312.61983768996907
 21
45.333474401454048
 31
0.0
  0
LINE
  5
66D
  8
0
 62
     0
 10
290.74024310121212
 20
25.575200156256731
 30
0.0
 11
312.16344695630772
 21
46.998404011352299
 31
0.0
  0
LINE
  5
66E
  8
0
 62
     0
 10
289.64999046068181
 20
26.606267859286081
 30
0.0
 11
311.70705622264632
 21
48.66333362125058
 31
0.0
  0
LINE
  5
66F
  8
0
 62
     0
 10
288.55973782015138
 20
27.6373355623154
 30
0.0
 11
311.25066548898491
 21
50.328263231148838
 31
0.0
  0
LINE
  5
670
  8
0
 62
     0
 10
287.46948517962107
 20
28.668403265344718
 30
0.0
 11
310.7942747553235
 21
51.993192841047062
 31
0.0
  0
LINE
  5
671
  8
0
 62
     0
 10
286.37923253909082
 20
29.699470968374051
 30
0.0
 11
310.31876678837062
 21
53.639005217653789
 31
0.0
  0
LINE
  5
672
  8
0
 62
     0
 10
285.28897989856051
 20
30.73053867140333
 30
0.0
 11
309.73314882197178
 21
55.174707594814699
 31
0.0
  0
LINE
  5
673
  8
0
 62
     0
 10
284.19872725803009
 20
31.761606374432649
 30
0.0
 11
309.03737555206612
 21
56.600254668468573
 31
0.0
  0
LINE
  5
674
  8
0
 62
     0
 10
283.10847461749978
 20
32.792674077461982
 30
0.0
 11
308.24111994030079
 21
57.925319400262993
 31
0.0
  0
LINE
  5
675
  8
0
 62
     0
 10
282.01822197696953
 20
33.823741780491289
 30
0.0
 11
307.3506887457396
 21
59.156208549261422
 31
0.0
  0
LINE
  5
676
  8
0
 62
     0
 10
280.92796933643922
 20
34.854809483520611
 30
0.0
 11
306.36986327055831
 21
60.296703417639733
 31
0.0
  0
LINE
  5
677
  8
0
 62
     0
 10
279.87635378096439
 20
35.924514271605382
 30
0.0
 11
305.30034672875752
 21
61.348507219398613
 31
0.0
  0
LINE
  5
678
  8
0
 62
     0
 10
278.91342785225231
 20
37.08290868645301
 30
0.0
 11
304.14195231390988
 21
62.311433148110673
 31
0.0
  0
LINE
  5
679
  8
0
 62
     0
 10
278.04147684900789
 20
38.332278026768208
 30
0.0
 11
302.89258297359481
 21
63.183384151355099
 31
0.0
  0
LINE
  5
67A
  8
0
 62
     0
 10
277.26474191704131
 20
39.676863438361302
 30
0.0
 11
301.54799756200168
 21
63.960119083321672
 31
0.0
  0
LINE
  5
67B
  8
0
 62
     0
 10
276.59012011185388
 20
41.123561976733562
 30
0.0
 11
300.10129902362939
 21
64.6347408885091
 31
0.0
  0
LINE
  5
67C
  8
0
 62
     0
 10
276.02811194694249
 20
42.682874155381747
 30
0.0
 11
298.54198684498118
 21
65.196749053420476
 31
0.0
  0
LINE
  5
67D
  8
0
 62
     0
 10
275.59455394761778
 20
44.370636499616737
 30
0.0
 11
296.85422450074628
 21
65.630307052745195
 31
0.0
  0
LINE
  5
67E
  8
0
 62
     0
 10
275.31394959889951
 20
46.211352494458062
 30
0.0
 11
295.01350850590489
 21
65.910911401463494
 31
0.0
  0
LINE
  5
67F
  8
0
 62
     0
 10
275.2265316865134
 20
48.245254925631677
 30
0.0
 11
292.97960607473129
 21
65.998329313849496
 31
0.0
  0
LINE
  5
680
  8
0
 62
     0
 10
275.40580803615097
 20
50.54585161882882
 30
0.0
 11
290.67900938153412
 21
65.819052964211991
 31
0.0
  0
LINE
  5
681
  8
0
 62
     0
 10
276.01580962437612
 20
53.277173550613611
 30
0.0
 11
287.94768744974931
 21
65.209051375986832
 31
0.0
  0
LINE
  5
682
  8
0
 62
     0
 10
277.66268624374192
 20
57.045370513539012
 30
0.0
 11
284.17949048682402
 21
63.56217475662109
 31
0.0
  0
ENDBLK
  5
684
  8
0
  0
BLOCK
  8
0
  2
*X6
 70
     1
 10
0.0
 20
0.0
 30
0.0
  3
*X6
  1

  0
LINE
  5
686
  8
0
 62
     0
 10
430.02941472710302
 20
64.23822532229363
 30
0.0
 11
428.32911601129922
 21
65.938524038097455
 31
0.0
  0
LINE
  5
687
  8
0
 62
     0
 10
430.0294147271029
 20
62.116904978734112
 30
0.0
 11
426.2077956677395
 21
65.938524038097484
 31
0.0
  0
LINE
  5
688
  8
0
 62
     0
 10
430.0294147271029
 20
59.995584635174509
 30
0.0
 11
424.08647532417979
 21
65.938524038097512
 31
0.0
  0
LINE
  5
689
  8
0
 62
     0
 10
430.0294147271029
 20
57.874264291614878
 30
0.0
 11
422.5144032667036
 21
65.389275752014157
 31
0.0
  0
LINE
  5
68A
  8
0
 62
     0
 10
430.0294147271029
 20
55.752943948055218
 30
0.0
 11
422.5144032667036
 21
63.267955408454519
 31
0.0
  0
LINE
  5
68B
  8
0
 62
     0
 10
430.0294147271029
 20
53.631623604495587
 30
0.0
 11
422.5144032667036
 21
61.146635064894888
 31
0.0
  0
LINE
  5
68C
  8
0
 62
     0
 10
430.0294147271029
 20
51.510303260935963
 30
0.0
 11
422.5144032667036
 21
59.025314721335263
 31
0.0
  0
LINE
  5
68D
  8
0
 62
     0
 10
430.0294147271029
 20
49.388982917376289
 30
0.0
 11
422.5144032667036
 21
56.903994377775611
 31
0.0
  0
LINE
  5
68E
  8
0
 62
     0
 10
430.0294147271029
 20
47.267662573816636
 30
0.0
 11
422.51440326670348
 21
54.782674034215972
 31
0.0
  0
LINE
  5
68F
  8
0
 62
     0
 10
430.0294147271029
 20
45.146342230257012
 30
0.0
 11
422.5144032667036
 21
52.661353690656263
 31
0.0
  0
LINE
  5
690
  8
0
 62
     0
 10
430.0294147271029
 20
43.025021886697367
 30
0.0
 11
422.51440326670371
 21
50.540033347096568
 31
0.0
  0
LINE
  5
691
  8
0
 62
     0
 10
430.0294147271029
 20
40.903701543137707
 30
0.0
 11
422.51440326670371
 21
48.418713003536908
 31
0.0
  0
LINE
  5
692
  8
0
 62
     0
 10
430.0294147271029
 20
38.78238119957809
 30
0.0
 11
422.5144032667036
 21
46.29739265997727
 31
0.0
  0
LINE
  5
693
  8
0
 62
     0
 10
430.0294147271029
 20
36.661060856018452
 30
0.0
 11
422.51440326670371
 21
44.176072316417638
 31
0.0
  0
LINE
  5
694
  8
0
 62
     0
 10
430.0294147271029
 20
34.539740512458792
 30
0.0
 11
422.51440326670371
 21
42.054751972857993
 31
0.0
  0
LINE
  5
695
  8
0
 62
     0
 10
430.02941472710302
 20
32.418420168899083
 30
0.0
 11
422.51440326670371
 21
39.933431629298319
 31
0.0
  0
LINE
  5
696
  8
0
 62
     0
 10
430.02941472710302
 20
30.297099825339391
 30
0.0
 11
422.51440326670371
 21
37.812111285738638
 31
0.0
  0
LINE
  5
697
  8
0
 62
     0
 10
428.14371191902501
 20
30.061482289857679
 30
0.0
 11
422.51440326670371
 21
35.690790942178978
 31
0.0
  0
LINE
  5
698
  8
0
 62
     0
 10
426.02239157546529
 20
30.061482289857739
 30
0.0
 11
422.51440326670382
 21
33.56947059861929
 31
0.0
  0
LINE
  5
699
  8
0
 62
     0
 10
389.2644032667036
 20
64.698150255059858
 30
0.0
 11
388.02402948366603
 21
65.938524038097484
 31
0.0
  0
LINE
  5
69A
  8
0
 62
     0
 10
423.90107123190569
 20
30.061482289857739
 30
0.0
 11
422.51440326670388
 21
31.44815025505963
 31
0.0
  0
LINE
  5
69B
  8
0
 62
     0
 10
389.2644032667036
 20
62.576829911500191
 30
0.0
 11
385.90270914010642
 21
65.938524038097455
 31
0.0
  0
LINE
  5
69C
  8
0
 62
     0
 10
389.2644032667036
 20
60.45550956794056
 30
0.0
 11
383.78138879654671
 21
65.938524038097455
 31
0.0
  0
LINE
  5
69D
  8
0
 62
     0
 10
389.2644032667036
 20
58.334189224380928
 30
0.0
 11
381.75974604347959
 21
65.838846447605022
 31
0.0
  0
LINE
  5
69E
  8
0
 62
     0
 10
389.2644032667036
 20
56.212868880821283
 30
0.0
 11
381.75974604347948
 21
63.717526104045412
 31
0.0
  0
LINE
  5
69F
  8
0
 62
     0
 10
389.26440326670371
 20
54.091548537261559
 30
0.0
 11
381.75974604347948
 21
61.596205760485759
 31
0.0
  0
LINE
  5
6A0
  8
0
 62
     0
 10
389.26440326670371
 20
51.970228193701928
 30
0.0
 11
381.75974604347948
 21
59.474885416926149
 31
0.0
  0
LINE
  5
6A1
  8
0
 62
     0
 10
389.26440326670382
 20
49.848907850142261
 30
0.0
 11
381.75974604347948
 21
57.353565073366497
 31
0.0
  0
LINE
  5
6A2
  8
0
 62
     0
 10
389.26440326670371
 20
47.727587506582637
 30
0.0
 11
381.75974604347948
 21
55.23224472980683
 31
0.0
  0
LINE
  5
6A3
  8
0
 62
     0
 10
389.2644032667036
 20
45.606267163023027
 30
0.0
 11
381.75974604347948
 21
53.110924386247198
 31
0.0
  0
LINE
  5
6A4
  8
0
 62
     0
 10
389.26440326670382
 20
43.48494681946331
 30
0.0
 11
381.75974604347948
 21
50.989604042687567
 31
0.0
  0
LINE
  5
6A5
  8
0
 62
     0
 10
389.26440326670382
 20
41.363626475903658
 30
0.0
 11
381.75974604347948
 21
48.868283699127907
 31
0.0
  0
LINE
  5
6A6
  8
0
 62
     0
 10
389.26440326670382
 20
39.242306132343998
 30
0.0
 11
381.75974604347948
 21
46.746963355568283
 31
0.0
  0
LINE
  5
6A7
  8
0
 62
     0
 10
389.26440326670382
 20
37.12098578878431
 30
0.0
 11
381.75974604347948
 21
44.625643012008652
 31
0.0
  0
LINE
  5
6A8
  8
0
 62
     0
 10
389.26440326670388
 20
34.999665445224622
 30
0.0
 11
381.75974604347948
 21
42.504322668449049
 31
0.0
  0
LINE
  5
6A9
  8
0
 62
     0
 10
389.26440326670388
 20
32.878345101664962
 30
0.0
 11
381.75974604347948
 21
40.383002324889382
 31
0.0
  0
LINE
  5
6AA
  8
0
 62
     0
 10
389.26440326670388
 20
30.757024758105331
 30
0.0
 11
381.75974604347942
 21
38.261681981329787
 31
0.0
  0
LINE
  5
6AB
  8
0
 62
     0
 10
389.26440326670388
 20
28.6357044145457
 30
0.0
 11
381.75974604347942
 21
36.140361637770148
 31
0.0
  0
LINE
  5
6AC
  8
0
 62
     0
 10
389.26440326670388
 20
26.51438407098604
 30
0.0
 11
381.75974604347942
 21
34.019041294210503
 31
0.0
  0
LINE
  5
6AD
  8
0
 62
     0
 10
389.26440326670388
 20
24.393063727426409
 30
0.0
 11
381.75974604347942
 21
31.897720950650861
 31
0.0
  0
LINE
  5
6AE
  8
0
 62
     0
 10
389.26440326670388
 20
22.271743383866781
 30
0.0
 11
381.75974604347931
 21
29.77640060709124
 31
0.0
  0
LINE
  5
6AF
  8
0
 62
     0
 10
389.26440326670388
 20
20.150423040307121
 30
0.0
 11
381.75974604347942
 21
27.65508026353157
 31
0.0
  0
LINE
  5
6B0
  8
0
 62
     0
 10
389.26440326670388
 20
18.029102696747479
 30
0.0
 11
381.75974604347942
 21
25.533759919971949
 31
0.0
  0
LINE
  5
6B1
  8
0
 62
     0
 10
389.26440326670388
 20
15.90778235318782
 30
0.0
 11
381.75974604347931
 21
23.412439576412311
 31
0.0
  0
LINE
  5
6B2
  8
0
 62
     0
 10
388.20029258337581
 20
14.850572692956231
 30
0.0
 11
381.75974604347942
 21
21.291119232852651
 31
0.0
  0
LINE
  5
6B3
  8
0
 62
     0
 10
386.07897223981621
 20
14.850572692956231
 30
0.0
 11
381.75974604347931
 21
19.16979888929302
 31
0.0
  0
LINE
  5
6B4
  8
0
 62
     0
 10
383.95765189625649
 20
14.850572692956231
 30
0.0
 11
381.75974604347931
 21
17.04847854573342
 31
0.0
  0
LINE
  5
6B5
  8
0
 62
     0
 10
381.83633155269689
 20
14.850572692956231
 30
0.0
 11
381.75974604347931
 21
14.927158202173761
 31
0.0
  0
LINE
  5
6B6
  8
0
 62
     0
 10
428.86970687907052
 20
30.061482289857679
 30
0.0
 11
430.02941472710302
 21
31.221190137890179
 31
0.0
  0
LINE
  5
6B7
  8
0
 62
     0
 10
426.74838653551092
 20
30.061482289857711
 30
0.0
 11
430.02941472710302
 21
33.342510481449779
 31
0.0
  0
LINE
  5
6B8
  8
0
 62
     0
 10
424.6270661919512
 20
30.061482289857679
 30
0.0
 11
430.0294147271029
 21
35.463830825009332
 31
0.0
  0
LINE
  5
6B9
  8
0
 62
     0
 10
422.51440326670388
 20
30.07013970816994
 30
0.0
 11
430.0294147271029
 21
37.585151168568977
 31
0.0
  0
LINE
  5
6BA
  8
0
 62
     0
 10
422.51440326670388
 20
32.191460051729592
 30
0.0
 11
430.0294147271029
 21
39.706471512128623
 31
0.0
  0
LINE
  5
6BB
  8
0
 62
     0
 10
422.51440326670371
 20
34.312780395289138
 30
0.0
 11
430.0294147271029
 21
41.827791855688247
 31
0.0
  0
LINE
  5
6BC
  8
0
 62
     0
 10
422.51440326670371
 20
36.43410073884877
 30
0.0
 11
430.0294147271029
 21
43.949112199247899
 31
0.0
  0
LINE
  5
6BD
  8
0
 62
     0
 10
422.51440326670371
 20
38.555421082408429
 30
0.0
 11
430.0294147271029
 21
46.070432542807531
 31
0.0
  0
LINE
  5
6BE
  8
0
 62
     0
 10
422.51440326670371
 20
40.676741425968061
 30
0.0
 11
430.0294147271029
 21
48.191752886367169
 31
0.0
  0
LINE
  5
6BF
  8
0
 62
     0
 10
422.5144032667036
 20
42.798061769527628
 30
0.0
 11
430.0294147271029
 21
50.313073229926829
 31
0.0
  0
LINE
  5
6C0
  8
0
 62
     0
 10
422.51440326670371
 20
44.919382113087273
 30
0.0
 11
430.0294147271029
 21
52.43439357348646
 31
0.0
  0
LINE
  5
6C1
  8
0
 62
     0
 10
422.5144032667036
 20
47.040702456646919
 30
0.0
 11
430.0294147271029
 21
54.55571391704612
 31
0.0
  0
LINE
  5
6C2
  8
0
 62
     0
 10
422.5144032667036
 20
49.16202280020655
 30
0.0
 11
430.0294147271029
 21
56.677034260605751
 31
0.0
  0
LINE
  5
6C3
  8
0
 62
     0
 10
388.20295315945327
 20
14.850572692956179
 30
0.0
 11
389.26440326670388
 21
15.912022800206749
 31
0.0
  0
LINE
  5
6C4
  8
0
 62
     0
 10
422.5144032667036
 20
51.28334314376616
 30
0.0
 11
430.0294147271029
 21
58.798354604165411
 31
0.0
  0
LINE
  5
6C5
  8
0
 62
     0
 10
386.08163281589373
 20
14.850572692956231
 30
0.0
 11
389.26440326670388
 21
18.033343143766409
 31
0.0
  0
LINE
  5
6C6
  8
0
 62
     0
 10
422.5144032667036
 20
53.404663487325763
 30
0.0
 11
430.0294147271029
 21
60.919674947725042
 31
0.0
  0
LINE
  5
6C7
  8
0
 62
     0
 10
383.96031247233412
 20
14.850572692956231
 30
0.0
 11
389.26440326670388
 21
20.154663487326079
 31
0.0
  0
LINE
  5
6C8
  8
0
 62
     0
 10
422.5144032667036
 20
55.525983830885401
 30
0.0
 11
430.02941472710302
 21
63.040995291284759
 31
0.0
  0
LINE
  5
6C9
  8
0
 62
     0
 10
381.83899212877441
 20
14.850572692956201
 30
0.0
 11
389.26440326670388
 21
22.275983830885679
 31
0.0
  0
LINE
  5
6CA
  8
0
 62
     0
 10
422.5144032667036
 20
57.647304174445047
 30
0.0
 11
430.02941472710302
 21
65.162315634844447
 31
0.0
  0
LINE
  5
6CB
  8
0
 62
     0
 10
381.75974604347931
 20
16.892646951220769
 30
0.0
 11
389.26440326670388
 21
24.397304174445338
 31
0.0
  0
LINE
  5
6CC
  8
0
 62
     0
 10
422.5144032667036
 20
59.768624518004678
 30
0.0
 11
428.68430278679642
 21
65.938524038097455
 31
0.0
  0
LINE
  5
6CD
  8
0
 62
     0
 10
381.75974604347931
 20
19.013967294780429
 30
0.0
 11
389.26440326670388
 21
26.518624518005002
 31
0.0
  0
LINE
  5
6CE
  8
0
 62
     0
 10
422.5144032667036
 20
61.88994486156431
 30
0.0
 11
426.56298244323671
 21
65.938524038097455
 31
0.0
  0
LINE
  5
6CF
  8
0
 62
     0
 10
381.75974604347931
 20
21.135287638340031
 30
0.0
 11
389.26440326670388
 21
28.639944861564629
 31
0.0
  0
LINE
  5
6D0
  8
0
 62
     0
 10
422.5144032667036
 20
64.011265205123976
 30
0.0
 11
424.4416620996771
 21
65.938524038097484
 31
0.0
  0
LINE
  5
6D1
  8
0
 62
     0
 10
381.75974604347931
 20
23.25660798189972
 30
0.0
 11
389.26440326670388
 21
30.761265205124229
 31
0.0
  0
LINE
  5
6D2
  8
0
 62
     0
 10
381.75974604347942
 20
25.37792832545944
 30
0.0
 11
389.26440326670388
 21
32.882585548683892
 31
0.0
  0
LINE
  5
6D3
  8
0
 62
     0
 10
381.75974604347931
 20
27.499248669019071
 30
0.0
 11
389.26440326670388
 21
35.003905892243523
 31
0.0
  0
LINE
  5
6D4
  8
0
 62
     0
 10
381.75974604347931
 20
29.620569012578699
 30
0.0
 11
389.26440326670382
 21
37.125226235803069
 31
0.0
  0
LINE
  5
6D5
  8
0
 62
     0
 10
381.75974604347942
 20
31.741889356138358
 30
0.0
 11
389.26440326670382
 21
39.246546579362729
 31
0.0
  0
LINE
  5
6D6
  8
0
 62
     0
 10
381.75974604347942
 20
33.86320969969799
 30
0.0
 11
389.26440326670382
 21
41.367866922922353
 31
0.0
  0
LINE
  5
6D7
  8
0
 62
     0
 10
381.75974604347931
 20
35.984530043257621
 30
0.0
 11
389.26440326670382
 21
43.489187266481963
 31
0.0
  0
LINE
  5
6D8
  8
0
 62
     0
 10
381.75974604347942
 20
38.105850386817281
 30
0.0
 11
389.26440326670371
 21
45.610507610041559
 31
0.0
  0
LINE
  5
6D9
  8
0
 62
     0
 10
381.75974604347942
 20
40.227170730376912
 30
0.0
 11
389.26440326670371
 21
47.731827953601218
 31
0.0
  0
LINE
  5
6DA
  8
0
 62
     0
 10
381.75974604347931
 20
42.348491073936572
 30
0.0
 11
389.26440326670371
 21
49.85314829716085
 31
0.0
  0
LINE
  5
6DB
  8
0
 62
     0
 10
381.75974604347948
 20
44.469811417496231
 30
0.0
 11
389.26440326670371
 21
51.974468640720481
 31
0.0
  0
LINE
  5
6DC
  8
0
 62
     0
 10
381.75974604347948
 20
46.591131761055891
 30
0.0
 11
389.26440326670371
 21
54.095788984280148
 31
0.0
  0
LINE
  5
6DD
  8
0
 62
     0
 10
381.75974604347948
 20
48.712452104615551
 30
0.0
 11
389.2644032667036
 21
56.217109327839722
 31
0.0
  0
LINE
  5
6DE
  8
0
 62
     0
 10
381.75974604347948
 20
50.833772448175161
 30
0.0
 11
389.26440326670348
 21
58.338429671399268
 31
0.0
  0
LINE
  5
6DF
  8
0
 62
     0
 10
381.75974604347948
 20
52.955092791734813
 30
0.0
 11
389.26440326670348
 21
60.459750014958892
 31
0.0
  0
LINE
  5
6E0
  8
0
 62
     0
 10
381.75974604347948
 20
55.076413135294501
 30
0.0
 11
389.26440326670348
 21
62.581070358518559
 31
0.0
  0
LINE
  5
6E1
  8
0
 62
     0
 10
381.75974604347948
 20
57.197733478854069
 30
0.0
 11
389.26440326670348
 21
64.702390702078219
 31
0.0
  0
LINE
  5
6E2
  8
0
 62
     0
 10
381.75974604347948
 20
59.319053822413743
 30
0.0
 11
388.37921625916317
 21
65.938524038097455
 31
0.0
  0
LINE
  5
6E3
  8
0
 62
     0
 10
381.75974604347948
 20
61.440374165973388
 30
0.0
 11
386.25789591560351
 21
65.938524038097455
 31
0.0
  0
LINE
  5
6E4
  8
0
 62
     0
 10
381.75974604347948
 20
63.561694509533062
 30
0.0
 11
384.13657557204391
 21
65.938524038097484
 31
0.0
  0
LINE
  5
6E5
  8
0
 62
     0
 10
381.75974604347948
 20
65.683014853092658
 30
0.0
 11
382.01525522848419
 21
65.938524038097455
 31
0.0
  0
ENDBLK
  5
6E7
  8
0
  0
BLOCK
  8
0
  2
*X7
 70
     1
 10
0.0
 20
0.0
 30
0.0
  3
*X7
  1

  0
LINE
  5
6E9
  8
0
 62
     0
 10
109.0998607792351
 20
134.94570469575501
 30
0.0
 11
249.4748607792352
 21
134.9457046957549
 31
0.0
  0
LINE
  5
6EA
  8
0
 62
     0
 10
109.0998607792351
 20
136.44570469575501
 30
0.0
 11
249.4748607792352
 21
136.44570469575501
 31
0.0
  0
LINE
  5
6EB
  8
0
 62
     0
 10
109.0998607792351
 20
137.94570469575501
 30
0.0
 11
249.4748607792352
 21
137.94570469575501
 31
0.0
  0
LINE
  5
6EC
  8
0
 62
     0
 10
109.0998607792351
 20
139.44570469575501
 30
0.0
 11
249.4748607792352
 21
139.44570469575501
 31
0.0
  0
LINE
  5
6ED
  8
0
 62
     0
 10
109.0998607792352
 20
140.94570469575501
 30
0.0
 11
249.4748607792352
 21
140.94570469575501
 31
0.0
  0
LINE
  5
6EE
  8
0
 62
     0
 10
109.0998607792352
 20
142.44570469575501
 30
0.0
 11
249.4748607792352
 21
142.44570469575501
 31
0.0
  0
LINE
  5
6EF
  8
0
 62
     0
 10
109.0998607792352
 20
143.94570469575501
 30
0.0
 11
249.4748607792352
 21
143.94570469575501
 31
0.0
  0
LINE
  5
6F0
  8
0
 62
     0
 10
109.0998607792352
 20
145.44570469575501
 30
0.0
 11
249.4748607792352
 21
145.44570469575501
 31
0.0
  0
LINE
  5
6F1
  8
0
 62
     0
 10
109.0998607792352
 20
146.94570469575501
 30
0.0
 11
249.4748607792352
 21
146.94570469575501
 31
0.0
  0
LINE
  5
6F2
  8
0
 62
     0
 10
109.0998607792352
 20
148.44570469575501
 30
0.0
 11
249.4748607792352
 21
148.4457046957549
 31
0.0
  0
LINE
  5
6F3
  8
0
 62
     0
 10
109.0998607792352
 20
149.94570469575501
 30
0.0
 11
249.4748607792352
 21
149.94570469575501
 31
0.0
  0
LINE
  5
6F4
  8
0
 62
     0
 10
109.0998607792352
 20
151.44570469575501
 30
0.0
 11
249.4748607792352
 21
151.44570469575501
 31
0.0
  0
LINE
  5
6F5
  8
0
 62
     0
 10
109.0998607792352
 20
152.94570469575501
 30
0.0
 11
249.4748607792352
 21
152.94570469575501
 31
0.0
  0
LINE
  5
6F6
  8
0
 62
     0
 10
109.0998607792352
 20
154.44570469575501
 30
0.0
 11
249.47486077923531
 21
154.44570469575501
 31
0.0
  0
LINE
  5
6F7
  8
0
 62
     0
 10
109.0998607792352
 20
155.94570469575501
 30
0.0
 11
249.47486077923531
 21
155.94570469575501
 31
0.0
  0
LINE
  5
6F8
  8
0
 62
     0
 10
109.0998607792352
 20
157.44570469575501
 30
0.0
 11
249.47486077923531
 21
157.44570469575501
 31
0.0
  0
LINE
  5
6F9
  8
0
 62
     0
 10
109.0998607792353
 20
158.94570469575501
 30
0.0
 11
249.47486077923531
 21
158.94570469575501
 31
0.0
  0
LINE
  5
6FA
  8
0
 62
     0
 10
109.0998607792353
 20
160.44570469575501
 30
0.0
 11
249.47486077923531
 21
160.44570469575501
 31
0.0
  0
LINE
  5
6FB
  8
0
 62
     0
 10
109.0998607792353
 20
161.94570469575501
 30
0.0
 11
249.47486077923531
 21
161.9457046957549
 31
0.0
  0
LINE
  5
6FC
  8
0
 62
     0
 10
109.0998607792353
 20
163.44570469575501
 30
0.0
 11
249.47486077923531
 21
163.44570469575501
 31
0.0
  0
LINE
  5
6FD
  8
0
 62
     0
 10
109.0998607792353
 20
164.94570469575501
 30
0.0
 11
249.47486077923531
 21
164.9457046957549
 31
0.0
  0
LINE
  5
6FE
  8
0
 62
     0
 10
109.0998607792353
 20
166.44570469575501
 30
0.0
 11
249.47486077923531
 21
166.44570469575501
 31
0.0
  0
LINE
  5
6FF
  8
0
 62
     0
 10
109.0998607792353
 20
167.94570469575501
 30
0.0
 11
249.47486077923531
 21
167.94570469575501
 31
0.0
  0
LINE
  5
700
  8
0
 62
     0
 10
109.0998607792353
 20
169.44570469575501
 30
0.0
 11
249.47486077923531
 21
169.44570469575501
 31
0.0
  0
LINE
  5
701
  8
0
 62
     0
 10
109.0998607792353
 20
170.94570469575501
 30
0.0
 11
249.47486077923531
 21
170.94570469575501
 31
0.0
  0
LINE
  5
702
  8
0
 62
     0
 10
109.0998607792353
 20
172.44570469575501
 30
0.0
 11
249.47486077923531
 21
172.44570469575501
 31
0.0
  0
LINE
  5
703
  8
0
 62
     0
 10
109.0998607792353
 20
173.94570469575501
 30
0.0
 11
249.47486077923531
 21
173.94570469575501
 31
0.0
  0
LINE
  5
704
  8
0
 62
     0
 10
109.0998607792353
 20
175.44570469575501
 30
0.0
 11
249.47486077923531
 21
175.44570469575501
 31
0.0
  0
LINE
  5
705
  8
0
 62
     0
 10
109.0998607792353
 20
176.94570469575501
 30
0.0
 11
249.47486077923531
 21
176.94570469575501
 31
0.0
  0
LINE
  5
706
  8
0
 62
     0
 10
109.0998607792353
 20
178.44570469575501
 30
0.0
 11
249.47486077923531
 21
178.44570469575501
 31
0.0
  0
ENDBLK
  5
708
  8
0
  0
ENDSEC
  0
SECTION
  2
ENTITIES
  0
LINE
  5
36D
  8
0
 10
280.8568611100502
 20
34.922057562473867
 30
0.0
 11
309.4150831301078
 21
7.914133631650679
 31
0.0
  0
LINE
  5
36E
  8
0
 10
320.97581378310213
 20
14.85057676361358
 30
0.0
 11
310.5844570870758
 21
52.758615148689053
 31
0.0
  0
ARC
  5
36F
  8
0
 10
293.22486077923531
 20
48.00000022112765
 30
0.0
 40
17.999999999999979
 50
90.0
 51
226.59814036224731
1001
ACAD
1000
ASC_BOUNDS
1002
{
1070
    19
1005
54D
1002
}
  0
ARC
  5
370
  8
0
 10
293.22486077923531
 20
48.00000022112765
 30
0.0
 40
17.999999999999979
 50
15.329372701898871
 51
90.0
1001
ACAD
1000
ASC_BOUNDS
1002
{
1070
    19
1005
54D
1002
}
  0
ARC
  5
371
  8
0
 10
314.22486077923543
 20
13.00000022112715
 30
0.0
 40
6.9999999999999991
 50
226.59814036224719
 51
269.99999999999841
1001
ACAD
1000
ASC_BOUNDS
1002
{
1070
    19
1005
54D
1002
}
  0
ARC
  5
372
  8
0
 10
314.22486077923543
 20
13.00000022112715
 30
0.0
 40
6.9999999999999973
 50
270.0
 51
15.32937270189877
1001
ACAD
1000
ASC_BOUNDS
1002
{
1070
    19
1005
54D
1002
}
  0
LINE
  5
373
  8
0
 10
280.8568611100502
 20
34.922057562473533
 30
0.0
 11
309.41508313010792
 21
7.9141336316503379
 31
0.0
1001
ACAD
1000
ASC_BOUNDS
1002
{
1070
    19
1005
54D
1002
}
  0
LINE
  5
374
  8
0
 10
320.97581489895111
 20
14.85057269295657
 30
0.0
 11
310.5844570870758
 21
52.758615148688712
 31
0.0
1001
ACAD
1000
ASC_BOUNDS
1002
{
1070
    19
1005
54D
1002
}
  0
LINE
  5
375
  8
0
 10
251.09986077923531
 20
79.000000221127692
 30
0.0
 11
251.09986077923531
 21
6.000000221129314
 31
0.0
  0
LINE
  5
376
  8
0
 10
107.4748607792353
 20
6.000000221129314
 30
0.0
 11
107.4748607792353
 21
79.000000221127692
 31
0.0
  0
LINE
  5
377
  8
0
 10
251.09986077923531
 20
6.000000221129314
 30
0.0
 11
107.4748607792353
 21
6.000000221129314
 31
0.0
  0
LINE
  5
378
  8
0
 10
107.4748607792353
 20
79.000000221127692
 30
0.0
 11
251.09986077923531
 21
79.000000221127692
 31
0.0
  0
LINE
  5
379
  8
0
 10
254.0998607792354
 20
6.0000002211265588
 30
0.0
 11
293.22486077923543
 21
10.775377107928421
 31
0.0
  0
ARC
  5
37A
  8
0
 10
290.2248607792356
 20
40.625000221127038
 30
0.0
 40
30.000000000000011
 50
275.73917047726479
 51
295.9113916925582
  0
ARC
  5
37B
  8
0
 10
290.2248607792356
 20
40.625000221127038
 30
0.0
 40
30.000000000000011
 50
334.95256645166688
 51
114.0790707055062
  0
LINE
  5
37C
  8
0
 10
277.98495112652932
 20
68.014498421962827
 30
0.0
 11
251.0998607792354
 21
56.000000221126953
 31
0.0
  0
LINE
  5
37D
  8
0
 10
107.4748607792354
 20
0.0000002211254056
 30
0.0
 11
107.4748607792354
 21
6.0000002211278254
 31
0.0
  0
LINE
  5
37E
  8
0
 10
323.22486077923531
 20
6.0000002211308088
 30
0.0
 11
323.22486077923543
 21
0.0000002211283888
 31
0.0
  0
LINE
  5
37F
  8
0
 10
107.4748607792354
 20
0.0000002211254056
 30
0.0
 11
323.22486077923543
 21
0.000000221128389
 31
0.0
  0
LINE
  5
380
  8
0
 10
323.22486077923531
 20
6.0000002211308088
 30
0.0
 11
107.4748607792354
 21
6.0000002211278254
 31
0.0
  0
ARC
  5
381
  8
0
 10
179.28736077923651
 20
61.000000221125767
 30
0.0
 40
8.2500000000000018
 50
179.99999999999969
 51
359.99999999999881
  0
ARC
  5
382
  8
0
 10
179.28736077923651
 20
61.000000221125767
 30
0.0
 40
8.2500000000000018
 50
359.9999999999996
 51
179.99999999999969
  0
ARC
  5
383
  8
0
 10
179.28736077923651
 20
61.000000221125767
 30
0.0
 40
7.687499999999992
 50
0.0000000000007761
 51
180.0000000000002
  0
ARC
  5
384
  8
0
 10
179.28736077923651
 20
61.000000221125767
 30
0.0
 40
7.687499999999992
 50
180.0000000000002
 51
0.0000000000000509
  0
LINE
  5
385
  8
0
 10
184.40986155322429
 20
58.5581443723284
 30
0.0
 11
184.21492107703381
 21
58.109235642169658
 31
0.0
  0
LINE
  5
386
  8
0
 10
184.21492107703381
 20
58.109235642169658
 30
0.0
 11
183.764028219891
 21
57.951993578677602
 31
0.0
  0
LINE
  5
387
  8
0
 10
183.764028219891
 20
57.951993578677602
 30
0.0
 11
183.43949945004971
 21
58.016229689788723
 31
0.0
  0
LINE
  5
388
  8
0
 10
183.43949945004971
 20
58.016229689788723
 30
0.0
 11
183.20400837862121
 21
58.208938023122037
 31
0.0
  0
LINE
  5
389
  8
0
 10
183.20400837862121
 20
58.208938023122037
 30
0.0
 11
183.0130361563989
 21
58.966874531058551
 31
0.0
  0
LINE
  5
38A
  8
0
 10
183.0130361563989
 20
58.966874531058551
 30
0.0
 11
183.1970639341767
 21
59.730763419947444
 31
0.0
  0
LINE
  5
38B
  8
0
 10
183.1970639341767
 20
59.730763419947444
 30
0.0
 11
183.42685064052591
 21
59.920495562804589
 31
0.0
  0
LINE
  5
38C
  8
0
 10
183.42685064052591
 20
59.920495562804589
 30
0.0
 11
183.74815520401799
 21
59.983739610423619
 31
0.0
  0
LINE
  5
38D
  8
0
 10
183.74815520401799
 20
59.983739610423619
 30
0.0
 11
184.21640917227199
 21
59.840386435820463
 31
0.0
  0
LINE
  5
38E
  8
0
 10
184.21640917227199
 20
59.840386435820463
 30
0.0
 11
184.40986155322429
 21
59.415287229471247
 31
0.0
  0
LINE
  5
38F
  8
0
 10
184.40986155322429
 20
59.415287229471247
 30
0.0
 11
185.55271869608151
 21
59.415287229471247
 31
0.0
  0
LINE
  5
390
  8
0
 10
185.55271869608151
 20
59.415287229471247
 30
0.0
 11
185.3925004421132
 21
60.062980681852203
 31
0.0
  0
LINE
  5
391
  8
0
 10
185.3925004421132
 20
60.062980681852203
 30
0.0
 11
185.02494091830371
 21
60.541775324709342
 31
0.0
  0
LINE
  5
392
  8
0
 10
185.02494091830371
 20
60.541775324709342
 30
0.0
 11
184.46591314052591
 21
60.837534253280793
 31
0.0
  0
LINE
  5
393
  8
0
 10
184.46591314052591
 20
60.837534253280793
 30
0.0
 11
183.7312901246529
 21
60.936120562804589
 31
0.0
  0
LINE
  5
394
  8
0
 10
183.7312901246529
 20
60.936120562804589
 30
0.0
 11
182.93329905322429
 21
60.804176118360139
 31
0.0
  0
LINE
  5
395
  8
0
 10
182.93329905322429
 20
60.804176118360139
 30
0.0
 11
182.3230559976688
 21
60.408342785026811
 31
0.0
  0
LINE
  5
396
  8
0
 10
182.3230559976688
 20
60.408342785026811
 30
0.0
 11
181.9357792119545
 21
59.784334848518867
 31
0.0
  0
LINE
  5
397
  8
0
 10
181.9357792119545
 20
59.784334848518867
 30
0.0
 11
181.80668695004979
 21
58.967866594550607
 31
0.0
  0
LINE
  5
398
  8
0
 10
181.80668695004979
 20
58.967866594550607
 30
0.0
 11
181.936399251637
 21
58.149538221534741
 31
0.0
  0
LINE
  5
399
  8
0
 10
181.936399251637
 20
58.149538221534741
 30
0.0
 11
182.3255361563989
 21
57.525902308836329
 31
0.0
  0
LINE
  5
39A
  8
0
 10
182.3255361563989
 20
57.525902308836329
 30
0.0
 11
182.94086353735131
 21
57.131185046931577
 31
0.0
  0
LINE
  5
39B
  8
0
 10
182.94086353735131
 20
57.131185046931577
 30
0.0
 11
183.7491472675101
 21
56.999612626296638
 31
0.0
  0
LINE
  5
39C
  8
0
 10
183.7491472675101
 20
56.999612626296638
 30
0.0
 11
184.47223754528781
 21
57.101795165979183
 31
0.0
  0
LINE
  5
39D
  8
0
 10
184.47223754528781
 20
57.101795165979183
 30
0.0
 11
185.02841314052591
 21
57.408342785026811
 31
0.0
  0
LINE
  5
39E
  8
0
 10
185.02841314052591
 20
57.408342785026811
 30
0.0
 11
185.3958486563989
 21
57.900158261217292
 31
0.0
  0
LINE
  5
39F
  8
0
 10
185.3958486563989
 20
57.900158261217292
 30
0.0
 11
185.55271869608151
 21
58.5581443723284
 31
0.0
  0
LINE
  5
3A0
  8
0
 10
185.55271869608151
 20
58.5581443723284
 30
0.0
 11
184.40986155322429
 21
58.5581443723284
 31
0.0
  0
LINE
  5
3A1
  8
0
 10
177.1881341754567
 20
59.33221856125158
 30
0.0
 11
178.36571354053601
 21
59.33221856125158
 31
0.0
  0
LINE
  5
3A2
  8
0
 10
178.36571354053601
 20
59.33221856125158
 30
0.0
 11
178.5125389373614
 21
59.840155069188121
 31
0.0
  0
LINE
  5
3A3
  8
0
 10
178.5125389373614
 20
59.840155069188121
 30
0.0
 11
179.71591195323441
 21
59.840155069188093
 31
0.0
  0
LINE
  5
3A4
  8
0
 10
179.71591195323441
 20
59.840155069188093
 30
0.0
 11
179.8577770325995
 21
59.33221856125158
 31
0.0
  0
LINE
  5
3A5
  8
0
 10
179.8577770325995
 20
59.33221856125158
 30
0.0
 11
181.06115004847251
 21
59.33221856125158
 31
0.0
  0
LINE
  5
3A6
  8
0
 10
181.06115004847251
 20
59.33221856125158
 30
0.0
 11
179.73178496910751
 21
63.141742370775397
 31
0.0
  0
LINE
  5
3A7
  8
0
 10
179.73178496910751
 20
63.141742370775397
 30
0.0
 11
178.50261830244079
 21
63.141742370775397
 31
0.0
  0
LINE
  5
3A8
  8
0
 10
178.50261830244079
 20
63.141742370775397
 30
0.0
 11
177.1881341754567
 21
59.33221856125158
 31
0.0
  0
LINE
  5
3A9
  8
0
 10
178.7327770325995
 20
60.665551894584929
 30
0.0
 11
179.11868973101221
 21
61.969123323156353
 31
0.0
  0
LINE
  5
3AA
  8
0
 10
179.11868973101221
 20
61.969123323156353
 30
0.0
 11
179.49567385799631
 21
60.665551894584929
 31
0.0
  0
LINE
  5
3AB
  8
0
 10
179.49567385799631
 20
60.665551894584929
 30
0.0
 11
178.7327770325995
 21
60.665551894584929
 31
0.0
  0
LINE
  5
3AC
  8
0
 10
173.4274029851953
 20
61.072606870431862
 30
0.0
 11
175.1268077471
 21
61.072606870431862
 31
0.0
  0
LINE
  5
3AD
  8
0
 10
175.1268077471
 20
61.072606870431862
 30
0.0
 11
175.8946648899572
 21
61.111297346622329
 31
0.0
  0
LINE
  5
3AE
  8
0
 10
175.8946648899572
 20
61.111297346622329
 30
0.0
 11
176.3073633026556
 21
61.243241791066758
 31
0.0
  0
LINE
  5
3AF
  8
0
 10
176.3073633026556
 20
61.243241791066758
 30
0.0
 11
176.7155974296397
 21
61.626178299003278
 31
0.0
  0
LINE
  5
3B0
  8
0
 10
176.7155974296397
 20
61.626178299003278
 30
0.0
 11
176.85597441376669
 21
62.213479886304867
 31
0.0
  0
LINE
  5
3B1
  8
0
 10
176.85597441376669
 20
62.213479886304867
 30
0.0
 11
176.7121252074175
 21
62.776475918050913
 31
0.0
  0
LINE
  5
3B2
  8
0
 10
176.7121252074175
 20
62.776475918050913
 30
0.0
 11
176.26867282646509
 21
63.101376711701711
 31
0.0
  0
LINE
  5
3B3
  8
0
 10
176.26867282646509
 20
63.101376711701711
 30
0.0
 11
176.61391092170319
 21
63.418837029161999
 31
0.0
  0
LINE
  5
3B4
  8
0
 10
176.61391092170319
 20
63.418837029161999
 30
0.0
 11
176.72899028678259
 21
63.871217981542962
 31
0.0
  0
LINE
  5
3B5
  8
0
 10
176.72899028678259
 20
63.871217981542962
 30
0.0
 11
176.57522044551271
 21
64.431237822812804
 31
0.0
  0
LINE
  5
3B6
  8
0
 10
176.57522044551271
 20
64.431237822812804
 30
0.0
 11
176.13276012805241
 21
64.771019568844551
 31
0.0
  0
LINE
  5
3B7
  8
0
 10
176.13276012805241
 20
64.771019568844551
 30
0.0
 11
175.73742282646509
 21
64.856337029162006
 31
0.0
  0
LINE
  5
3B8
  8
0
 10
175.73742282646509
 20
64.856337029162006
 30
0.0
 11
175.0037918740841
 21
64.882130679955665
 31
0.0
  0
LINE
  5
3B9
  8
0
 10
175.0037918740841
 20
64.882130679955665
 30
0.0
 11
173.4274029851953
 21
64.882130679955665
 31
0.0
  0
LINE
  5
3BA
  8
0
 10
173.4274029851953
 20
64.882130679955665
 30
0.0
 11
173.4274029851953
 21
61.072606870431862
 31
0.0
  0
LINE
  5
3BB
  8
0
 10
174.63375219154449
 20
61.961495759320748
 30
0.0
 11
174.63375219154449
 21
62.659908457733437
 31
0.0
  0
LINE
  5
3BC
  8
0
 10
174.63375219154449
 20
62.659908457733437
 30
0.0
 11
175.1823633026556
 21
62.659908457733437
 31
0.0
  0
LINE
  5
3BD
  8
0
 10
175.1823633026556
 20
62.659908457733437
 30
0.0
 11
175.59158949313181
 21
62.580543378368361
 31
0.0
  0
LINE
  5
3BE
  8
0
 10
175.59158949313181
 20
62.580543378368361
 30
0.0
 11
175.71311727090961
 21
62.313678299003278
 31
0.0
  0
LINE
  5
3BF
  8
0
 10
175.71311727090961
 20
62.313678299003278
 30
0.0
 11
175.5940696518619
 21
62.043837029162013
 31
0.0
  0
LINE
  5
3C0
  8
0
 10
175.5940696518619
 20
62.043837029162013
 30
0.0
 11
175.19327600106831
 21
61.961495759320748
 31
0.0
  0
LINE
  5
3C1
  8
0
 10
175.19327600106831
 20
61.961495759320748
 30
0.0
 11
174.63375219154449
 21
61.961495759320748
 31
0.0
  0
LINE
  5
3C2
  8
0
 10
174.63375219154449
 20
63.35832115614614
 30
0.0
 11
174.63375219154449
 21
63.993241791066772
 31
0.0
  0
LINE
  5
3C3
  8
0
 10
174.63375219154449
 20
63.993241791066772
 30
0.0
 11
174.96807758836991
 21
63.993241791066772
 31
0.0
  0
LINE
  5
3C4
  8
0
 10
174.96807758836991
 20
63.993241791066772
 30
0.0
 11
175.47651012805241
 21
63.92578147360647
 31
0.0
  0
LINE
  5
3C5
  8
0
 10
175.47651012805241
 20
63.92578147360647
 30
0.0
 11
175.58613314392539
 21
63.67578147360647
 31
0.0
  0
LINE
  5
3C6
  8
0
 10
175.58613314392539
 20
63.67578147360647
 30
0.0
 11
175.48395060424289
 21
63.430741791066787
 31
0.0
  0
LINE
  5
3C7
  8
0
 10
175.48395060424289
 20
63.430741791066787
 30
0.0
 11
175.1317680645603
 21
63.35832115614614
 31
0.0
  0
LINE
  5
3C8
  8
0
 10
175.1317680645603
 20
63.35832115614614
 30
0.0
 11
174.63375219154449
 21
63.35832115614614
 31
0.0
  0
ARC
  5
3C9
  8
0
 10
179.287360779236
 20
61.000000221126427
 30
0.0
 40
9.0000000000000124
 50
179.99999999999969
 51
359.99999999999881
  0
ARC
  5
3CA
  8
0
 10
179.287360779236
 20
61.000000221126427
 30
0.0
 40
9.0000000000000195
 50
359.9999999999996
 51
179.99999999999969
  0
LINE
  5
3CB
  8
0
 10
103.3498607792353
 20
2.1250002211272641
 30
0.0
 11
107.4748607792355
 21
2.1250002211272641
 31
0.0
  0
LINE
  5
3CC
  8
0
 10
107.4748607792353
 20
8.1250002211270935
 30
0.0
 11
103.3498607792353
 21
8.1250002211270935
 31
0.0
  0
LINE
  5
3CD
  8
0
 10
103.3498607792353
 20
64.000000221127252
 30
0.0
 11
107.4748607792353
 21
64.000000221127252
 31
0.0
  0
LINE
  5
3CE
  8
0
 10
107.4748607792353
 20
70.000000221127252
 30
0.0
 11
103.3498607792353
 21
70.000000221127252
 31
0.0
  0
LINE
  5
3CF
  8
0
 10
103.3498607792354
 20
5.1250003417091117
 30
0.0
 11
103.3498607792354
 21
5.9014572939003598
 31
0.0
  0
LINE
  5
3D0
  8
0
 10
103.3498607792354
 20
5.9014573564348263
 30
0.0
 11
103.3498607792354
 21
6.6249999969990228
 31
0.0
  0
LINE
  5
3D1
  8
0
 10
103.3498607792354
 20
6.6250002211272641
 30
0.0
 11
103.3498607792354
 21
8.0227776999944762
 31
0.0
  0
LINE
  5
3D2
  8
0
 10
103.3498607792354
 20
8.022777856108064
 30
0.0
 11
103.3498607792354
 21
8.1250002211272712
 31
0.0
  0
LINE
  5
3D3
  8
0
 10
103.3498607792354
 20
2.125000221127276
 30
0.0
 11
103.3498607792354
 21
2.2272227046737711
 31
0.0
  0
LINE
  5
3D4
  8
0
 10
103.3498607792354
 20
2.2272227422600701
 30
0.0
 11
103.3498607792354
 21
2.5269239927742762
 31
0.0
  0
LINE
  5
3D5
  8
0
 10
103.3498607792354
 20
2.52692400977396
 30
0.0
 11
103.3498607792354
 21
3.0036798504262152
 31
0.0
  0
LINE
  5
3D6
  8
0
 10
103.3498607792354
 20
3.003679877567631
 30
0.0
 11
103.3498607792354
 21
3.625000221127272
 31
0.0
  0
LINE
  5
3D7
  8
0
 10
103.3498607792354
 20
3.625000333191188
 30
0.0
 11
103.3498607792354
 21
4.348543027935948
 31
0.0
  0
LINE
  5
3D8
  8
0
 10
103.3498607792354
 20
4.3485430858197072
 30
0.0
 11
103.3498607792354
 21
5.1250002211272649
 31
0.0
  0
LINE
  5
3D9
  8
0
 10
103.3498607792353
 20
67.000002150439158
 30
0.0
 11
103.3498607792353
 21
68.500000221127252
 31
0.0
  0
LINE
  5
3DA
  8
0
 10
103.3498607792353
 20
68.500002309148357
 30
0.0
 11
103.3498607792353
 21
69.121319200311646
 31
0.0
  0
LINE
  5
3DB
  8
0
 10
103.3498607792353
 20
69.121320564686911
 30
0.0
 11
103.3498607792353
 21
69.598074577526148
 31
0.0
  0
LINE
  5
3DC
  8
0
 10
103.3498607792353
 20
69.598076432480582
 30
0.0
 11
103.3498607792353
 21
69.897777699994464
 31
0.0
  0
LINE
  5
3DD
  8
0
 10
103.3498607792353
 20
69.897777856108036
 30
0.0
 11
103.3498607792353
 21
70.000000221127252
 31
0.0
  0
LINE
  5
3DE
  8
0
 10
103.3498607792353
 20
64.000000221127252
 30
0.0
 11
103.3498607792353
 21
64.102218793298945
 31
0.0
  0
LINE
  5
3DF
  8
0
 10
103.3498607792353
 20
64.102222742260054
 30
0.0
 11
103.3498607792353
 21
64.401924009773936
 31
0.0
  0
LINE
  5
3E0
  8
0
 10
103.3498607792353
 20
64.401924293662063
 30
0.0
 11
103.3498607792353
 21
64.878679433834975
 31
0.0
  0
LINE
  5
3E1
  8
0
 10
103.3498607792353
 20
64.878679877567635
 30
0.0
 11
103.3498607792353
 21
67.000000221127252
 31
0.0
  0
ARC
  5
3E2
  8
0
 10
210.09986077923551
 20
20.000000221127149
 30
0.0
 40
0.5000000000000036
 50
359.9999999999992
 51
179.9999999999996
  0
ARC
  5
3E3
  8
0
 10
210.09986077923551
 20
20.000000221127149
 30
0.0
 40
0.4999999999999992
 50
180.0000000000006
 51
0.0000000000002544
  0
ARC
  5
3E4
  8
0
 10
224.09986077923551
 20
11.62500022112715
 30
0.0
 40
1.499999999999996
 50
359.9999999999996
 51
179.9999999999998
  0
ARC
  5
3E5
  8
0
 10
224.09986077923551
 20
11.62500022112715
 30
0.0
 40
1.5000000000000031
 50
180.00000000000011
 51
359.99999999999937
  0
ARC
  5
3E6
  8
0
 10
231.22486077923551
 20
2.6250002211271521
 30
0.0
 40
1.0000000000000051
 50
359.9999999999992
 51
179.99999999999929
  0
ARC
  5
3E7
  8
0
 10
231.22486077923551
 20
2.6250002211271521
 30
0.0
 40
0.9999999999999955
 50
180.0000000000006
 51
0.0000000000000509
  0
CIRCLE
  5
3E8
  8
0
 10
235.03736077923551
 20
20.375000221127149
 30
0.0
 40
8.4999999999999911
  0
LINE
  5
3E9
  8
0
 10
381.7597460434792
 20
14.85057676361358
 30
0.0
 11
381.75974604347931
 21
52.418741447323328
 31
0.0
  0
LINE
  5
3EA
  8
0
 10
381.75974604347931
 20
52.451890360862869
 30
0.0
 11
381.75974604347931
 21
52.758615148689053
 31
0.0
  0
LINE
  5
3EB
  8
0
 10
389.26440326670382
 20
27.929417713221142
 30
0.0
 11
389.26440326670371
 21
14.850576763613571
 31
0.0
  0
LINE
  5
3EC
  8
0
 10
389.26440326670371
 20
14.85057269295657
 30
0.0
 11
381.7597460434792
 21
14.850572692956581
 31
0.0
  0
LINE
  5
3ED
  8
0
 10
430.02941472710262
 20
48.000000221127593
 30
0.0
 11
430.02941472710262
 21
42.155410959585282
 31
0.0
  0
LINE
  5
3EE
  8
0
 10
430.02941472710262
 20
42.155409775443303
 30
0.0
 11
430.02941472710279
 21
34.75696982901124
 31
0.0
  0
LINE
  5
3EF
  8
0
 10
430.02941472710279
 20
34.75696860402023
 30
0.0
 11
430.02941472710279
 21
31.516080341336561
 31
0.0
  0
LINE
  5
3F0
  8
0
 10
430.02941472710279
 20
31.516078890715221
 30
0.0
 11
430.02941472710279
 21
30.55079569309671
 31
0.0
  0
LINE
  5
3F1
  8
0
 10
430.02941472710279
 20
30.55079543421963
 30
0.0
 11
430.0294147271029
 21
30.06147934700747
 31
0.0
  0
LINE
  5
3F3
  8
0
 10
430.0294147271029
 20
65.938521095247594
 30
0.0
 11
430.02941472710279
 21
65.449208769288177
 31
0.0
  0
LINE
  5
3F4
  8
0
 10
430.02941472710279
 20
65.449205008035477
 30
0.0
 11
430.02941472710279
 21
64.483921551538671
 31
0.0
  0
LINE
  5
3F5
  8
0
 10
430.02941472710279
 20
64.483920100918567
 30
0.0
 11
430.02941472710279
 21
61.243030613243931
 31
0.0
  0
LINE
  5
3F6
  8
0
 10
430.02941472710279
 20
61.243028999156436
 30
0.0
 11
430.02941472710262
 21
53.844590666811861
 31
0.0
  0
LINE
  5
3F7
  8
0
 10
430.02941472710262
 20
53.844589482668901
 30
0.0
 11
430.02941472710262
 21
50.962703946105911
 31
0.0
  0
LINE
  5
3F8
  8
0
 10
430.02941472710262
 20
50.962702846180768
 30
0.0
 11
430.02941472710262
 21
48.000000221127593
 31
0.0
  0
LINE
  5
3F9
  8
0
 10
403.26440326670348
 20
16.000000221127259
 30
0.0
 11
389.26440326670371
 21
16.000000221127259
 31
0.0
  0
LINE
  5
3FA
  8
0
 10
389.26440326670382
 20
6.0000002211272454
 30
0.0
 11
389.26440326670382
 21
6.1703710896819013
 31
0.0
  0
LINE
  5
3FB
  8
0
 10
403.26440326670371
 20
16.000000221127209
 30
0.0
 11
403.26440326670371
 21
15.82962992883526
 31
0.0
  0
LINE
  5
3FC
  8
0
 10
403.26440326670371
 20
15.82962935257256
 30
0.0
 11
403.26440326670371
 21
15.33012815351584
 31
0.0
  0
LINE
  5
3FD
  8
0
 10
403.26440326670371
 20
15.33012724004942
 30
0.0
 11
403.26440326670371
 21
14.535534681462609
 31
0.0
  0
LINE
  5
3FE
  8
0
 10
403.26440326670371
 20
14.53553412705997
 30
0.0
 11
403.26440326670371
 21
12.294095446639851
 31
0.0
  0
LINE
  5
3FF
  8
0
 10
403.26440326670371
 20
12.29409479887412
 30
0.0
 11
403.26440326670371
 21
11.000000462291091
 31
0.0
  0
LINE
  5
400
  8
0
 10
403.26440326670371
 20
11.00000022112725
 30
0.0
 11
403.26440326670371
 21
9.705904995614647
 31
0.0
  0
LINE
  5
401
  8
0
 10
403.26440326670371
 20
9.7059046908230915
 30
0.0
 11
403.26440326670371
 21
8.5000002211272463
 31
0.0
  0
LINE
  5
402
  8
0
 10
403.26440326670371
 20
8.4999999601243932
 30
0.0
 11
403.26440326670371
 21
6.6698732022050429
 31
0.0
  0
LINE
  5
403
  8
0
 10
403.26440326670371
 20
6.6698729135388506
 30
0.0
 11
403.26440326670371
 21
6.1703712165497082
 31
0.0
  0
LINE
  5
404
  8
0
 10
403.26440326670371
 20
6.1703710896818889
 30
0.0
 11
403.26440326670371
 21
6.0000002211272241
 31
0.0
  0
LINE
  5
405
  8
0
 10
381.75974604347931
 20
52.766581027819512
 30
0.0
 11
381.75974604347931
 21
55.230517864881072
 31
0.0
  0
LINE
  5
406
  8
0
 10
381.75974604347931
 20
55.230520580137352
 30
0.0
 11
381.75974604347931
 21
60.191068510390949
 31
0.0
  0
LINE
  5
407
  8
0
 10
381.75974604347931
 20
60.191070976226548
 30
0.0
 11
381.75974604347931
 21
65.02471057173905
 31
0.0
  0
LINE
  5
408
  8
0
 10
381.75974604347931
 20
65.024712237934409
 30
0.0
 11
381.75974604347931
 21
65.754502260346612
 31
0.0
  0
LINE
  5
409
  8
0
 10
381.7597460434792
 20
6.0000002211271557
 30
0.0
 11
381.7597460434792
 21
6.2385193889117048
 31
0.0
  0
LINE
  5
40A
  8
0
 10
381.7597460434792
 20
6.2385194371036796
 30
0.0
 11
381.7597460434792
 21
6.9378219905034912
 31
0.0
  0
LINE
  5
40B
  8
0
 10
381.7597460434792
 20
6.9378223946360844
 30
0.0
 11
381.7597460434792
 21
13.00000022112714
 31
0.0
  0
LINE
  5
40C
  8
0
 10
381.7597460434792
 20
13.000000703455109
 30
0.0
 11
381.7597460434792
 21
14.85242763768955
 31
0.0
  0
LINE
  5
40D
  8
0
 10
389.26440326670371
 20
14.85242763768958
 30
0.0
 11
389.26440326670371
 21
13.00000070345515
 31
0.0
  0
LINE
  5
40E
  8
0
 10
389.26440326670371
 20
13.000000221127181
 30
0.0
 11
389.26440326670382
 21
6.9378223946360942
 31
0.0
  0
LINE
  5
40F
  8
0
 10
389.26440326670382
 20
6.9378219905034992
 30
0.0
 11
389.26440326670371
 21
6.238519437103677
 31
0.0
  0
LINE
  5
410
  8
0
 10
389.26440326670371
 20
6.2385193889117039
 30
0.0
 11
389.26440326670371
 21
6.1220355213963744
 31
0.0
  0
LINE
  5
411
  8
0
 10
389.26440326670371
 20
6.122035175674255
 30
0.0
 11
389.26440326670371
 21
6.0000002211271442
 31
0.0
  0
LINE
  5
412
  8
0
 10
381.75974604347931
 20
14.85057676361367
 30
0.0
 11
381.75974604347948
 21
52.41874144732347
 31
0.0
1001
ACAD
1000
ASC_BOUNDS
1002
{
1070
    19
1005
581
1002
}
  0
LINE
  5
413
  8
0
 10
381.75974604347948
 20
52.451890360861867
 30
0.0
 11
381.75974604347948
 21
52.758615148688712
 31
0.0
1001
ACAD
1000
ASC_BOUNDS
1002
{
1070
    19
1005
581
1002
}
  0
LINE
  5
414
  8
0
 10
389.26440326670388
 20
27.92941771322106
 30
0.0
 11
389.26440326670388
 21
14.850576763613651
 31
0.0
1001
ACAD
1000
ASC_BOUNDS
1002
{
1070
    19
1005
581
1002
}
  0
LINE
  5
415
  8
0
 10
389.26440326670388
 20
14.850572692956231
 30
0.0
 11
381.75974604347931
 21
14.85057269295624
 31
0.0
1001
ACAD
1000
ASC_BOUNDS
1002
{
1070
    19
1005
581
1002
}
  0
LINE
  5
416
  8
0
 10
430.0294147271029
 20
48.000000221127259
 30
0.0
 11
430.0294147271029
 21
42.155410959585353
 31
0.0
1001
ACAD
1000
ASC_BOUNDS
1002
{
1070
    19
1005
581
1002
}
  0
LINE
  5
417
  8
0
 10
430.0294147271029
 20
42.155409775442948
 30
0.0
 11
430.0294147271029
 21
34.756969829010899
 31
0.0
1001
ACAD
1000
ASC_BOUNDS
1002
{
1070
    19
1005
581
1002
}
  0
LINE
  5
418
  8
0
 10
430.0294147271029
 20
34.756968604020201
 30
0.0
 11
430.02941472710302
 21
31.51608034133622
 31
0.0
1001
ACAD
1000
ASC_BOUNDS
1002
{
1070
    19
1005
581
1002
}
  0
LINE
  5
419
  8
0
 10
430.02941472710302
 20
31.516078890715409
 30
0.0
 11
430.02941472710302
 21
30.550795693096578
 31
0.0
1001
ACAD
1000
ASC_BOUNDS
1002
{
1070
    19
1005
581
1002
}
  0
LINE
  5
41A
  8
0
 10
430.02941472710302
 20
30.550795434219278
 30
0.0
 11
430.02941472710302
 21
30.06147934700714
 31
0.0
1001
ACAD
1000
ASC_BOUNDS
1002
{
1070
    19
1005
581
1002
}
  0
LINE
  5
41C
  8
0
 10
430.02941472710302
 20
65.938521095247253
 30
0.0
 11
430.02941472710302
 21
65.449208769288461
 31
0.0
1001
ACAD
1000
ASC_BOUNDS
1002
{
1070
    19
1005
581
1002
}
  0
LINE
  5
41D
  8
0
 10
430.02941472710302
 20
65.44920500803515
 30
0.0
 11
430.02941472710302
 21
64.483921551538856
 31
0.0
1001
ACAD
1000
ASC_BOUNDS
1002
{
1070
    19
1005
581
1002
}
  0
LINE
  5
41E
  8
0
 10
430.02941472710302
 20
64.483920100918255
 30
0.0
 11
430.0294147271029
 21
61.243030613243583
 31
0.0
1001
ACAD
1000
ASC_BOUNDS
1002
{
1070
    19
1005
581
1002
}
  0
LINE
  5
41F
  8
0
 10
430.0294147271029
 20
61.243028999156373
 30
0.0
 11
430.0294147271029
 21
53.84459066681152
 31
0.0
1001
ACAD
1000
ASC_BOUNDS
1002
{
1070
    19
1005
581
1002
}
  0
LINE
  5
420
  8
0
 10
430.0294147271029
 20
53.84458948266883
 30
0.0
 11
430.0294147271029
 21
50.962703946105869
 31
0.0
1001
ACAD
1000
ASC_BOUNDS
1002
{
1070
    19
1005
581
1002
}
  0
LINE
  5
421
  8
0
 10
430.0294147271029
 20
50.962702846180427
 30
0.0
 11
430.0294147271029
 21
48.000000221127259
 31
0.0
1001
ACAD
1000
ASC_BOUNDS
1002
{
1070
    19
1005
581
1002
}
  0
LINE
  5
422
  8
0
 10
403.26440326670399
 20
16.000000221126751
 30
0.0
 11
389.26440326670371
 21
16.000000221126751
 31
0.0
  0
LINE
  5
423
  8
0
 10
389.26440326670388
 20
6.0000002211269052
 30
0.0
 11
389.26440326670388
 21
6.170371089681562
 31
0.0
  0
LINE
  5
424
  8
0
 10
403.26440326670399
 20
16.000000221126879
 30
0.0
 11
403.26440326670388
 21
15.82962992883578
 31
0.0
  0
LINE
  5
425
  8
0
 10
403.26440326670388
 20
15.829629352572219
 30
0.0
 11
403.26440326670388
 21
15.330128153515879
 31
0.0
  0
LINE
  5
426
  8
0
 10
403.26440326670388
 20
15.33012724004908
 30
0.0
 11
403.26440326670388
 21
14.5355346814626
 31
0.0
  0
LINE
  5
427
  8
0
 10
403.26440326670388
 20
14.535534127059631
 30
0.0
 11
403.26440326670388
 21
12.29409544663951
 31
0.0
  0
LINE
  5
428
  8
0
 10
403.26440326670388
 20
12.294094798874051
 30
0.0
 11
403.26440326670388
 21
11.00000046229118
 31
0.0
  0
LINE
  5
429
  8
0
 10
403.26440326670388
 20
11.0000002211269
 30
0.0
 11
403.26440326670388
 21
9.7059049956143042
 31
0.0
  0
LINE
  5
42A
  8
0
 10
403.26440326670388
 20
9.7059046908230489
 30
0.0
 11
403.26440326670388
 21
8.500000221126907
 31
0.0
  0
LINE
  5
42B
  8
0
 10
403.26440326670388
 20
8.4999999601243701
 30
0.0
 11
403.26440326670388
 21
6.6698732022047009
 31
0.0
  0
LINE
  5
42C
  8
0
 10
403.26440326670388
 20
6.6698729135388861
 30
0.0
 11
403.26440326670388
 21
6.170371216549559
 31
0.0
  0
LINE
  5
42D
  8
0
 10
403.26440326670388
 20
6.1703710896815478
 30
0.0
 11
403.26440326670388
 21
6.0000002211268804
 31
0.0
  0
LINE
  5
42E
  8
0
 10
381.75974604347948
 20
52.76658102781947
 30
0.0
 11
381.75974604347948
 21
55.23051786488071
 31
0.0
1001
ACAD
1000
ASC_BOUNDS
1002
{
1070
    19
1005
581
1002
}
  0
LINE
  5
42F
  8
0
 10
381.75974604347948
 20
55.23052058013748
 30
0.0
 11
381.75974604347948
 21
60.191068510390608
 31
0.0
1001
ACAD
1000
ASC_BOUNDS
1002
{
1070
    19
1005
581
1002
}
  0
LINE
  5
430
  8
0
 10
381.75974604347948
 20
60.191070976226513
 30
0.0
 11
381.75974604347948
 21
65.024710571738694
 31
0.0
1001
ACAD
1000
ASC_BOUNDS
1002
{
1070
    19
1005
581
1002
}
  0
LINE
  5
431
  8
0
 10
381.75974604347948
 20
65.024712237934637
 30
0.0
 11
381.75974604347948
 21
65.754502260346484
 31
0.0
1001
ACAD
1000
ASC_BOUNDS
1002
{
1070
    19
1005
581
1002
}
  0
LINE
  5
432
  8
0
 10
381.75974604347948
 20
65.754503682376296
 30
0.0
 11
381.75974604347959
 21
65.938524038097469
 31
0.0
1001
ACAD
1000
ASC_BOUNDS
1002
{
1070
    19
1005
581
1002
}
  0
LINE
  5
433
  8
0
 10
381.75974604347931
 20
6.0000002211268173
 30
0.0
 11
381.75974604347931
 21
6.2385193889119348
 31
0.0
  0
LINE
  5
434
  8
0
 10
381.75974604347931
 20
6.2385194371033386
 30
0.0
 11
381.75974604347931
 21
6.9378219905037151
 31
0.0
  0
LINE
  5
435
  8
0
 10
381.75974604347931
 20
6.9378223946357416
 30
0.0
 11
381.75974604347931
 21
13.0000002211268
 31
0.0
  0
LINE
  5
436
  8
0
 10
381.75974604347931
 20
13.000000703455211
 30
0.0
 11
381.75974604347931
 21
14.852427637689511
 31
0.0
  0
LINE
  5
437
  8
0
 10
389.26440326670388
 20
14.852427637689541
 30
0.0
 11
389.26440326670388
 21
13.00000070345525
 31
0.0
1001
ACAD
1000
ASC_BOUNDS
1002
{
1070
    19
1005
581
1002
}
  0
LINE
  5
438
  8
0
 10
389.26440326670388
 20
13.000000221126831
 30
0.0
 11
389.26440326670388
 21
6.9378223946357522
 31
0.0
  0
LINE
  5
439
  8
0
 10
389.26440326670388
 20
6.9378219905037231
 30
0.0
 11
389.26440326670388
 21
6.238519437103335
 31
0.0
  0
LINE
  5
43A
  8
0
 10
389.26440326670388
 20
6.238519388912219
 30
0.0
 11
389.26440326670388
 21
6.1220355213957482
 31
0.0
  0
LINE
  5
43B
  8
0
 10
389.26440326670388
 20
6.122035175674446
 30
0.0
 11
389.26440326670388
 21
6.0000002211268031
 31
0.0
  0
LINE
  5
43C
  8
0
 10
430.51440326670422
 20
6.000000221129314
 30
0.0
 11
430.51440326670422
 21
79.000000221127692
 31
0.0
  0
LINE
  5
43D
  8
0
 10
430.51440326670422
 20
79.000000221127692
 30
0.0
 11
381.26440326670422
 21
79.000000221127692
 31
0.0
  0
LINE
  5
43E
  8
0
 10
381.26440326670422
 20
79.000000221127692
 30
0.0
 11
381.26440326670422
 21
6.000000221129314
 31
0.0
  0
LINE
  5
43F
  8
0
 10
422.5144032667036
 20
70.625000221127351
 30
0.0
 11
389.26440326670348
 21
70.625000221127024
 31
0.0
  0
LINE
  5
440
  8
0
 10
389.26440326670388
 20
27.92394752205626
 30
0.0
 11
389.26440326670388
 21
31.281054694880041
 31
0.0
1001
ACAD
1000
ASC_BOUNDS
1002
{
1070
    19
1005
581
1002
}
  0
LINE
  5
441
  8
0
 10
389.26440326670388
 20
31.281055665024059
 30
0.0
 11
389.26440326670388
 21
35.002733441037591
 31
0.0
1001
ACAD
1000
ASC_BOUNDS
1002
{
1070
    19
1005
581
1002
}
  0
LINE
  5
442
  8
0
 10
389.26440326670388
 20
35.00273415537022
 30
0.0
 11
389.26440326670382
 21
38.816704589200953
 31
0.0
1001
ACAD
1000
ASC_BOUNDS
1002
{
1070
    19
1005
581
1002
}
  0
LINE
  5
443
  8
0
 10
389.26440326670382
 20
38.81670592335692
 30
0.0
 11
389.26440326670382
 21
42.660358650618328
 31
0.0
1001
ACAD
1000
ASC_BOUNDS
1002
{
1070
    19
1005
581
1002
}
  0
LINE
  5
444
  8
0
 10
389.26440326670382
 20
42.660358982544309
 30
0.0
 11
389.26440326670371
 21
46.470602076318691
 31
0.0
1001
ACAD
1000
ASC_BOUNDS
1002
{
1070
    19
1005
581
1002
}
  0
LINE
  5
445
  8
0
 10
389.26440326670371
 20
46.470603228125192
 30
0.0
 11
389.26440326670371
 21
50.184887072460747
 31
0.0
1001
ACAD
1000
ASC_BOUNDS
1002
{
1070
    19
1005
581
1002
}
  0
LINE
  5
446
  8
0
 10
389.26440326670371
 20
50.184889110285042
 30
0.0
 11
389.26440326670371
 21
53.742242366827227
 31
0.0
1001
ACAD
1000
ASC_BOUNDS
1002
{
1070
    19
1005
581
1002
}
  0
LINE
  5
447
  8
0
 10
389.26440326670371
 20
53.742245031826272
 30
0.0
 11
389.2644032667036
 21
57.084272424603057
 31
0.0
1001
ACAD
1000
ASC_BOUNDS
1002
{
1070
    19
1005
581
1002
}
  0
LINE
  5
448
  8
0
 10
389.2644032667036
 20
57.084274610952292
 30
0.0
 11
389.2644032667036
 21
62.907348543481227
 31
0.0
1001
ACAD
1000
ASC_BOUNDS
1002
{
1070
    19
1005
581
1002
}
  0
LINE
  5
449
  8
0
 10
389.2644032667036
 20
62.907348878659157
 30
0.0
 11
389.2644032667036
 21
65.292806276712881
 31
0.0
1001
ACAD
1000
ASC_BOUNDS
1002
{
1070
    19
1005
581
1002
}
  0
LINE
  5
44A
  8
0
 10
389.2644032667036
 20
65.292806906464861
 30
0.0
 11
389.2644032667036
 21
67.273331241600971
 31
0.0
1001
ACAD
1000
ASC_BOUNDS
1002
{
1070
    19
1005
581
1002
}
  0
LINE
  5
44B
  8
0
 10
389.2644032667036
 20
67.273333045185254
 30
0.0
 11
389.2644032667036
 21
68.816412259202536
 31
0.0
  0
LINE
  5
44C
  8
0
 10
389.2644032667036
 20
68.816414501043482
 30
0.0
 11
389.2644032667036
 21
69.896718983282923
 31
0.0
  0
LINE
  5
44D
  8
0
 10
389.2644032667036
 20
69.896719287653426
 30
0.0
 11
389.2644032667036
 21
70.496516396501534
 31
0.0
  0
LINE
  5
44E
  8
0
 10
389.2644032667036
 20
70.496517708969606
 30
0.0
 11
389.2644032667036
 21
70.605962479232943
 31
0.0
  0
LINE
  5
44F
  8
0
 10
422.5144032667036
 20
70.605962479233284
 30
0.0
 11
422.5144032667036
 21
70.496517708970003
 31
0.0
  0
LINE
  5
450
  8
0
 10
422.5144032667036
 20
70.496516396501733
 30
0.0
 11
422.5144032667036
 21
69.896719287653411
 31
0.0
  0
LINE
  5
451
  8
0
 10
422.5144032667036
 20
69.896718983283307
 30
0.0
 11
422.5144032667036
 21
68.816414501043567
 31
0.0
  0
LINE
  5
452
  8
0
 10
422.5144032667036
 20
68.816412259202949
 30
0.0
 11
422.5144032667036
 21
67.273333045185367
 31
0.0
  0
LINE
  5
453
  8
0
 10
422.5144032667036
 20
67.27333124160144
 30
0.0
 11
422.5144032667036
 21
65.292806906465003
 31
0.0
1001
ACAD
1000
ASC_BOUNDS
1002
{
1070
    19
1005
581
1002
}
  0
LINE
  5
454
  8
0
 10
422.5144032667036
 20
65.292806276713321
 30
0.0
 11
422.5144032667036
 21
62.907348878659157
 31
0.0
1001
ACAD
1000
ASC_BOUNDS
1002
{
1070
    19
1005
581
1002
}
  0
LINE
  5
455
  8
0
 10
422.5144032667036
 20
62.907348543481731
 30
0.0
 11
422.5144032667036
 21
57.084274610952512
 31
0.0
1001
ACAD
1000
ASC_BOUNDS
1002
{
1070
    19
1005
581
1002
}
  0
LINE
  5
456
  8
0
 10
422.5144032667036
 20
57.084272424603562
 30
0.0
 11
422.5144032667036
 21
53.742245031826521
 31
0.0
1001
ACAD
1000
ASC_BOUNDS
1002
{
1070
    19
1005
581
1002
}
  0
LINE
  5
457
  8
0
 10
422.5144032667036
 20
53.742242366827753
 30
0.0
 11
422.51440326670371
 21
50.184889110285141
 31
0.0
1001
ACAD
1000
ASC_BOUNDS
1002
{
1070
    19
1005
581
1002
}
  0
LINE
  5
458
  8
0
 10
422.51440326670371
 20
50.184887072461272
 30
0.0
 11
422.51440326670371
 21
46.470603228125299
 31
0.0
1001
ACAD
1000
ASC_BOUNDS
1002
{
1070
    19
1005
581
1002
}
  0
LINE
  5
459
  8
0
 10
422.51440326670371
 20
46.470602076319217
 30
0.0
 11
422.51440326670371
 21
42.660358982544849
 31
0.0
1001
ACAD
1000
ASC_BOUNDS
1002
{
1070
    19
1005
581
1002
}
  0
LINE
  5
45A
  8
0
 10
422.51440326670371
 20
42.660358650618463
 30
0.0
 11
422.51440326670371
 21
38.816705923357041
 31
0.0
1001
ACAD
1000
ASC_BOUNDS
1002
{
1070
    19
1005
581
1002
}
  0
LINE
  5
45B
  8
0
 10
422.51440326670371
 20
38.8167045892015
 30
0.0
 11
422.51440326670371
 21
35.00273415537076
 31
0.0
1001
ACAD
1000
ASC_BOUNDS
1002
{
1070
    19
1005
581
1002
}
  0
LINE
  5
45C
  8
0
 10
422.51440326670371
 20
35.002733441037691
 30
0.0
 11
422.51440326670388
 21
31.28105566502461
 31
0.0
1001
ACAD
1000
ASC_BOUNDS
1002
{
1070
    19
1005
581
1002
}
  0
LINE
  5
45D
  8
0
 10
422.51440326670388
 20
31.28105469488013
 30
0.0
 11
422.51440326670388
 21
27.71276208973028
 31
0.0
1001
ACAD
1000
ASC_BOUNDS
1002
{
1070
    19
1005
581
1002
}
  0
LINE
  5
45E
  8
0
 10
422.51440326670388
 20
27.712761113963111
 30
0.0
 11
422.51440326670399
 21
18.49564093141958
 31
0.0
  0
LINE
  5
45F
  8
0
 10
422.51440326670399
 20
18.495640270614601
 30
0.0
 11
422.51440326670399
 21
16.087393462226011
 31
0.0
  0
LINE
  5
460
  8
0
 10
422.51440326670399
 20
16.087392977988859
 30
0.0
 11
422.51440326670399
 21
14.081941183556211
 31
0.0
  0
LINE
  5
461
  8
0
 10
422.51440326670399
 20
14.081940827862921
 30
0.0
 11
422.51440326670399
 21
12.5122052510113
 31
0.0
  0
LINE
  5
462
  8
0
 10
422.51440326670399
 20
12.51220478721741
 30
0.0
 11
422.51440326670422
 21
11.403953249844079
 31
0.0
  0
LINE
  5
463
  8
0
 10
422.51440326670422
 20
11.403953078613959
 30
0.0
 11
422.51440326670422
 21
10.77537710792874
 31
0.0
  0
LINE
  5
464
  8
0
 10
422.51440326670422
 20
10.77537710792876
 30
0.0
 11
422.51440326670451
 21
6.000000221126899
 31
0.0
  0
LINE
  5
465
  8
0
 10
422.51440326670422
 20
10.775377107928721
 30
0.0
 11
403.26440213106213
 21
10.77537710792852
 31
0.0
  0
LINE
  5
466
  8
0
 10
381.26440326670462
 20
0.000000221128389
 30
0.0
 11
430.51440326670451
 21
0.0000002211283883
 31
0.0
  0
LINE
  5
467
  8
0
 10
430.51440326670451
 20
0.0000002211283888
 30
0.0
 11
430.51440326670451
 21
6.0000002211308088
 31
0.0
  0
LINE
  5
468
  8
0
 10
430.51440326670451
 20
6.0000002211308088
 30
0.0
 11
381.26440326670462
 21
6.0000002211308088
 31
0.0
  0
LINE
  5
469
  8
0
 10
381.26440326670462
 20
6.0000002211308088
 30
0.0
 11
381.26440326670462
 21
0.0000002211283888
 31
0.0
  0
LINE
  5
46A
  8
0
 10
49.249999908938577
 20
6.000000221129314
 30
0.0
 11
49.249999908938577
 21
79.000000221127692
 31
0.0
  0
LINE
  5
46B
  8
0
 10
49.249999908938577
 20
79.000000221127692
 30
0.0
 11
-0.000000091061338
 21
79.000000221127692
 31
0.0
  0
LINE
  5
46C
  8
0
 10
-0.000000091061338
 20
79.000000221127692
 30
0.0
 11
-0.000000091061338
 21
6.000000221129314
 31
0.0
  0
LINE
  5
46D
  8
0
 10
-0.000000091061338
 20
6.000000221129314
 30
0.0
 11
5.9555402211030923
 21
6.000000221129314
 31
0.0
  0
LINE
  5
46E
  8
0
 10
11.6694595967744
 20
6.000000221129314
 30
0.0
 11
49.249999908938577
 21
6.000000221129314
 31
0.0
  0
LINE
  5
46F
  8
0
 10
49.249999908938513
 20
0.0000002211254056
 30
0.0
 11
49.249999908938513
 21
6.0000002211278254
 31
0.0
  0
LINE
  5
470
  8
0
 10
49.249999908938513
 20
6.0000002211278254
 30
0.0
 11
11.669459596775081
 21
6.0000002211278254
 31
0.0
  0
LINE
  5
471
  8
0
 10
5.9555402211022956
 20
6.0000002211278254
 30
0.0
 11
-0.0000000910615086
 21
6.0000002211278254
 31
0.0
  0
LINE
  5
472
  8
0
 10
-0.0000000910615086
 20
6.0000002211278254
 30
0.0
 11
-0.0000000910615086
 21
0.0000002211254058
 31
0.0
  0
LINE
  5
473
  8
0
 10
-0.0000000910615086
 20
0.0000002211254049
 30
0.0
 11
49.249999908938513
 21
0.0000002211254056
 31
0.0
  0
ARC
  5
474
  8
0
 10
8.8124999089386904
 20
5.1250002211272738
 30
0.0
 40
2.9999999999999929
 50
359.9999999999996
 51
179.99999999999969
  0
ARC
  5
475
  8
0
 10
8.8124999089386904
 20
5.1250002211272738
 30
0.0
 40
3.0000000000000062
 50
180.00000000000011
 51
359.9999999999992
  0
ARC
  5
476
  8
0
 10
24.624999908938921
 20
67.000000221127252
 30
0.0
 40
3.0000000000000062
 50
359.9999999999992
 51
179.99999999999929
  0
ARC
  5
477
  8
0
 10
24.624999908938921
 20
67.000000221127252
 30
0.0
 40
2.9999999999999929
 50
180.0000000000004
 51
359.99999999999949
  0
LINE
  5
478
  8
0
 10
320.97581489895111
 20
132.69104756359121
 30
0.0
 11
310.5844570870758
 21
132.6910475635913
 31
0.0
  0
LINE
  5
479
  8
0
 10
310.5844570870758
 20
132.6910475635913
 30
0.0
 11
310.55971729449652
 21
132.6910475635913
 31
0.0
  0
LINE
  5
47A
  8
0
 10
320.17031251569028
 20
140.1957047868157
 30
0.0
 11
320.97581489895111
 21
140.1957047868157
 31
0.0
  0
LINE
  5
47B
  8
0
 10
321.22486077923531
 20
140.19570478681561
 30
0.0
 11
321.22486077923531
 21
132.6910475635911
 31
0.0
  0
LINE
  5
47C
  8
0
 10
275.22486077923531
 20
180.96071624721469
 30
0.0
 11
275.47035583628832
 21
180.96071624721469
 31
0.0
  0
LINE
  5
47D
  8
0
 10
275.47035731798633
 20
180.96071624721469
 30
0.0
 11
276.2001487624342
 21
180.96071624721469
 31
0.0
  0
LINE
  5
47E
  8
0
 10
276.20015042862377
 20
180.96071624721469
 30
0.0
 11
279.02033094326868
 21
180.96071624721469
 31
0.0
  0
LINE
  5
47F
  8
0
 10
279.0203316101003
 20
180.96071624721469
 30
0.0
 11
285.99434042022989
 21
180.96071624721469
 31
0.0
  0
LINE
  5
480
  8
0
 10
285.99434313548181
 20
180.96071624721469
 30
0.0
 11
288.8061194888927
 21
180.96071624721469
 31
0.0
  0
LINE
  5
481
  8
0
 10
288.80612201070079
 20
180.96071624721469
 30
0.0
 11
291.73843256073332
 21
180.96071624721469
 31
0.0
  0
LINE
  5
482
  8
0
 10
291.7384334700339
 20
180.96071624721469
 30
0.0
 11
294.71128808844639
 21
180.96071624721469
 31
0.0
  0
LINE
  5
483
  8
0
 10
294.7112889977372
 20
180.96071624721469
 30
0.0
 11
297.64359954776972
 21
180.96071624721469
 31
0.0
  0
LINE
  5
484
  8
0
 10
297.64360206958747
 20
180.96071624721469
 30
0.0
 11
300.4553784229887
 21
180.96071624721469
 31
0.0
  0
LINE
  5
485
  8
0
 10
300.45538113825057
 20
180.96071624721469
 30
0.0
 11
305.4159290684986
 21
180.96071624721469
 31
0.0
  0
LINE
  5
486
  8
0
 10
305.41593153434002
 20
180.96071624721469
 30
0.0
 11
310.24957112984669
 21
180.96071624721469
 31
0.0
  0
LINE
  5
487
  8
0
 10
310.24957279604888
 20
180.96071624721469
 30
0.0
 11
310.97936281845779
 21
180.96071624721469
 31
0.0
  0
LINE
  5
488
  8
0
 10
310.9793642404843
 20
180.96071624721469
 30
0.0
 11
311.22486077923531
 21
180.96071624721469
 31
0.0
  0
LINE
  5
489
  8
0
 10
293.22486077923531
 20
132.6910475635913
 30
0.0
 11
290.26215815418209
 21
132.6910475635913
 31
0.0
  0
LINE
  5
48A
  8
0
 10
290.26215705426131
 20
132.6910475635913
 30
0.0
 11
287.38027151769819
 21
132.6910475635913
 31
0.0
  0
LINE
  5
48B
  8
0
 10
287.38027033355098
 20
132.6910475635913
 30
0.0
 11
279.98183038711898
 21
132.6910475635913
 31
0.0
  0
LINE
  5
48C
  8
0
 10
279.98182916213358
 20
132.6910475635913
 30
0.0
 11
276.74094089944418
 21
132.6910475635913
 31
0.0
  0
LINE
  5
48D
  8
0
 10
276.74093944882952
 20
132.6910475635913
 30
0.0
 11
275.77565625120837
 21
132.6910475635913
 31
0.0
  0
LINE
  5
48E
  8
0
 10
275.77565599232742
 20
132.6910475635913
 30
0.0
 11
275.28633990511531
 21
132.6910475635913
 31
0.0
  0
LINE
  5
48F
  8
0
 10
310.5841712577614
 20
132.6910475635913
 30
0.0
 11
309.70878210965299
 21
132.6910475635913
 31
0.0
  0
LINE
  5
490
  8
0
 10
309.70878065902627
 20
132.6910475635913
 30
0.0
 11
306.4678911713516
 21
132.6910475635913
 31
0.0
  0
LINE
  5
491
  8
0
 10
306.46788955726879
 20
132.6910475635913
 30
0.0
 11
299.06945122491959
 21
132.6910475635913
 31
0.0
  0
LINE
  5
492
  8
0
 10
299.0694500407817
 20
132.6910475635913
 30
0.0
 11
296.18756450421893
 21
132.6910475635913
 31
0.0
  0
LINE
  5
493
  8
0
 10
296.18756340428848
 20
132.6910475635913
 30
0.0
 11
293.22486077923531
 21
132.6910475635913
 31
0.0
  0
LINE
  5
494
  8
0
 10
321.22486077923531
 20
132.69104756359121
 30
0.0
 11
320.97914923975651
 21
132.69104756359121
 31
0.0
  0
LINE
  5
495
  8
0
 10
320.97914923975651
 20
140.1957047868157
 30
0.0
 11
321.22486077923531
 21
140.1957047868157
 31
0.0
  0
LINE
  5
496
  8
0
 10
320.97581489895111
 20
132.69104756359141
 30
0.0
 11
310.5844570870758
 21
132.6910475635915
 31
0.0
  0
LINE
  5
497
  8
0
 10
310.5844570870758
 20
132.6910475635915
 30
0.0
 11
310.55971729449681
 21
132.6910475635915
 31
0.0
  0
LINE
  5
498
  8
0
 10
320.1703125156904
 20
140.1957047868159
 30
0.0
 11
320.97581489895111
 21
140.1957047868159
 31
0.0
  0
LINE
  5
499
  8
0
 10
321.22486077923531
 20
140.1957047868157
 30
0.0
 11
321.22486077923531
 21
132.69104756359121
 31
0.0
  0
LINE
  5
49A
  8
0
 10
275.22486077923531
 20
180.96071624721489
 30
0.0
 11
275.47035583628832
 21
180.96071624721489
 31
0.0
  0
LINE
  5
49B
  8
0
 10
275.47035731798633
 20
180.96071624721489
 30
0.0
 11
276.2001487624342
 21
180.96071624721489
 31
0.0
  0
LINE
  5
49C
  8
0
 10
276.20015042862377
 20
180.96071624721489
 30
0.0
 11
279.02033094326879
 21
180.96071624721489
 31
0.0
  0
LINE
  5
49D
  8
0
 10
279.0203316101003
 20
180.96071624721489
 30
0.0
 11
285.99434042023012
 21
180.96071624721489
 31
0.0
  0
LINE
  5
49E
  8
0
 10
285.99434313548181
 20
180.96071624721489
 30
0.0
 11
288.80611948889282
 21
180.96071624721489
 31
0.0
  0
LINE
  5
49F
  8
0
 10
288.80612201070079
 20
180.96071624721489
 30
0.0
 11
291.73843256073332
 21
180.96071624721489
 31
0.0
  0
LINE
  5
4A0
  8
0
 10
291.73843347003378
 20
180.96071624721489
 30
0.0
 11
294.71128808844639
 21
180.96071624721489
 31
0.0
  0
LINE
  5
4A1
  8
0
 10
294.7112889977372
 20
180.96071624721489
 30
0.0
 11
297.64359954776972
 21
180.96071624721489
 31
0.0
  0
LINE
  5
4A2
  8
0
 10
297.64360206958747
 20
180.96071624721489
 30
0.0
 11
300.4553784229887
 21
180.96071624721489
 31
0.0
  0
LINE
  5
4A3
  8
0
 10
300.45538113825057
 20
180.96071624721489
 30
0.0
 11
305.4159290684986
 21
180.96071624721489
 31
0.0
  0
LINE
  5
4A4
  8
0
 10
305.41593153434002
 20
180.96071624721489
 30
0.0
 11
310.24957112984669
 21
180.96071624721489
 31
0.0
  0
LINE
  5
4A5
  8
0
 10
310.24957279604888
 20
180.96071624721489
 30
0.0
 11
310.97936281845779
 21
180.96071624721489
 31
0.0
  0
LINE
  5
4A6
  8
0
 10
310.9793642404843
 20
180.96071624721489
 30
0.0
 11
311.22486077923531
 21
180.96071624721489
 31
0.0
  0
LINE
  5
4A7
  8
0
 10
293.22486077923531
 20
132.6910475635915
 30
0.0
 11
290.26215815418209
 21
132.6910475635915
 31
0.0
  0
LINE
  5
4A8
  8
0
 10
290.26215705426131
 20
132.6910475635915
 30
0.0
 11
287.38027151769819
 21
132.6910475635915
 31
0.0
  0
LINE
  5
4A9
  8
0
 10
287.38027033355098
 20
132.6910475635915
 30
0.0
 11
279.98183038711898
 21
132.6910475635915
 31
0.0
  0
LINE
  5
4AA
  8
0
 10
279.98182916213369
 20
132.6910475635915
 30
0.0
 11
276.7409408994443
 21
132.6910475635915
 31
0.0
  0
LINE
  5
4AB
  8
0
 10
276.74093944882952
 20
132.6910475635915
 30
0.0
 11
275.77565625120837
 21
132.6910475635915
 31
0.0
  0
LINE
  5
4AC
  8
0
 10
275.77565599232742
 20
132.6910475635915
 30
0.0
 11
275.22486077923531
 21
132.69104756359141
 31
0.0
  0
LINE
  5
4AD
  8
0
 10
310.58417125776123
 20
132.69104756359141
 30
0.0
 11
309.70878210965299
 21
132.69104756359141
 31
0.0
  0
LINE
  5
4AE
  8
0
 10
309.70878065902627
 20
132.69104756359141
 30
0.0
 11
306.4678911713516
 21
132.6910475635915
 31
0.0
  0
LINE
  5
4AF
  8
0
 10
306.46788955726879
 20
132.6910475635915
 30
0.0
 11
299.06945122491959
 21
132.6910475635915
 31
0.0
  0
LINE
  5
4B0
  8
0
 10
299.0694500407817
 20
132.6910475635915
 30
0.0
 11
296.18756450421893
 21
132.6910475635915
 31
0.0
  0
LINE
  5
4B1
  8
0
 10
296.18756340428848
 20
132.6910475635915
 30
0.0
 11
293.22486077923531
 21
132.6910475635915
 31
0.0
  0
LINE
  5
4B2
  8
0
 10
321.22486077923531
 20
132.69104756359141
 30
0.0
 11
320.97914923975651
 21
132.69104756359141
 31
0.0
  0
LINE
  5
4B3
  8
0
 10
320.97914923975651
 20
140.1957047868159
 30
0.0
 11
321.22486077923531
 21
140.1957047868159
 31
0.0
  0
LINE
  5
4B4
  8
0
 10
251.0998607792354
 20
181.4457047868159
 30
0.0
 11
251.0998607792352
 21
132.1957047868159
 31
0.0
  0
LINE
  5
4B5
  8
0
 10
107.4748607792353
 20
132.19570478681641
 30
0.0
 11
107.4748607792353
 21
181.44570478681641
 31
0.0
  0
LINE
  5
4B6
  8
0
 10
107.4748607792353
 20
181.44570478681641
 30
0.0
 11
251.0998607792354
 21
181.4457047868159
 31
0.0
  0
LINE
  5
4B7
  8
0
 10
109.0998607792353
 20
179.82070478681641
 30
0.0
 11
249.47486077923531
 21
179.8207047868159
 31
0.0
1001
ACAD
1000
ASC_BOUNDS
1002
{
1070
    19
1005
58A
1002
}
  0
LINE
  5
4B8
  8
0
 10
249.47486077923531
 20
179.8207047868159
 30
0.0
 11
249.4748607792352
 21
133.8207047868159
 31
0.0
1001
ACAD
1000
ASC_BOUNDS
1002
{
1070
    19
1005
58A
1002
}
  0
LINE
  5
4B9
  8
0
 10
249.4748607792352
 20
133.8207047868159
 30
0.0
 11
109.0998607792351
 21
133.82070478681641
 31
0.0
1001
ACAD
1000
ASC_BOUNDS
1002
{
1070
    19
1005
58A
1002
}
  0
LINE
  5
4BA
  8
0
 10
109.0998607792351
 20
133.82070478681641
 30
0.0
 11
109.0998607792353
 21
179.82070478681641
 31
0.0
1001
ACAD
1000
ASC_BOUNDS
1002
{
1070
    19
1005
58A
1002
}
  0
LINE
  5
4BB
  8
0
 10
107.4748607792353
 20
132.19570478681641
 30
0.0
 11
251.0998607792352
 21
132.1957047868159
 31
0.0
  0
LINE
  5
4BC
  8
0
 10
320.2248607792356
 20
140.1957047868157
 30
0.0
 11
320.2248607792356
 21
173.44570478681581
 31
0.0
  0
LINE
  5
4BD
  8
0
 10
320.17031230208892
 20
140.19570478681581
 30
0.0
 11
320.15574055117918
 21
140.19570478681581
 31
0.0
  0
LINE
  5
4BE
  8
0
 10
320.15573638808343
 20
140.19570478681581
 30
0.0
 11
319.64983212927399
 21
140.1957047868157
 31
0.0
  0
LINE
  5
4BF
  8
0
 10
319.64983013568582
 20
140.1957047868157
 30
0.0
 11
318.6609057853853
 21
140.1957047868157
 31
0.0
  0
LINE
  5
4C0
  8
0
 10
318.66090416416682
 20
140.1957047868157
 30
0.0
 11
317.20518872860259
 21
140.1957047868157
 31
0.0
  0
LINE
  5
4C1
  8
0
 10
317.20518617555098
 20
140.1957047868157
 30
0.0
 11
315.3065744075322
 21
140.1957047868157
 31
0.0
  0
LINE
  5
4C2
  8
0
 10
315.30657358044039
 20
140.1957047868157
 30
0.0
 11
310.31209736482452
 21
140.19570478681561
 31
0.0
  0
LINE
  5
4C3
  8
0
 10
310.31209436779318
 20
140.19570478681561
 30
0.0
 11
307.29821564058949
 21
140.19570478681561
 31
0.0
  0
LINE
  5
4C4
  8
0
 10
307.29821265881679
 20
140.19570478681561
 30
0.0
 11
300.48372461981029
 21
140.1957047868155
 31
0.0
  0
LINE
  5
4C5
  8
0
 10
300.48372236729682
 20
140.1957047868155
 30
0.0
 11
296.79498256993901
 21
140.1957047868155
 31
0.0
  0
LINE
  5
4C6
  8
0
 10
296.794981075642
 20
140.1957047868155
 30
0.0
 11
292.99838794018092
 21
140.1957047868155
 31
0.0
  0
LINE
  5
4C7
  8
0
 10
292.99838614842088
 20
140.1957047868155
 30
0.0
 11
289.15626298583891
 21
140.1957047868155
 31
0.0
  0
LINE
  5
4C8
  8
0
 10
289.15626259561839
 20
140.1957047868155
 30
0.0
 11
285.3316818293589
 21
140.1957047868155
 31
0.0
  0
LINE
  5
4C9
  8
0
 10
285.33168054690287
 20
140.1957047868155
 30
0.0
 11
281.58742218052129
 21
140.1957047868155
 31
0.0
  0
LINE
  5
4CA
  8
0
 10
281.587421026078
 20
140.1957047868155
 30
0.0
 11
277.9849511265295
 21
140.1957047868155
 31
0.0
  0
LINE
  5
4CB
  8
0
 10
277.98494969983341
 20
140.1957047868155
 30
0.0
 11
251.0998607792354
 21
140.1957047868157
 31
0.0
  0
LINE
  5
4CC
  8
0
 10
251.0998607792354
 20
173.4457047868157
 30
0.0
 11
277.98494969983341
 21
173.4457047868155
 31
0.0
  0
LINE
  5
4CD
  8
0
 10
277.98495112652932
 20
173.4457047868155
 30
0.0
 11
281.58742102607778
 21
173.4457047868155
 31
0.0
  0
LINE
  5
4CE
  8
0
 10
281.58742218052112
 20
173.4457047868155
 30
0.0
 11
285.3316805469027
 21
173.44570478681541
 31
0.0
  0
LINE
  5
4CF
  8
0
 10
285.33168182935862
 20
173.44570478681541
 30
0.0
 11
289.1562625956181
 21
173.44570478681541
 31
0.0
  0
LINE
  5
4D0
  8
0
 10
289.15626298583868
 20
173.44570478681541
 30
0.0
 11
292.99838614842048
 21
173.44570478681541
 31
0.0
  0
LINE
  5
4D1
  8
0
 10
292.99838794018069
 20
173.44570478681541
 30
0.0
 11
296.79498107564177
 21
173.4457047868155
 31
0.0
  0
LINE
  5
4D2
  8
0
 10
296.79498256993878
 20
173.4457047868155
 30
0.0
 11
300.48372236729648
 21
173.4457047868155
 31
0.0
  0
LINE
  5
4D3
  8
0
 10
300.48372461981012
 20
173.4457047868155
 30
0.0
 11
304.00406235058142
 21
173.4457047868155
 31
0.0
  0
LINE
  5
4D4
  8
0
 10
304.00406445082848
 20
173.4457047868155
 30
0.0
 11
307.29821265881662
 21
173.4457047868155
 31
0.0
  0
LINE
  5
4D5
  8
0
 10
307.29821564058932
 20
173.4457047868155
 30
0.0
 11
310.31209436779312
 21
173.44570478681561
 31
0.0
  0
LINE
  5
4D6
  8
0
 10
310.3120973648243
 20
173.44570478681561
 30
0.0
 11
315.30657358044039
 21
173.44570478681561
 31
0.0
  0
LINE
  5
4D7
  8
0
 10
315.3065744075322
 20
173.44570478681561
 30
0.0
 11
317.20518617555092
 21
173.4457047868157
 31
0.0
  0
LINE
  5
4D8
  8
0
 10
317.20518872860248
 20
173.4457047868157
 30
0.0
 11
318.66090416416682
 21
173.4457047868157
 31
0.0
  0
LINE
  5
4D9
  8
0
 10
318.66090578538513
 20
173.4457047868157
 30
0.0
 11
319.64983013568582
 21
173.4457047868157
 31
0.0
  0
LINE
  5
4DA
  8
0
 10
319.64983212927399
 20
173.4457047868157
 30
0.0
 11
320.15573638808343
 21
173.4457047868157
 31
0.0
  0
LINE
  5
4DB
  8
0
 10
320.15574055117912
 20
173.4457047868157
 30
0.0
 11
320.17031230208892
 21
173.44570478681581
 31
0.0
  0
LINE
  5
4DC
  8
0
 10
323.22486077923531
 20
181.44570478681649
 30
0.0
 11
323.22486077923531
 21
132.19570478681649
 31
0.0
  0
LINE
  5
4DD
  8
0
 10
323.22486077923531
 20
132.19570478681649
 30
0.0
 11
251.0998607792352
 21
132.19570478681649
 31
0.0
  0
LINE
  5
4DE
  8
0
 10
323.22486077923531
 20
181.44570478681649
 30
0.0
 11
251.0998607792354
 21
181.44570478681649
 31
0.0
  0
LINE
  5
4DF
  8
0
 10
103.349860779235
 20
169.63320478681641
 30
0.0
 11
107.474860779235
 21
169.63320478681641
 31
0.0
  0
LINE
  5
4E0
  8
0
 10
107.4748607792353
 20
175.63320478681629
 30
0.0
 11
103.3498607792353
 21
175.63320478681629
 31
0.0
  0
LINE
  5
4E1
  8
0
 10
103.349860779235
 20
153.82070478681609
 30
0.0
 11
107.474860779235
 21
153.82070478681609
 31
0.0
  0
LINE
  5
4E2
  8
0
 10
107.474860779235
 20
159.82070478681609
 30
0.0
 11
103.349860779235
 21
159.82070478681609
 31
0.0
  0
LINE
  5
4E3
  8
0
 10
103.3498607792353
 20
169.63320478681629
 30
0.0
 11
103.3498607792353
 21
169.7354267899812
 31
0.0
  0
LINE
  5
4E4
  8
0
 10
103.3498607792353
 20
169.7354273079491
 30
0.0
 11
103.3498607792353
 21
170.03512753903061
 31
0.0
  0
LINE
  5
4E5
  8
0
 10
103.3498607792353
 20
170.03512857546301
 30
0.0
 11
103.3498607792353
 21
171.85674677787529
 31
0.0
  0
LINE
  5
4E6
  8
0
 10
103.3498607792353
 20
171.8567476515087
 30
0.0
 11
103.3498607792353
 21
172.63320478681629
 31
0.0
  0
LINE
  5
4E7
  8
0
 10
103.3498607792353
 20
172.63320556740911
 30
0.0
 11
103.3498607792353
 21
173.40966144885161
 31
0.0
  0
LINE
  5
4E8
  8
0
 10
103.3498607792353
 20
173.4096619221238
 30
0.0
 11
103.3498607792353
 21
174.75452513037601
 31
0.0
  0
LINE
  5
4E9
  8
0
 10
103.3498607792353
 20
174.75452536213891
 30
0.0
 11
103.3498607792353
 21
175.53098226568349
 31
0.0
  0
LINE
  5
4EA
  8
0
 10
103.3498607792353
 20
175.53098300816251
 30
0.0
 11
103.3498607792353
 21
175.63320478681629
 31
0.0
  0
LINE
  5
4EB
  8
0
 10
103.3498607792353
 20
153.82070478681609
 30
0.0
 11
103.3498607792353
 21
154.22262857546281
 31
0.0
  0
LINE
  5
4EC
  8
0
 10
103.3498607792353
 20
154.22262870946599
 30
0.0
 11
103.3498607792353
 21
154.69938378755469
 31
0.0
  0
LINE
  5
4ED
  8
0
 10
103.3498607792353
 20
154.69938444325649
 30
0.0
 11
103.3498607792353
 21
155.3207035436009
 31
0.0
  0
LINE
  5
4EE
  8
0
 10
103.3498607792353
 20
155.32070478681609
 30
0.0
 11
103.3498607792353
 21
156.0442476515085
 31
0.0
  0
LINE
  5
4EF
  8
0
 10
103.3498607792353
 20
156.04424776919811
 30
0.0
 11
103.3498607792353
 21
156.82070363809709
 31
0.0
  0
LINE
  5
4F0
  8
0
 10
103.3498607792353
 20
156.82070478681609
 30
0.0
 11
103.3498607792353
 21
157.5971619221236
 31
0.0
  0
LINE
  5
4F1
  8
0
 10
103.3498607792353
 20
157.5971624141699
 30
0.0
 11
103.3498607792353
 21
158.9420251303757
 31
0.0
  0
LINE
  5
4F2
  8
0
 10
103.3498607792353
 20
158.94202647304871
 30
0.0
 11
103.3498607792353
 21
159.41878099816941
 31
0.0
  0
LINE
  5
4F3
  8
0
 10
103.3498607792353
 20
159.41878155773699
 30
0.0
 11
103.3498607792353
 21
159.82070478681609
 31
0.0
  0
LINE
  5
4F4
  8
0
 10
430.02941472710302
 20
65.938524038097469
 30
0.0
 11
422.5144032667036
 21
65.938524038097484
 31
0.0
1001
ACAD
1000
ASC_BOUNDS
1002
{
1070
    19
1005
581
1002
}
  0
LINE
  5
4F5
  8
0
 10
389.2644032667036
 20
65.938524038097469
 30
0.0
 11
381.75974604347959
 21
65.938524038097469
 31
0.0
1001
ACAD
1000
ASC_BOUNDS
1002
{
1070
    19
1005
581
1002
}
  0
LINE
  5
4F6
  8
0
 10
430.0294147271029
 20
30.06148228985769
 30
0.0
 11
422.51440326670343
 21
30.061482289857711
 31
0.0
1001
ACAD
1000
ASC_BOUNDS
1002
{
1070
    19
1005
581
1002
}
  0
LINE
  5
4F7
  8
0
 10
275.22486077923531
 20
180.96071624721469
 30
0.0
 11
275.22486077923531
 21
173.44570478681561
 31
0.0
  0
LINE
  5
4F8
  8
0
 10
275.22486077923531
 20
140.19570478681561
 30
0.0
 11
275.22486077923531
 21
132.69104756359141
 31
0.0
  0
LINE
  5
4F9
  8
0
 10
311.22486077923531
 20
180.96071624721469
 30
0.0
 11
311.22486077923531
 21
173.44570478681541
 31
0.0
  0
INSERT
  5
51D
  8
0
  6
CONTINUOUS
  2
*X3
 10
0.0
 20
0.0
 30
0.0
1001
GRADIENTCOLOR1ACI
1070
     5
1001
GRADIENTCOLOR2ACI
1070
     2
1001
ACAD
1000
HATCH
1002
{
1070
    19
1000
NET
1040
12.0
1040
-0.7853981633974485
1000
R14_HATCH_DATA
1000
51D
1011
1.0
1021
0.0
1031
0.0
1021
0.0
1031
0.0
1011
0.0
1021
0.0
1031
0.0
1021
1.0
1031
0.0
1011
0.0
1021
0.0
1031
0.0
1021
0.0
1031
1.0
1040
0.0
1010
0.0
1020
0.0
1030
1.0
1000
NET
1070
     0
1070
     0
1071
        1
1071
        7
1070
     0
1070
     1
1071
       26
1040
296.79498107564177
1040
173.4457047868155
1040
300.48372236729648
1040
173.4457047868155
1040
304.00406235058142
1040
173.4457047868155
1040
307.29821265881662
1040
173.4457047868155
1040
310.31209436779312
1040
173.44570478681561
1040
311.22486077923531
1040
173.44570478681561
1040
311.22486077923531
1040
180.96071624721489
1040
310.9793642404843
1040
180.96071624721489
1040
310.24957279604888
1040
180.96071624721489
1040
305.41593153434002
1040
180.96071624721489
1040
300.45538113825057
1040
180.96071624721489
1040
297.64360206958747
1040
180.96071624721489
1040
294.7112889977372
1040
180.96071624721489
1040
291.73843347003378
1040
180.96071624721489
1040
288.80612201070079
1040
180.96071624721489
1040
285.99434313548181
1040
180.96071624721489
1040
279.0203316101003
1040
180.96071624721489
1040
276.20015042862377
1040
180.96071624721489
1040
275.47035731798633
1040
180.96071624721489
1040
275.22486077923531
1040
180.96071624721489
1040
275.22486077923531
1040
173.4457047868155
1040
277.98494969983341
1040
173.4457047868155
1040
281.58742102607778
1040
173.4457047868155
1040
285.3316805469027
1040
173.44570478681541
1040
289.1562625956181
1040
173.44570478681541
1040
292.99838614842048
1040
173.44570478681541
1071
        0
1070
     1
1070
     1
1040
-0.7853981633974485
1040
12.0
1070
     0
1070
     2
1040
5.4977871437821371
1040
-29.261031009417401
1040
181.44570469575501
1040
1.060660171779821
1040
1.0606601717798201
1070
     0
1040
0.7853981633974481
1040
-29.261031009417401
1040
181.44570469575501
1040
-1.0606601717798201
1040
1.060660171779821
1070
     0
1040
0.0972879177397727
1071
        1
1040
293.40734041862618
1040
176.6492638032575
1040
0.0
1002
}
  0
INSERT
  5
542
  8
0
  6
CONTINUOUS
  2
*X4
 10
0.0
 20
0.0
 30
0.0
1001
GRADIENTCOLOR1ACI
1070
     5
1001
GRADIENTCOLOR2ACI
1070
     2
1001
ACAD
1000
HATCH
1002
{
1070
    19
1000
NET
1040
12.0
1040
-0.7853981633974485
1000
R14_HATCH_DATA
1000
542
1011
1.0
1021
0.0
1031
0.0
1021
0.0
1031
0.0
1011
0.0
1021
0.0
1031
0.0
1021
1.0
1031
0.0
1011
0.0
1021
0.0
1031
0.0
1021
0.0
1031
1.0
1040
0.0
1010
0.0
1020
0.0
1030
1.0
1000
NET
1070
     0
1070
     0
1071
        1
1071
        7
1070
     0
1070
     1
1071
       32
1040
309.70878065902627
1040
132.69104756359141
1040
310.58417125776123
1040
132.69104756359141
1040
310.5844570870758
1040
132.6910475635915
1040
320.97581489895111
1040
132.69104756359141
1040
321.22486077923531
1040
132.69104756359141
1040
321.22486077923531
1040
140.1957047868159
1040
320.97914923975651
1040
140.1957047868159
1040
320.1703125156904
1040
140.1957047868159
1040
319.64983212927399
1040
140.1957047868157
1040
318.6609057853853
1040
140.1957047868157
1040
317.20518872860259
1040
140.1957047868157
1040
315.3065744075322
1040
140.1957047868157
1040
310.31209736482452
1040
140.19570478681561
1040
307.29821564058949
1040
140.19570478681561
1040
300.48372461981029
1040
140.1957047868155
1040
296.79498256993901
1040
140.1957047868155
1040
292.99838794018092
1040
140.1957047868155
1040
289.15626298583891
1040
140.1957047868155
1040
285.3316818293589
1040
140.1957047868155
1040
281.58742218052129
1040
140.1957047868155
1040
277.9849511265295
1040
140.1957047868155
1040
275.22486077923531
1040
140.19570478681561
1040
275.22486077923531
1040
132.69104756359141
1040
275.77565599232742
1040
132.6910475635915
1040
276.74093944882952
1040
132.6910475635915
1040
279.98182916213369
1040
132.6910475635915
1040
287.38027033355098
1040
132.6910475635915
1040
290.26215705426131
1040
132.6910475635915
1040
293.22486077923531
1040
132.6910475635915
1040
296.18756340428848
1040
132.6910475635915
1040
299.0694500407817
1040
132.6910475635915
1040
306.46788955726879
1040
132.6910475635915
1071
        0
1070
     1
1070
     1
1040
-0.7853981633974485
1040
12.0
1070
     0
1070
     2
1040
5.4977871437821371
1040
-29.261031009417401
1040
181.44570469575501
1040
1.060660171779821
1040
1.0606601717798201
1070
     0
1040
0.7853981633974481
1040
-29.261031009417401
1040
181.44570469575501
1040
-1.0606601717798201
1040
1.060660171779821
1070
     0
1040
0.0972879177397727
1071
        1
1040
307.02764886006241
1040
134.40592896151739
1040
0.0
1002
}
  0
INSERT
  5
54D
  8
0
  6
CONTINUOUS
  2
*X5
 10
0.0
 20
0.0
 30
0.0
1001
GRADIENTCOLOR1ACI
1070
     5
1001
GRADIENTCOLOR2ACI
1070
     2
1001
ACAD
1000
HATCH
1002
{
1070
    19
1000
NET
1040
12.0
1040
0.7853981633974483
1000
ASC_BOUNDS
1070
     1
1070
     1
1070
     6
1005
374
1005
372
1005
371
1005
373
1005
36F
1005
370
1000
ASC_SEEDPOINT
1011
306.4205585014663
1021
0.0
1031
0.0
1021
39.607207453926549
1031
0.0
1000
R14_HATCH_DATA
1000
54D
1011
1.0
1021
0.0
1031
0.0
1021
0.0
1031
0.0
1011
0.0
1021
0.0
1031
0.0
1021
1.0
1031
0.0
1011
0.0
1021
0.0
1031
0.0
1021
0.0
1031
1.0
1040
0.0
1010
0.0
1020
0.0
1030
1.0
1000
NET
1070
     0
1070
     1
1071
        1
1071
        7
1070
     1
1070
     1
1071
        6
1040
310.5844570870758
1040
52.75861514868906
1040
0.3378522770246586
1040
293.22486077923531
1040
66.000000221127635
1040
0.6783124970280922
1040
280.8568611100502
1040
34.922057562473881
1040
0.0
1040
309.4150831301078
1040
7.9141336316507056
1040
0.1916731857395643
1040
314.22486077923509
1040
6.0000002211271521
1040
0.4949333602420963
1040
320.97581489895111
1040
14.850572692956581
1040
0.0
1071
        6
1005
370
1005
36F
1005
373
1005
371
1005
372
1005
374
1070
     1
1070
     1
1040
0.7853981633974483
1040
12.0
1070
     0
1070
     2
1040
0.7853981633974483
1040
0.0
1040
0.0
1040
-1.060660171779821
1040
1.060660171779821
1070
     0
1040
2.3561944901923439
1040
0.0
1040
0.0
1040
-1.060660171779821
1040
-1.060660171779821
1070
     0
1040
0.156974446493382
1071
        1
1040
306.4205585014663
1040
39.607207453926549
1040
0.0
1002
}
  0
INSERT
  5
581
  8
0
  6
CONTINUOUS
  2
*X6
 10
0.0
 20
0.0
 30
0.0
1001
GRADIENTCOLOR1ACI
1070
     5
1001
GRADIENTCOLOR2ACI
1070
     2
1001
ACAD
1000
HATCH
1002
{
1070
    19
1000
NET
1040
12.0
1040
0.7853981633974483
1000
ASC_BOUNDS
1070
     2
1070
     1
1070
    24
1005
416
1005
417
1005
418
1005
419
1005
41A
1005
4F6
1005
45D
1005
45C
1005
45B
1005
45A
1005
459
1005
458
1005
457
1005
456
1005
455
1005
454
1005
453
1005
4F4
1005
41C
1005
41D
1005
41E
1005
41F
1005
420
1005
421
1070
     1
1070
    22
1005
445
1005
444
1005
443
1005
442
1005
441
1005
440
1005
414
1005
437
1005
415
1005
412
1005
413
1005
42E
1005
42F
1005
430
1005
431
1005
432
1005
4F5
1005
44A
1005
449
1005
448
1005
447
1005
446
1000
ASC_SEEDPOINT
1011
384.59448875054409
1021
0.0
1031
0.0
1021
47.87506267850074
1031
0.0
1000
R14_HATCH_DATA
1000
581
1011
1.0
1021
0.0
1031
0.0
1021
0.0
1031
0.0
1011
0.0
1021
0.0
1031
0.0
1021
1.0
1031
0.0
1011
0.0
1021
0.0
1031
0.0
1021
0.0
1031
1.0
1040
0.0
1010
0.0
1020
0.0
1030
1.0
1000
NET
1070
     0
1070
     1
1071
        2
1071
        7
1070
     0
1070
     1
1071
       22
1040
389.26440326670371
1040
50.184887072460747
1040
389.26440326670371
1040
53.742242366827227
1040
389.2644032667036
1040
57.084272424603057
1040
389.2644032667036
1040
62.907348543481227
1040
389.2644032667036
1040
65.292806276712881
1040
389.2644032667036
1040
65.938524038097469
1040
381.75974604347959
1040
65.938524038097469
1040
381.75974604347948
1040
65.754503682376296
1040
381.75974604347948
1040
65.024712237934637
1040
381.75974604347948
1040
60.191070976226513
1040
381.75974604347948
1040
55.23052058013748
1040
381.75974604347948
1040
52.76658102781947
1040
381.75974604347948
1040
52.451890360861867
1040
381.75974604347931
1040
14.850572692956231
1040
389.26440326670388
1040
14.85057269295622
1040
389.26440326670388
1040
14.852427637689541
1040
389.26440326670388
1040
27.92941771322106
1040
389.26440326670388
1040
31.281054694880041
1040
389.26440326670388
1040
35.002733441037591
1040
389.26440326670382
1040
38.816704589200953
1040
389.26440326670382
1040
42.660358650618328
1040
389.26440326670371
1040
46.470602076318691
1071
       22
1005
446
1005
447
1005
448
1005
449
1005
44A
1005
4F5
1005
432
1005
431
1005
430
1005
42F
1005
42E
1005
413
1005
412
1005
415
1005
437
1005
414
1005
440
1005
441
1005
442
1005
443
1005
444
1005
445
1071
        7
1070
     0
1070
     1
1071
       24
1040
430.0294147271029
1040
48.000000221127259
1040
430.0294147271029
1040
50.962702846180427
1040
430.0294147271029
1040
53.84458948266883
1040
430.0294147271029
1040
61.243028999156373
1040
430.02941472710302
1040
64.483920100918255
1040
430.02941472710302
1040
65.44920500803515
1040
430.02941472710302
1040
65.938524038097469
1040
422.5144032667036
1040
65.938524038097484
1040
422.5144032667036
1040
65.292806906465003
1040
422.5144032667036
1040
62.907348878659157
1040
422.5144032667036
1040
57.084274610952512
1040
422.5144032667036
1040
53.742245031826521
1040
422.51440326670371
1040
50.184889110285141
1040
422.51440326670371
1040
46.470603228125299
1040
422.51440326670371
1040
42.660358982544849
1040
422.51440326670371
1040
38.816705923357041
1040
422.51440326670371
1040
35.00273415537076
1040
422.51440326670388
1040
31.28105566502461
1040
422.51440326670388
1040
30.061482289857711
1040
430.02941472710302
1040
30.06148228985769
1040
430.02941472710302
1040
30.550795434219278
1040
430.02941472710302
1040
31.516078890715409
1040
430.0294147271029
1040
34.756968604020201
1040
430.0294147271029
1040
42.155409775442948
1071
       24
1005
421
1005
420
1005
41F
1005
41E
1005
41D
1005
41C
1005
4F4
1005
453
1005
454
1005
455
1005
456
1005
457
1005
458
1005
459
1005
45A
1005
45B
1005
45C
1005
45D
1005
4F6
1005
41A
1005
419
1005
418
1005
417
1005
416
1070
     1
1070
     1
1040
0.7853981633974483
1040
12.0
1070
     0
1070
     2
1040
0.7853981633974483
1040
0.0
1040
0.0
1040
-1.060660171779821
1040
1.060660171779821
1070
     0
1040
2.3561944901923439
1040
0.0
1040
0.0
1040
-1.060660171779821
1040
-1.060660171779821
1070
     0
1040
0.0987247512637679
1071
        2
1040
384.59448875054409
1040
47.87506267850074
1040
0.0
1040
427.36293714354991
1040
47.67761344342
1040
0.0
1002
}
  0
INSERT
  5
58A
  8
0
  6
CONTINUOUS
  2
*X7
 10
0.0
 20
0.0
 30
0.0
1001
GRADIENTCOLOR1ACI
1070
     5
1001
GRADIENTCOLOR2ACI
1070
     2
1001
ACAD
1000
HATCH
1002
{
1070
    19
1000
ANSI31
1040
12.0
1040
-0.7853981633974485
1000
ASC_BOUNDS
1070
     1
1070
     1
1070
     4
1005
4B9
1005
4BA
1005
4B7
1005
4B8
1000
ASC_SEEDPOINT
1011
198.18131136576019
1021
0.0
1031
0.0
1021
143.7437293783448
1031
0.0
1000
R14_HATCH_DATA
1000
58A
1011
1.0
1021
0.0
1031
0.0
1021
0.0
1031
0.0
1011
0.0
1021
0.0
1031
0.0
1021
1.0
1031
0.0
1011
0.0
1021
0.0
1031
0.0
1021
0.0
1031
1.0
1040
0.0
1010
0.0
1020
0.0
1030
1.0
1000
ANSI31
1070
     0
1070
     1
1071
        1
1071
        7
1070
     0
1070
     1
1071
        4
1040
249.4748607792352
1040
133.8207047868159
1040
249.47486077923531
1040
179.8207047868159
1040
109.0998607792353
1040
179.82070478681641
1040
109.0998607792351
1040
133.82070478681641
1071
        4
1005
4B8
1005
4B7
1005
4BA
1005
4B9
1070
     1
1070
     1
1040
-0.7853981633974485
1040
12.0
1070
     0
1070
     1
1040
6.2831853071795862
1040
-29.261031009417401
1040
181.44570469575501
1040
0.0000000000000005
1040
1.5
1070
     0
1040
0.2547685816041391
1071
        1
1040
198.18131136576019
1040
143.7437293783448
1040
0.0
1002
}
  0
ENDSEC
  0
EOF
