  0
SECTION
  2
HEADER
  9
$ACADVER
  1
AC1009
  9
$INSBASE
 10
0.0
 20
0.0
 30
0.0
  9
$EXTMIN
 10
-0.0144984626607538
 20
-0.0068665465107642
 30
-0.0015258207003583
  9
$EXTMAX
 10
475.13637351200072
 20
244.0316484777729
 30
0.0000000349246037
  9
$LIMMIN
 10
0.0
 20
0.0
  9
$LIMMAX
 10
12.0
 20
9.0
  9
$ORTHOMODE
 70
     1
  9
$REGENMODE
 70
     1
  9
$FILLMODE
 70
     1
  9
$QTEXTMODE
 70
     0
  9
$MIRRTEXT
 70
     0
  9
$DRAGMODE
 70
     2
  9
$LTSCALE
 40
1.0
  9
$OSMODE
 70
    37
  9
$ATTMODE
 70
     1
  9
$TEXTSIZE
 40
0.2
  9
$TRACEWID
 40
0.05
  9
$TEXTSTYLE
  7
ROMANS
  9
$CLAYER
  8
0
  9
$CELTYPE
  6
BYLAYER
  9
$CECOLOR
 62
   256
  9
$DIMSCALE
 40
1.0
  9
$DIMASZ
 40
0.09375
  9
$DIMEXO
 40
0.0625
  9
$DIMDLI
 40
0.375
  9
$DIMRND
 40
0.0
  9
$DIMDLE
 40
0.0
  9
$DIMEXE
 40
0.03125
  9
$DIMTP
 40
0.0
  9
$DIMTM
 40
0.0
  9
$DIMTXT
 40
0.09375
  9
$DIMCEN
 40
0.09375
  9
$DIMTSZ
 40
0.0
  9
$DIMTOL
 70
     0
  9
$DIMLIM
 70
     0
  9
$DIMTIH
 70
     0
  9
$DIMTOH
 70
     0
  9
$DIMSE1
 70
     0
  9
$DIMSE2
 70
     0
  9
$DIMTAD
 70
     0
  9
$DIMZIN
 70
     0
  9
$DIMBLK
  1

  9
$DIMASO
 70
     1
  9
$DIMSHO
 70
     1
  9
$DIMPOST
  1

  9
$DIMAPOST
  1

  9
$DIMALT
 70
     0
  9
$DIMALTD
 70
     2
  9
$DIMALTF
 40
25.399999999999999
  9
$DIMLFAC
 40
1.0
  9
$DIMTOFL
 70
     0
  9
$DIMTVP
 40
0.0
  9
$DIMTIX
 70
     0
  9
$DIMSOXD
 70
     0
  9
$DIMSAH
 70
     0
  9
$DIMBLK1
  1

  9
$DIMBLK2
  1

  9
$DIMSTYLE
  2
BAC
  9
$DIMCLRD
 70
     0
  9
$DIMCLRE
 70
     6
  9
$DIMCLRT
 70
     0
  9
$DIMTFAC
 40
1.0
  9
$DIMGAP
 40
0.0625
  9
$LUNITS
 70
     5
  9
$LUPREC
 70
     6
  9
$SKETCHINC
 40
0.1
  9
$FILLETRAD
 40
0.0
  9
$AUNITS
 70
     0
  9
$AUPREC
 70
     0
  9
$MENU
  1
.
  9
$ELEVATION
 40
0.0
  9
$PELEVATION
 40
0.0
  9
$THICKNESS
 40
0.0
  9
$LIMCHECK
 70
     0
  9
$BLIPMODE
 70
     0
  9
$CHAMFERA
 40
0.5
  9
$CHAMFERB
 40
0.5
  9
$SKPOLY
 70
     0
  9
$TDCREATE
 40
2456827.572313692
  9
$TDUPDATE
 40
2456827.5766837732
  9
$TDINDWG
 40
0.0043718056
  9
$TDUSRTIMER
 40
0.0043714005
  9
$USRTIMER
 70
     1
  9
$ANGBASE
 50
0.0
  9
$ANGDIR
 70
     0
  9
$PDMODE
 70
     0
  9
$PDSIZE
 40
0.0
  9
$PLINEWID
 40
0.0
  9
$COORDS
 70
     1
  9
$SPLFRAME
 70
     0
  9
$SPLINETYPE
 70
     6
  9
$SPLINESEGS
 70
     8
  9
$ATTDIA
 70
     0
  9
$ATTREQ
 70
     1
  9
$HANDLING
 70
     1
  9
$HANDSEED
  5
FAA
  9
$SURFTAB1
 70
     6
  9
$SURFTAB2
 70
     6
  9
$SURFTYPE
 70
     6
  9
$SURFU
 70
     6
  9
$SURFV
 70
     6
  9
$UCSNAME
  2

  9
$UCSORG
 10
0.0
 20
0.0
 30
0.0
  9
$UCSXDIR
 10
1.0
 20
0.0
 30
0.0
  9
$UCSYDIR
 10
0.0
 20
1.0
 30
0.0
  9
$PUCSNAME
  2

  9
$PUCSORG
 10
0.0
 20
0.0
 30
0.0
  9
$PUCSXDIR
 10
1.0
 20
0.0
 30
0.0
  9
$PUCSYDIR
 10
0.0
 20
1.0
 30
0.0
  9
$USERI1
 70
     0
  9
$USERI2
 70
     0
  9
$USERI3
 70
     0
  9
$USERI4
 70
     0
  9
$USERI5
 70
     0
  9
$USERR1
 40
0.0
  9
$USERR2
 40
0.0
  9
$USERR3
 40
0.0
  9
$USERR4
 40
0.0
  9
$USERR5
 40
0.0
  9
$WORLDVIEW
 70
     1
  9
$SHADEDGE
 70
     3
  9
$SHADEDIF
 70
    70
  9
$TILEMODE
 70
     1
  9
$MAXACTVP
 70
    48
  9
$PLIMCHECK
 70
     0
  9
$PEXTMIN
 10
1.0000000000000000E+020
 20
1.0000000000000000E+020
 30
1.0000000000000000E+020
  9
$PEXTMAX
 10
-1.0000000000000000E+020
 20
-1.0000000000000000E+020
 30
-1.0000000000000000E+020
  9
$PLIMMIN
 10
0.0
 20
0.0
  9
$PLIMMAX
 10
12.0
 20
9.0
  9
$UNITMODE
 70
     0
  9
$VISRETAIN
 70
     1
  9
$PLINEGEN
 70
     0
  9
$PSLTSCALE
 70
     1
  0
ENDSEC
  0
SECTION
  2
TABLES
  0
TABLE
  2
VPORT
 70
     1
  0
VPORT
  2
*ACTIVE
 70
     0
 10
0.0
 20
0.0
 11
1.0
 21
1.0
 12
237.56093752467001
 22
122.0123909656311
 13
0.0
 23
0.0
 14
0.5
 24
0.5
 15
0.5
 25
0.5
 16
0.0
 26
0.0
 36
1.0
 17
0.0
 27
0.0
 37
0.0
 40
269.4166764201367
 41
1.7702552719200879
 42
50.0
 43
0.0
 44
0.0
 50
0.0
 51
0.0
 71
     0
 72
   100
 73
     1
 74
     1
 75
     0
 76
     0
 77
     0
 78
     0
  0
ENDTAB
  0
TABLE
  2
LTYPE
 70
    20
  0
LTYPE
  2
CONTINUOUS
 70
     0
  3
Solid line
 72
    65
 73
     0
 40
0.0
  0
LTYPE
  2
CENTER
 70
     0
  3
Center ____ _ ____ _ ____ _ ____ _ ____ _ ____
 72
    65
 73
     4
 40
2.0
 49
1.25
 49
-0.25
 49
0.25
 49
-0.25
  0
LTYPE
  2
CENTER2
 70
     0
  3
Center (.5x) ___ _ ___ _ ___ _ ___ _ ___ _ ___
 72
    65
 73
     4
 40
1.125
 49
0.75
 49
-0.125
 49
0.125
 49
-0.125
  0
LTYPE
  2
HIDDEN
 70
     0
  3
Hidden __ __ __ __ __ __ __ __ __ __ __ __ __ _
 72
    65
 73
     2
 40
0.375
 49
0.25
 49
-0.125
  0
LTYPE
  2
HIDDEN2
 70
     0
  3
Hidden (.5x) _ _ _ _ _ _ _ _ _ _ _ _ _ _ _ _ _
 72
    65
 73
     2
 40
0.1875
 49
0.125
 49
-0.0625
  0
LTYPE
  2
PHANTOM2
 70
     0
  3
Phantom (.5x) ___ _ _ ___ _ _ ___ _ _ ___ _ _
 72
    65
 73
     6
 40
1.25
 49
0.625
 49
-0.125
 49
0.125
 49
-0.125
 49
0.125
 49
-0.125
  0
LTYPE
  2
AMCONSTR
 70
     0
  3
_______________________
 72
    65
 73
     2
 40
9999.0
 49
9999.0
 49
0.0
  0
LTYPE
  2
AMZIGZAG2
 70
     0
  3
/\/-/\/-/\/-/\/-/\/-/\/
 72
    65
 73
     2
 40
0.4401
 49
0.0001
 49
-0.4400000000000001
  0
LTYPE
  2
ACANSTGB
 70
     0
  3
__ . . __ . .
 72
    65
 73
     6
 40
0.35433070866
 49
0.15748031496
 49
-0.03937007874
 49
0.03937007874
 49
-0.03937007874
 49
0.03937007874
 49
-0.03937007874
  0
LTYPE
  2
ACANSTGL
 70
     0
  3
_ _ _ _ _
 72
    65
 73
     2
 40
0.11811023622
 49
0.07874015748
 49
-0.03937007874
  0
ENDTAB
  0
TABLE
  2
LAYER
 70
     8
  0
LAYER
  2
0
 70
     0
 62
     7
  6
CONTINUOUS
  0
ENDTAB
  0
TABLE
  2
STYLE
 70
    11
  0
STYLE
  2
STANDARD
 70
     0
 40
0.0
 41
1.0
 50
0.0
 71
     0
 42
0.2
  3
txt
  4

  0
STYLE
  2
ROMANS
 70
     0
 40
0.0
 41
0.75
 50
0.0
 71
     0
 42
0.2
  3
romans.shx
  4

  0
STYLE
  2

 70
     1
 40
0.0
 41
1.0
 50
0.0
 71
     0
 42
0.2
  3
genltshp.shx
  4

  0
STYLE
  2
ACANSGDT
 70
     0
 40
0.0
 41
1.0
 50
0.0
 71
     0
 42
0.2
  3
amgdt.shx
  4

  0
ENDTAB
  0
TABLE
  2
VIEW
 70
     0
  0
ENDTAB
  0
TABLE
  2
UCS
 70
     0
  0
ENDTAB
  0
TABLE
  2
APPID
 70
    15
  0
APPID
  2
ACAD
 70
     0
  0
APPID
  2
ACAD_MLEADERVER
 70
     0
  0
APPID
  2
ACAD_DSTYLE_DIMJAG
 70
     0
  0
APPID
  2
ACAD_DSTYLE_DIMTALN
 70
     0
  0
APPID
  2
ACAD_PSEXT
 70
     0
  0
APPID
  2
ACADANNOPO
 70
     0
  0
APPID
  2
MCAD_NO_VIS
 70
     0
  0
APPID
  2
ACAD_TEMP_GRAPHIC
 70
     0
  0
APPID
  2
ACATTRIBSERVICES
 70
     0
  0
APPID
  2
DESIGNERASSEMBLIES
 70
     0
  0
APPID
  2
ACAD_DSTYLE_DIMBREAK
 70
     0
  0
APPID
  2
ACAD_NAV_VCDISPLAY
 70
     0
  0
APPID
  2
GRADIENTCOLOR1ACI
 70
     0
  0
APPID
  2
GRADIENTCOLOR2ACI
 70
     0
  0
APPID
  2
ACAD_EXEMPT_FROM_CAD_STANDARDS
 70
     0
  0
ENDTAB
  0
TABLE
  2
DIMSTYLE
 70
    14
  0
DIMSTYLE
  2
BAC
 70
     0
  3

  4

  5

  6

  7

 40
1.0
 41
0.09375
 42
0.0625
 43
0.375
 44
0.03125
 45
0.0
 46
0.0
 47
0.0
 48
0.0
140
0.09375
141
0.09375
142
0.0
143
25.399999999999999
144
1.0
145
0.0
146
1.0
147
0.0625
 71
     0
 72
     0
 73
     0
 74
     0
 75
     0
 76
     0
 77
     0
 78
     0
170
     0
171
     2
172
     0
173
     0
174
     0
175
     0
176
     0
177
     6
178
     0
  0
DIMSTYLE
  2
AM_ANSI
 70
     0
  3

  4
mm
  5

  6

  7

 40
1.0
 41
0.12
 42
0.05
 43
0.5
 44
0.1
 45
0.0
 46
0.0
 47
0.1
 48
0.1
140
0.12
141
0.0
142
0.0
143
25.399999999999999
144
1.0
145
0.0
146
0.71
147
0.06
 71
     0
 72
     0
 73
     1
 74
     1
 75
     0
 76
     0
 77
     0
 78
     7
170
     0
171
     2
172
     0
173
     0
174
     0
175
     0
176
   256
177
   256
178
     2
  0
DIMSTYLE
  2
AM_ANSI$3
 70
     0
  3

  4
mm
  5

  6

  7

 40
1.0
 41
0.12
 42
0.05
 43
0.5
 44
0.1
 45
0.0
 46
0.0
 47
0.1
 48
0.1
140
0.12
141
0.0
142
0.0
143
25.399999999999999
144
1.0
145
0.0
146
0.71
147
0.06
 71
     0
 72
     0
 73
     1
 74
     1
 75
     0
 76
     0
 77
     0
 78
     7
170
     0
171
     2
172
     0
173
     0
174
     0
175
     0
176
   256
177
   256
178
     2
  0
DIMSTYLE
  2
AM_ANSI$4
 70
     0
  3

  4
mm
  5

  6

  7

 40
1.0
 41
0.12
 42
0.05
 43
0.5
 44
0.1
 45
0.0
 46
0.0
 47
0.1
 48
0.1
140
0.12
141
0.0
142
0.0
143
25.399999999999999
144
1.0
145
0.0
146
0.71
147
0.06
 71
     0
 72
     0
 73
     1
 74
     1
 75
     0
 76
     0
 77
     0
 78
     7
170
     0
171
     2
172
     0
173
     0
174
     0
175
     0
176
   256
177
   256
178
     2
  0
DIMSTYLE
  2
AM_ANSI$7
 70
     0
  3

  4
mm
  5

  6

  7

 40
1.0
 41
0.12
 42
0.05
 43
0.5
 44
0.1
 45
0.0
 46
0.0
 47
0.1
 48
0.1
140
0.12
141
0.0
142
0.0
143
25.399999999999999
144
1.0
145
0.0
146
0.71
147
0.06
 71
     0
 72
     0
 73
     1
 74
     1
 75
     0
 76
     0
 77
     0
 78
     7
170
     0
171
     2
172
     0
173
     0
174
     0
175
     0
176
   256
177
   256
178
     2
  0
DIMSTYLE
  2
AM_ANSI$SF
 70
     0
  3

  4
mm
  5

  6

  7

 40
1.0
 41
0.12
 42
0.05
 43
0.5
 44
0.1
 45
0.0
 46
0.0
 47
0.1
 48
0.1
140
0.12
141
0.0
142
0.0
143
25.399999999999999
144
1.0
145
0.0
146
0.71
147
0.06
 71
     0
 72
     0
 73
     1
 74
     1
 75
     1
 76
     1
 77
     0
 78
     7
170
     0
171
     2
172
     0
173
     0
174
     0
175
     0
176
   256
177
   256
178
     2
  0
DIMSTYLE
  2
AM_ANSI$SH
 70
     0
  3

  4
mm
  5

  6
GENAXEH
  7

 40
1.0
 41
0.12
 42
0.05
 43
0.5
 44
0.1
 45
0.0
 46
0.0
 47
0.1
 48
0.1
140
0.12
141
0.0
142
0.0
143
25.399999999999999
144
1.0
145
0.0
146
0.71
147
0.06
 71
     0
 72
     0
 73
     1
 74
     1
 75
     1
 76
     1
 77
     0
 78
     7
170
     0
171
     2
172
     0
173
     1
174
     0
175
     0
176
   256
177
   256
178
     2
  0
DIMSTYLE
  2
STANDARD
 70
     0
  3

  4

  5

  6

  7

 40
1.0
 41
0.18
 42
0.0625
 43
0.38
 44
0.18
 45
0.0
 46
0.0
 47
0.0
 48
0.0
140
0.18
141
0.09
142
0.0
143
25.399999999999999
144
1.0
145
0.0
146
1.0
147
0.09
 71
     0
 72
     0
 73
     1
 74
     1
 75
     0
 76
     0
 77
     0
 78
     0
170
     0
171
     2
172
     0
173
     0
174
     0
175
     0
176
     0
177
     0
178
     0
  0
ENDTAB
  0
ENDSEC
  0
SECTION
  2
BLOCKS
  0
BLOCK
  8
0
  2
$MODEL_SPACE
 70
     0
 10
0.0
 20
0.0
 30
0.0
  3
$MODEL_SPACE
  1

  0
ENDBLK
  5
1A
  8
0
  0
BLOCK
 67
     1
  8
0
  2
$PAPER_SPACE
 70
     0
 10
0.0
 20
0.0
 30
0.0
  3
$PAPER_SPACE
  1

  0
ENDBLK
  5
17
 67
     1
  8
0
  0
BLOCK
  8
0
  2
*U0
 70
     1
 10
0.0
 20
0.0
 30
0.0
  3
*U0
  1

  0
ENDBLK
  5
17A
  8
0
  0
BLOCK
  8
0
  2
GENAXEH
 70
     0
 10
0.0
 20
0.0
 30
0.0
  3
GENAXEH
  1

  0
LINE
  5
1AD
  8
0
 10
-1.0
 20
0.0
 30
0.0
 11
1.0
 21
0.0
 31
0.0
  0
ENDBLK
  5
1AF
  8
0
  0
BLOCK
  8
0
  2
*X4
 70
     1
 10
0.0
 20
0.0
 30
0.0
  3
*X4
  1

  0
LINE
  5
E59
  8
0
 62
     0
 10
311.67455513719568
 20
57.435184642182023
 30
0.0
 11
305.78077063047391
 21
63.328969148903852
 31
0.0
  0
LINE
  5
E5A
  8
0
 62
     0
 10
313.48297428854119
 20
53.50544514727698
 30
0.0
 11
301.85103113556892
 21
65.137388300249242
 31
0.0
  0
LINE
  5
E5B
  8
0
 62
     0
 10
314.3081570406186
 20
50.55894205163991
 30
0.0
 11
299.07528173823209
 21
65.791817354026449
 31
0.0
  0
LINE
  5
E5C
  8
0
 62
     0
 10
315.1092491419688
 20
47.636529606730022
 30
0.0
 11
296.7503297189624
 21
65.995449029736463
 31
0.0
  0
LINE
  5
E5D
  8
0
 62
     0
 10
315.91034124331912
 20
44.714117161820099
 30
0.0
 11
294.69985077996341
 21
65.92460762517581
 31
0.0
  0
LINE
  5
E5E
  8
0
 62
     0
 10
316.71143334466939
 20
41.791704716910253
 30
0.0
 11
292.84651105790101
 21
65.656627003678665
 31
0.0
  0
LINE
  5
E5F
  8
0
 62
     0
 10
317.51252544601959
 20
38.869292272000372
 30
0.0
 11
291.14843179370678
 21
65.233385924313112
 31
0.0
  0
LINE
  5
E60
  8
0
 62
     0
 10
318.31361754736992
 20
35.946879827090441
 30
0.0
 11
289.58025899414901
 21
64.680238380311295
 31
0.0
  0
LINE
  5
E61
  8
0
 62
     0
 10
319.11470964872012
 20
33.024467382180582
 30
0.0
 11
288.12565813413181
 21
64.013518896768844
 31
0.0
  0
LINE
  5
E62
  8
0
 62
     0
 10
319.91580175007027
 20
30.102054937270712
 30
0.0
 11
286.77380705768439
 21
63.244049629656558
 31
0.0
  0
LINE
  5
E63
  8
0
 62
     0
 10
320.71689385142048
 20
27.179642492360792
 30
0.0
 11
285.51758195556931
 21
62.378954388211973
 31
0.0
  0
LINE
  5
E64
  8
0
 62
     0
 10
321.5179859527708
 20
24.257230047450921
 30
0.0
 11
284.35256720425718
 21
61.42264879596452
 31
0.0
  0
LINE
  5
E65
  8
0
 62
     0
 10
322.31907805412101
 20
21.334817602541051
 30
0.0
 11
283.27651831165718
 21
60.377377345004923
 31
0.0
  0
LINE
  5
E66
  8
0
 62
     0
 10
323.12017015547133
 20
18.412405157631131
 30
0.0
 11
282.28911059202079
 21
59.243464721081622
 31
0.0
  0
LINE
  5
E67
  8
0
 62
     0
 10
323.92126225682148
 20
15.48999271272123
 30
0.0
 11
281.39190399468589
 21
58.019350974856891
 31
0.0
  0
LINE
  5
E68
  8
0
 62
     0
 10
324.34536659419553
 20
12.944568031787689
 30
0.0
 11
280.58851481379003
 21
56.70141981219313
 31
0.0
  0
LINE
  5
E69
  8
0
 62
     0
 10
324.0796688099984
 20
11.08894547242511
 30
0.0
 11
279.88504063575368
 21
55.283573646669751
 31
0.0
  0
LINE
  5
E6A
  8
0
 62
     0
 10
323.45828769082402
 20
9.5890062480398512
 30
0.0
 11
279.2908646520159
 21
53.756429286847968
 31
0.0
  0
LINE
  5
E6B
  8
0
 62
     0
 10
322.5770132013804
 20
8.3489603939237895
 30
0.0
 11
278.82011986679629
 21
52.105853728507881
 31
0.0
  0
LINE
  5
E6C
  8
0
 62
     0
 10
321.46453486506198
 20
7.3401183866825761
 30
0.0
 11
278.49445242786948
 21
50.310200823875121
 31
0.0
  0
LINE
  5
E6D
  8
0
 62
     0
 10
320.11304349867828
 20
6.5702894095066418
 30
0.0
 11
278.34869693416238
 21
48.334635974022497
 31
0.0
  0
LINE
  5
E6E
  8
0
 62
     0
 10
318.47095860855552
 20
6.0910539560697989
 30
0.0
 11
278.44427033337979
 21
46.117742231245479
 31
0.0
  0
LINE
  5
E6F
  8
0
 62
     0
 10
316.37276373371282
 20
6.0679284873529289
 30
0.0
 11
278.90901192242882
 21
43.531680298636843
 31
0.0
  0
LINE
  5
E70
  8
0
 62
     0
 10
310.13056230208758
 20
10.18880957541842
 30
0.0
 11
280.12709467683283
 21
40.192277200673189
 31
0.0
  0
LINE
  5
E71
  8
0
 62
     0
 10
320.96187890910483
 20
7.0064680622776896
 30
0.0
 11
323.339118103695
 21
9.3837072568678366
 31
0.0
  0
LINE
  5
E72
  8
0
 62
     0
 10
317.85246671055512
 20
6.0183762072876732
 30
0.0
 11
324.32720995868499
 21
12.49311945541754
 31
0.0
  0
LINE
  5
E73
  8
0
 62
     0
 10
315.87005162983752
 20
6.1572814701295888
 30
0.0
 11
324.18830469584299
 21
14.4755345361352
 31
0.0
  0
LINE
  5
E74
  8
0
 62
     0
 10
314.29239865952547
 20
6.7009488433772608
 30
0.0
 11
323.74057953110918
 21
16.149129714960988
 31
0.0
  0
LINE
  5
E75
  8
0
 62
     0
 10
312.99014997029428
 20
7.5200204977057288
 30
0.0
 11
323.28418879744783
 21
17.81405932485924
 31
0.0
  0
LINE
  5
E76
  8
0
 62
     0
 10
311.88161902031783
 20
8.5328098912888493
 30
0.0
 11
322.82779806378642
 21
19.478988934757471
 31
0.0
  0
LINE
  5
E77
  8
0
 62
     0
 10
310.79136637978741
 20
9.5638775943181429
 30
0.0
 11
322.37140733012501
 21
21.143918544655719
 31
0.0
  0
LINE
  5
E78
  8
0
 62
     0
 10
309.70111373925721
 20
10.59494529734749
 30
0.0
 11
321.9150165964636
 21
22.808848154553939
 31
0.0
  0
LINE
  5
E79
  8
0
 62
     0
 10
308.61086109872667
 20
11.62601300037678
 30
0.0
 11
321.45862586280208
 21
24.473777764452201
 31
0.0
  0
LINE
  5
E7A
  8
0
 62
     0
 10
307.52060845819642
 20
12.657080703406081
 30
0.0
 11
321.00223512914079
 21
26.138707374350421
 31
0.0
  0
LINE
  5
E7B
  8
0
 62
     0
 10
306.43035581766611
 20
13.688148406435401
 30
0.0
 11
320.54584439547938
 21
27.803636984248701
 31
0.0
  0
LINE
  5
E7C
  8
0
 62
     0
 10
305.3401031771358
 20
14.719216109464719
 30
0.0
 11
320.08945366181803
 21
29.468566594146949
 31
0.0
  0
LINE
  5
E7D
  8
0
 62
     0
 10
304.24985053660538
 20
15.75028381249402
 30
0.0
 11
319.63306292815662
 21
31.133496204045169
 31
0.0
  0
LINE
  5
E7E
  8
0
 62
     0
 10
303.15959789607518
 20
16.781351515523369
 30
0.0
 11
319.17667219449521
 21
32.798425813943403
 31
0.0
  0
LINE
  5
E7F
  8
0
 62
     0
 10
302.06934525554482
 20
17.812419218552659
 30
0.0
 11
318.7202814608338
 21
34.463355423841648
 31
0.0
  0
LINE
  5
E80
  8
0
 62
     0
 10
300.97909261501451
 20
18.843486921581949
 30
0.0
 11
318.26389072717228
 21
36.128285033739871
 31
0.0
  0
LINE
  5
E81
  8
0
 62
     0
 10
299.88883997448409
 20
19.874554624611221
 30
0.0
 11
317.80749999351099
 21
37.79321464363813
 31
0.0
  0
LINE
  5
E82
  8
0
 62
     0
 10
298.79858733395378
 20
20.905622327640572
 30
0.0
 11
317.35110925984958
 21
39.45814425353641
 31
0.0
  0
LINE
  5
E83
  8
0
 62
     0
 10
297.70833469342341
 20
21.936690030669901
 30
0.0
 11
316.89471852618823
 21
41.123073863434662
 31
0.0
  0
LINE
  5
E84
  8
0
 62
     0
 10
296.6180820528931
 20
22.967757733699191
 30
0.0
 11
316.43832779252682
 21
42.788003473332871
 31
0.0
  0
LINE
  5
E85
  8
0
 62
     0
 10
295.52782941236279
 20
23.998825436728509
 30
0.0
 11
315.98193705886541
 21
44.452933083231102
 31
0.0
  0
LINE
  5
E86
  8
0
 62
     0
 10
294.43757677183248
 20
25.02989313975786
 30
0.0
 11
315.525546325204
 21
46.117862693129346
 31
0.0
  0
LINE
  5
E87
  8
0
 62
     0
 10
293.34732413130212
 20
26.0609608427871
 30
0.0
 11
315.0691555915426
 21
47.78279230302757
 31
0.0
  0
LINE
  5
E88
  8
0
 62
     0
 10
292.25707149077181
 20
27.092028545816451
 30
0.0
 11
314.61276485788119
 21
49.4477219129258
 31
0.0
  0
LINE
  5
E89
  8
0
 62
     0
 10
291.1668188502415
 20
28.123096248845769
 30
0.0
 11
314.15637412421972
 21
51.112651522824052
 31
0.0
  0
LINE
  5
E8A
  8
0
 62
     0
 10
290.07656620971107
 20
29.154163951875091
 30
0.0
 11
313.69997465335342
 21
52.77757239551736
 31
0.0
  0
LINE
  5
E8B
  8
0
 62
     0
 10
288.98631356918082
 20
30.185231654904388
 30
0.0
 11
313.17810250982831
 21
54.377020595551841
 31
0.0
  0
LINE
  5
E8C
  8
0
 62
     0
 10
287.8960609286504
 20
31.216299357933678
 30
0.0
 11
312.53911886844048
 21
55.859357297723733
 31
0.0
  0
LINE
  5
E8D
  8
0
 62
     0
 10
286.80580828812009
 20
32.247367060962993
 30
0.0
 11
311.7950322676125
 21
57.236591040455373
 31
0.0
  0
LINE
  5
E8E
  8
0
 62
     0
 10
285.71555564758978
 20
33.278434763992337
 30
0.0
 11
310.95379100921161
 21
58.516670125614112
 31
0.0
  0
LINE
  5
E8F
  8
0
 62
     0
 10
284.62530300705947
 20
34.309502467021623
 30
0.0
 11
310.02043581118869
 21
59.704635271150799
 31
0.0
  0
LINE
  5
E90
  8
0
 62
     0
 10
283.54233536269129
 20
35.34785516621308
 30
0.0
 11
308.99773099975971
 21
60.803250803281443
 31
0.0
  0
LINE
  5
E91
  8
0
 62
     0
 10
282.53226687812298
 20
36.459107025204489
 30
0.0
 11
307.88647914076819
 21
61.813319287849687
 31
0.0
  0
LINE
  5
E92
  8
0
 62
     0
 10
281.6118173698988
 20
37.659977860539961
 30
0.0
 11
306.68560830543282
 21
62.733768796073832
 31
0.0
  0
LINE
  5
E93
  8
0
 62
     0
 10
280.78405022462272
 20
38.953531058823422
 30
0.0
 11
305.3920551071493
 21
63.56153594135003
 31
0.0
  0
LINE
  5
E94
  8
0
 62
     0
 10
280.05437265032782
 20
40.345173828088143
 30
0.0
 11
304.00041233788448
 21
64.291213515644912
 31
0.0
  0
LINE
  5
E95
  8
0
 62
     0
 10
279.43122486559048
 20
41.843346386910468
 30
0.0
 11
302.50223977906228
 21
64.914361300382268
 31
0.0
  0
LINE
  5
E96
  8
0
 62
     0
 10
278.92733541131702
 20
43.460777276196723
 30
0.0
 11
300.88480888977602
 21
65.418250754655674
 31
0.0
  0
LINE
  5
E97
  8
0
 62
     0
 10
278.56205705470592
 20
45.216819263145211
 30
0.0
 11
299.12876690282752
 21
65.783529111266773
 31
0.0
  0
LINE
  5
E98
  8
0
 62
     0
 10
278.36604082304098
 20
47.14212337503993
 30
0.0
 11
297.2034627909328
 21
65.979545342931715
 31
0.0
  0
LINE
  5
E99
  8
0
 62
     0
 10
278.39181435321501
 20
49.289217248773582
 30
0.0
 11
295.05636891719922
 21
65.953771812757736
 31
0.0
  0
LINE
  5
E9A
  8
0
 62
     0
 10
278.7430577156519
 20
51.761780954770067
 30
0.0
 11
292.58380521120267
 21
65.602528450320904
 31
0.0
  0
LINE
  5
E9B
  8
0
 62
     0
 10
279.69295450139992
 20
54.832998084077708
 30
0.0
 11
289.51258808189499
 21
64.652631664572894
 31
0.0
  0
ENDBLK
  5
E9D
  8
0
  0
BLOCK
  8
0
  2
*X5
 70
     1
 10
0.0
 20
0.0
 30
0.0
  3
*X5
  1

  0
LINE
  5
E9F
  8
0
 62
     0
 10
314.34558607713228
 20
243.46978118701691
 30
0.0
 11
314.2801923260094
 21
243.53517493813979
 31
0.0
  0
LINE
  5
EA0
  8
0
 62
     0
 10
314.34558607713228
 20
241.34846084345719
 30
0.0
 11
312.15887198244968
 21
243.53517493813979
 31
0.0
  0
LINE
  5
EA1
  8
0
 62
     0
 10
314.34558607713228
 20
239.22714049989759
 30
0.0
 11
310.03755163889008
 21
243.5351749381399
 31
0.0
  0
LINE
  5
EA2
  8
0
 62
     0
 10
314.34558607713228
 20
237.10582015633801
 30
0.0
 11
307.91623129533042
 21
243.5351749381399
 31
0.0
  0
LINE
  5
EA3
  8
0
 62
     0
 10
313.30992241217018
 20
236.02016347774051
 30
0.0
 11
305.79491095177082
 21
243.53517493813979
 31
0.0
  0
LINE
  5
EA4
  8
0
 62
     0
 10
311.18860206861052
 20
236.02016347774051
 30
0.0
 11
303.67359060821121
 21
243.53517493813979
 31
0.0
  0
LINE
  5
EA5
  8
0
 62
     0
 10
309.06728172505092
 20
236.02016347774051
 30
0.0
 11
301.5522702646515
 21
243.53517493813979
 31
0.0
  0
LINE
  5
EA6
  8
0
 62
     0
 10
306.9459613814912
 20
236.0201634777404
 30
0.0
 11
299.43094992109178
 21
243.53517493813979
 31
0.0
  0
LINE
  5
EA7
  8
0
 62
     0
 10
304.8246410379316
 20
236.02016347774051
 30
0.0
 11
297.30962957753218
 21
243.5351749381399
 31
0.0
  0
LINE
  5
EA8
  8
0
 62
     0
 10
302.703320694372
 20
236.02016347774051
 30
0.0
 11
295.18830923397269
 21
243.5351749381399
 31
0.0
  0
LINE
  5
EA9
  8
0
 62
     0
 10
300.58200035081228
 20
236.02016347774051
 30
0.0
 11
293.06698889041292
 21
243.5351749381399
 31
0.0
  0
LINE
  5
EAA
  8
0
 62
     0
 10
298.46068000725268
 20
236.02016347774051
 30
0.0
 11
290.94566854685331
 21
243.53517493813979
 31
0.0
  0
LINE
  5
EAB
  8
0
 62
     0
 10
296.33935966369302
 20
236.02016347774051
 30
0.0
 11
288.82434820329371
 21
243.53517493813979
 31
0.0
  0
LINE
  5
EAC
  8
0
 62
     0
 10
294.21803932013341
 20
236.02016347774051
 30
0.0
 11
286.70302785973399
 21
243.53517493813979
 31
0.0
  0
LINE
  5
EAD
  8
0
 62
     0
 10
292.0967189765737
 20
236.02016347774051
 30
0.0
 11
284.58170751617439
 21
243.5351749381399
 31
0.0
  0
LINE
  5
EAE
  8
0
 62
     0
 10
289.97539863301409
 20
236.0201634777404
 30
0.0
 11
282.46038717261467
 21
243.53517493813979
 31
0.0
  0
LINE
  5
EAF
  8
0
 62
     0
 10
287.85407828945438
 20
236.02016347774051
 30
0.0
 11
280.33906682905513
 21
243.53517493813979
 31
0.0
  0
LINE
  5
EB0
  8
0
 62
     0
 10
285.73275794589478
 20
236.02016347774051
 30
0.0
 11
278.40706513423771
 21
243.34585628939769
 31
0.0
  0
LINE
  5
EB1
  8
0
 62
     0
 10
283.61143760233517
 20
236.02016347774051
 30
0.0
 11
278.40706513423771
 21
241.224535945838
 31
0.0
  0
LINE
  5
EB2
  8
0
 62
     0
 10
281.49011725877551
 20
236.02016347774051
 30
0.0
 11
278.40706513423771
 21
239.1032156022784
 31
0.0
  0
LINE
  5
EB3
  8
0
 62
     0
 10
279.36879691521591
 20
236.02016347774051
 30
0.0
 11
278.40706513423771
 21
236.98189525871871
 31
0.0
  0
LINE
  5
EB4
  8
0
 62
     0
 10
324.34558607713228
 20
157.1022488188697
 30
0.0
 11
323.92767141826113
 21
157.52016347774091
 31
0.0
  0
LINE
  5
EB5
  8
0
 62
     0
 10
324.34558607713228
 20
154.98092847531009
 30
0.0
 11
321.80635107470113
 21
157.52016347774139
 31
0.0
  0
LINE
  5
EB6
  8
0
 62
     0
 10
324.34558607713228
 20
152.85960813175041
 30
0.0
 11
319.68503073114141
 21
157.52016347774139
 31
0.0
  0
LINE
  5
EB7
  8
0
 62
     0
 10
324.34558607713228
 20
150.7382877881908
 30
0.0
 11
317.56371038758181
 21
157.52016347774139
 31
0.0
  0
LINE
  5
EB8
  8
0
 62
     0
 10
322.94704726724711
 20
150.01550625451631
 30
0.0
 11
315.44239004402209
 21
157.52016347774139
 31
0.0
  0
LINE
  5
EB9
  8
0
 62
     0
 10
320.82572692368751
 20
150.01550625451631
 30
0.0
 11
313.32106970046237
 21
157.52016347774139
 31
0.0
  0
LINE
  5
EBA
  8
0
 62
     0
 10
318.7044065801278
 20
150.01550625451631
 30
0.0
 11
311.19974935690283
 21
157.52016347774139
 31
0.0
  0
LINE
  5
EBB
  8
0
 62
     0
 10
316.58308623656819
 20
150.01550625451631
 30
0.0
 11
309.07842901334323
 21
157.52016347774139
 31
0.0
  0
LINE
  5
EBC
  8
0
 62
     0
 10
314.46176589300848
 20
150.01550625451631
 30
0.0
 11
306.95710866978362
 21
157.52016347774139
 31
0.0
  0
LINE
  5
EBD
  8
0
 62
     0
 10
312.34044554944887
 20
150.01550625451631
 30
0.0
 11
304.83578832622408
 21
157.52016347774119
 31
0.0
  0
LINE
  5
EBE
  8
0
 62
     0
 10
310.21912520588921
 20
150.0155062545164
 30
0.0
 11
302.71446798266447
 21
157.52016347774111
 31
0.0
  0
LINE
  5
EBF
  8
0
 62
     0
 10
308.09780486232972
 20
150.01550625451631
 30
0.0
 11
300.59314763910493
 21
157.52016347774111
 31
0.0
  0
LINE
  5
EC0
  8
0
 62
     0
 10
305.97648451877001
 20
150.01550625451631
 30
0.0
 11
298.47182729554521
 21
157.52016347774111
 31
0.0
  0
LINE
  5
EC1
  8
0
 62
     0
 10
303.85516417521029
 20
150.0155062545164
 30
0.0
 11
296.35050695198561
 21
157.52016347774111
 31
0.0
  0
LINE
  5
EC2
  8
0
 62
     0
 10
301.73384383165069
 20
150.0155062545164
 30
0.0
 11
294.22918660842589
 21
157.52016347774111
 31
0.0
  0
LINE
  5
EC3
  8
0
 62
     0
 10
299.61252348809103
 20
150.01550625451631
 30
0.0
 11
292.10786626486629
 21
157.52016347774111
 31
0.0
  0
LINE
  5
EC4
  8
0
 62
     0
 10
297.49120314453143
 20
150.01550625451631
 30
0.0
 11
289.98654592130669
 21
157.52016347774111
 31
0.0
  0
LINE
  5
EC5
  8
0
 62
     0
 10
295.36988280097171
 20
150.0155062545164
 30
0.0
 11
287.86522557774703
 21
157.52016347774111
 31
0.0
  0
LINE
  5
EC6
  8
0
 62
     0
 10
293.24856245741211
 20
150.0155062545164
 30
0.0
 11
285.74390523418742
 21
157.52016347774111
 31
0.0
  0
LINE
  5
EC7
  8
0
 62
     0
 10
291.1272421138525
 20
150.01550625451631
 30
0.0
 11
283.62258489062771
 21
157.52016347774119
 31
0.0
  0
LINE
  5
EC8
  8
0
 62
     0
 10
289.00592177029279
 20
150.0155062545164
 30
0.0
 11
281.50126454706788
 21
157.52016347774131
 31
0.0
  0
LINE
  5
EC9
  8
0
 62
     0
 10
286.88460142673318
 20
150.01550625451631
 30
0.0
 11
279.37994420350822
 21
157.52016347774139
 31
0.0
  0
LINE
  5
ECA
  8
0
 62
     0
 10
284.76328108317352
 20
150.01550625451631
 30
0.0
 11
278.40706513423771
 21
156.37172220345229
 31
0.0
  0
LINE
  5
ECB
  8
0
 62
     0
 10
282.64196073961392
 20
150.0155062545164
 30
0.0
 11
278.40706513423771
 21
154.25040185989261
 31
0.0
  0
LINE
  5
ECC
  8
0
 62
     0
 10
280.52064039605432
 20
150.01550625451631
 30
0.0
 11
278.40706513423771
 21
152.129081516333
 31
0.0
  0
LINE
  5
ECD
  8
0
 62
     0
 10
324.05565751844398
 20
150.0155062545164
 30
0.0
 11
324.34558607713228
 21
150.30543481320481
 31
0.0
  0
LINE
  5
ECE
  8
0
 62
     0
 10
321.93433717488432
 20
150.0155062545164
 30
0.0
 11
324.34558607713228
 21
152.42675515676439
 31
0.0
  0
LINE
  5
ECF
  8
0
 62
     0
 10
319.81301683132472
 20
150.0155062545164
 30
0.0
 11
324.34558607713228
 21
154.5480755003241
 31
0.0
  0
LINE
  5
ED0
  8
0
 62
     0
 10
317.691696487765
 20
150.0155062545164
 30
0.0
 11
324.34558607713228
 21
156.66939584388371
 31
0.0
  0
LINE
  5
ED1
  8
0
 62
     0
 10
315.5703761442054
 20
150.0155062545164
 30
0.0
 11
323.07503336743008
 21
157.52016347774111
 31
0.0
  0
LINE
  5
ED2
  8
0
 62
     0
 10
313.44905580064568
 20
150.0155062545164
 30
0.0
 11
320.95371302387071
 21
157.52016347774139
 31
0.0
  0
LINE
  5
ED3
  8
0
 62
     0
 10
311.32773545708608
 20
150.0155062545164
 30
0.0
 11
318.8323926803111
 21
157.52016347774131
 31
0.0
  0
LINE
  5
ED4
  8
0
 62
     0
 10
309.20641511352648
 20
150.0155062545164
 30
0.0
 11
316.71107233675139
 21
157.52016347774139
 31
0.0
  0
LINE
  5
ED5
  8
0
 62
     0
 10
307.08509476996682
 20
150.0155062545164
 30
0.0
 11
314.58975199319178
 21
157.52016347774139
 31
0.0
  0
LINE
  5
ED6
  8
0
 62
     0
 10
304.9637744264071
 20
150.0155062545164
 30
0.0
 11
312.46843164963212
 21
157.52016347774139
 31
0.0
  0
LINE
  5
ED7
  8
0
 62
     0
 10
302.8424540828475
 20
150.0155062545164
 30
0.0
 11
310.34711130607252
 21
157.52016347774139
 31
0.0
  0
LINE
  5
ED8
  8
0
 62
     0
 10
300.72113373928789
 20
150.0155062545164
 30
0.0
 11
308.22579096251292
 21
157.52016347774139
 31
0.0
  0
LINE
  5
ED9
  8
0
 62
     0
 10
298.59981339572818
 20
150.0155062545164
 30
0.0
 11
306.1044706189532
 21
157.52016347774131
 31
0.0
  0
LINE
  5
EDA
  8
0
 62
     0
 10
296.47849305216857
 20
150.0155062545164
 30
0.0
 11
303.98315027539343
 21
157.52016347774119
 31
0.0
  0
LINE
  5
EDB
  8
0
 62
     0
 10
294.35717270860903
 20
150.0155062545164
 30
0.0
 11
301.86182993183371
 21
157.52016347774119
 31
0.0
  0
LINE
  5
EDC
  8
0
 62
     0
 10
292.23585236504931
 20
150.0155062545164
 30
0.0
 11
299.74050958827399
 21
157.52016347774111
 31
0.0
  0
LINE
  5
EDD
  8
0
 62
     0
 10
290.11453202148959
 20
150.0155062545164
 30
0.0
 11
297.61918924471428
 21
157.52016347774111
 31
0.0
  0
LINE
  5
EDE
  8
0
 62
     0
 10
287.99321167793011
 20
150.0155062545164
 30
0.0
 11
295.49786890115479
 21
157.52016347774119
 31
0.0
  0
LINE
  5
EDF
  8
0
 62
     0
 10
285.87189133437039
 20
150.0155062545164
 30
0.0
 11
293.37654855759507
 21
157.52016347774111
 31
0.0
  0
LINE
  5
EE0
  8
0
 62
     0
 10
283.75057099081067
 20
150.0155062545164
 30
0.0
 11
291.25522821403553
 21
157.52016347774111
 31
0.0
  0
LINE
  5
EE1
  8
0
 62
     0
 10
281.62925064725113
 20
150.0155062545164
 30
0.0
 11
289.13390787047581
 21
157.52016347774111
 31
0.0
  0
LINE
  5
EE2
  8
0
 62
     0
 10
279.50793030369141
 20
150.0155062545164
 30
0.0
 11
287.01258752691621
 21
157.52016347774119
 31
0.0
  0
LINE
  5
EE3
  8
0
 62
     0
 10
278.40706513423771
 20
151.0359614286223
 30
0.0
 11
284.8912671833566
 21
157.52016347774111
 31
0.0
  0
LINE
  5
EE4
  8
0
 62
     0
 10
278.40706513423771
 20
153.1572817721819
 30
0.0
 11
282.769946839797
 21
157.52016347774119
 31
0.0
  0
LINE
  5
EE5
  8
0
 62
     0
 10
278.40706513423771
 20
155.27860211574151
 30
0.0
 11
280.64862649623751
 21
157.52016347774139
 31
0.0
  0
LINE
  5
EE6
  8
0
 62
     0
 10
278.40706513423771
 20
157.39992245930119
 30
0.0
 11
278.5273061526778
 21
157.52016347774139
 31
0.0
  0
LINE
  5
EE7
  8
0
 62
     0
 10
312.47957893792437
 20
236.0201634777404
 30
0.0
 11
314.34558607713228
 21
237.88617061694839
 31
0.0
  0
LINE
  5
EE8
  8
0
 62
     0
 10
310.35825859436483
 20
236.02016347774051
 30
0.0
 11
314.34558607713228
 21
240.00749096050799
 31
0.0
  0
LINE
  5
EE9
  8
0
 62
     0
 10
308.23693825080511
 20
236.02016347774051
 30
0.0
 11
314.34558607713228
 21
242.1288113040676
 31
0.0
  0
LINE
  5
EEA
  8
0
 62
     0
 10
306.11561790724551
 20
236.02016347774051
 30
0.0
 11
313.63062936764487
 21
243.53517493813979
 31
0.0
  0
LINE
  5
EEB
  8
0
 62
     0
 10
303.9942975636859
 20
236.02016347774051
 30
0.0
 11
311.50930902408533
 21
243.53517493813979
 31
0.0
  0
LINE
  5
EEC
  8
0
 62
     0
 10
301.87297722012619
 20
236.02016347774051
 30
0.0
 11
309.38798868052561
 21
243.53517493813979
 31
0.0
  0
LINE
  5
EED
  8
0
 62
     0
 10
299.75165687656659
 20
236.02016347774051
 30
0.0
 11
307.26666833696589
 21
243.53517493813979
 31
0.0
  0
LINE
  5
EEE
  8
0
 62
     0
 10
297.63033653300693
 20
236.0201634777404
 30
0.0
 11
305.14534799340629
 21
243.53517493813979
 31
0.0
  0
LINE
  5
EEF
  8
0
 62
     0
 10
295.50901618944732
 20
236.02016347774051
 30
0.0
 11
303.02402764984657
 21
243.53517493813979
 31
0.0
  0
LINE
  5
EF0
  8
0
 62
     0
 10
293.38769584588772
 20
236.02016347774051
 30
0.0
 11
300.90270730628703
 21
243.5351749381399
 31
0.0
  0
LINE
  5
EF1
  8
0
 62
     0
 10
291.266375502328
 20
236.02016347774051
 30
0.0
 11
298.78138696272742
 21
243.53517493813979
 31
0.0
  0
LINE
  5
EF2
  8
0
 62
     0
 10
289.1450551587684
 20
236.02016347774051
 30
0.0
 11
296.66006661916771
 21
243.53517493813979
 31
0.0
  0
LINE
  5
EF3
  8
0
 62
     0
 10
287.02373481520868
 20
236.02016347774051
 30
0.0
 11
294.5387462756081
 21
243.53517493813979
 31
0.0
  0
LINE
  5
EF4
  8
0
 62
     0
 10
284.90241447164908
 20
236.02016347774051
 30
0.0
 11
292.41742593204839
 21
243.53517493813979
 31
0.0
  0
LINE
  5
EF5
  8
0
 62
     0
 10
282.78109412808942
 20
236.02016347774051
 30
0.0
 11
290.29610558848879
 21
243.53517493813979
 31
0.0
  0
LINE
  5
EF6
  8
0
 62
     0
 10
280.65977378452982
 20
236.02016347774051
 30
0.0
 11
288.17478524492913
 21
243.5351749381399
 31
0.0
  0
LINE
  5
EF7
  8
0
 62
     0
 10
278.5384534409701
 20
236.02016347774051
 30
0.0
 11
286.05346490136952
 21
243.53517493813979
 31
0.0
  0
LINE
  5
EF8
  8
0
 62
     0
 10
278.4070651342376
 20
238.0100955145675
 30
0.0
 11
283.93214455780992
 21
243.53517493813979
 31
0.0
  0
LINE
  5
EF9
  8
0
 62
     0
 10
278.40706513423771
 20
240.13141585812721
 30
0.0
 11
281.8108242142502
 21
243.53517493813979
 31
0.0
  0
LINE
  5
EFA
  8
0
 62
     0
 10
278.4070651342376
 20
242.2527362016869
 30
0.0
 11
279.6895038706906
 21
243.53517493813979
 31
0.0
  0
ENDBLK
  5
EFC
  8
0
  0
BLOCK
  8
0
  2
*X6
 70
     1
 10
0.0
 20
0.0
 30
0.0
  3
*X6
  1

  0
LINE
  5
EFE
  8
0
 62
     0
 10
474.63688429727972
 20
64.17848296686941
 30
0.0
 11
472.87684335833887
 21
65.938523905810229
 31
0.0
  0
LINE
  5
EFF
  8
0
 62
     0
 10
474.63688429727972
 20
62.05716262330975
 30
0.0
 11
470.75552301477933
 21
65.938523905810172
 31
0.0
  0
LINE
  5
F00
  8
0
 62
     0
 10
474.63688429727978
 20
59.935842279750148
 30
0.0
 11
468.63420267121961
 21
65.938523905810257
 31
0.0
  0
LINE
  5
F01
  8
0
 62
     0
 10
474.63688429727972
 20
57.814521936190488
 30
0.0
 11
467.12187283688081
 21
65.329533396589454
 31
0.0
  0
LINE
  5
F02
  8
0
 62
     0
 10
474.63688429727972
 20
55.693201592630849
 30
0.0
 11
467.12187283688081
 21
63.208213053029787
 31
0.0
  0
LINE
  5
F03
  8
0
 62
     0
 10
474.63688429727972
 20
53.571881249071197
 30
0.0
 11
467.12187283688081
 21
61.086892709470163
 31
0.0
  0
LINE
  5
F04
  8
0
 62
     0
 10
474.63688429727972
 20
51.450560905511537
 30
0.0
 11
467.12187283688081
 21
58.965572365910504
 31
0.0
  0
LINE
  5
F05
  8
0
 62
     0
 10
474.63688429727972
 20
49.329240561951899
 30
0.0
 11
467.12187283688081
 21
56.844252022350837
 31
0.0
  0
LINE
  5
F06
  8
0
 62
     0
 10
474.63688429727972
 20
47.207920218392317
 30
0.0
 11
467.12187283688081
 21
54.722931678791269
 31
0.0
  0
LINE
  5
F07
  8
0
 62
     0
 10
474.63688429727972
 20
45.0865998748327
 30
0.0
 11
467.12187283688081
 21
52.60161133523161
 31
0.0
  0
LINE
  5
F08
  8
0
 62
     0
 10
474.63688429727972
 20
42.965279531273012
 30
0.0
 11
467.12187283688081
 21
50.480290991671943
 31
0.0
  0
LINE
  5
F09
  8
0
 62
     0
 10
474.63688429727972
 20
40.843959187713352
 30
0.0
 11
467.12187283688081
 21
48.35897064811229
 31
0.0
  0
LINE
  5
F0A
  8
0
 62
     0
 10
474.63688429727972
 20
38.722638844153749
 30
0.0
 11
467.12187283688081
 21
46.237650304552659
 31
0.0
  0
LINE
  5
F0B
  8
0
 62
     0
 10
474.63688429727972
 20
36.601318500594118
 30
0.0
 11
467.12187283688081
 21
44.116329960992992
 31
0.0
  0
LINE
  5
F0C
  8
0
 62
     0
 10
474.63688429727972
 20
34.479998157034458
 30
0.0
 11
467.12187283688081
 21
41.99500961743334
 31
0.0
  0
LINE
  5
F0D
  8
0
 62
     0
 10
474.63688429727972
 20
32.35867781347477
 30
0.0
 11
467.12187283688081
 21
39.87368927387368
 31
0.0
  0
LINE
  5
F0E
  8
0
 62
     0
 10
474.63688429727972
 20
30.237357469915111
 30
0.0
 11
467.12187283688081
 21
37.752368930314049
 31
0.0
  0
LINE
  5
F0F
  8
0
 62
     0
 10
472.69144220891502
 20
30.0614792147203
 30
0.0
 11
467.12187283688081
 21
35.631048586754453
 31
0.0
  0
LINE
  5
F10
  8
0
 62
     0
 10
470.57012186535542
 20
30.06147921472024
 30
0.0
 11
467.12187283688081
 21
33.509728243194822
 31
0.0
  0
LINE
  5
F11
  8
0
 62
     0
 10
468.4488015217957
 20
30.06147921472024
 30
0.0
 11
467.12187283688081
 21
31.388407899635158
 31
0.0
  0
LINE
  5
F12
  8
0
 62
     0
 10
388.62187283688132
 20
65.340680684882216
 30
0.0
 11
388.02402961595328
 21
65.938523905810229
 31
0.0
  0
LINE
  5
F13
  8
0
 62
     0
 10
388.62187283688132
 20
63.219360341322577
 30
0.0
 11
385.90270927239362
 21
65.9385239058102
 31
0.0
  0
LINE
  5
F14
  8
0
 62
     0
 10
388.62187283688132
 20
61.098039997762932
 30
0.0
 11
383.78138892883391
 21
65.938523905810229
 31
0.0
  0
LINE
  5
F15
  8
0
 62
     0
 10
388.62187283688132
 20
58.976719654203293
 30
0.0
 11
381.6600685852743
 21
65.938523905810229
 31
0.0
  0
LINE
  5
F16
  8
0
 62
     0
 10
388.62187283688132
 20
56.855399310643662
 30
0.0
 11
381.1172156136563
 21
64.360056533868601
 31
0.0
  0
LINE
  5
F17
  8
0
 62
     0
 10
388.62187283688132
 20
54.734078967084002
 30
0.0
 11
381.1172156136563
 21
62.238736190308963
 31
0.0
  0
LINE
  5
F18
  8
0
 62
     0
 10
388.62187283688132
 20
52.612758623524371
 30
0.0
 11
381.1172156136563
 21
60.117415846749338
 31
0.0
  0
LINE
  5
F19
  8
0
 62
     0
 10
388.62187283688132
 20
50.491438279964733
 30
0.0
 11
381.1172156136563
 21
57.996095503189679
 31
0.0
  0
LINE
  5
F1A
  8
0
 62
     0
 10
388.62187283688149
 20
48.370117936404817
 30
0.0
 11
381.1172156136563
 21
55.874775159630047
 31
0.0
  0
LINE
  5
F1B
  8
0
 62
     0
 10
388.62187283688172
 20
46.248797592844987
 30
0.0
 11
381.1172156136563
 21
53.753454816070409
 31
0.0
  0
LINE
  5
F1C
  8
0
 62
     0
 10
388.62187283688172
 20
44.127477249285327
 30
0.0
 11
381.1172156136563
 21
51.632134472510728
 31
0.0
  0
LINE
  5
F1D
  8
0
 62
     0
 10
388.62187283688172
 20
42.006156905725682
 30
0.0
 11
381.1172156136563
 21
49.510814128951097
 31
0.0
  0
LINE
  5
F1E
  8
0
 62
     0
 10
388.62187283688172
 20
39.884836562166051
 30
0.0
 11
381.1172156136563
 21
47.38949378539143
 31
0.0
  0
LINE
  5
F1F
  8
0
 62
     0
 10
388.62187283688172
 20
37.763516218606412
 30
0.0
 11
381.1172156136563
 21
45.268173441831799
 31
0.0
  0
LINE
  5
F20
  8
0
 62
     0
 10
388.62187283688172
 20
35.64219587504676
 30
0.0
 11
381.1172156136563
 21
43.146853098272167
 31
0.0
  0
LINE
  5
F21
  8
0
 62
     0
 10
388.62187283688172
 20
33.520875531487093
 30
0.0
 11
381.11721561365641
 21
41.025532754712479
 31
0.0
  0
LINE
  5
F22
  8
0
 62
     0
 10
388.62187283688172
 20
31.399555187927461
 30
0.0
 11
381.11721561365641
 21
38.904212411152862
 31
0.0
  0
LINE
  5
F23
  8
0
 62
     0
 10
388.62187283688121
 20
29.27823484436837
 30
0.0
 11
381.11721561365641
 21
36.782892067593217
 31
0.0
  0
LINE
  5
F24
  8
0
 62
     0
 10
388.62187283688081
 20
27.15691450080908
 30
0.0
 11
381.11721561365641
 21
34.661571724033557
 31
0.0
  0
LINE
  5
F25
  8
0
 62
     0
 10
388.62187283688081
 20
25.035594157249481
 30
0.0
 11
381.1172156136563
 21
32.540251380473961
 31
0.0
  0
LINE
  5
F26
  8
0
 62
     0
 10
388.62187283688081
 20
22.914273813689821
 30
0.0
 11
381.1172156136563
 21
30.418931036914302
 31
0.0
  0
LINE
  5
F27
  8
0
 62
     0
 10
388.62187283688081
 20
20.792953470130161
 30
0.0
 11
381.11721561365641
 21
28.297610693354638
 31
0.0
  0
LINE
  5
F28
  8
0
 62
     0
 10
388.62187283688081
 20
18.671633126570551
 30
0.0
 11
381.11721561365641
 21
26.176290349795011
 31
0.0
  0
LINE
  5
F29
  8
0
 62
     0
 10
388.62187283688081
 20
16.550312783010892
 30
0.0
 11
381.1172156136563
 21
24.054970006235379
 31
0.0
  0
LINE
  5
F2A
  8
0
 62
     0
 10
388.62187283688081
 20
14.42899243945123
 30
0.0
 11
381.11721561365641
 21
21.93364966267572
 31
0.0
  0
LINE
  5
F2B
  8
0
 62
     0
 10
388.62187283688093
 20
12.307672095891551
 30
0.0
 11
381.11721561365641
 21
19.81232931911606
 31
0.0
  0
LINE
  5
F2C
  8
0
 62
     0
 10
388.62187283688093
 20
10.186351752331911
 30
0.0
 11
381.1172156136563
 21
17.69100897555645
 31
0.0
  0
LINE
  5
F2D
  8
0
 62
     0
 10
388.62187283688081
 20
8.0650314087722847
 30
0.0
 11
381.1172156136563
 21
15.569688631996801
 31
0.0
  0
LINE
  5
F2E
  8
0
 62
     0
 10
388.56558381324999
 20
6.0000000888435352
 30
0.0
 11
381.1172156136563
 21
13.448368288437161
 31
0.0
  0
LINE
  5
F2F
  8
0
 62
     0
 10
386.44426346969021
 20
6.0000000888436196
 30
0.0
 11
381.1172156136563
 21
11.327047944877529
 31
0.0
  0
LINE
  5
F30
  8
0
 62
     0
 10
384.32294312613061
 20
6.000000088843592
 30
0.0
 11
381.1172156136563
 21
9.205727601317875
 31
0.0
  0
LINE
  5
F31
  8
0
 62
     0
 10
382.20162278257101
 20
6.000000088843592
 30
0.0
 11
381.1172156136563
 21
7.0844072577582429
 31
0.0
  0
LINE
  5
F32
  8
0
 62
     0
 10
473.41743101868548
 20
30.06147921472024
 30
0.0
 11
474.63688429727972
 21
31.280932493314371
 31
0.0
  0
LINE
  5
F33
  8
0
 62
     0
 10
471.29611067512599
 20
30.06147921472024
 30
0.0
 11
474.63688429727972
 21
33.402252836874027
 31
0.0
  0
LINE
  5
F34
  8
0
 62
     0
 10
469.17479033156633
 20
30.061479214720212
 30
0.0
 11
474.63688429727972
 21
35.523573180433658
 31
0.0
  0
LINE
  5
F35
  8
0
 62
     0
 10
467.1218728368807
 20
30.129882063594351
 30
0.0
 11
474.63688429727972
 21
37.644893523993318
 31
0.0
  0
LINE
  5
F36
  8
0
 62
     0
 10
467.12187283688081
 20
32.251202407153983
 30
0.0
 11
474.63688429727972
 21
39.766213867552977
 31
0.0
  0
LINE
  5
F37
  8
0
 62
     0
 10
467.1218728368807
 20
34.372522750713642
 30
0.0
 11
474.63688429727972
 21
41.88753421111258
 31
0.0
  0
LINE
  5
F38
  8
0
 62
     0
 10
467.1218728368807
 20
36.493843094273281
 30
0.0
 11
474.63688429727972
 21
44.008854554672197
 31
0.0
  0
LINE
  5
F39
  8
0
 62
     0
 10
467.1218728368807
 20
38.615163437832912
 30
0.0
 11
474.63688429727972
 21
46.130174898231871
 31
0.0
  0
LINE
  5
F3A
  8
0
 62
     0
 10
467.12187283688081
 20
40.736483781392558
 30
0.0
 11
474.63688429727972
 21
48.251495241791531
 31
0.0
  0
LINE
  5
F3B
  8
0
 62
     0
 10
467.1218728368807
 20
42.857804124952203
 30
0.0
 11
474.63688429727972
 21
50.372815585351162
 31
0.0
  0
LINE
  5
F3C
  8
0
 62
     0
 10
467.12187283688058
 20
44.979124468511849
 30
0.0
 11
474.63688429727972
 21
52.494135928910822
 31
0.0
  0
LINE
  5
F3D
  8
0
 62
     0
 10
467.1218728368807
 20
47.100444812071508
 30
0.0
 11
474.63688429727972
 21
54.615456272470418
 31
0.0
  0
LINE
  5
F3E
  8
0
 62
     0
 10
467.1218728368807
 20
49.221765155631083
 30
0.0
 11
474.63688429727972
 21
56.736776616030049
 31
0.0
  0
LINE
  5
F3F
  8
0
 62
     0
 10
467.1218728368807
 20
51.343085499190749
 30
0.0
 11
474.63688429727972
 21
58.858096959589723
 31
0.0
  0
LINE
  5
F40
  8
0
 62
     0
 10
467.12187283688081
 20
53.464405842750409
 30
0.0
 11
474.63688429727972
 21
60.979417303149368
 31
0.0
  0
LINE
  5
F41
  8
0
 62
     0
 10
467.12187283688081
 20
55.585726186310069
 30
0.0
 11
474.63688429727972
 21
63.100737646709028
 31
0.0
  0
LINE
  5
F42
  8
0
 62
     0
 10
467.12187283688081
 20
57.7070465298697
 30
0.0
 11
474.63688429727972
 21
65.222057990268667
 31
0.0
  0
LINE
  5
F43
  8
0
 62
     0
 10
467.1218728368807
 20
59.82836687342936
 30
0.0
 11
473.23202986926162
 21
65.938523905810172
 31
0.0
  0
LINE
  5
F44
  8
0
 62
     0
 10
467.1218728368807
 20
61.94968721698902
 30
0.0
 11
471.11070952570191
 21
65.938523905810229
 31
0.0
  0
LINE
  5
F45
  8
0
 62
     0
 10
467.1218728368807
 20
64.071007560548594
 30
0.0
 11
468.9893891821423
 21
65.9385239058102
 31
0.0
  0
LINE
  5
F46
  8
0
 62
     0
 10
387.83766192957933
 20
6.0000000888435627
 30
0.0
 11
388.6218728368807
 21
6.7842109961450481
 31
0.0
  0
LINE
  5
F47
  8
0
 62
     0
 10
385.71634158601972
 20
6.000000088843592
 30
0.0
 11
388.6218728368807
 21
8.9055313397047087
 31
0.0
  0
LINE
  5
F48
  8
0
 62
     0
 10
383.59502124246001
 20
6.000000088843592
 30
0.0
 11
388.62187283688081
 21
11.02685168326437
 31
0.0
  0
LINE
  5
F49
  8
0
 62
     0
 10
381.47370089890029
 20
6.000000088843592
 30
0.0
 11
388.62187283688081
 21
13.148172026824
 31
0.0
  0
LINE
  5
F4A
  8
0
 62
     0
 10
381.1172156136563
 20
7.7648351471591459
 30
0.0
 11
388.6218728368807
 21
15.269492370383629
 31
0.0
  0
LINE
  5
F4B
  8
0
 62
     0
 10
381.1172156136563
 20
9.8861554907187781
 30
0.0
 11
388.62187283688081
 21
17.390812713943291
 31
0.0
  0
LINE
  5
F4C
  8
0
 62
     0
 10
381.1172156136563
 20
12.00747583427844
 30
0.0
 11
388.62187283688081
 21
19.51213305750295
 31
0.0
  0
LINE
  5
F4D
  8
0
 62
     0
 10
381.1172156136563
 20
14.128796177838071
 30
0.0
 11
388.6218728368807
 21
21.63345340106255
 31
0.0
  0
LINE
  5
F4E
  8
0
 62
     0
 10
381.1172156136563
 20
16.250116521397729
 30
0.0
 11
388.62187283688081
 21
23.754773744622209
 31
0.0
  0
LINE
  5
F4F
  8
0
 62
     0
 10
381.1172156136563
 20
18.37143686495736
 30
0.0
 11
388.62187283688081
 21
25.876094088181869
 31
0.0
  0
LINE
  5
F50
  8
0
 62
     0
 10
381.1172156136563
 20
20.492757208516991
 30
0.0
 11
388.6218728368807
 21
27.997414431741479
 31
0.0
  0
LINE
  5
F51
  8
0
 62
     0
 10
381.1172156136563
 20
22.614077552076651
 30
0.0
 11
388.62187283688138
 21
30.118734775301728
 31
0.0
  0
LINE
  5
F52
  8
0
 62
     0
 10
381.1172156136563
 20
24.735397895636279
 30
0.0
 11
388.62187283688172
 21
32.240055118861761
 31
0.0
  0
LINE
  5
F53
  8
0
 62
     0
 10
381.1172156136563
 20
26.856718239195938
 30
0.0
 11
388.62187283688172
 21
34.361375462421393
 31
0.0
  0
LINE
  5
F54
  8
0
 62
     0
 10
381.1172156136563
 20
28.97803858275557
 30
0.0
 11
388.62187283688172
 21
36.482695805981017
 31
0.0
  0
LINE
  5
F55
  8
0
 62
     0
 10
381.1172156136563
 20
31.099358926315212
 30
0.0
 11
388.62187283688172
 21
38.604016149540691
 31
0.0
  0
LINE
  5
F56
  8
0
 62
     0
 10
381.1172156136563
 20
33.220679269874857
 30
0.0
 11
388.62187283688172
 21
40.725336493100308
 31
0.0
  0
LINE
  5
F57
  8
0
 62
     0
 10
381.1172156136563
 20
35.341999613434503
 30
0.0
 11
388.62187283688172
 21
42.846656836659939
 31
0.0
  0
LINE
  5
F58
  8
0
 62
     0
 10
381.1172156136563
 20
37.463319956994127
 30
0.0
 11
388.62187283688172
 21
44.967977180219599
 31
0.0
  0
LINE
  5
F59
  8
0
 62
     0
 10
381.1172156136563
 20
39.584640300553787
 30
0.0
 11
388.62187283688172
 21
47.08929752377918
 31
0.0
  0
LINE
  5
F5A
  8
0
 62
     0
 10
381.1172156136563
 20
41.705960644113439
 30
0.0
 11
388.62187283688132
 21
49.210617867338499
 31
0.0
  0
LINE
  5
F5B
  8
0
 62
     0
 10
381.1172156136563
 20
43.827280987673078
 30
0.0
 11
388.62187283688132
 21
51.331938210898038
 31
0.0
  0
LINE
  5
F5C
  8
0
 62
     0
 10
381.1172156136563
 20
45.948601331232709
 30
0.0
 11
388.62187283688132
 21
53.453258554457697
 31
0.0
  0
LINE
  5
F5D
  8
0
 62
     0
 10
381.1172156136563
 20
48.069921674792361
 30
0.0
 11
388.62187283688132
 21
55.574578898017329
 31
0.0
  0
LINE
  5
F5E
  8
0
 62
     0
 10
381.1172156136563
 20
50.191242018352
 30
0.0
 11
388.62187283688132
 21
57.69589924157696
 31
0.0
  0
LINE
  5
F5F
  8
0
 62
     0
 10
381.1172156136563
 20
52.312562361911631
 30
0.0
 11
388.62187283688132
 21
59.817219585136627
 31
0.0
  0
LINE
  5
F60
  8
0
 62
     0
 10
381.1172156136563
 20
54.433882705471291
 30
0.0
 11
388.62187283688132
 21
61.938539928696258
 31
0.0
  0
LINE
  5
F61
  8
0
 62
     0
 10
381.1172156136563
 20
56.555203049030922
 30
0.0
 11
388.62187283688132
 21
64.059860272255889
 31
0.0
  0
LINE
  5
F62
  8
0
 62
     0
 10
381.1172156136563
 20
58.67652339259056
 30
0.0
 11
388.37921612687592
 21
65.9385239058102
 31
0.0
  0
LINE
  5
F63
  8
0
 62
     0
 10
381.1172156136563
 20
60.797843736150213
 30
0.0
 11
386.25789578331631
 21
65.9385239058102
 31
0.0
  0
LINE
  5
F64
  8
0
 62
     0
 10
381.1172156136563
 20
62.919164079709873
 30
0.0
 11
384.1365754397566
 21
65.938523905810229
 31
0.0
  0
LINE
  5
F65
  8
0
 62
     0
 10
381.1172156136563
 20
65.040484423269504
 30
0.0
 11
382.015255096197
 21
65.9385239058102
 31
0.0
  0
ENDBLK
  5
F67
  8
0
  0
BLOCK
  8
0
  2
*X7
 70
     1
 10
0.0
 20
0.0
 30
0.0
  3
*X7
  1

  0
LINE
  5
F69
  8
0
 62
     0
 10
252.47058607713231
 20
241.0
 30
0.0
 11
148.22058607713251
 21
241.0
 31
0.0
  0
LINE
  5
F6A
  8
0
 62
     0
 10
252.47058607713231
 20
239.5
 30
0.0
 11
148.22058607713251
 21
239.5
 31
0.0
  0
LINE
  5
F6B
  8
0
 62
     0
 10
252.47058607713231
 20
238.0
 30
0.0
 11
148.22058607713251
 21
238.0
 31
0.0
  0
LINE
  5
F6C
  8
0
 62
     0
 10
252.47058607713231
 20
236.5
 30
0.0
 11
148.22058607713251
 21
236.5
 31
0.0
  0
LINE
  5
F6D
  8
0
 62
     0
 10
252.47058607713231
 20
235.0
 30
0.0
 11
148.22058607713251
 21
235.0
 31
0.0
  0
LINE
  5
F6E
  8
0
 62
     0
 10
252.47058607713231
 20
233.5
 30
0.0
 11
148.22058607713251
 21
233.5
 31
0.0
  0
LINE
  5
F6F
  8
0
 62
     0
 10
252.47058607713231
 20
232.0
 30
0.0
 11
148.22058607713251
 21
232.0
 31
0.0
  0
LINE
  5
F70
  8
0
 62
     0
 10
252.47058607713231
 20
230.5
 30
0.0
 11
148.22058607713251
 21
230.5
 31
0.0
  0
LINE
  5
F71
  8
0
 62
     0
 10
252.47058607713231
 20
229.0
 30
0.0
 11
148.22058607713251
 21
229.0
 31
0.0
  0
LINE
  5
F72
  8
0
 62
     0
 10
252.47058607713231
 20
227.5
 30
0.0
 11
148.22058607713251
 21
227.5
 31
0.0
  0
LINE
  5
F73
  8
0
 62
     0
 10
252.47058607713231
 20
226.0
 30
0.0
 11
148.22058607713251
 21
226.0
 31
0.0
  0
LINE
  5
F74
  8
0
 62
     0
 10
252.47058607713231
 20
224.5
 30
0.0
 11
148.22058607713251
 21
224.5
 31
0.0
  0
LINE
  5
F75
  8
0
 62
     0
 10
252.47058607713231
 20
223.0
 30
0.0
 11
148.22058607713251
 21
223.0
 31
0.0
  0
LINE
  5
F76
  8
0
 62
     0
 10
252.47058607713231
 20
221.5
 30
0.0
 11
148.2205860771324
 21
221.5
 31
0.0
  0
LINE
  5
F77
  8
0
 62
     0
 10
252.47058607713231
 20
220.0
 30
0.0
 11
148.2205860771324
 21
220.0
 31
0.0
  0
LINE
  5
F78
  8
0
 62
     0
 10
252.47058607713231
 20
218.5
 30
0.0
 11
148.2205860771324
 21
218.5
 31
0.0
  0
LINE
  5
F79
  8
0
 62
     0
 10
252.47058607713231
 20
217.0
 30
0.0
 11
148.2205860771324
 21
217.0
 31
0.0
  0
LINE
  5
F7A
  8
0
 62
     0
 10
252.47058607713231
 20
215.5
 30
0.0
 11
148.2205860771324
 21
215.5
 31
0.0
  0
LINE
  5
F7B
  8
0
 62
     0
 10
252.47058607713231
 20
214.0
 30
0.0
 11
148.2205860771324
 21
214.0
 31
0.0
  0
LINE
  5
F7C
  8
0
 62
     0
 10
252.47058607713231
 20
212.5
 30
0.0
 11
148.2205860771324
 21
212.5
 31
0.0
  0
LINE
  5
F7D
  8
0
 62
     0
 10
252.47058607713231
 20
211.0
 30
0.0
 11
148.2205860771324
 21
211.0
 31
0.0
  0
LINE
  5
F7E
  8
0
 62
     0
 10
252.47058607713231
 20
209.5
 30
0.0
 11
148.2205860771324
 21
209.5
 31
0.0
  0
LINE
  5
F7F
  8
0
 62
     0
 10
252.47058607713231
 20
208.0
 30
0.0
 11
148.2205860771324
 21
208.0
 31
0.0
  0
LINE
  5
F80
  8
0
 62
     0
 10
252.47058607713231
 20
206.5
 30
0.0
 11
148.2205860771324
 21
206.5
 31
0.0
  0
LINE
  5
F81
  8
0
 62
     0
 10
252.47058607713231
 20
205.0
 30
0.0
 11
148.22058607713231
 21
205.0
 31
0.0
  0
LINE
  5
F82
  8
0
 62
     0
 10
252.47058607713231
 20
203.5
 30
0.0
 11
148.22058607713231
 21
203.5
 31
0.0
  0
LINE
  5
F83
  8
0
 62
     0
 10
252.47058607713231
 20
202.0
 30
0.0
 11
148.22058607713231
 21
202.0
 31
0.0
  0
LINE
  5
F84
  8
0
 62
     0
 10
252.47058607713231
 20
200.5
 30
0.0
 11
148.22058607713231
 21
200.5
 31
0.0
  0
LINE
  5
F85
  8
0
 62
     0
 10
252.47058607713231
 20
199.0
 30
0.0
 11
148.22058607713231
 21
199.0
 31
0.0
  0
LINE
  5
F86
  8
0
 62
     0
 10
252.47058607713231
 20
197.5
 30
0.0
 11
148.22058607713231
 21
197.5
 31
0.0
  0
LINE
  5
F87
  8
0
 62
     0
 10
252.47058607713231
 20
195.99999999999989
 30
0.0
 11
148.22058607713231
 21
195.99999999999989
 31
0.0
  0
LINE
  5
F88
  8
0
 62
     0
 10
252.47058607713231
 20
194.5
 30
0.0
 11
148.22058607713231
 21
194.5
 31
0.0
  0
LINE
  5
F89
  8
0
 62
     0
 10
252.47058607713231
 20
192.99999999999989
 30
0.0
 11
148.22058607713231
 21
192.99999999999989
 31
0.0
  0
LINE
  5
F8A
  8
0
 62
     0
 10
252.47058607713231
 20
191.5
 30
0.0
 11
148.22058607713231
 21
191.5
 31
0.0
  0
LINE
  5
F8B
  8
0
 62
     0
 10
252.47058607713231
 20
190.0
 30
0.0
 11
148.22058607713231
 21
190.0
 31
0.0
  0
LINE
  5
F8C
  8
0
 62
     0
 10
252.47058607713231
 20
188.49999999999989
 30
0.0
 11
148.22058607713231
 21
188.49999999999989
 31
0.0
  0
LINE
  5
F8D
  8
0
 62
     0
 10
252.47058607713231
 20
186.99999999999989
 30
0.0
 11
148.22058607713231
 21
186.99999999999989
 31
0.0
  0
LINE
  5
F8E
  8
0
 62
     0
 10
252.47058607713231
 20
185.5
 30
0.0
 11
148.22058607713231
 21
185.5
 31
0.0
  0
LINE
  5
F8F
  8
0
 62
     0
 10
252.47058607713231
 20
184.0
 30
0.0
 11
148.22058607713231
 21
184.0
 31
0.0
  0
LINE
  5
F90
  8
0
 62
     0
 10
252.47058607713231
 20
182.5
 30
0.0
 11
148.2205860771322
 21
182.5
 31
0.0
  0
LINE
  5
F91
  8
0
 62
     0
 10
252.47058607713231
 20
181.0
 30
0.0
 11
148.2205860771322
 21
181.0
 31
0.0
  0
LINE
  5
F92
  8
0
 62
     0
 10
252.47058607713231
 20
179.49999999999989
 30
0.0
 11
148.2205860771322
 21
179.49999999999989
 31
0.0
  0
LINE
  5
F93
  8
0
 62
     0
 10
252.47058607713231
 20
178.0
 30
0.0
 11
148.2205860771322
 21
178.0
 31
0.0
  0
LINE
  5
F94
  8
0
 62
     0
 10
252.47058607713231
 20
176.49999999999989
 30
0.0
 11
148.2205860771322
 21
176.49999999999989
 31
0.0
  0
LINE
  5
F95
  8
0
 62
     0
 10
252.47058607713231
 20
175.0
 30
0.0
 11
148.2205860771322
 21
175.0
 31
0.0
  0
LINE
  5
F96
  8
0
 62
     0
 10
252.47058607713231
 20
173.49999999999989
 30
0.0
 11
148.2205860771322
 21
173.49999999999989
 31
0.0
  0
LINE
  5
F97
  8
0
 62
     0
 10
252.47058607713231
 20
171.99999999999989
 30
0.0
 11
148.2205860771322
 21
171.99999999999989
 31
0.0
  0
LINE
  5
F98
  8
0
 62
     0
 10
252.47058607713231
 20
170.5
 30
0.0
 11
148.2205860771322
 21
170.5
 31
0.0
  0
LINE
  5
F99
  8
0
 62
     0
 10
252.47058607713231
 20
168.99999999999989
 30
0.0
 11
148.2205860771322
 21
168.99999999999989
 31
0.0
  0
LINE
  5
F9A
  8
0
 62
     0
 10
252.47058607713231
 20
167.5
 30
0.0
 11
148.2205860771322
 21
167.5
 31
0.0
  0
LINE
  5
F9B
  8
0
 62
     0
 10
252.47058607713231
 20
165.99999999999989
 30
0.0
 11
148.2205860771322
 21
165.99999999999989
 31
0.0
  0
LINE
  5
F9C
  8
0
 62
     0
 10
252.47058607713231
 20
164.5
 30
0.0
 11
148.2205860771322
 21
164.5
 31
0.0
  0
LINE
  5
F9D
  8
0
 62
     0
 10
252.47058607713231
 20
162.99999999999989
 30
0.0
 11
148.2205860771322
 21
162.99999999999989
 31
0.0
  0
LINE
  5
F9E
  8
0
 62
     0
 10
252.47058607713231
 20
161.5
 30
0.0
 11
148.2205860771322
 21
161.5
 31
0.0
  0
LINE
  5
F9F
  8
0
 62
     0
 10
252.47058607713231
 20
159.99999999999989
 30
0.0
 11
148.2205860771322
 21
159.99999999999989
 31
0.0
  0
LINE
  5
FA0
  8
0
 62
     0
 10
252.47058607713231
 20
158.49999999999989
 30
0.0
 11
148.22058607713211
 21
158.49999999999989
 31
0.0
  0
LINE
  5
FA1
  8
0
 62
     0
 10
252.47058607713231
 20
157.0
 30
0.0
 11
148.22058607713211
 21
157.0
 31
0.0
  0
LINE
  5
FA2
  8
0
 62
     0
 10
252.47058607713231
 20
155.49999999999989
 30
0.0
 11
148.22058607713211
 21
155.49999999999989
 31
0.0
  0
LINE
  5
FA3
  8
0
 62
     0
 10
252.47058607713231
 20
154.0
 30
0.0
 11
148.22058607713211
 21
154.0
 31
0.0
  0
LINE
  5
FA4
  8
0
 62
     0
 10
252.47058607713231
 20
152.49999999999989
 30
0.0
 11
148.22058607713211
 21
152.49999999999989
 31
0.0
  0
ENDBLK
  5
FA6
  8
0
  0
ENDSEC
  0
SECTION
  2
ENTITIES
  0
LINE
  5
374
  8
0
 10
283.97758640794751
 20
34.922057430186648
 30
0.0
 11
312.53580842800511
 21
7.9141334993634667
 31
0.0
  0
LINE
  5
375
  8
0
 10
324.09653908099932
 20
14.850576631326369
 30
0.0
 11
313.70518238497289
 21
52.758615016401819
 31
0.0
  0
ARC
  5
376
  8
0
 10
296.34558607713228
 20
48.00000008884043
 30
0.0
 40
17.999999999999979
 50
90.0
 51
226.5981403622487
1001
ACAD
1000
ASC_BOUNDS
1002
{
1070
    19
1005
517
1002
}
  0
ARC
  5
377
  8
0
 10
296.34558607713228
 20
48.00000008884043
 30
0.0
 40
17.999999999999972
 50
15.329372701900271
 51
90.0
1001
ACAD
1000
ASC_BOUNDS
1002
{
1070
    19
1005
517
1002
}
  0
ARC
  5
378
  8
0
 10
317.34558607713279
 20
13.000000088839929
 30
0.0
 40
6.9999999999999858
 50
226.5981403622485
 51
270.0
1001
ACAD
1000
ASC_BOUNDS
1002
{
1070
    19
1005
517
1002
}
  0
ARC
  5
379
  8
0
 10
317.34558607713279
 20
13.000000088839929
 30
0.0
 40
6.9999999999999689
 50
270.0
 51
15.32937270190086
1001
ACAD
1000
ASC_BOUNDS
1002
{
1070
    19
1005
517
1002
}
  0
LINE
  5
37A
  8
0
 10
283.97758640794751
 20
34.922057430186307
 30
0.0
 11
312.53580842800511
 21
7.9141334993631283
 31
0.0
1001
ACAD
1000
ASC_BOUNDS
1002
{
1070
    19
1005
517
1002
}
  0
LINE
  5
37B
  8
0
 10
324.09654019684831
 20
14.850572560669381
 30
0.0
 11
313.70518238497289
 21
52.758615016401492
 31
0.0
1001
ACAD
1000
ASC_BOUNDS
1002
{
1070
    19
1005
517
1002
}
  0
LINE
  5
37C
  8
0
 10
254.09558607713231
 20
98.000000088840437
 30
0.0
 11
254.09558607713231
 21
6.000000088842314
 31
0.0
  0
LINE
  5
37D
  8
0
 10
146.59558607713231
 20
6.000000088842314
 30
0.0
 11
146.59558607713231
 21
98.000000088840466
 31
0.0
  0
LINE
  5
37E
  8
0
 10
254.09558607713231
 20
6.000000088842314
 30
0.0
 11
146.59558607713231
 21
6.000000088842314
 31
0.0
  0
LINE
  5
37F
  8
0
 10
146.59558607713231
 20
98.000000088840437
 30
0.0
 11
254.09558607713231
 21
98.000000088840437
 31
0.0
  0
LINE
  5
380
  8
0
 10
257.09558607713279
 20
6.0000000888390712
 30
0.0
 11
296.34558607713228
 21
10.77537697564094
 31
0.0
  0
ARC
  5
381
  8
0
 10
293.34558607713279
 20
40.625000088839549
 30
0.0
 40
30.000000000000011
 50
275.7391704772615
 51
295.91139169256172
  0
ARC
  5
382
  8
0
 10
293.34558607713279
 20
40.625000088839549
 30
0.0
 40
30.0
 50
334.95256645166882
 51
114.0790707055184
  0
LINE
  5
383
  8
0
 10
281.1056764244268
 20
68.014498289675359
 30
0.0
 11
254.09558607713279
 21
56.000000088839471
 31
0.0
  0
LINE
  5
384
  8
0
 10
146.59558607713279
 20
0.0000000888386555
 30
0.0
 11
146.59558607713251
 21
6.0000000888410723
 31
0.0
  0
LINE
  5
385
  8
0
 10
326.34558607713228
 20
6.0000000888435592
 30
0.0
 11
326.34558607713279
 21
0.0000000888411407
 31
0.0
  0
LINE
  5
386
  8
0
 10
146.59558607713279
 20
0.0000000888386555
 30
0.0
 11
326.34558607713279
 21
0.0000000888411407
 31
0.0
  0
LINE
  5
387
  8
0
 10
326.34558607713228
 20
6.0000000888435592
 30
0.0
 11
146.59558607713251
 21
6.0000000888410723
 31
0.0
  0
ARC
  5
388
  8
0
 10
200.3455860771337
 20
80.000000088838192
 30
0.0
 40
8.2500000000000089
 50
179.9999999999998
 51
359.99999999999881
  0
ARC
  5
389
  8
0
 10
200.3455860771337
 20
80.000000088838192
 30
0.0
 40
8.25
 50
359.9999999999996
 51
179.9999999999998
  0
ARC
  5
38A
  8
0
 10
200.3455860771337
 20
80.000000088838192
 30
0.0
 40
7.687499999999992
 50
0.0000000000008142
 51
180.0000000000002
  0
ARC
  5
38B
  8
0
 10
200.3455860771337
 20
80.000000088838192
 30
0.0
 40
7.687499999999992
 50
180.0000000000002
 51
0.0
  0
LINE
  5
38C
  8
0
 10
205.4680868511214
 20
77.558144240040832
 30
0.0
 11
205.273146374931
 21
77.109235509882083
 31
0.0
  0
LINE
  5
38D
  8
0
 10
205.273146374931
 20
77.109235509882083
 30
0.0
 11
204.82225351778831
 21
76.951993446390034
 31
0.0
  0
LINE
  5
38E
  8
0
 10
204.82225351778831
 20
76.951993446390034
 30
0.0
 11
204.4977247479469
 21
77.016229557501134
 31
0.0
  0
LINE
  5
38F
  8
0
 10
204.4977247479469
 20
77.016229557501134
 30
0.0
 11
204.26223367651849
 21
77.208937890834477
 31
0.0
  0
LINE
  5
390
  8
0
 10
204.26223367651849
 20
77.208937890834477
 30
0.0
 11
204.07126145429629
 21
77.966874398770983
 31
0.0
  0
LINE
  5
391
  8
0
 10
204.07126145429629
 20
77.966874398770983
 30
0.0
 11
204.25528923207409
 21
78.730763287659869
 31
0.0
  0
LINE
  5
392
  8
0
 10
204.25528923207409
 20
78.730763287659869
 30
0.0
 11
204.48507593842299
 21
78.920495430517008
 31
0.0
  0
LINE
  5
393
  8
0
 10
204.48507593842299
 20
78.920495430517008
 30
0.0
 11
204.8063805019151
 21
78.983739478136073
 31
0.0
  0
LINE
  5
394
  8
0
 10
204.8063805019151
 20
78.983739478136073
 30
0.0
 11
205.2746344701691
 21
78.840386303532881
 31
0.0
  0
LINE
  5
395
  8
0
 10
205.2746344701691
 20
78.840386303532881
 30
0.0
 11
205.4680868511214
 21
78.415287097183665
 31
0.0
  0
LINE
  5
396
  8
0
 10
205.4680868511214
 20
78.415287097183665
 30
0.0
 11
206.61094399397871
 21
78.415287097183665
 31
0.0
  0
LINE
  5
397
  8
0
 10
206.61094399397871
 20
78.415287097183665
 30
0.0
 11
206.45072574001051
 21
79.062980549564642
 31
0.0
  0
LINE
  5
398
  8
0
 10
206.45072574001051
 20
79.062980549564642
 30
0.0
 11
206.08316621620091
 21
79.541775192421781
 31
0.0
  0
LINE
  5
399
  8
0
 10
206.08316621620091
 20
79.541775192421781
 30
0.0
 11
205.52413843842311
 21
79.837534120993212
 31
0.0
  0
LINE
  5
39A
  8
0
 10
205.52413843842311
 20
79.837534120993212
 30
0.0
 11
204.78951542255029
 21
79.936120430517008
 31
0.0
  0
LINE
  5
39B
  8
0
 10
204.78951542255029
 20
79.936120430517008
 30
0.0
 11
203.9915243511214
 21
79.804175986072579
 31
0.0
  0
LINE
  5
39C
  8
0
 10
203.9915243511214
 20
79.804175986072579
 30
0.0
 11
203.3812812955662
 21
79.40834265273925
 31
0.0
  0
LINE
  5
39D
  8
0
 10
203.3812812955662
 20
79.40834265273925
 30
0.0
 11
202.99400450985189
 21
78.784334716231299
 31
0.0
  0
LINE
  5
39E
  8
0
 10
202.99400450985189
 20
78.784334716231299
 30
0.0
 11
202.8649122479469
 21
77.967866462263061
 31
0.0
  0
LINE
  5
39F
  8
0
 10
202.8649122479469
 20
77.967866462263061
 30
0.0
 11
202.99462454953439
 21
77.149538089247173
 31
0.0
  0
LINE
  5
3A0
  8
0
 10
202.99462454953439
 20
77.149538089247173
 30
0.0
 11
203.38376145429629
 21
76.525902176548769
 31
0.0
  0
LINE
  5
3A1
  8
0
 10
203.38376145429629
 20
76.525902176548769
 30
0.0
 11
203.99908883524861
 21
76.131184914643995
 31
0.0
  0
LINE
  5
3A2
  8
0
 10
203.99908883524861
 20
76.131184914643995
 30
0.0
 11
204.80737256540709
 21
75.999612494009085
 31
0.0
  0
LINE
  5
3A3
  8
0
 10
204.80737256540709
 20
75.999612494009085
 30
0.0
 11
205.53046284318501
 21
76.101795033691616
 31
0.0
  0
LINE
  5
3A4
  8
0
 10
205.53046284318501
 20
76.101795033691616
 30
0.0
 11
206.08663843842299
 21
76.408342652739236
 31
0.0
  0
LINE
  5
3A5
  8
0
 10
206.08663843842299
 20
76.408342652739236
 30
0.0
 11
206.45407395429629
 21
76.900158128929718
 31
0.0
  0
LINE
  5
3A6
  8
0
 10
206.45407395429629
 20
76.900158128929718
 30
0.0
 11
206.61094399397871
 21
77.558144240040832
 31
0.0
  0
LINE
  5
3A7
  8
0
 10
206.61094399397871
 20
77.558144240040832
 30
0.0
 11
205.4680868511214
 21
77.558144240040832
 31
0.0
  0
LINE
  5
3A8
  8
0
 10
198.246359473354
 20
78.33221842896404
 30
0.0
 11
199.423938838433
 21
78.33221842896404
 31
0.0
  0
LINE
  5
3A9
  8
0
 10
199.423938838433
 20
78.33221842896404
 30
0.0
 11
199.57076423525859
 21
78.840154936900532
 31
0.0
  0
LINE
  5
3AA
  8
0
 10
199.57076423525859
 20
78.840154936900532
 30
0.0
 11
200.7741372511318
 21
78.840154936900532
 31
0.0
  0
LINE
  5
3AB
  8
0
 10
200.7741372511318
 20
78.840154936900532
 30
0.0
 11
200.9160023304967
 21
78.33221842896404
 31
0.0
  0
LINE
  5
3AC
  8
0
 10
200.9160023304967
 20
78.33221842896404
 30
0.0
 11
202.11937534636991
 21
78.33221842896404
 31
0.0
  0
LINE
  5
3AD
  8
0
 10
202.11937534636991
 20
78.33221842896404
 30
0.0
 11
200.79001026700459
 21
82.141742238487836
 31
0.0
  0
LINE
  5
3AE
  8
0
 10
200.79001026700459
 20
82.141742238487836
 30
0.0
 11
199.5608436003381
 21
82.141742238487836
 31
0.0
  0
LINE
  5
3AF
  8
0
 10
199.5608436003381
 20
82.141742238487836
 30
0.0
 11
198.246359473354
 21
78.33221842896404
 31
0.0
  0
LINE
  5
3B0
  8
0
 10
199.79100233049661
 20
79.665551762297369
 30
0.0
 11
200.17691502890969
 21
80.969123190868814
 31
0.0
  0
LINE
  5
3B1
  8
0
 10
200.17691502890969
 20
80.969123190868814
 30
0.0
 11
200.55389915589379
 21
79.665551762297369
 31
0.0
  0
LINE
  5
3B2
  8
0
 10
200.55389915589379
 20
79.665551762297369
 30
0.0
 11
199.79100233049661
 21
79.665551762297369
 31
0.0
  0
LINE
  5
3B3
  8
0
 10
194.48562828309241
 20
80.072606738144273
 30
0.0
 11
196.1850330449974
 21
80.072606738144273
 31
0.0
  0
LINE
  5
3B4
  8
0
 10
196.1850330449974
 20
80.072606738144273
 30
0.0
 11
196.95289018785431
 21
80.111297214334755
 31
0.0
  0
LINE
  5
3B5
  8
0
 10
196.95289018785431
 20
80.111297214334755
 30
0.0
 11
197.3655886005526
 21
80.243241658779212
 31
0.0
  0
LINE
  5
3B6
  8
0
 10
197.3655886005526
 20
80.243241658779212
 30
0.0
 11
197.7738227275367
 21
80.626178166715718
 31
0.0
  0
LINE
  5
3B7
  8
0
 10
197.7738227275367
 20
80.626178166715718
 30
0.0
 11
197.914199711664
 21
81.213479754017314
 31
0.0
  0
LINE
  5
3B8
  8
0
 10
197.914199711664
 20
81.213479754017314
 30
0.0
 11
197.77035050531461
 21
81.776475785763324
 31
0.0
  0
LINE
  5
3B9
  8
0
 10
197.77035050531461
 20
81.776475785763324
 30
0.0
 11
197.32689812436229
 21
82.101376579414122
 31
0.0
  0
LINE
  5
3BA
  8
0
 10
197.32689812436229
 20
82.101376579414122
 30
0.0
 11
197.6721362196003
 21
82.418836896874438
 31
0.0
  0
LINE
  5
3BB
  8
0
 10
197.6721362196003
 20
82.418836896874438
 30
0.0
 11
197.78721558467981
 21
82.871217849255402
 31
0.0
  0
LINE
  5
3BC
  8
0
 10
197.78721558467981
 20
82.871217849255402
 30
0.0
 11
197.63344574340999
 21
83.431237690525251
 31
0.0
  0
LINE
  5
3BD
  8
0
 10
197.63344574340999
 20
83.431237690525251
 30
0.0
 11
197.19098542594969
 21
83.771019436556969
 31
0.0
  0
LINE
  5
3BE
  8
0
 10
197.19098542594969
 20
83.771019436556969
 30
0.0
 11
196.79564812436229
 21
83.856336896874424
 31
0.0
  0
LINE
  5
3BF
  8
0
 10
196.79564812436229
 20
83.856336896874424
 30
0.0
 11
196.06201717198149
 21
83.882130547668098
 31
0.0
  0
LINE
  5
3C0
  8
0
 10
196.06201717198149
 20
83.882130547668098
 30
0.0
 11
194.48562828309241
 21
83.882130547668098
 31
0.0
  0
LINE
  5
3C1
  8
0
 10
194.48562828309241
 20
83.882130547668098
 30
0.0
 11
194.48562828309241
 21
80.072606738144273
 31
0.0
  0
LINE
  5
3C2
  8
0
 10
195.6919774894418
 20
80.961495627033173
 30
0.0
 11
195.6919774894418
 21
81.659908325445855
 31
0.0
  0
LINE
  5
3C3
  8
0
 10
195.6919774894418
 20
81.659908325445855
 30
0.0
 11
196.2405886005526
 21
81.659908325445855
 31
0.0
  0
LINE
  5
3C4
  8
0
 10
196.2405886005526
 20
81.659908325445855
 30
0.0
 11
196.6498147910288
 21
81.580543246080779
 31
0.0
  0
LINE
  5
3C5
  8
0
 10
196.6498147910288
 20
81.580543246080779
 30
0.0
 11
196.7713425688066
 21
81.313678166715718
 31
0.0
  0
LINE
  5
3C6
  8
0
 10
196.7713425688066
 20
81.313678166715718
 30
0.0
 11
196.65229494975929
 21
81.043836896874424
 31
0.0
  0
LINE
  5
3C7
  8
0
 10
196.65229494975929
 20
81.043836896874424
 30
0.0
 11
196.25150129896559
 21
80.961495627033173
 31
0.0
  0
LINE
  5
3C8
  8
0
 10
196.25150129896559
 20
80.961495627033173
 30
0.0
 11
195.6919774894418
 21
80.961495627033173
 31
0.0
  0
LINE
  5
3C9
  8
0
 10
195.6919774894418
 20
82.358321023858579
 30
0.0
 11
195.6919774894418
 21
82.993241658779183
 31
0.0
  0
LINE
  5
3CA
  8
0
 10
195.6919774894418
 20
82.993241658779183
 30
0.0
 11
196.0263028862669
 21
82.993241658779183
 31
0.0
  0
LINE
  5
3CB
  8
0
 10
196.0263028862669
 20
82.993241658779183
 30
0.0
 11
196.53473542594969
 21
82.925781341318896
 31
0.0
  0
LINE
  5
3CC
  8
0
 10
196.53473542594969
 20
82.925781341318896
 30
0.0
 11
196.6443584418225
 21
82.675781341318881
 31
0.0
  0
LINE
  5
3CD
  8
0
 10
196.6443584418225
 20
82.675781341318881
 30
0.0
 11
196.54217590214009
 21
82.430741658779183
 31
0.0
  0
LINE
  5
3CE
  8
0
 10
196.54217590214009
 20
82.430741658779183
 30
0.0
 11
196.1899933624577
 21
82.358321023858579
 31
0.0
  0
LINE
  5
3CF
  8
0
 10
196.1899933624577
 20
82.358321023858579
 30
0.0
 11
195.6919774894418
 21
82.358321023858579
 31
0.0
  0
ARC
  5
3D0
  8
0
 10
200.34558607713331
 20
80.000000088838874
 30
0.0
 40
9.0000000000000195
 50
179.9999999999998
 51
359.99999999999881
  0
ARC
  5
3D1
  8
0
 10
200.34558607713331
 20
80.000000088838874
 30
0.0
 40
9.0000000000000195
 50
359.9999999999996
 51
179.9999999999998
  0
LINE
  5
3D2
  8
0
 10
141.59558607713279
 20
3.1250000888399532
 30
0.0
 11
146.59558607713251
 21
3.1250000888399532
 31
0.0
  0
LINE
  5
3D3
  8
0
 10
146.59558607713251
 20
9.1250000888399541
 30
0.0
 11
141.59558607713279
 21
9.1250000888399541
 31
0.0
  0
LINE
  5
3D4
  8
0
 10
141.59558607713279
 20
82.750000088840011
 30
0.0
 11
146.59558607713251
 21
82.750000088840011
 31
0.0
  0
LINE
  5
3D5
  8
0
 10
146.59558607713251
 20
88.750000088840011
 30
0.0
 11
141.59558607713279
 21
88.750000088840011
 31
0.0
  0
LINE
  5
3D6
  8
0
 10
141.59558607713251
 20
6.1250003300038527
 30
0.0
 11
141.59558607713251
 21
7.62500008884001
 31
0.0
  0
LINE
  5
3D7
  8
0
 10
141.59558607713251
 20
7.6250003498425452
 30
0.0
 11
141.59558607713251
 21
8.2463201335640033
 31
0.0
  0
LINE
  5
3D8
  8
0
 10
141.59558607713251
 20
8.2463204323996546
 30
0.0
 11
141.59558607713251
 21
8.7230760163049901
 31
0.0
  0
LINE
  5
3D9
  8
0
 10
141.59558607713251
 20
8.7230763001933305
 30
0.0
 11
141.59558607713251
 21
9.1250000888400198
 31
0.0
  0
LINE
  5
3DA
  8
0
 10
141.59558607713251
 20
3.125000088840022
 30
0.0
 11
141.59558607713251
 21
3.2272224538586598
 31
0.0
  0
LINE
  5
3DB
  8
0
 10
141.59558607713251
 20
3.2272226099728178
 30
0.0
 11
141.59558607713251
 21
3.5269238774867069
 31
0.0
  0
LINE
  5
3DC
  8
0
 10
141.59558607713251
 20
3.5269239649917639
 30
0.0
 11
141.59558607713251
 21
4.0036797452803778
 31
0.0
  0
LINE
  5
3DD
  8
0
 10
141.59558607713251
 20
4.0036798310079442
 30
0.0
 11
141.59558607713251
 21
4.6249999583385133
 31
0.0
  0
LINE
  5
3DE
  8
0
 10
141.59558607713251
 20
4.6250000888400189
 30
0.0
 11
141.59558607713251
 21
6.1250000888400118
 31
0.0
  0
LINE
  5
3DF
  8
0
 10
141.59558607713251
 20
85.750002018151903
 30
0.0
 11
141.59558607713251
 21
87.250000088839997
 31
0.0
  0
LINE
  5
3E0
  8
0
 10
141.59558607713251
 20
87.250002176861145
 30
0.0
 11
141.59558607713251
 21
87.871319068024533
 31
0.0
  0
LINE
  5
3E1
  8
0
 10
141.59558607713251
 20
87.871320432399656
 30
0.0
 11
141.59558607713251
 21
88.348074445238908
 31
0.0
  0
LINE
  5
3E2
  8
0
 10
141.59558607713251
 20
88.348076300193327
 30
0.0
 11
141.59558607713251
 21
88.647777567707195
 31
0.0
  0
LINE
  5
3E3
  8
0
 10
141.59558607713251
 20
88.647777723820809
 30
0.0
 11
141.59558607713251
 21
88.750000088840011
 31
0.0
  0
LINE
  5
3E4
  8
0
 10
141.59558607713251
 20
82.750000088840039
 30
0.0
 11
141.59558607713251
 21
83.151923877486709
 31
0.0
  0
LINE
  5
3E5
  8
0
 10
141.59558607713251
 20
83.151924161374836
 30
0.0
 11
141.59558607713251
 21
83.628679301547578
 31
0.0
  0
LINE
  5
3E6
  8
0
 10
141.59558607713251
 20
83.62867974528038
 30
0.0
 11
141.59558607713251
 21
85.750000088840025
 31
0.0
  0
ARC
  5
3E7
  8
0
 10
213.09558607713279
 20
20.000000088839901
 30
0.0
 40
1.0
 50
359.99999999999937
 51
179.9999999999998
  0
ARC
  5
3E8
  8
0
 10
213.09558607713279
 20
20.000000088839901
 30
0.0
 40
1.0000000000000031
 50
180.00000000000031
 51
359.99999999999937
  0
ARC
  5
3E9
  8
0
 10
227.03308607713279
 20
11.625000088839901
 30
0.0
 40
1.500000000000004
 50
359.99999999999909
 51
179.99999999999949
  0
ARC
  5
3EA
  8
0
 10
227.03308607713279
 20
11.625000088839901
 30
0.0
 40
1.5
 50
179.99999999999989
 51
359.99999999999949
  0
ARC
  5
3EB
  8
0
 10
234.22058607713279
 20
2.6250000888398972
 30
0.0
 40
1.0000000000000051
 50
359.99999999999909
 51
179.99999999999929
  0
ARC
  5
3EC
  8
0
 10
234.22058607713279
 20
2.6250000888398972
 30
0.0
 40
1.0
 50
180.00000000000011
 51
359.99999999999909
  0
CIRCLE
  5
3ED
  8
0
 10
238.03308607713279
 20
20.375000088839901
 30
0.0
 40
8.4999999999999876
  0
LINE
  5
3EE
  8
0
 10
381.1172156136563
 20
14.850576631326369
 30
0.0
 11
381.1172156136563
 21
52.41874131503625
 31
0.0
  0
LINE
  5
3EF
  8
0
 10
381.1172156136563
 20
52.451890228576367
 30
0.0
 11
381.1172156136563
 21
52.758615016401819
 31
0.0
  0
LINE
  5
3F0
  8
0
 10
388.62187283688081
 20
27.929417580933809
 30
0.0
 11
388.62187283688081
 21
14.85057663132636
 31
0.0
  0
LINE
  5
3F1
  8
0
 10
474.63688429727972
 20
48.000000088840331
 30
0.0
 11
474.63688429727972
 21
42.15541082729802
 31
0.0
  0
LINE
  5
3F2
  8
0
 10
474.63688429727972
 20
42.155409643156041
 30
0.0
 11
474.63688429727972
 21
34.756969696723978
 31
0.0
  0
LINE
  5
3F3
  8
0
 10
474.63688429727972
 20
34.756968471732968
 30
0.0
 11
474.63688429727972
 21
31.51608020904931
 31
0.0
  0
LINE
  5
3F4
  8
0
 10
474.63688429727972
 20
31.51607875842797
 30
0.0
 11
474.63688429727972
 21
30.061479214720219
 31
0.0
  0
LINE
  5
3F6
  8
0
 10
474.63688429727972
 20
65.938520962960339
 30
0.0
 11
474.63688429727972
 21
65.449208637000922
 31
0.0
  0
LINE
  5
3F7
  8
0
 10
474.63688429727972
 20
65.449204875748222
 30
0.0
 11
474.63688429727972
 21
64.483921419251416
 31
0.0
  0
LINE
  5
3F8
  8
0
 10
474.63688429727972
 20
64.483919968631312
 30
0.0
 11
474.63688429727972
 21
61.243030480956691
 31
0.0
  0
LINE
  5
3F9
  8
0
 10
474.63688429727972
 20
61.243028866869189
 30
0.0
 11
474.63688429727972
 21
53.844590534524599
 31
0.0
  0
LINE
  5
3FA
  8
0
 10
474.63688429727972
 20
53.844589350381639
 30
0.0
 11
474.63688429727972
 21
50.962703813818663
 31
0.0
  0
LINE
  5
3FB
  8
0
 10
474.63688429727972
 20
50.962702713893513
 30
0.0
 11
474.63688429727972
 21
48.000000088840331
 31
0.0
  0
LINE
  5
3FC
  8
0
 10
402.6218728368803
 20
16.00000008884
 30
0.0
 11
388.62187283688081
 21
16.00000008884
 31
0.0
  0
LINE
  5
3FD
  8
0
 10
388.62187283688081
 20
6.000000088840026
 30
0.0
 11
388.62187283688081
 21
6.1703709573946837
 31
0.0
  0
LINE
  5
3FE
  8
0
 10
402.62187283688081
 20
16.00000008884
 30
0.0
 11
402.62187283688081
 21
15.829629796548049
 31
0.0
  0
LINE
  5
3FF
  8
0
 10
402.62187283688081
 20
15.829629220285341
 30
0.0
 11
402.62187283688081
 21
15.330128021228431
 31
0.0
  0
LINE
  5
400
  8
0
 10
402.62187283688081
 20
15.330127107762211
 30
0.0
 11
402.62187283688081
 21
14.53553454917539
 31
0.0
  0
LINE
  5
401
  8
0
 10
402.62187283688081
 20
14.535533994772759
 30
0.0
 11
402.62187283688081
 21
12.29409531435264
 31
0.0
  0
LINE
  5
402
  8
0
 10
402.62187283688081
 20
12.294094666586901
 30
0.0
 11
402.62187283688081
 21
11.00000033000388
 31
0.0
  0
LINE
  5
403
  8
0
 10
402.62187283688081
 20
11.00000008884003
 30
0.0
 11
402.62187283688081
 21
9.7059048633274312
 31
0.0
  0
LINE
  5
404
  8
0
 10
402.62187283688081
 20
9.7059045585357211
 30
0.0
 11
402.62187283688081
 21
8.5000000888400287
 31
0.0
  0
LINE
  5
405
  8
0
 10
402.62187283688081
 20
8.4999998278371791
 30
0.0
 11
402.62187283688081
 21
6.6698730699178244
 31
0.0
  0
LINE
  5
406
  8
0
 10
402.62187283688081
 20
6.6698727812514473
 30
0.0
 11
402.62187283688081
 21
6.1703710842624897
 31
0.0
  0
LINE
  5
407
  8
0
 10
402.62187283688081
 20
6.1703709573946703
 30
0.0
 11
402.62187283688081
 21
6.0000000888400038
 31
0.0
  0
LINE
  5
408
  8
0
 10
381.1172156136563
 20
52.766580895532279
 30
0.0
 11
381.1172156136563
 21
55.230517732593817
 31
0.0
  0
LINE
  5
409
  8
0
 10
381.1172156136563
 20
55.230520447850132
 30
0.0
 11
381.1172156136563
 21
60.191068378103722
 31
0.0
  0
LINE
  5
40A
  8
0
 10
381.1172156136563
 20
60.191070843939329
 30
0.0
 11
381.1172156136563
 21
65.024710439451823
 31
0.0
  0
LINE
  5
40B
  8
0
 10
381.1172156136563
 20
65.024712105647168
 30
0.0
 11
381.1172156136563
 21
65.754502128059386
 31
0.0
  0
LINE
  5
40C
  8
0
 10
381.1172156136563
 20
6.000000088839939
 30
0.0
 11
381.1172156136563
 21
6.238519256624488
 31
0.0
  0
LINE
  5
40D
  8
0
 10
381.1172156136563
 20
6.2385193048164611
 30
0.0
 11
381.1172156136563
 21
6.9378218582162754
 31
0.0
  0
LINE
  5
40E
  8
0
 10
381.1172156136563
 20
6.937822262348865
 30
0.0
 11
381.1172156136563
 21
13.00000008883992
 31
0.0
  0
LINE
  5
40F
  8
0
 10
381.1172156136563
 20
13.000000571167901
 30
0.0
 11
381.1172156136563
 21
14.85242750540233
 31
0.0
  0
LINE
  5
410
  8
0
 10
388.62187283688081
 20
14.852427505402369
 30
0.0
 11
388.62187283688081
 21
13.00000057116794
 31
0.0
  0
LINE
  5
411
  8
0
 10
388.62187283688081
 20
13.000000088839959
 30
0.0
 11
388.62187283688081
 21
6.9378222623488757
 31
0.0
  0
LINE
  5
412
  8
0
 10
388.62187283688081
 20
6.9378218582162834
 30
0.0
 11
388.62187283688081
 21
6.2385193048164593
 31
0.0
  0
LINE
  5
413
  8
0
 10
388.62187283688081
 20
6.2385192566244854
 30
0.0
 11
388.62187283688081
 21
6.122035389108806
 31
0.0
  0
LINE
  5
414
  8
0
 10
388.62187283688081
 20
6.12203504338689
 30
0.0
 11
388.62187283688081
 21
6.0000000888399248
 31
0.0
  0
LINE
  5
415
  8
0
 10
381.1172156136563
 20
14.85057663132646
 30
0.0
 11
381.1172156136563
 21
52.41874131503625
 31
0.0
1001
ACAD
1000
ASC_BOUNDS
1002
{
1070
    19
1005
5A2
1002
}
  0
LINE
  5
416
  8
0
 10
381.1172156136563
 20
52.451890228575358
 30
0.0
 11
381.1172156136563
 21
52.758615016401492
 31
0.0
1001
ACAD
1000
ASC_BOUNDS
1002
{
1070
    19
1005
5A2
1002
}
  0
LINE
  5
417
  8
0
 10
388.62187283688081
 20
27.92941758093373
 30
0.0
 11
388.62187283688081
 21
14.850576631326449
 31
0.0
1001
ACAD
1000
ASC_BOUNDS
1002
{
1070
    19
1005
5A2
1002
}
  0
LINE
  5
418
  8
0
 10
474.63688429727972
 20
48.000000088839997
 30
0.0
 11
474.63688429727972
 21
42.155410827298091
 31
0.0
1001
ACAD
1000
ASC_BOUNDS
1002
{
1070
    19
1005
5A2
1002
}
  0
LINE
  5
419
  8
0
 10
474.63688429727972
 20
42.155409643155693
 30
0.0
 11
474.63688429727972
 21
34.756969696723651
 31
0.0
1001
ACAD
1000
ASC_BOUNDS
1002
{
1070
    19
1005
5A2
1002
}
  0
LINE
  5
41A
  8
0
 10
474.63688429727972
 20
34.756968471732947
 30
0.0
 11
474.63688429727972
 21
31.516080209048958
 31
0.0
1001
ACAD
1000
ASC_BOUNDS
1002
{
1070
    19
1005
5A2
1002
}
  0
LINE
  5
41B
  8
0
 10
474.63688429727972
 20
31.516078758428161
 30
0.0
 11
474.63688429727972
 21
30.061479214719881
 31
0.0
1001
ACAD
1000
ASC_BOUNDS
1002
{
1070
    19
1005
5A2
1002
}
  0
LINE
  5
41D
  8
0
 10
474.63688429727972
 20
65.938523905810214
 30
0.0
 11
474.63688429727972
 21
65.449208637001206
 31
0.0
1001
ACAD
1000
ASC_BOUNDS
1002
{
1070
    19
1005
5A2
1002
}
  0
LINE
  5
41E
  8
0
 10
474.63688429727972
 20
65.449204875747895
 30
0.0
 11
474.63688429727972
 21
64.483921419251601
 31
0.0
1001
ACAD
1000
ASC_BOUNDS
1002
{
1070
    19
1005
5A2
1002
}
  0
LINE
  5
41F
  8
0
 10
474.63688429727972
 20
64.483919968631
 30
0.0
 11
474.63688429727972
 21
61.243030480956328
 31
0.0
1001
ACAD
1000
ASC_BOUNDS
1002
{
1070
    19
1005
5A2
1002
}
  0
LINE
  5
420
  8
0
 10
474.63688429727972
 20
61.243028866869118
 30
0.0
 11
474.63688429727972
 21
53.844590534524272
 31
0.0
1001
ACAD
1000
ASC_BOUNDS
1002
{
1070
    19
1005
5A2
1002
}
  0
LINE
  5
421
  8
0
 10
474.63688429727972
 20
53.844589350381568
 30
0.0
 11
474.63688429727972
 21
50.962703813818607
 31
0.0
1001
ACAD
1000
ASC_BOUNDS
1002
{
1070
    19
1005
5A2
1002
}
  0
LINE
  5
422
  8
0
 10
474.63688429727972
 20
50.962702713893179
 30
0.0
 11
474.63688429727972
 21
48.000000088839997
 31
0.0
1001
ACAD
1000
ASC_BOUNDS
1002
{
1070
    19
1005
5A2
1002
}
  0
LINE
  5
423
  8
0
 10
402.62187283688081
 20
16.000000088839499
 30
0.0
 11
388.62187283688081
 21
16.000000088839659
 31
0.0
  0
LINE
  5
424
  8
0
 10
388.62187283688081
 20
6.0000000888396867
 30
0.0
 11
388.62187283688081
 21
6.1703709573943426
 31
0.0
  0
LINE
  5
425
  8
0
 10
402.62187283688081
 20
16.000000088839649
 30
0.0
 11
402.62187283688081
 21
15.82962979654827
 31
0.0
  0
LINE
  5
426
  8
0
 10
402.62187283688081
 20
15.82962922028501
 30
0.0
 11
402.62187283688081
 21
15.330128021228671
 31
0.0
  0
LINE
  5
427
  8
0
 10
402.62187283688081
 20
15.33012710776187
 30
0.0
 11
402.62187283688081
 21
14.53553454917539
 31
0.0
  0
LINE
  5
428
  8
0
 10
402.62187283688081
 20
14.53553399477242
 30
0.0
 11
402.62187283688081
 21
12.29409531435228
 31
0.0
  0
LINE
  5
429
  8
0
 10
402.62187283688081
 20
12.29409466658683
 30
0.0
 11
402.62187283688081
 21
11.000000330003809
 31
0.0
  0
LINE
  5
42A
  8
0
 10
402.62187283688081
 20
11.000000088839681
 30
0.0
 11
402.62187283688081
 21
9.7059048633270901
 31
0.0
  0
LINE
  5
42B
  8
0
 10
402.62187283688081
 20
9.7059045585358312
 30
0.0
 11
402.62187283688081
 21
8.5000000888396894
 31
0.0
  0
LINE
  5
42C
  8
0
 10
402.62187283688081
 20
8.499999827837156
 30
0.0
 11
402.62187283688081
 21
6.6698730699174851
 31
0.0
  0
LINE
  5
42D
  8
0
 10
402.62187283688081
 20
6.6698727812516694
 30
0.0
 11
402.62187283688081
 21
6.1703710842623432
 31
0.0
  0
LINE
  5
42E
  8
0
 10
402.62187283688081
 20
6.1703709573943293
 30
0.0
 11
402.62187283688081
 21
6.0000000888396636
 31
0.0
  0
LINE
  5
42F
  8
0
 10
381.1172156136563
 20
52.766580895532243
 30
0.0
 11
381.1172156136563
 21
55.230517732593498
 31
0.0
1001
ACAD
1000
ASC_BOUNDS
1002
{
1070
    19
1005
5A2
1002
}
  0
LINE
  5
430
  8
0
 10
381.1172156136563
 20
55.230520447850239
 30
0.0
 11
381.1172156136563
 21
60.191068378103367
 31
0.0
1001
ACAD
1000
ASC_BOUNDS
1002
{
1070
    19
1005
5A2
1002
}
  0
LINE
  5
431
  8
0
 10
381.1172156136563
 20
60.191070843939301
 30
0.0
 11
381.1172156136563
 21
65.024710439451482
 31
0.0
1001
ACAD
1000
ASC_BOUNDS
1002
{
1070
    19
1005
5A2
1002
}
  0
LINE
  5
432
  8
0
 10
381.1172156136563
 20
65.024712105647211
 30
0.0
 11
381.1172156136563
 21
65.754502128059244
 31
0.0
1001
ACAD
1000
ASC_BOUNDS
1002
{
1070
    19
1005
5A2
1002
}
  0
LINE
  5
433
  8
0
 10
381.1172156136563
 20
65.754503550089069
 30
0.0
 11
381.1172156136563
 21
65.938523905810214
 31
0.0
1001
ACAD
1000
ASC_BOUNDS
1002
{
1070
    19
1005
5A2
1002
}
  0
LINE
  5
434
  8
0
 10
381.1172156136563
 20
6.0000000888395979
 30
0.0
 11
381.1172156136563
 21
6.2385192566247181
 31
0.0
1001
ACAD
1000
ASC_BOUNDS
1002
{
1070
    19
1005
5A2
1002
}
  0
LINE
  5
435
  8
0
 10
381.1172156136563
 20
6.23851930481612
 30
0.0
 11
381.1172156136563
 21
6.93782185821631
 31
0.0
1001
ACAD
1000
ASC_BOUNDS
1002
{
1070
    19
1005
5A2
1002
}
  0
LINE
  5
436
  8
0
 10
381.1172156136563
 20
6.9378222623485239
 30
0.0
 11
381.1172156136563
 21
13.000000088839579
 31
0.0
1001
ACAD
1000
ASC_BOUNDS
1002
{
1070
    19
1005
5A2
1002
}
  0
LINE
  5
437
  8
0
 10
381.1172156136563
 20
13.000000571167851
 30
0.0
 11
381.1172156136563
 21
14.852427505402289
 31
0.0
1001
ACAD
1000
ASC_BOUNDS
1002
{
1070
    19
1005
5A2
1002
}
  0
LINE
  5
438
  8
0
 10
388.62187283688081
 20
14.85242750540233
 30
0.0
 11
388.62187283688081
 21
13.00000057116789
 31
0.0
1001
ACAD
1000
ASC_BOUNDS
1002
{
1070
    19
1005
5A2
1002
}
  0
LINE
  5
439
  8
0
 10
388.62187283688081
 20
13.00000008883962
 30
0.0
 11
388.62187283688081
 21
6.9378222623485346
 31
0.0
1001
ACAD
1000
ASC_BOUNDS
1002
{
1070
    19
1005
5A2
1002
}
  0
LINE
  5
43A
  8
0
 10
388.62187283688081
 20
6.9378218582163198
 30
0.0
 11
388.62187283688081
 21
6.2385193048161192
 31
0.0
1001
ACAD
1000
ASC_BOUNDS
1002
{
1070
    19
1005
5A2
1002
}
  0
LINE
  5
43B
  8
0
 10
388.62187283688081
 20
6.2385192566247181
 30
0.0
 11
388.62187283688081
 21
6.1220353891082686
 31
0.0
1001
ACAD
1000
ASC_BOUNDS
1002
{
1070
    19
1005
5A2
1002
}
  0
LINE
  5
43C
  8
0
 10
388.62187283688081
 20
6.1220350433871724
 30
0.0
 11
388.62187283688081
 21
6.0000000888395864
 31
0.0
1001
ACAD
1000
ASC_BOUNDS
1002
{
1070
    19
1005
5A2
1002
}
  0
LINE
  5
43D
  8
0
 10
475.12187283688121
 20
6.000000088842314
 30
0.0
 11
475.12187283688121
 21
98.000000088840437
 31
0.0
  0
LINE
  5
440
  8
0
 10
380.62187283688132
 20
98.000000088840437
 30
0.0
 11
380.62187283688132
 21
6.000000088842314
 31
0.0
  0
LINE
  5
441
  8
0
 10
467.12187283688081
 20
70.625000088840295
 30
0.0
 11
388.62187283688132
 21
70.625000088839428
 31
0.0
  0
LINE
  5
442
  8
0
 10
388.62187283688172
 20
27.92394738976872
 30
0.0
 11
388.62187283688172
 21
31.281054562592701
 31
0.0
1001
ACAD
1000
ASC_BOUNDS
1002
{
1070
    19
1005
5A2
1002
}
  0
LINE
  5
443
  8
0
 10
388.62187283688172
 20
31.281055532736591
 30
0.0
 11
388.62187283688172
 21
35.002733308750273
 31
0.0
1001
ACAD
1000
ASC_BOUNDS
1002
{
1070
    19
1005
5A2
1002
}
  0
LINE
  5
444
  8
0
 10
388.62187283688172
 20
35.002734023082759
 30
0.0
 11
388.62187283688172
 21
38.816704456913499
 31
0.0
1001
ACAD
1000
ASC_BOUNDS
1002
{
1070
    19
1005
5A2
1002
}
  0
LINE
  5
445
  8
0
 10
388.62187283688172
 20
38.816705791069602
 30
0.0
 11
388.62187283688172
 21
42.660358518331009
 31
0.0
1001
ACAD
1000
ASC_BOUNDS
1002
{
1070
    19
1005
5A2
1002
}
  0
LINE
  5
446
  8
0
 10
388.62187283688172
 20
42.660358850256863
 30
0.0
 11
388.62187283688172
 21
46.470601944031237
 31
0.0
1001
ACAD
1000
ASC_BOUNDS
1002
{
1070
    19
1005
5A2
1002
}
  0
LINE
  5
447
  8
0
 10
388.62187283688172
 20
46.470603095837859
 30
0.0
 11
388.62187283688132
 21
50.184886940173293
 31
0.0
1001
ACAD
1000
ASC_BOUNDS
1002
{
1070
    19
1005
5A2
1002
}
  0
LINE
  5
448
  8
0
 10
388.62187283688132
 20
50.18488897799773
 30
0.0
 11
388.62187283688132
 21
53.742242234539759
 31
0.0
1001
ACAD
1000
ASC_BOUNDS
1002
{
1070
    19
1005
5A2
1002
}
  0
LINE
  5
449
  8
0
 10
388.62187283688132
 20
53.742244899539131
 30
0.0
 11
388.62187283688132
 21
57.084272292315603
 31
0.0
1001
ACAD
1000
ASC_BOUNDS
1002
{
1070
    19
1005
5A2
1002
}
  0
LINE
  5
44A
  8
0
 10
388.62187283688132
 20
57.084274478665151
 30
0.0
 11
388.62187283688132
 21
62.907348411193759
 31
0.0
1001
ACAD
1000
ASC_BOUNDS
1002
{
1070
    19
1005
5A2
1002
}
  0
LINE
  5
44B
  8
0
 10
388.62187283688132
 20
62.907348746371838
 30
0.0
 11
388.62187283688132
 21
65.292806144425413
 31
0.0
1001
ACAD
1000
ASC_BOUNDS
1002
{
1070
    19
1005
5A2
1002
}
  0
LINE
  5
44C
  8
0
 10
388.62187283688132
 20
65.292806774177706
 30
0.0
 11
388.62187283688132
 21
67.273331109313503
 31
0.0
1001
ACAD
1000
ASC_BOUNDS
1002
{
1070
    19
1005
5A2
1002
}
  0
LINE
  5
44D
  8
0
 10
388.62187283688132
 20
67.273332912898113
 30
0.0
 11
388.62187283688132
 21
68.816412126915054
 31
0.0
  0
LINE
  5
44E
  8
0
 10
388.62187283688132
 20
68.816414368756384
 30
0.0
 11
388.62187283688132
 21
69.896718850995441
 31
0.0
  0
LINE
  5
44F
  8
0
 10
388.62187283688132
 20
69.896719155366341
 30
0.0
 11
388.62187283688132
 21
70.605962346945446
 31
0.0
  0
LINE
  5
450
  8
0
 10
467.12187283688081
 20
70.605962346946242
 30
0.0
 11
467.12187283688081
 21
69.896719155366
 31
0.0
  0
LINE
  5
451
  8
0
 10
467.12187283688081
 20
69.896718850996294
 30
0.0
 11
467.12187283688041
 21
68.81641436875617
 31
0.0
  0
LINE
  5
452
  8
0
 10
467.12187283688041
 20
68.816412126915921
 30
0.0
 11
467.12187283688081
 21
67.273332912898013
 31
0.0
  0
LINE
  5
453
  8
0
 10
467.12187283688081
 20
67.273331109314412
 30
0.0
 11
467.12187283688081
 21
65.292806774177649
 31
0.0
1001
ACAD
1000
ASC_BOUNDS
1002
{
1070
    19
1005
5A2
1002
}
  0
LINE
  5
454
  8
0
 10
467.12187283688081
 20
65.292806144426294
 30
0.0
 11
467.12187283688081
 21
62.90734874637198
 31
0.0
1001
ACAD
1000
ASC_BOUNDS
1002
{
1070
    19
1005
5A2
1002
}
  0
LINE
  5
455
  8
0
 10
467.12187283688081
 20
62.907348411194711
 30
0.0
 11
467.12187283688081
 21
57.084274478665172
 31
0.0
1001
ACAD
1000
ASC_BOUNDS
1002
{
1070
    19
1005
5A2
1002
}
  0
LINE
  5
456
  8
0
 10
467.12187283688081
 20
57.084272292316527
 30
0.0
 11
467.12187283688081
 21
53.742244899539187
 31
0.0
1001
ACAD
1000
ASC_BOUNDS
1002
{
1070
    19
1005
5A2
1002
}
  0
LINE
  5
457
  8
0
 10
467.12187283688081
 20
53.742242234540711
 30
0.0
 11
467.12187283688081
 21
50.18488897799795
 31
0.0
1001
ACAD
1000
ASC_BOUNDS
1002
{
1070
    19
1005
5A2
1002
}
  0
LINE
  5
458
  8
0
 10
467.12187283688081
 20
50.184886940174259
 30
0.0
 11
467.12187283688081
 21
46.470603095838122
 31
0.0
1001
ACAD
1000
ASC_BOUNDS
1002
{
1070
    19
1005
5A2
1002
}
  0
LINE
  5
459
  8
0
 10
467.12187283688081
 20
46.470601944032218
 30
0.0
 11
467.12187283688081
 21
42.660358850257829
 31
0.0
1001
ACAD
1000
ASC_BOUNDS
1002
{
1070
    19
1005
5A2
1002
}
  0
LINE
  5
45A
  8
0
 10
467.12187283688081
 20
42.660358518331293
 30
0.0
 11
467.12187283688081
 21
38.816705791069857
 31
0.0
1001
ACAD
1000
ASC_BOUNDS
1002
{
1070
    19
1005
5A2
1002
}
  0
LINE
  5
45B
  8
0
 10
467.12187283688081
 20
38.816704456914479
 30
0.0
 11
467.12187283688081
 21
35.002734023083747
 31
0.0
1001
ACAD
1000
ASC_BOUNDS
1002
{
1070
    19
1005
5A2
1002
}
  0
LINE
  5
45C
  8
0
 10
467.12187283688081
 20
35.002733308750528
 30
0.0
 11
467.12187283688081
 21
31.281055532737589
 31
0.0
1001
ACAD
1000
ASC_BOUNDS
1002
{
1070
    19
1005
5A2
1002
}
  0
LINE
  5
45D
  8
0
 10
467.12187283688081
 20
31.281054562592971
 30
0.0
 11
467.12187283688081
 21
27.712761957443259
 31
0.0
1001
ACAD
1000
ASC_BOUNDS
1002
{
1070
    19
1005
5A2
1002
}
  0
LINE
  5
45E
  8
0
 10
467.12187283688081
 20
27.712760981675778
 30
0.0
 11
467.12187283688081
 21
18.4956407991323
 31
0.0
  0
LINE
  5
45F
  8
0
 10
467.12187283688081
 20
18.495640138327591
 30
0.0
 11
467.12187283688121
 21
16.08739332993887
 31
0.0
  0
LINE
  5
460
  8
0
 10
467.12187283688121
 20
16.087392845701839
 30
0.0
 11
467.12187283688121
 21
14.081941051269199
 31
0.0
  0
LINE
  5
461
  8
0
 10
467.12187283688121
 20
14.08194069557574
 30
0.0
 11
467.12187283688121
 21
12.512205118724291
 31
0.0
  0
LINE
  5
462
  8
0
 10
467.12187283688121
 20
12.51220465493005
 30
0.0
 11
467.12187283688121
 21
11.403953117556821
 31
0.0
  0
LINE
  5
463
  8
0
 10
467.12187283688121
 20
11.40395294632695
 30
0.0
 11
467.12187283688121
 21
10.775376975641709
 31
0.0
  0
LINE
  5
464
  8
0
 10
467.12187283688121
 20
10.775376975641731
 30
0.0
 11
467.12187283688121
 21
6.0000000888398786
 31
0.0
  0
LINE
  5
465
  8
0
 10
467.12187283688121
 20
10.7753769756417
 30
0.0
 11
402.62187074756463
 21
10.77537697564104
 31
0.0
  0
LINE
  5
466
  8
0
 10
380.62187283688132
 20
0.0000000888411407
 30
0.0
 11
475.12187283688121
 21
0.0000000888411407
 31
0.0
  0
LINE
  5
467
  8
0
 10
475.12187283688121
 20
0.0000000888411407
 30
0.0
 11
475.12187283688121
 21
6.0000000888435592
 31
0.0
  0
LINE
  5
468
  8
0
 10
475.12187283688121
 20
6.0000000888435592
 30
0.0
 11
380.62187283688132
 21
6.0000000888435592
 31
0.0
1001
ACAD
1000
ASC_BOUNDS
1002
{
1070
    19
1005
5A2
1002
}
  0
LINE
  5
469
  8
0
 10
380.62187283688132
 20
6.0000000888435592
 30
0.0
 11
380.62187283688132
 21
0.0000000888411407
 31
0.0
  0
LINE
  5
477
  8
0
 10
94.500000467860005
 20
6.000000088842314
 30
0.0
 11
94.500000467860005
 21
98.000000088840437
 31
0.0
  0
LINE
  5
478
  8
0
 10
94.500000467860005
 20
98.000000088840437
 30
0.0
 11
0.0000004678599907
 21
98.000000088840437
 31
0.0
  0
LINE
  5
479
  8
0
 10
0.0000004678599907
 20
98.000000088840437
 30
0.0
 11
0.0000004678599907
 21
6.000000088842314
 31
0.0
  0
LINE
  5
47A
  8
0
 10
0.0000004678599907
 20
6.000000088842314
 30
0.0
 11
44.266457030058064
 21
6.000000088842314
 31
0.0
  0
LINE
  5
47B
  8
0
 10
50.233543905661691
 20
6.000000088842314
 30
0.0
 11
94.500000467860005
 21
6.000000088842314
 31
0.0
  0
LINE
  5
485
  8
0
 10
94.500000467859536
 20
0.0000000888386555
 30
0.0
 11
94.500000467859536
 21
6.0000000888410723
 31
0.0
  0
LINE
  5
486
  8
0
 10
94.500000467859536
 20
6.0000000888410723
 30
0.0
 11
50.233543905661691
 21
6.0000000888410723
 31
0.0
  0
LINE
  5
487
  8
0
 10
44.266457030058291
 20
6.0000000888410723
 30
0.0
 11
0.000000467859536
 21
6.0000000888410723
 31
0.0
  0
LINE
  5
488
  8
0
 10
0.000000467859536
 20
6.0000000888410723
 30
0.0
 11
0.000000467859536
 21
0.0000000888386538
 31
0.0
  0
LINE
  5
489
  8
0
 10
0.000000467859536
 20
0.0000000888386555
 30
0.0
 11
94.500000467859536
 21
0.0000000888386555
 31
0.0
  0
ARC
  5
48A
  8
0
 10
47.250000467859991
 20
6.1250000888400216
 30
0.0
 40
3.000000000000008
 50
359.99999999999909
 51
179.9999999999994
  0
ARC
  5
48B
  8
0
 10
47.250000467859991
 20
6.1250000888400216
 30
0.0
 40
2.9999999999999929
 50
180.0000000000004
 51
359.9999999999996
  0
ARC
  5
48C
  8
0
 10
47.250000467859991
 20
85.750000088840025
 30
0.0
 40
3.0000000000000062
 50
359.99999999999909
 51
179.9999999999994
  0
ARC
  5
48D
  8
0
 10
47.250000467859991
 20
85.750000088840025
 30
0.0
 40
2.999999999999996
 50
180.00000000000051
 51
359.99999999999937
  0
LINE
  5
48E
  8
0
 10
324.09654019684831
 20
150.0155062545162
 30
0.0
 11
313.70518238497289
 21
150.0155062545162
 31
0.0
  0
LINE
  5
48F
  8
0
 10
313.70518238497289
 20
150.0155062545162
 30
0.0
 11
313.68044259239332
 21
150.0155062545162
 31
0.0
  0
LINE
  5
490
  8
0
 10
323.29103781358708
 20
157.52016347774071
 30
0.0
 11
324.09654019684831
 21
157.52016347774071
 31
0.0
  0
LINE
  5
491
  8
0
 10
278.3455860771324
 20
243.53517493813959
 30
0.0
 11
278.59108261588381
 21
243.53517493813959
 31
0.0
  0
LINE
  5
492
  8
0
 10
278.59108307768338
 20
243.53517493813959
 30
0.0
 11
279.32087406033179
 21
243.53517493813959
 31
0.0
  0
LINE
  5
493
  8
0
 10
279.32087572652108
 20
243.53517493813959
 30
0.0
 11
282.1410562411661
 21
243.53517493813959
 31
0.0
  0
LINE
  5
494
  8
0
 10
282.14105690799761
 20
243.53517493813959
 30
0.0
 11
289.11506843337929
 21
243.53517493813959
 31
0.0
  0
LINE
  5
495
  8
0
 10
289.11506868188638
 20
243.53517493813959
 30
0.0
 11
291.9268473085981
 21
243.53517493813959
 31
0.0
  0
LINE
  5
496
  8
0
 10
291.92684770547982
 20
243.53517493813959
 30
0.0
 11
294.85915785863062
 21
243.53517493813959
 31
0.0
  0
LINE
  5
497
  8
0
 10
294.85915876793069
 20
243.53517493813959
 30
0.0
 11
297.83201338634302
 21
243.53517493813959
 31
0.0
  0
LINE
  5
498
  8
0
 10
297.83201429563451
 20
243.53517493813959
 30
0.0
 11
300.76432444879492
 21
243.53517493813959
 31
0.0
  0
LINE
  5
499
  8
0
 10
300.76432484566658
 20
243.53517493813959
 30
0.0
 11
303.57610372088629
 21
243.53517493813959
 31
0.0
  0
LINE
  5
49A
  8
0
 10
303.57610643614771
 20
243.53517493813959
 30
0.0
 11
308.53665436639591
 21
243.53517493813959
 31
0.0
  0
LINE
  5
49B
  8
0
 10
308.53665683223738
 20
243.53517493813959
 30
0.0
 11
313.37029642774399
 21
243.53517493813959
 31
0.0
  0
LINE
  5
49C
  8
0
 10
313.37029809394647
 20
243.53517493813959
 30
0.0
 11
314.10008811635498
 21
243.53517493813959
 31
0.0
  0
LINE
  5
49D
  8
0
 10
314.10008953838178
 20
243.53517493813959
 30
0.0
 11
314.34558607713228
 21
243.53517493813959
 31
0.0
  0
LINE
  5
49E
  8
0
 10
296.34558607713228
 20
150.0155062545162
 30
0.0
 11
293.38288345207962
 21
150.0155062545162
 31
0.0
  0
LINE
  5
49F
  8
0
 10
293.3828823521585
 20
150.0155062545162
 30
0.0
 11
290.5009968155955
 21
150.0155062545162
 31
0.0
  0
LINE
  5
4A0
  8
0
 10
290.5009956314484
 20
150.0155062545162
 30
0.0
 11
283.10255568501589
 21
150.0155062545162
 31
0.0
  0
LINE
  5
4A1
  8
0
 10
283.10255446003112
 20
150.0155062545162
 30
0.0
 11
279.86166619734149
 21
150.0155062545162
 31
0.0
  0
LINE
  5
4A2
  8
0
 10
279.8616647467266
 20
150.0155062545162
 30
0.0
 11
278.89638154910563
 21
150.0155062545162
 31
0.0
  0
LINE
  5
4A3
  8
0
 10
278.89638129022433
 20
150.0155062545162
 30
0.0
 11
278.40706520301268
 21
150.0155062545162
 31
0.0
  0
LINE
  5
4A5
  8
0
 10
313.70489655565831
 20
150.0155062545162
 30
0.0
 11
312.82950740755001
 21
150.0155062545162
 31
0.0
  0
LINE
  5
4A6
  8
0
 10
312.82950595692319
 20
150.0155062545162
 30
0.0
 11
309.58861646924879
 21
150.0155062545162
 31
0.0
  0
LINE
  5
4A7
  8
0
 10
309.58861485516582
 20
150.0155062545162
 30
0.0
 11
302.19017652281718
 21
150.0155062545162
 31
0.0
  0
LINE
  5
4A8
  8
0
 10
302.19017533867873
 20
150.0155062545162
 30
0.0
 11
299.30828980211618
 21
150.0155062545162
 31
0.0
  0
LINE
  5
4A9
  8
0
 10
299.30828870218602
 20
150.0155062545162
 30
0.0
 11
296.34558607713228
 21
150.0155062545162
 31
0.0
  0
LINE
  5
4AA
  8
0
 10
324.34558607713228
 20
150.0155062545162
 30
0.0
 11
324.0998745376537
 21
150.0155062545162
 31
0.0
  0
LINE
  5
4AB
  8
0
 10
324.0998745376537
 20
157.52016347774071
 30
0.0
 11
324.34558607713228
 21
157.52016347774071
 31
0.0
  0
LINE
  5
4AC
  8
0
 10
324.09654019684831
 20
150.0155062545164
 30
0.0
 11
313.70518238497289
 21
150.0155062545164
 31
0.0
  0
LINE
  5
4AD
  8
0
 10
313.70518238497289
 20
150.0155062545164
 30
0.0
 11
313.68044259239377
 21
150.0155062545164
 31
0.0
  0
LINE
  5
4AE
  8
0
 10
323.29103781358708
 20
157.52016347774091
 30
0.0
 11
324.09654019684831
 21
157.52016347774091
 31
0.0
  0
LINE
  5
4AF
  8
0
 10
278.40706513423771
 20
243.53517493813979
 30
0.0
 11
278.59108261588381
 21
243.53517493813979
 31
0.0
  0
LINE
  5
4B0
  8
0
 10
278.59108307768338
 20
243.53517493813979
 30
0.0
 11
279.32087406033179
 21
243.53517493813979
 31
0.0
  0
LINE
  5
4B1
  8
0
 10
279.32087572652108
 20
243.53517493813979
 30
0.0
 11
282.1410562411661
 21
243.53517493813979
 31
0.0
  0
LINE
  5
4B2
  8
0
 10
282.14105690799761
 20
243.53517493813979
 30
0.0
 11
289.11506843337929
 21
243.53517493813979
 31
0.0
  0
LINE
  5
4B3
  8
0
 10
289.1150686818869
 20
243.53517493813979
 30
0.0
 11
291.9268473085981
 21
243.53517493813979
 31
0.0
  0
LINE
  5
4B4
  8
0
 10
291.92684770547982
 20
243.53517493813979
 30
0.0
 11
294.85915785863062
 21
243.53517493813979
 31
0.0
  0
LINE
  5
4B5
  8
0
 10
294.85915876793069
 20
243.53517493813979
 30
0.0
 11
297.83201338634348
 21
243.53517493813979
 31
0.0
  0
LINE
  5
4B6
  8
0
 10
297.83201429563451
 20
243.53517493813979
 30
0.0
 11
300.76432444879492
 21
243.53517493813979
 31
0.0
  0
LINE
  5
4B7
  8
0
 10
300.76432484566658
 20
243.53517493813979
 30
0.0
 11
303.57610372088629
 21
243.53517493813979
 31
0.0
  0
LINE
  5
4B8
  8
0
 10
303.57610643614771
 20
243.53517493813979
 30
0.0
 11
308.53665436639591
 21
243.53517493813979
 31
0.0
  0
LINE
  5
4B9
  8
0
 10
308.53665683223699
 20
243.53517493813979
 30
0.0
 11
313.37029642774399
 21
243.53517493813979
 31
0.0
  0
LINE
  5
4BA
  8
0
 10
313.37029809394647
 20
243.53517493813979
 30
0.0
 11
314.10008811635498
 21
243.53517493813979
 31
0.0
  0
LINE
  5
4BB
  8
0
 10
314.10008953838178
 20
243.53517493813979
 30
0.0
 11
314.34558607713228
 21
243.53517493813979
 31
0.0
  0
LINE
  5
4BC
  8
0
 10
296.34558607713228
 20
150.0155062545164
 30
0.0
 11
293.38288345207962
 21
150.0155062545164
 31
0.0
  0
LINE
  5
4BD
  8
0
 10
293.3828823521585
 20
150.0155062545164
 30
0.0
 11
290.5009968155951
 21
150.0155062545164
 31
0.0
  0
LINE
  5
4BE
  8
0
 10
290.5009956314484
 20
150.0155062545164
 30
0.0
 11
283.10255568501589
 21
150.0155062545164
 31
0.0
  0
LINE
  5
4BF
  8
0
 10
283.10255446003112
 20
150.0155062545164
 30
0.0
 11
279.86166619734149
 21
150.0155062545164
 31
0.0
  0
LINE
  5
4C0
  8
0
 10
279.8616647467266
 20
150.0155062545164
 30
0.0
 11
278.89638154910563
 21
150.0155062545164
 31
0.0
  0
LINE
  5
4C1
  8
0
 10
278.89638129022433
 20
150.0155062545164
 30
0.0
 11
278.40706520301268
 21
150.0155062545164
 31
0.0
  0
LINE
  5
4C3
  8
0
 10
313.70489655565831
 20
150.0155062545164
 30
0.0
 11
312.82950740755001
 21
150.0155062545164
 31
0.0
  0
LINE
  5
4C4
  8
0
 10
312.82950595692319
 20
150.0155062545164
 30
0.0
 11
309.58861646924879
 21
150.0155062545164
 31
0.0
  0
LINE
  5
4C5
  8
0
 10
309.58861485516582
 20
150.0155062545164
 30
0.0
 11
302.19017652281718
 21
150.0155062545164
 31
0.0
  0
LINE
  5
4C6
  8
0
 10
302.19017533867873
 20
150.0155062545164
 30
0.0
 11
299.30828980211618
 21
150.0155062545164
 31
0.0
  0
LINE
  5
4C7
  8
0
 10
299.30828870218602
 20
150.0155062545164
 30
0.0
 11
296.34558607713228
 21
150.0155062545164
 31
0.0
  0
LINE
  5
4C8
  8
0
 10
324.34558607713228
 20
150.0155062545164
 30
0.0
 11
324.0998745376537
 21
150.0155062545164
 31
0.0
  0
LINE
  5
4C9
  8
0
 10
324.0998745376537
 20
157.52016347774091
 30
0.0
 11
324.34558607713228
 21
157.52016347774091
 31
0.0
  0
LINE
  5
4CA
  8
0
 10
254.09558607713231
 20
244.02016347774091
 30
0.0
 11
254.09558607713231
 21
149.52016347774091
 31
0.0
  0
LINE
  5
4CB
  8
0
 10
146.59558607713231
 20
149.52016347774111
 30
0.0
 11
146.59558607713251
 21
244.02016347774119
 31
0.0
  0
LINE
  5
4CC
  8
0
 10
146.59558607713251
 20
244.02016347774119
 30
0.0
 11
254.09558607713231
 21
244.02016347774091
 31
0.0
  0
LINE
  5
4CD
  8
0
 10
148.22058607713251
 20
242.39516347774119
 30
0.0
 11
252.47058607713231
 21
242.39516347774091
 31
0.0
1001
ACAD
1000
ASC_BOUNDS
1002
{
1070
    19
1005
5AB
1002
}
  0
LINE
  5
4CE
  8
0
 10
252.47058607713231
 20
242.39516347774091
 30
0.0
 11
252.47058607713231
 21
151.14516347774071
 31
0.0
1001
ACAD
1000
ASC_BOUNDS
1002
{
1070
    19
1005
5AB
1002
}
  0
LINE
  5
4CF
  8
0
 10
252.47058607713231
 20
151.14516347774071
 30
0.0
 11
148.22058607713211
 21
151.14516347774091
 31
0.0
1001
ACAD
1000
ASC_BOUNDS
1002
{
1070
    19
1005
5AB
1002
}
  0
LINE
  5
4D0
  8
0
 10
148.22058607713211
 20
151.14516347774091
 30
0.0
 11
148.22058607713251
 21
242.39516347774119
 31
0.0
1001
ACAD
1000
ASC_BOUNDS
1002
{
1070
    19
1005
5AB
1002
}
  0
LINE
  5
4D1
  8
0
 10
146.59558607713231
 20
149.52016347774111
 30
0.0
 11
254.09558607713231
 21
149.52016347774091
 31
0.0
  0
LINE
  5
4D2
  8
0
 10
323.34558607713228
 20
157.52016347774159
 30
0.0
 11
323.34558607713228
 21
236.02016347774071
 31
0.0
  0
LINE
  5
4D3
  8
0
 10
323.29103759998588
 20
157.52016347774159
 30
0.0
 11
323.27646584907637
 21
157.52016347774159
 31
0.0
  0
LINE
  5
4D4
  8
0
 10
323.27646168598079
 20
157.52016347774159
 30
0.0
 11
322.7705574271709
 21
157.52016347774139
 31
0.0
  0
LINE
  5
4D5
  8
0
 10
322.77055543358301
 20
157.52016347774139
 30
0.0
 11
321.78163108328232
 21
157.52016347774139
 31
0.0
  0
LINE
  5
4D6
  8
0
 10
321.7816294620639
 20
157.52016347774139
 30
0.0
 11
320.32591402650002
 21
157.52016347774139
 31
0.0
  0
LINE
  5
4D7
  8
0
 10
320.32591147344829
 20
157.52016347774139
 30
0.0
 11
318.42729970542911
 21
157.52016347774139
 31
0.0
  0
LINE
  5
4D8
  8
0
 10
318.42729887833769
 20
157.52016347774139
 30
0.0
 11
313.43282266272172
 21
157.52016347774139
 31
0.0
  0
LINE
  5
4D9
  8
0
 10
313.4328196656902
 20
157.52016347774139
 30
0.0
 11
310.41894093848668
 21
157.52016347774139
 31
0.0
  0
LINE
  5
4DA
  8
0
 10
310.41893795671382
 20
157.52016347774139
 30
0.0
 11
307.12478974872602
 21
157.52016347774139
 31
0.0
  0
LINE
  5
4DB
  8
0
 10
307.12478764847901
 20
157.52016347774139
 30
0.0
 11
303.60444991770743
 21
157.52016347774111
 31
0.0
  0
LINE
  5
4DC
  8
0
 10
303.60444766519367
 20
157.52016347774111
 30
0.0
 11
299.9157063735388
 21
157.52016347774111
 31
0.0
  0
LINE
  5
4DD
  8
0
 10
299.91570499725958
 20
157.52016347774111
 30
0.0
 11
292.2769882837361
 21
157.52016347774111
 31
0.0
  0
LINE
  5
4DE
  8
0
 10
292.27698789351558
 20
157.52016347774111
 30
0.0
 11
288.45240712725581
 21
157.52016347774111
 31
0.0
  0
LINE
  5
4DF
  8
0
 10
288.45240584480001
 20
157.52016347774111
 30
0.0
 11
284.7081474784186
 21
157.52016347774111
 31
0.0
  0
LINE
  5
4E0
  8
0
 10
284.70814632397509
 20
157.52016347774111
 30
0.0
 11
281.10567642442629
 21
157.52016347774139
 31
0.0
  0
LINE
  5
4E1
  8
0
 10
281.10567499773009
 20
157.52016347774139
 30
0.0
 11
254.09558607713279
 21
157.52016347774139
 31
0.0
  0
LINE
  5
4E2
  8
0
 10
254.09558607713279
 20
236.02016347774071
 30
0.0
 11
281.10567499773009
 21
236.02016347774051
 31
0.0
  0
LINE
  5
4E3
  8
0
 10
281.10567642442629
 20
236.02016347774051
 30
0.0
 11
284.70814632397509
 21
236.02016347774051
 31
0.0
  0
LINE
  5
4E4
  8
0
 10
284.7081474784186
 20
236.02016347774051
 30
0.0
 11
288.45240584480001
 21
236.02016347774051
 31
0.0
  0
LINE
  5
4E5
  8
0
 10
288.45240712725581
 20
236.02016347774051
 30
0.0
 11
292.27698789351558
 21
236.02016347774051
 31
0.0
  0
LINE
  5
4E6
  8
0
 10
292.2769882837361
 20
236.02016347774051
 30
0.0
 11
299.91570499725958
 21
236.02016347774051
 31
0.0
  0
LINE
  5
4E7
  8
0
 10
299.9157063735388
 20
236.02016347774051
 30
0.0
 11
303.60444766519367
 21
236.02016347774051
 31
0.0
  0
LINE
  5
4E8
  8
0
 10
303.60444991770743
 20
236.02016347774051
 30
0.0
 11
307.1247876484781
 21
236.02016347774051
 31
0.0
  0
LINE
  5
4E9
  8
0
 10
307.12478974872602
 20
236.02016347774051
 30
0.0
 11
310.41893795671382
 21
236.02016347774051
 31
0.0
  0
LINE
  5
4EA
  8
0
 10
310.41894093848668
 20
236.02016347774051
 30
0.0
 11
313.4328196656902
 21
236.02016347774051
 31
0.0
  0
LINE
  5
4EB
  8
0
 10
313.43282266272172
 20
236.02016347774051
 30
0.0
 11
318.42729887833769
 21
236.02016347774051
 31
0.0
  0
LINE
  5
4EC
  8
0
 10
318.42729970542911
 20
236.02016347774051
 30
0.0
 11
320.32591147344777
 21
236.02016347774071
 31
0.0
  0
LINE
  5
4ED
  8
0
 10
320.32591402650002
 20
236.02016347774071
 30
0.0
 11
321.7816294620639
 21
236.02016347774071
 31
0.0
  0
LINE
  5
4EE
  8
0
 10
321.78163108328181
 20
236.02016347774071
 30
0.0
 11
322.77055543358301
 21
236.02016347774071
 31
0.0
  0
LINE
  5
4EF
  8
0
 10
322.7705574271709
 20
236.02016347774071
 30
0.0
 11
323.27646168598079
 21
236.02016347774071
 31
0.0
  0
LINE
  5
4F0
  8
0
 10
323.27646584907637
 20
236.02016347774071
 30
0.0
 11
323.29103759998588
 21
236.02016347774071
 31
0.0
  0
LINE
  5
4F1
  8
0
 10
326.34558607713228
 20
244.02016347774139
 30
0.0
 11
326.34558607713228
 21
149.52016347774139
 31
0.0
  0
LINE
  5
4F2
  8
0
 10
326.34558607713228
 20
149.52016347774139
 30
0.0
 11
254.09558607713231
 21
149.52016347774139
 31
0.0
  0
LINE
  5
4F3
  8
0
 10
326.34558607713228
 20
244.02016347774139
 30
0.0
 11
254.09558607713231
 21
244.02016347774139
 31
0.0
  0
LINE
  5
4F4
  8
0
 10
141.59558607713231
 20
193.77016347774091
 30
0.0
 11
146.59558607713231
 21
193.77016347774091
 31
0.0
  0
LINE
  5
4F5
  8
0
 10
146.59558607713231
 20
199.77016347774091
 30
0.0
 11
141.59558607713231
 21
199.77016347774091
 31
0.0
  0
LINE
  5
4F6
  8
0
 10
141.59558607713251
 20
193.77016347774091
 30
0.0
 11
141.59558607713251
 21
194.17208726638751
 31
0.0
  0
LINE
  5
4F7
  8
0
 10
141.59558607713251
 20
194.17208740039069
 30
0.0
 11
141.59558607713251
 21
194.64884247847959
 31
0.0
  0
LINE
  5
4F8
  8
0
 10
141.59558607713251
 20
194.64884313418111
 30
0.0
 11
141.59558607713251
 21
195.2701622345258
 31
0.0
  0
LINE
  5
4F9
  8
0
 10
141.59558607713251
 20
195.27016347774091
 30
0.0
 11
141.59558607713251
 21
195.9937063424332
 31
0.0
  0
LINE
  5
4FA
  8
0
 10
141.59558607713251
 20
195.99370646012289
 30
0.0
 11
141.59558607713251
 21
196.77016232902179
 31
0.0
  0
LINE
  5
4FB
  8
0
 10
141.59558607713251
 20
196.77016347774091
 30
0.0
 11
141.59558607713251
 21
197.54662061304839
 31
0.0
  0
LINE
  5
4FC
  8
0
 10
141.59558607713251
 20
197.5466211050948
 30
0.0
 11
141.59558607713251
 21
198.89148382130051
 31
0.0
  0
LINE
  5
4FD
  8
0
 10
141.59558607713251
 20
198.89148516397361
 30
0.0
 11
141.59558607713251
 21
199.36823968909411
 31
0.0
  0
LINE
  5
4FE
  8
0
 10
141.59558607713251
 20
199.368240248662
 30
0.0
 11
141.59558607713251
 21
199.77016347774091
 31
0.0
  0
LINE
  5
4FF
  8
0
 10
324.34558607713228
 20
150.0155062545164
 30
0.0
 11
324.34558607713228
 21
157.52016347774071
 31
0.0
  0
LINE
  5
500
  8
0
 10
278.40706513423771
 20
150.0155062545162
 30
0.0
 11
278.40706513423771
 21
157.52016347774139
 31
0.0
  0
LINE
  5
501
  8
0
 10
278.40706513423771
 20
236.02016347774051
 30
0.0
 11
278.40706513423771
 21
243.53517493813979
 31
0.0
  0
LINE
  5
502
  8
0
 10
314.34558607713228
 20
243.53517493813959
 30
0.0
 11
314.34558607713228
 21
236.02016347774051
 31
0.0
  0
LINE
  5
505
  8
0
 10
381.1172156136563
 20
65.938523905810214
 30
0.0
 11
388.62187283688132
 21
65.938523905810214
 31
0.0
1001
ACAD
1000
ASC_BOUNDS
1002
{
1070
    19
1005
5A2
1002
}
  0
LINE
  5
506
  8
0
 10
467.12187283688121
 20
65.938523905810214
 30
0.0
 11
474.63688429727972
 21
65.938523905810214
 31
0.0
1001
ACAD
1000
ASC_BOUNDS
1002
{
1070
    19
1005
5A2
1002
}
  0
LINE
  5
507
  8
0
 10
467.12187283688121
 20
30.061479214720229
 30
0.0
 11
474.63688429727972
 21
30.061479214720229
 31
0.0
1001
ACAD
1000
ASC_BOUNDS
1002
{
1070
    19
1005
5A2
1002
}
  0
INSERT
  5
517
  8
0
  6
CONTINUOUS
  2
*X4
 10
0.0
 20
0.0
 30
0.0
1001
GRADIENTCOLOR1ACI
1070
     5
1001
GRADIENTCOLOR2ACI
1070
     2
1001
ACAD
1000
HATCH
1002
{
1070
    19
1000
NET
1040
12.0
1040
0.7853981633974483
1000
ASC_BOUNDS
1070
     1
1070
     1
1070
     6
1005
37B
1005
379
1005
378
1005
37A
1005
376
1005
377
1000
ASC_SEEDPOINT
1011
299.38490040314889
1021
0.0
1031
0.0
1021
44.583806038062107
1031
0.0
1000
R14_HATCH_DATA
1000
517
1011
1.0
1021
0.0
1031
0.0
1021
0.0
1031
0.0
1011
0.0
1021
0.0
1031
0.0
1021
1.0
1031
0.0
1011
0.0
1021
0.0
1031
0.0
1021
0.0
1031
1.0
1040
0.0
1010
0.0
1020
0.0
1030
1.0
1000
NET
1070
     0
1070
     1
1071
        1
1071
        7
1070
     1
1070
     1
1071
        6
1040
313.70518238497277
1040
52.758615016401919
1040
0.3378522770246573
1040
296.34558607713228
1040
66.000000088840395
1040
0.678312497028092
1040
283.97758640794717
1040
34.922057430186648
1040
0.0
1040
312.53580842800523
1040
7.9141334993634942
1040
0.1916731857395713
1040
317.34558607713279
1040
6.0000000888399461
1040
0.4949333602420884
1040
324.09654019684848
1040
14.85057256066937
1040
0.0
1071
        6
1005
377
1005
376
1005
37A
1005
378
1005
379
1005
37B
1070
     1
1070
     1
1040
0.7853981633974483
1040
12.0
1070
     0
1070
     2
1040
0.7853981633974483
1040
0.0
1040
0.0
1040
-1.060660171779821
1040
1.060660171779821
1070
     0
1040
2.3561944901923439
1040
0.0
1040
0.0
1040
-1.060660171779821
1040
-1.060660171779821
1070
     0
1040
0.1174461391914291
1071
        1
1040
299.38490040314889
1040
44.583806038062107
1040
0.0
1002
}
  0
INSERT
  5
567
  8
0
  6
CONTINUOUS
  2
*X5
 10
0.0
 20
0.0
 30
0.0
1001
GRADIENTCOLOR1ACI
1070
     5
1001
GRADIENTCOLOR2ACI
1070
     2
1001
ACAD
1000
HATCH
1002
{
1070
    19
1000
NET
1040
12.0
1040
0.7853981633974483
1000
R14_HATCH_DATA
1000
567
1011
1.0
1021
0.0
1031
0.0
1021
0.0
1031
0.0
1011
0.0
1021
0.0
1031
0.0
1021
1.0
1031
0.0
1011
0.0
1021
0.0
1031
0.0
1021
0.0
1031
1.0
1040
0.0
1010
0.0
1020
0.0
1030
1.0
1000
NET
1070
     0
1070
     0
1071
        2
1071
        7
1070
     0
1070
     1
1071
       24
1040
314.34558607713228
1040
243.53517493813979
1040
314.10008953838178
1040
243.53517493813979
1040
313.37029809394647
1040
243.53517493813979
1040
308.53665683223699
1040
243.53517493813979
1040
303.57610643614771
1040
243.53517493813979
1040
300.76432484566658
1040
243.53517493813979
1040
297.83201429563451
1040
243.53517493813979
1040
294.85915876793069
1040
243.53517493813979
1040
291.92684770547982
1040
243.53517493813979
1040
289.1150686818869
1040
243.53517493813979
1040
282.14105690799761
1040
243.53517493813979
1040
279.32087572652108
1040
243.53517493813979
1040
278.40706513423771
1040
243.53517493813979
1040
278.40706513423771
1040
236.02016347774051
1040
281.10567499773009
1040
236.02016347774051
1040
284.70814632397509
1040
236.02016347774051
1040
288.45240584480001
1040
236.02016347774051
1040
292.27698789351558
1040
236.02016347774051
1040
299.91570499725958
1040
236.02016347774051
1040
303.60444766519367
1040
236.02016347774051
1040
307.1247876484781
1040
236.02016347774051
1040
310.41893795671382
1040
236.02016347774051
1040
313.4328196656902
1040
236.02016347774051
1040
314.34558607713228
1040
236.02016347774051
1071
        0
1071
        7
1070
     0
1070
     1
1071
       32
1040
324.34558607713228
1040
157.52016347774091
1040
324.0998745376537
1040
157.52016347774091
1040
323.29103781358708
1040
157.52016347774091
1040
322.7705574271709
1040
157.52016347774139
1040
321.78163108328232
1040
157.52016347774139
1040
320.32591402650002
1040
157.52016347774139
1040
318.42729970542911
1040
157.52016347774139
1040
313.43282266272172
1040
157.52016347774139
1040
310.41894093848668
1040
157.52016347774139
1040
307.12478974872602
1040
157.52016347774139
1040
303.60444991770743
1040
157.52016347774111
1040
299.9157063735388
1040
157.52016347774111
1040
292.2769882837361
1040
157.52016347774111
1040
288.45240712725581
1040
157.52016347774111
1040
284.7081474784186
1040
157.52016347774111
1040
281.10567642442629
1040
157.52016347774139
1040
278.40706513423771
1040
157.52016347774139
1040
278.40706513423771
1040
150.0155062545164
1040
278.89638129022433
1040
150.0155062545164
1040
279.8616647467266
1040
150.0155062545164
1040
283.10255446003112
1040
150.0155062545164
1040
290.5009956314484
1040
150.0155062545164
1040
293.3828823521585
1040
150.0155062545164
1040
296.34558607713228
1040
150.0155062545164
1040
299.30828870218602
1040
150.0155062545164
1040
302.19017533867873
1040
150.0155062545164
1040
309.58861485516582
1040
150.0155062545164
1040
312.82950595692319
1040
150.0155062545164
1040
313.70489655565831
1040
150.0155062545164
1040
313.70518238497289
1040
150.0155062545164
1040
324.09654019684831
1040
150.0155062545164
1040
324.34558607713228
1040
150.0155062545164
1071
        0
1070
     1
1070
     1
1040
0.7853981633974483
1040
12.0
1070
     0
1070
     2
1040
0.7853981633974483
1040
0.0
1040
19.0
1040
-1.060660171779821
1040
1.060660171779821
1070
     0
1040
2.3561944901923439
1040
0.0
1040
19.0
1040
-1.060660171779821
1040
-1.060660171779821
1070
     0
1040
0.1906143774002686
1071
        2
1040
294.17493123156731
1040
240.15361249923589
1040
0.0
1040
301.80318689668991
1040
153.80529959602291
1040
0.0
1002
}
  0
INSERT
  5
5A2
  8
0
  6
CONTINUOUS
  2
*X6
 10
0.0
 20
0.0
 30
0.0
1001
GRADIENTCOLOR1ACI
1070
     5
1001
GRADIENTCOLOR2ACI
1070
     2
1001
ACAD
1000
HATCH
1002
{
1070
    19
1000
NET
1040
12.0
1040
0.7853981633974483
1000
ASC_BOUNDS
1070
     2
1070
     1
1070
    23
1005
419
1005
41A
1005
41B
1005
507
1005
45D
1005
45C
1005
45B
1005
45A
1005
459
1005
458
1005
457
1005
456
1005
455
1005
454
1005
453
1005
506
1005
41D
1005
41E
1005
41F
1005
420
1005
421
1005
422
1005
418
1070
     1
1070
    30
1005
447
1005
446
1005
445
1005
444
1005
443
1005
442
1005
417
1005
438
1005
439
1005
43A
1005
43B
1005
43C
1005
468
1005
434
1005
435
1005
436
1005
437
1005
415
1005
416
1005
42F
1005
430
1005
431
1005
432
1005
433
1005
505
1005
44C
1005
44B
1005
44A
1005
449
1005
448
1000
ASC_SEEDPOINT
1011
383.75549471910642
1021
0.0
1031
0.0
1021
47.495956922989187
1031
0.0
1000
R14_HATCH_DATA
1000
5A2
1011
1.0
1021
0.0
1031
0.0
1021
0.0
1031
0.0
1011
0.0
1021
0.0
1031
0.0
1021
1.0
1031
0.0
1011
0.0
1021
0.0
1031
0.0
1021
0.0
1031
1.0
1040
0.0
1010
0.0
1020
0.0
1030
1.0
1000
NET
1070
     0
1070
     1
1071
        2
1071
        7
1070
     0
1070
     1
1071
       30
1040
388.62187283688132
1040
50.184886940173293
1040
388.62187283688132
1040
53.742242234539759
1040
388.62187283688132
1040
57.084272292315603
1040
388.62187283688132
1040
62.907348411193759
1040
388.62187283688132
1040
65.292806144425413
1040
388.62187283688132
1040
65.938523905810214
1040
381.1172156136563
1040
65.938523905810214
1040
381.1172156136563
1040
65.754503550089069
1040
381.1172156136563
1040
65.024712105647211
1040
381.1172156136563
1040
60.191070843939301
1040
381.1172156136563
1040
55.230520447850239
1040
381.1172156136563
1040
52.766580895532243
1040
381.1172156136563
1040
52.451890228575358
1040
381.1172156136563
1040
14.85057663132646
1040
381.1172156136563
1040
13.00000057116784
1040
381.1172156136563
1040
6.9378222623485248
1040
381.1172156136563
1040
6.2385193048161218
1040
381.1172156136563
1040
6.0000000888435556
1040
388.62187283688081
1040
6.0000000888435556
1040
388.62187283688081
1040
6.1220350433871706
1040
388.62187283688081
1040
6.238519256624719
1040
388.62187283688081
1040
6.9378218582163242
1040
388.62187283688081
1040
13.00000008883962
1040
388.62187283688081
1040
14.85242750540233
1040
388.62187283688081
1040
27.92941758093373
1040
388.62187283688172
1040
31.281054562592701
1040
388.62187283688172
1040
35.002733308750273
1040
388.62187283688172
1040
38.816704456913499
1040
388.62187283688172
1040
42.660358518331009
1040
388.62187283688172
1040
46.470601944031237
1071
       30
1005
448
1005
449
1005
44A
1005
44B
1005
44C
1005
505
1005
433
1005
432
1005
431
1005
430
1005
42F
1005
416
1005
415
1005
437
1005
436
1005
435
1005
434
1005
468
1005
43C
1005
43B
1005
43A
1005
439
1005
438
1005
417
1005
442
1005
443
1005
444
1005
445
1005
446
1005
447
1071
        7
1070
     0
1070
     1
1071
       23
1040
474.63688429727972
1040
42.155409643155693
1040
474.63688429727972
1040
48.000000088839997
1040
474.63688429727972
1040
50.962702713893179
1040
474.63688429727972
1040
53.844589350381568
1040
474.63688429727972
1040
61.243028866869118
1040
474.63688429727972
1040
64.483919968631
1040
474.63688429727972
1040
65.449204875747895
1040
474.63688429727972
1040
65.938523905810214
1040
467.12187283688081
1040
65.938523905810214
1040
467.12187283688081
1040
65.292806774177649
1040
467.12187283688081
1040
62.90734874637198
1040
467.12187283688081
1040
57.084274478665172
1040
467.12187283688081
1040
53.742244899539187
1040
467.12187283688081
1040
50.18488897799795
1040
467.12187283688081
1040
46.470603095838122
1040
467.12187283688081
1040
42.660358850257829
1040
467.12187283688081
1040
38.816705791069857
1040
467.12187283688081
1040
35.002734023083747
1040
467.12187283688081
1040
31.281055532737589
1040
467.12187283688081
1040
30.061479214720229
1040
474.63688429727972
1040
30.061479214720229
1040
474.63688429727972
1040
31.516078758428161
1040
474.63688429727972
1040
34.756968471732947
1071
       23
1005
418
1005
422
1005
421
1005
420
1005
41F
1005
41E
1005
41D
1005
506
1005
453
1005
454
1005
455
1005
456
1005
457
1005
458
1005
459
1005
45A
1005
45B
1005
45C
1005
45D
1005
507
1005
41B
1005
41A
1005
419
1070
     1
1070
     1
1040
0.7853981633974483
1040
12.0
1070
     0
1070
     2
1040
0.7853981633974483
1040
0.0
1040
0.0
1040
-1.060660171779821
1040
1.060660171779821
1070
     0
1040
2.3561944901923439
1040
0.0
1040
0.0
1040
-1.060660171779821
1040
-1.060660171779821
1070
     0
1040
0.1202336878009806
1071
        2
1040
383.75549471910642
1040
47.495956922989187
1040
0.0
1040
469.76407170815429
1040
42.085440754286417
1040
0.0
1002
}
  0
INSERT
  5
5AB
  8
0
  6
CONTINUOUS
  2
*X7
 10
0.0
 20
0.0
 30
0.0
1001
GRADIENTCOLOR1ACI
1070
     5
1001
GRADIENTCOLOR2ACI
1070
     2
1001
ACAD
1000
HATCH
1002
{
1070
    19
1000
ANSI31
1040
12.0
1040
2.3561944901923439
1000
ASC_BOUNDS
1070
     1
1070
     1
1070
     4
1005
4CE
1005
4CF
1005
4D0
1005
4CD
1000
ASC_SEEDPOINT
1011
170.15212184895549
1021
0.0
1031
0.0
1021
218.2704939359833
1031
0.0
1000
R14_HATCH_DATA
1000
5AB
1011
1.0
1021
0.0
1031
0.0
1021
0.0
1031
0.0
1011
0.0
1021
0.0
1031
0.0
1021
1.0
1031
0.0
1011
0.0
1021
0.0
1031
0.0
1021
0.0
1031
1.0
1040
0.0
1010
0.0
1020
0.0
1030
1.0
1000
ANSI31
1070
     0
1070
     1
1071
        1
1071
        7
1070
     0
1070
     1
1071
        4
1040
148.22058607713211
1040
151.14516347774091
1040
252.47058607713231
1040
151.14516347774071
1040
252.47058607713231
1040
242.39516347774091
1040
148.22058607713251
1040
242.39516347774119
1071
        4
1005
4CD
1005
4D0
1005
4CF
1005
4CE
1070
     1
1070
     1
1040
2.3561944901923439
1040
12.0
1070
     0
1070
     1
1040
3.1415926535897931
1040
0.0
1040
19.0
1040
-0.0000000000000002
1040
-1.5
1070
     0
1040
0.1448037194234024
1071
        1
1040
170.15212184895549
1040
218.2704939359833
1040
0.0
1002
}
  0
LINE
  5
AD1
  8
0
 10
380.62187283688132
 20
98.000000088840437
 30
0.0
 11
475.12187283688121
 21
98.000000088840437
 31
0.0
  0
ENDSEC
  0
EOF
