  0
SECTION
  2
HEADER
  9
$ACADVER
  1
AC1009
  9
$INSBASE
 10
0.0
 20
0.0
 30
0.0
  9
$EXTMIN
 10
-0.0164053117155163
 20
-0.007267689944797
 30
-0.0015258207003583
  9
$EXTMAX
 10
537.62667789867487
 20
238.17310324228481
 30
0.0000000349246037
  9
$LIMMIN
 10
0.0
 20
0.0
  9
$LIMMAX
 10
12.0
 20
9.0
  9
$ORTHOMODE
 70
     1
  9
$REGENMODE
 70
     1
  9
$FILLMODE
 70
     1
  9
$QTEXTMODE
 70
     0
  9
$MIRRTEXT
 70
     0
  9
$DRAGMODE
 70
     2
  9
$LTSCALE
 40
1.0
  9
$OSMODE
 70
    37
  9
$ATTMODE
 70
     1
  9
$TEXTSIZE
 40
0.2
  9
$TRACEWID
 40
0.05
  9
$TEXTSTYLE
  7
ROMANS
  9
$CLAYER
  8
0
  9
$CELTYPE
  6
BYLAYER
  9
$CECOLOR
 62
   256
  9
$DIMSCALE
 40
1.0
  9
$DIMASZ
 40
0.09375
  9
$DIMEXO
 40
0.0625
  9
$DIMDLI
 40
0.375
  9
$DIMRND
 40
0.0
  9
$DIMDLE
 40
0.0
  9
$DIMEXE
 40
0.03125
  9
$DIMTP
 40
0.0
  9
$DIMTM
 40
0.0
  9
$DIMTXT
 40
0.09375
  9
$DIMCEN
 40
0.09375
  9
$DIMTSZ
 40
0.0
  9
$DIMTOL
 70
     0
  9
$DIMLIM
 70
     0
  9
$DIMTIH
 70
     0
  9
$DIMTOH
 70
     0
  9
$DIMSE1
 70
     0
  9
$DIMSE2
 70
     0
  9
$DIMTAD
 70
     0
  9
$DIMZIN
 70
     0
  9
$DIMBLK
  1

  9
$DIMASO
 70
     1
  9
$DIMSHO
 70
     1
  9
$DIMPOST
  1

  9
$DIMAPOST
  1

  9
$DIMALT
 70
     0
  9
$DIMALTD
 70
     2
  9
$DIMALTF
 40
25.399999999999999
  9
$DIMLFAC
 40
1.0
  9
$DIMTOFL
 70
     0
  9
$DIMTVP
 40
0.0
  9
$DIMTIX
 70
     0
  9
$DIMSOXD
 70
     0
  9
$DIMSAH
 70
     0
  9
$DIMBLK1
  1

  9
$DIMBLK2
  1

  9
$DIMSTYLE
  2
BAC
  9
$DIMCLRD
 70
     0
  9
$DIMCLRE
 70
     6
  9
$DIMCLRT
 70
     0
  9
$DIMTFAC
 40
1.0
  9
$DIMGAP
 40
0.0625
  9
$LUNITS
 70
     5
  9
$LUPREC
 70
     6
  9
$SKETCHINC
 40
0.1
  9
$FILLETRAD
 40
0.0
  9
$AUNITS
 70
     0
  9
$AUPREC
 70
     0
  9
$MENU
  1
.
  9
$ELEVATION
 40
0.0
  9
$PELEVATION
 40
0.0
  9
$THICKNESS
 40
0.0
  9
$LIMCHECK
 70
     0
  9
$BLIPMODE
 70
     0
  9
$CHAMFERA
 40
0.5
  9
$CHAMFERB
 40
0.5
  9
$SKPOLY
 70
     0
  9
$TDCREATE
 40
2456827.5891009369
  9
$TDUPDATE
 40
2456827.5930429739
  9
$TDINDWG
 40
0.0039437037
  9
$TDUSRTIMER
 40
0.0039432639
  9
$USRTIMER
 70
     1
  9
$ANGBASE
 50
0.0
  9
$ANGDIR
 70
     0
  9
$PDMODE
 70
     0
  9
$PDSIZE
 40
0.0
  9
$PLINEWID
 40
0.0
  9
$COORDS
 70
     1
  9
$SPLFRAME
 70
     0
  9
$SPLINETYPE
 70
     6
  9
$SPLINESEGS
 70
     8
  9
$ATTDIA
 70
     0
  9
$ATTREQ
 70
     1
  9
$HANDLING
 70
     1
  9
$HANDSEED
  5
71D
  9
$SURFTAB1
 70
     6
  9
$SURFTAB2
 70
     6
  9
$SURFTYPE
 70
     6
  9
$SURFU
 70
     6
  9
$SURFV
 70
     6
  9
$UCSNAME
  2

  9
$UCSORG
 10
0.0
 20
0.0
 30
0.0
  9
$UCSXDIR
 10
1.0
 20
0.0
 30
0.0
  9
$UCSYDIR
 10
0.0
 20
1.0
 30
0.0
  9
$PUCSNAME
  2

  9
$PUCSORG
 10
0.0
 20
0.0
 30
0.0
  9
$PUCSXDIR
 10
1.0
 20
0.0
 30
0.0
  9
$PUCSYDIR
 10
0.0
 20
1.0
 30
0.0
  9
$USERI1
 70
     0
  9
$USERI2
 70
     0
  9
$USERI3
 70
     0
  9
$USERI4
 70
     0
  9
$USERI5
 70
     0
  9
$USERR1
 40
0.0
  9
$USERR2
 40
0.0
  9
$USERR3
 40
0.0
  9
$USERR4
 40
0.0
  9
$USERR5
 40
0.0
  9
$WORLDVIEW
 70
     1
  9
$SHADEDGE
 70
     3
  9
$SHADEDIF
 70
    70
  9
$TILEMODE
 70
     1
  9
$MAXACTVP
 70
    48
  9
$PLIMCHECK
 70
     0
  9
$PEXTMIN
 10
1.0000000000000000E+020
 20
1.0000000000000000E+020
 30
1.0000000000000000E+020
  9
$PEXTMAX
 10
-1.0000000000000000E+020
 20
-1.0000000000000000E+020
 30
-1.0000000000000000E+020
  9
$PLIMMIN
 10
0.0
 20
0.0
  9
$PLIMMAX
 10
12.0
 20
9.0
  9
$UNITMODE
 70
     0
  9
$VISRETAIN
 70
     1
  9
$PLINEGEN
 70
     0
  9
$PSLTSCALE
 70
     1
  0
ENDSEC
  0
SECTION
  2
TABLES
  0
TABLE
  2
VPORT
 70
     1
  0
VPORT
  2
*ACTIVE
 70
     0
 10
0.0
 20
0.0
 11
1.0
 21
1.0
 12
268.80513629347968
 22
119.08291777616989
 13
0.0
 23
0.0
 14
0.5
 24
0.5
 15
0.5
 25
0.5
 16
0.0
 26
0.0
 36
1.0
 17
0.0
 27
0.0
 37
0.0
 40
304.85056667757271
 41
1.7702552719200879
 42
50.0
 43
0.0
 44
0.0
 50
0.0
 51
0.0
 71
     0
 72
   100
 73
     1
 74
     1
 75
     0
 76
     0
 77
     0
 78
     0
  0
ENDTAB
  0
TABLE
  2
LTYPE
 70
    20
  0
LTYPE
  2
CONTINUOUS
 70
     0
  3
Solid line
 72
    65
 73
     0
 40
0.0
  0
LTYPE
  2
CENTER
 70
     0
  3
Center ____ _ ____ _ ____ _ ____ _ ____ _ ____
 72
    65
 73
     4
 40
2.0
 49
1.25
 49
-0.25
 49
0.25
 49
-0.25
  0
LTYPE
  2
CENTER2
 70
     0
  3
Center (.5x) ___ _ ___ _ ___ _ ___ _ ___ _ ___
 72
    65
 73
     4
 40
1.125
 49
0.75
 49
-0.125
 49
0.125
 49
-0.125
  0
LTYPE
  2
HIDDEN
 70
     0
  3
Hidden __ __ __ __ __ __ __ __ __ __ __ __ __ _
 72
    65
 73
     2
 40
0.375
 49
0.25
 49
-0.125
  0
LTYPE
  2
HIDDEN2
 70
     0
  3
Hidden (.5x) _ _ _ _ _ _ _ _ _ _ _ _ _ _ _ _ _
 72
    65
 73
     2
 40
0.1875
 49
0.125
 49
-0.0625
  0
LTYPE
  2
PHANTOM2
 70
     0
  3
Phantom (.5x) ___ _ _ ___ _ _ ___ _ _ ___ _ _
 72
    65
 73
     6
 40
1.25
 49
0.625
 49
-0.125
 49
0.125
 49
-0.125
 49
0.125
 49
-0.125
  0
LTYPE
  2
AMCONSTR
 70
     0
  3
_______________________
 72
    65
 73
     2
 40
9999.0
 49
9999.0
 49
0.0
  0
LTYPE
  2
AMZIGZAG2
 70
     0
  3
/\/-/\/-/\/-/\/-/\/-/\/
 72
    65
 73
     2
 40
0.4401
 49
0.0001
 49
-0.4400000000000001
  0
LTYPE
  2
ACANSTGB
 70
     0
  3
__ . . __ . .
 72
    65
 73
     6
 40
0.35433070866
 49
0.15748031496
 49
-0.03937007874
 49
0.03937007874
 49
-0.03937007874
 49
0.03937007874
 49
-0.03937007874
  0
LTYPE
  2
ACANSTGL
 70
     0
  3
_ _ _ _ _
 72
    65
 73
     2
 40
0.11811023622
 49
0.07874015748
 49
-0.03937007874
  0
ENDTAB
  0
TABLE
  2
LAYER
 70
     8
  0
LAYER
  2
0
 70
     0
 62
     7
  6
CONTINUOUS
  0
ENDTAB
  0
TABLE
  2
STYLE
 70
    11
  0
STYLE
  2
STANDARD
 70
     0
 40
0.0
 41
1.0
 50
0.0
 71
     0
 42
0.2
  3
txt
  4

  0
STYLE
  2
ROMANS
 70
     0
 40
0.0
 41
0.75
 50
0.0
 71
     0
 42
0.2
  3
romans.shx
  4

  0
STYLE
  2

 70
     1
 40
0.0
 41
1.0
 50
0.0
 71
     0
 42
0.2
  3
genltshp.shx
  4

  0
STYLE
  2
ACANSGDT
 70
     0
 40
0.0
 41
1.0
 50
0.0
 71
     0
 42
0.2
  3
amgdt.shx
  4

  0
ENDTAB
  0
TABLE
  2
VIEW
 70
     0
  0
ENDTAB
  0
TABLE
  2
UCS
 70
     0
  0
ENDTAB
  0
TABLE
  2
APPID
 70
    15
  0
APPID
  2
ACAD
 70
     0
  0
APPID
  2
ACAD_MLEADERVER
 70
     0
  0
APPID
  2
ACAD_DSTYLE_DIMJAG
 70
     0
  0
APPID
  2
ACAD_DSTYLE_DIMTALN
 70
     0
  0
APPID
  2
ACAD_PSEXT
 70
     0
  0
APPID
  2
ACADANNOPO
 70
     0
  0
APPID
  2
MCAD_NO_VIS
 70
     0
  0
APPID
  2
ACAD_TEMP_GRAPHIC
 70
     0
  0
APPID
  2
ACATTRIBSERVICES
 70
     0
  0
APPID
  2
DESIGNERASSEMBLIES
 70
     0
  0
APPID
  2
ACAD_DSTYLE_DIMBREAK
 70
     0
  0
APPID
  2
ACAD_NAV_VCDISPLAY
 70
     0
  0
APPID
  2
GRADIENTCOLOR1ACI
 70
     0
  0
APPID
  2
GRADIENTCOLOR2ACI
 70
     0
  0
APPID
  2
ACAD_EXEMPT_FROM_CAD_STANDARDS
 70
     0
  0
ENDTAB
  0
TABLE
  2
DIMSTYLE
 70
    14
  0
DIMSTYLE
  2
BAC
 70
     0
  3

  4

  5

  6

  7

 40
1.0
 41
0.09375
 42
0.0625
 43
0.375
 44
0.03125
 45
0.0
 46
0.0
 47
0.0
 48
0.0
140
0.09375
141
0.09375
142
0.0
143
25.399999999999999
144
1.0
145
0.0
146
1.0
147
0.0625
 71
     0
 72
     0
 73
     0
 74
     0
 75
     0
 76
     0
 77
     0
 78
     0
170
     0
171
     2
172
     0
173
     0
174
     0
175
     0
176
     0
177
     6
178
     0
  0
DIMSTYLE
  2
AM_ANSI
 70
     0
  3

  4
mm
  5

  6

  7

 40
1.0
 41
0.12
 42
0.05
 43
0.5
 44
0.1
 45
0.0
 46
0.0
 47
0.1
 48
0.1
140
0.12
141
0.0
142
0.0
143
25.399999999999999
144
1.0
145
0.0
146
0.71
147
0.06
 71
     0
 72
     0
 73
     1
 74
     1
 75
     0
 76
     0
 77
     0
 78
     7
170
     0
171
     2
172
     0
173
     0
174
     0
175
     0
176
   256
177
   256
178
     2
  0
DIMSTYLE
  2
AM_ANSI$3
 70
     0
  3

  4
mm
  5

  6

  7

 40
1.0
 41
0.12
 42
0.05
 43
0.5
 44
0.1
 45
0.0
 46
0.0
 47
0.1
 48
0.1
140
0.12
141
0.0
142
0.0
143
25.399999999999999
144
1.0
145
0.0
146
0.71
147
0.06
 71
     0
 72
     0
 73
     1
 74
     1
 75
     0
 76
     0
 77
     0
 78
     7
170
     0
171
     2
172
     0
173
     0
174
     0
175
     0
176
   256
177
   256
178
     2
  0
DIMSTYLE
  2
AM_ANSI$4
 70
     0
  3

  4
mm
  5

  6

  7

 40
1.0
 41
0.12
 42
0.05
 43
0.5
 44
0.1
 45
0.0
 46
0.0
 47
0.1
 48
0.1
140
0.12
141
0.0
142
0.0
143
25.399999999999999
144
1.0
145
0.0
146
0.71
147
0.06
 71
     0
 72
     0
 73
     1
 74
     1
 75
     0
 76
     0
 77
     0
 78
     7
170
     0
171
     2
172
     0
173
     0
174
     0
175
     0
176
   256
177
   256
178
     2
  0
DIMSTYLE
  2
AM_ANSI$7
 70
     0
  3

  4
mm
  5

  6

  7

 40
1.0
 41
0.12
 42
0.05
 43
0.5
 44
0.1
 45
0.0
 46
0.0
 47
0.1
 48
0.1
140
0.12
141
0.0
142
0.0
143
25.399999999999999
144
1.0
145
0.0
146
0.71
147
0.06
 71
     0
 72
     0
 73
     1
 74
     1
 75
     0
 76
     0
 77
     0
 78
     7
170
     0
171
     2
172
     0
173
     0
174
     0
175
     0
176
   256
177
   256
178
     2
  0
DIMSTYLE
  2
AM_ANSI$SF
 70
     0
  3

  4
mm
  5

  6

  7

 40
1.0
 41
0.12
 42
0.05
 43
0.5
 44
0.1
 45
0.0
 46
0.0
 47
0.1
 48
0.1
140
0.12
141
0.0
142
0.0
143
25.399999999999999
144
1.0
145
0.0
146
0.71
147
0.06
 71
     0
 72
     0
 73
     1
 74
     1
 75
     1
 76
     1
 77
     0
 78
     7
170
     0
171
     2
172
     0
173
     0
174
     0
175
     0
176
   256
177
   256
178
     2
  0
DIMSTYLE
  2
AM_ANSI$SH
 70
     0
  3

  4
mm
  5

  6
GENAXEH
  7

 40
1.0
 41
0.12
 42
0.05
 43
0.5
 44
0.1
 45
0.0
 46
0.0
 47
0.1
 48
0.1
140
0.12
141
0.0
142
0.0
143
25.399999999999999
144
1.0
145
0.0
146
0.71
147
0.06
 71
     0
 72
     0
 73
     1
 74
     1
 75
     1
 76
     1
 77
     0
 78
     7
170
     0
171
     2
172
     0
173
     1
174
     0
175
     0
176
   256
177
   256
178
     2
  0
DIMSTYLE
  2
STANDARD
 70
     0
  3

  4

  5

  6

  7

 40
1.0
 41
0.18
 42
0.0625
 43
0.38
 44
0.18
 45
0.0
 46
0.0
 47
0.0
 48
0.0
140
0.18
141
0.09
142
0.0
143
25.399999999999999
144
1.0
145
0.0
146
1.0
147
0.09
 71
     0
 72
     0
 73
     1
 74
     1
 75
     0
 76
     0
 77
     0
 78
     0
170
     0
171
     2
172
     0
173
     0
174
     0
175
     0
176
     0
177
     0
178
     0
  0
ENDTAB
  0
ENDSEC
  0
SECTION
  2
BLOCKS
  0
BLOCK
  8
0
  2
$MODEL_SPACE
 70
     0
 10
0.0
 20
0.0
 30
0.0
  3
$MODEL_SPACE
  1

  0
ENDBLK
  5
1A
  8
0
  0
BLOCK
 67
     1
  8
0
  2
$PAPER_SPACE
 70
     0
 10
0.0
 20
0.0
 30
0.0
  3
$PAPER_SPACE
  1

  0
ENDBLK
  5
17
 67
     1
  8
0
  0
BLOCK
  8
0
  2
*U0
 70
     1
 10
0.0
 20
0.0
 30
0.0
  3
*U0
  1

  0
ENDBLK
  5
17A
  8
0
  0
BLOCK
  8
0
  2
GENAXEH
 70
     0
 10
0.0
 20
0.0
 30
0.0
  3
GENAXEH
  1

  0
LINE
  5
1AD
  8
0
 10
-1.0
 20
0.0
 30
0.0
 11
1.0
 21
0.0
 31
0.0
  0
ENDBLK
  5
1AF
  8
0
  0
BLOCK
  8
0
  2
*X4
 70
     1
 10
0.0
 20
0.0
 30
0.0
  3
*X4
  1

  0
LINE
  5
5CA
  8
0
 62
     0
 10
358.76438381696858
 20
57.014403520721373
 30
0.0
 11
352.19865480283318
 21
63.580132534856801
 31
0.0
  0
LINE
  5
5CB
  8
0
 62
     0
 10
360.39903981302541
 20
53.25842718110485
 30
0.0
 11
348.44267846321662
 21
65.214788530913722
 31
0.0
  0
LINE
  5
5CC
  8
0
 62
     0
 10
361.21087637798797
 20
50.325270272582628
 30
0.0
 11
345.71493317685832
 21
65.821213473712305
 31
0.0
  0
LINE
  5
5CD
  8
0
 62
     0
 10
362.01196847933818
 20
47.402857827672747
 30
0.0
 11
343.41632238371818
 21
65.998503923292759
 31
0.0
  0
LINE
  5
5CE
  8
0
 62
     0
 10
362.81306058068839
 20
44.480445382762923
 30
0.0
 11
341.38377950547641
 21
65.909726457975054
 31
0.0
  0
LINE
  5
5CF
  8
0
 62
     0
 10
363.61415268203859
 20
41.558032937853113
 30
0.0
 11
339.5441024359327
 21
65.628083183958978
 31
0.0
  0
LINE
  5
5D0
  8
0
 62
     0
 10
364.4152447833888
 20
38.635620492943282
 30
0.0
 11
337.85719113458663
 21
65.193674141745475
 31
0.0
  0
LINE
  5
5D1
  8
0
 62
     0
 10
365.21633688473901
 20
35.71320804803338
 30
0.0
 11
336.29861111307002
 21
64.630933819702392
 31
0.0
  0
LINE
  5
5D2
  8
0
 62
     0
 10
366.01742898608921
 20
32.79079560312357
 30
0.0
 11
334.85256642116332
 21
63.955658168049517
 31
0.0
  0
LINE
  5
5D3
  8
0
 62
     0
 10
366.81852108743942
 20
29.868383158213732
 30
0.0
 11
333.50858284708568
 21
63.178321398567391
 31
0.0
  0
LINE
  5
5D4
  8
0
 62
     0
 10
367.61961318878957
 20
26.945970713303868
 30
0.0
 11
332.2597819419351
 21
62.305801960158362
 31
0.0
  0
LINE
  5
5D5
  8
0
 62
     0
 10
368.42070529013989
 20
24.023558268394059
 30
0.0
 11
331.10193692868307
 21
61.34232662985076
 31
0.0
  0
LINE
  5
5D6
  8
0
 62
     0
 10
369.22179739148999
 20
21.101145823484192
 30
0.0
 11
330.03296294469629
 21
60.289980270277823
 31
0.0
  0
LINE
  5
5D7
  8
0
 62
     0
 10
370.02288949284031
 20
18.178733378574321
 30
0.0
 11
329.05268463061969
 21
59.14893824079482
 31
0.0
  0
LINE
  5
5D8
  8
0
 62
     0
 10
370.8239815941904
 20
15.25632093366454
 30
0.0
 11
328.16281714474229
 21
57.917485383112648
 31
0.0
  0
LINE
  5
5D9
  8
0
 62
     0
 10
371.1807378711863
 20
12.778244313108949
 30
0.0
 11
327.36715560121138
 21
56.5918265830839
 31
0.0
  0
LINE
  5
5DA
  8
0
 62
     0
 10
370.879759899134
 20
10.95790194160165
 30
0.0
 11
326.672024332023
 21
55.165637508712621
 31
0.0
  0
LINE
  5
5DB
  8
0
 62
     0
 10
370.23539093610202
 20
9.4809505610740246
 30
0.0
 11
326.08712072689991
 21
53.629220770276127
 31
0.0
  0
LINE
  5
5DC
  8
0
 62
     0
 10
369.33512072734311
 20
8.2599004262732763
 30
0.0
 11
325.62705260832058
 21
51.967968545295797
 31
0.0
  0
LINE
  5
5DD
  8
0
 62
     0
 10
368.20427134467388
 20
7.2694294653827853
 30
0.0
 11
325.31425434438682
 21
50.15944646566993
 31
0.0
  0
LINE
  5
5DE
  8
0
 62
     0
 10
366.83221677850958
 20
6.5201636879874911
 30
0.0
 11
325.185029267988
 21
48.16735119850901
 31
0.0
  0
LINE
  5
5DF
  8
0
 62
     0
 10
365.16238435040412
 20
6.0686757725333962
 30
0.0
 11
325.3040147451859
 21
45.92704537775154
 31
0.0
  0
LINE
  5
5E0
  8
0
 62
     0
 10
363.01065855095362
 20
6.0990812284241542
 30
0.0
 11
325.80830598222161
 21
43.301433797156243
 31
0.0
  0
LINE
  5
5E1
  8
0
 62
     0
 10
353.84468221518341
 20
13.14373722063476
 30
0.0
 11
327.13153700726701
 21
39.856882428551224
 31
0.0
  0
LINE
  5
5E2
  8
0
 62
     0
 10
367.41417957543518
 20
6.7897211702959899
 30
0.0
 11
370.39453013776
 21
9.7700717326207211
 31
0.0
  0
LINE
  5
5E3
  8
0
 62
     0
 10
364.51075693002338
 20
6.0076188684437284
 30
0.0
 11
371.17663243961232
 21
12.67349437803264
 31
0.0
  0
LINE
  5
5E4
  8
0
 62
     0
 10
362.57039569798621
 20
6.1885779799661966
 30
0.0
 11
370.99567332808982
 21
14.61385561006983
 31
0.0
  0
LINE
  5
5E5
  8
0
 62
     0
 10
361.01767695515258
 20
6.7571795806923092
 30
0.0
 11
370.54275239985691
 21
16.282255025396491
 31
0.0
  0
LINE
  5
5E6
  8
0
 62
     0
 10
359.73504904958492
 20
7.5958720186841608
 30
0.0
 11
370.08636166619539
 21
17.94718463529475
 31
0.0
  0
LINE
  5
5E7
  8
0
 62
     0
 10
358.63310919911061
 20
8.615252511769512
 30
0.0
 11
369.62997093253409
 21
19.61211424519303
 31
0.0
  0
LINE
  5
5E8
  8
0
 62
     0
 10
357.5428565585803
 20
9.6463202147988625
 30
0.0
 11
369.17358019887268
 21
21.277043855091311
 31
0.0
  0
LINE
  5
5E9
  8
0
 62
     0
 10
356.45260391804999
 20
10.677387917828179
 30
0.0
 11
368.71718946521128
 21
22.941973464989559
 31
0.0
  0
LINE
  5
5EA
  8
0
 62
     0
 10
355.36235127751968
 20
11.70845562085753
 30
0.0
 11
368.26079873154993
 21
24.606903074887779
 31
0.0
  0
LINE
  5
5EB
  8
0
 62
     0
 10
354.27209863698931
 20
12.73952332388683
 30
0.0
 11
367.80440799788852
 21
26.27183268478603
 31
0.0
  0
LINE
  5
5EC
  8
0
 62
     0
 10
353.18184599645889
 20
13.770591026916151
 30
0.0
 11
367.34801726422722
 21
27.936762294684339
 31
0.0
  0
LINE
  5
5ED
  8
0
 62
     0
 10
352.09159335592869
 20
14.801658729945441
 30
0.0
 11
366.89162653056582
 21
29.601691904582569
 31
0.0
  0
LINE
  5
5EE
  8
0
 62
     0
 10
351.00134071539833
 20
15.832726432974789
 30
0.0
 11
366.43523579690441
 21
31.266621514480871
 31
0.0
  0
LINE
  5
5EF
  8
0
 62
     0
 10
349.91108807486802
 20
16.86379413600412
 30
0.0
 11
365.978845063243
 21
32.93155112437907
 31
0.0
  0
LINE
  5
5F0
  8
0
 62
     0
 10
348.82083543433771
 20
17.89486183903341
 30
0.0
 11
365.52245432958159
 21
34.596480734277321
 31
0.0
  0
LINE
  5
5F1
  8
0
 62
     0
 10
347.7305827938074
 20
18.925929542062761
 30
0.0
 11
365.06606359592018
 21
36.261410344175601
 31
0.0
  0
LINE
  5
5F2
  8
0
 62
     0
 10
346.64033015327709
 20
19.956997245092079
 30
0.0
 11
364.60967286225889
 21
37.926339954073882
 31
0.0
  0
LINE
  5
5F3
  8
0
 62
     0
 10
345.55007751274673
 20
20.988064948121352
 30
0.0
 11
364.15328212859748
 21
39.591269563972133
 31
0.0
  0
LINE
  5
5F4
  8
0
 62
     0
 10
344.45982487221642
 20
22.019132651150699
 30
0.0
 11
363.69689139493607
 21
41.256199173870357
 31
0.0
  0
LINE
  5
5F5
  8
0
 62
     0
 10
343.36957223168611
 20
23.050200354180049
 30
0.0
 11
363.24050066127472
 21
42.921128783768609
 31
0.0
  0
LINE
  5
5F6
  8
0
 62
     0
 10
342.2793195911558
 20
24.0812680572094
 30
0.0
 11
362.78410992761331
 21
44.586058393666917
 31
0.0
  0
LINE
  5
5F7
  8
0
 62
     0
 10
341.18906695062549
 20
25.112335760238668
 30
0.0
 11
362.32771919395191
 21
46.250988003565134
 31
0.0
  0
LINE
  5
5F8
  8
0
 62
     0
 10
340.09881431009512
 20
26.143403463267958
 30
0.0
 11
361.87132846029061
 21
47.915917613463392
 31
0.0
  0
LINE
  5
5F9
  8
0
 62
     0
 10
339.0085616695647
 20
27.174471166297309
 30
0.0
 11
361.41493772662909
 21
49.580847223361637
 31
0.0
  0
LINE
  5
5FA
  8
0
 62
     0
 10
337.9183090290345
 20
28.205538869326631
 30
0.0
 11
360.95854699296768
 21
51.245776833259889
 31
0.0
  0
LINE
  5
5FB
  8
0
 62
     0
 10
336.82805638850419
 20
29.236606572355981
 30
0.0
 11
360.5015968312166
 21
52.910147015068333
 31
0.0
  0
LINE
  5
5FC
  8
0
 62
     0
 10
335.73780374797383
 20
30.26767427538525
 30
0.0
 11
359.96979222421982
 21
54.499662751631242
 31
0.0
  0
LINE
  5
5FD
  8
0
 62
     0
 10
334.64755110744352
 20
31.298741978414569
 30
0.0
 11
359.32202684004631
 21
55.973217711017362
 31
0.0
  0
LINE
  5
5FE
  8
0
 62
     0
 10
333.5572984669131
 20
32.329809681443891
 30
0.0
 11
358.5699235940225
 21
57.342434808553179
 31
0.0
  0
LINE
  5
5FF
  8
0
 62
     0
 10
332.4670458263829
 20
33.360877384473241
 30
0.0
 11
357.72116476707458
 21
58.614996325164903
 31
0.0
  0
LINE
  5
600
  8
0
 62
     0
 10
331.37679318585248
 20
34.39194508750257
 30
0.0
 11
356.78059092778727
 21
59.795742829437302
 31
0.0
  0
LINE
  5
601
  8
0
 62
     0
 10
330.29697772593209
 20
35.433449971141727
 30
0.0
 11
355.75080133691478
 21
60.887273582124408
 31
0.0
  0
LINE
  5
602
  8
0
 62
     0
 10
329.29401054263781
 20
36.551803131407162
 30
0.0
 11
354.6324481766494
 21
61.890240765418639
 31
0.0
  0
LINE
  5
603
  8
0
 62
     0
 10
328.38083101931909
 20
37.759943951647983
 30
0.0
 11
353.42430735640852
 21
62.803420288737442
 31
0.0
  0
LINE
  5
604
  8
0
 62
     0
 10
327.56067340683001
 20
39.06110668271856
 30
0.0
 11
352.12314462533789
 21
63.623577901226469
 31
0.0
  0
LINE
  5
605
  8
0
 62
     0
 10
326.83915650592292
 20
40.460910125371072
 30
0.0
 11
350.72334118268537
 21
64.345094802133616
 31
0.0
  0
LINE
  5
606
  8
0
 62
     0
 10
326.22500731502691
 20
41.968081278034759
 30
0.0
 11
349.21617003002177
 21
64.959243993029617
 31
0.0
  0
LINE
  5
607
  8
0
 62
     0
 10
325.7313781817287
 20
43.595772488296177
 30
0.0
 11
347.58847881976033
 21
65.452873126327745
 31
0.0
  0
LINE
  5
608
  8
0
 62
     0
 10
325.37830783575868
 20
45.364022485885812
 30
0.0
 11
345.82022882217058
 21
65.805943472297798
 31
0.0
  0
LINE
  5
609
  8
0
 62
     0
 10
325.1976845019945
 20
47.30471949568124
 30
0.0
 11
343.87953181237521
 21
65.986566806062001
 31
0.0
  0
LINE
  5
60A
  8
0
 62
     0
 10
325.24462082923583
 20
49.472976166482283
 30
0.0
 11
341.71127514157428
 21
65.939630478820703
 31
0.0
  0
LINE
  5
60B
  8
0
 62
     0
 10
325.6296153562264
 20
51.979291037032418
 30
0.0
 11
339.20496027102411
 21
65.554635951830164
 31
0.0
  0
LINE
  5
60C
  8
0
 62
     0
 10
326.65478558608157
 20
55.125781610447369
 30
0.0
 11
336.05846969760921
 21
64.529465721974873
 31
0.0
  0
ENDBLK
  5
60E
  8
0
  0
BLOCK
  8
0
  2
*X5
 70
     1
 10
0.0
 20
0.0
 30
0.0
  3
*X5
  1

  0
LINE
  5
613
  8
0
 62
     0
 10
361.18425129508421
 20
237.028085588735
 30
0.0
 11
360.53149098012688
 21
237.68084590369219
 31
0.0
  0
LINE
  5
614
  8
0
 62
     0
 10
361.18425129508421
 20
234.90676524517539
 30
0.0
 11
358.41017063656727
 21
237.68084590369219
 31
0.0
  0
LINE
  5
615
  8
0
 62
     0
 10
361.18425129508421
 20
232.7854449016157
 30
0.0
 11
356.28885029300761
 21
237.6808459036923
 31
0.0
  0
LINE
  5
616
  8
0
 62
     0
 10
361.18425129508421
 20
230.6641245580561
 30
0.0
 11
354.16752994944801
 21
237.6808459036923
 31
0.0
  0
LINE
  5
617
  8
0
 62
     0
 10
359.5612210662876
 20
230.16583444329311
 30
0.0
 11
352.04620960588841
 21
237.6808459036923
 31
0.0
  0
LINE
  5
618
  8
0
 62
     0
 10
357.43990072272788
 20
230.16583444329299
 30
0.0
 11
349.92488926232858
 21
237.68084590369239
 31
0.0
  0
LINE
  5
619
  8
0
 62
     0
 10
355.31858037916828
 20
230.16583444329299
 30
0.0
 11
347.80356891876897
 21
237.6808459036923
 31
0.0
  0
LINE
  5
61A
  8
0
 62
     0
 10
353.19726003560868
 20
230.16583444329299
 30
0.0
 11
345.68224857520943
 21
237.6808459036923
 31
0.0
  0
LINE
  5
61B
  8
0
 62
     0
 10
351.07593969204902
 20
230.16583444329299
 30
0.0
 11
343.56092823164971
 21
237.6808459036923
 31
0.0
  0
LINE
  5
61C
  8
0
 62
     0
 10
348.95461934848942
 20
230.16583444329299
 30
0.0
 11
341.43960788808999
 21
237.6808459036923
 31
0.0
  0
LINE
  5
61D
  8
0
 62
     0
 10
346.83329900492981
 20
230.16583444329311
 30
0.0
 11
339.31828754453051
 21
237.68084590369239
 31
0.0
  0
LINE
  5
61E
  8
0
 62
     0
 10
344.7119786613701
 20
230.16583444329299
 30
0.0
 11
337.19696720097079
 21
237.6808459036923
 31
0.0
  0
LINE
  5
61F
  8
0
 62
     0
 10
342.59065831781049
 20
230.16583444329299
 30
0.0
 11
335.07564685741119
 21
237.6808459036923
 31
0.0
  0
LINE
  5
620
  8
0
 62
     0
 10
340.46933797425078
 20
230.16583444329299
 30
0.0
 11
332.95432651385153
 21
237.6808459036923
 31
0.0
  0
LINE
  5
621
  8
0
 62
     0
 10
338.34801763069117
 20
230.16583444329299
 30
0.0
 11
330.83300617029181
 21
237.6808459036923
 31
0.0
  0
LINE
  5
622
  8
0
 62
     0
 10
336.22669728713163
 20
230.16583444329291
 30
0.0
 11
328.71168582673232
 21
237.6808459036923
 31
0.0
  0
LINE
  5
623
  8
0
 62
     0
 10
334.10537694357191
 20
230.16583444329299
 30
0.0
 11
326.5903654831726
 21
237.6808459036923
 31
0.0
  0
LINE
  5
624
  8
0
 62
     0
 10
331.98405660001231
 20
230.16583444329299
 30
0.0
 11
325.18425129508421
 21
236.96563974822121
 31
0.0
  0
LINE
  5
625
  8
0
 62
     0
 10
329.86273625645259
 20
230.16583444329299
 30
0.0
 11
325.1842512950841
 21
234.8443194046616
 31
0.0
  0
LINE
  5
626
  8
0
 62
     0
 10
327.74141591289299
 20
230.16583444329299
 30
0.0
 11
325.1842512950841
 21
232.72299906110189
 31
0.0
  0
LINE
  5
627
  8
0
 62
     0
 10
325.62009556933327
 20
230.16583444329299
 30
0.0
 11
325.1842512950841
 21
230.60167871754231
 31
0.0
  0
LINE
  5
628
  8
0
 62
     0
 10
371.1842512950841
 20
150.6605532205879
 30
0.0
 11
370.17897007237872
 21
151.66583444329339
 31
0.0
  0
LINE
  5
629
  8
0
 62
     0
 10
371.1842512950841
 20
148.5392328770283
 30
0.0
 11
368.05764972881838
 21
151.66583444329399
 31
0.0
  0
LINE
  5
62A
  8
0
 62
     0
 10
371.1842512950841
 20
146.41791253346869
 30
0.0
 11
365.93632938525877
 21
151.6658344432939
 31
0.0
  0
LINE
  5
62B
  8
0
 62
     0
 10
371.1842512950841
 20
144.29659218990901
 30
0.0
 11
363.81500904169923
 21
151.6658344432939
 31
0.0
  0
LINE
  5
62C
  8
0
 62
     0
 10
369.19834592136459
 20
144.16117722006891
 30
0.0
 11
361.69368869813962
 21
151.66583444329379
 31
0.0
  0
LINE
  5
62D
  8
0
 62
     0
 10
367.07702557780487
 20
144.16117722006891
 30
0.0
 11
359.57236835457991
 21
151.66583444329379
 31
0.0
  0
LINE
  5
62E
  8
0
 62
     0
 10
364.95570523424527
 20
144.16117722006891
 30
0.0
 11
357.45104801102042
 21
151.66583444329379
 31
0.0
  0
LINE
  5
62F
  8
0
 62
     0
 10
362.83438489068561
 20
144.16117722006891
 30
0.0
 11
355.3297276674607
 21
151.66583444329379
 31
0.0
  0
LINE
  5
630
  8
0
 62
     0
 10
360.71306454712601
 20
144.16117722006891
 30
0.0
 11
353.2084073239011
 21
151.66583444329379
 31
0.0
  0
LINE
  5
631
  8
0
 62
     0
 10
358.59174420356629
 20
144.16117722006891
 30
0.0
 11
351.0870869803415
 21
151.66583444329379
 31
0.0
  0
LINE
  5
632
  8
0
 62
     0
 10
356.47042386000669
 20
144.16117722006891
 30
0.0
 11
348.96576663678178
 21
151.66583444329379
 31
0.0
  0
LINE
  5
633
  8
0
 62
     0
 10
354.34910351644697
 20
144.16117722006891
 30
0.0
 11
346.84444629322218
 21
151.66583444329379
 31
0.0
  0
LINE
  5
634
  8
0
 62
     0
 10
352.22778317288743
 20
144.16117722006891
 30
0.0
 11
344.72312594966257
 21
151.66583444329379
 31
0.0
  0
LINE
  5
635
  8
0
 62
     0
 10
350.10646282932771
 20
144.16117722006899
 30
0.0
 11
342.60180560610291
 21
151.66583444329379
 31
0.0
  0
LINE
  5
636
  8
0
 62
     0
 10
347.98514248576811
 20
144.16117722006891
 30
0.0
 11
340.4804852625432
 21
151.66583444329379
 31
0.0
  0
LINE
  5
637
  8
0
 62
     0
 10
345.86382214220851
 20
144.16117722006891
 30
0.0
 11
338.35916491898359
 21
151.66583444329379
 31
0.0
  0
LINE
  5
638
  8
0
 62
     0
 10
343.74250179864879
 20
144.16117722006891
 30
0.0
 11
336.23784457542388
 21
151.66583444329379
 31
0.0
  0
LINE
  5
639
  8
0
 62
     0
 10
341.62118145508919
 20
144.16117722006891
 30
0.0
 11
334.11652423186428
 21
151.66583444329379
 31
0.0
  0
LINE
  5
63A
  8
0
 62
     0
 10
339.49986111152953
 20
144.16117722006891
 30
0.0
 11
331.99520388830467
 21
151.66583444329379
 31
0.0
  0
LINE
  5
63B
  8
0
 62
     0
 10
337.37854076796992
 20
144.16117722006891
 30
0.0
 11
329.87388354474513
 21
151.66583444329379
 31
0.0
  0
LINE
  5
63C
  8
0
 62
     0
 10
335.25722042441021
 20
144.16117722006891
 30
0.0
 11
327.75256320118541
 21
151.66583444329379
 31
0.0
  0
LINE
  5
63D
  8
0
 62
     0
 10
333.1359000808506
 20
144.16117722006891
 30
0.0
 11
325.63124285762569
 21
151.66583444329379
 31
0.0
  0
LINE
  5
63E
  8
0
 62
     0
 10
331.014579737291
 20
144.16117722006891
 30
0.0
 11
325.1842512950841
 21
149.9915056622759
 31
0.0
  0
LINE
  5
63F
  8
0
 62
     0
 10
328.89325939373128
 20
144.16117722006891
 30
0.0
 11
325.1842512950841
 21
147.87018531871621
 31
0.0
  0
LINE
  5
640
  8
0
 62
     0
 10
326.77193905017168
 20
144.16117722006891
 30
0.0
 11
325.1842512950841
 21
145.74886497515649
 31
0.0
  0
LINE
  5
641
  8
0
 62
     0
 10
371.14245398095068
 20
144.16117722006879
 30
0.0
 11
371.1842512950841
 21
144.20297453420221
 31
0.0
  0
LINE
  5
642
  8
0
 62
     0
 10
369.02113363739107
 20
144.16117722006891
 30
0.0
 11
371.1842512950841
 21
146.3242948777619
 31
0.0
  0
LINE
  5
643
  8
0
 62
     0
 10
366.89981329383141
 20
144.16117722006891
 30
0.0
 11
371.1842512950841
 21
148.4456152213215
 31
0.0
  0
LINE
  5
644
  8
0
 62
     0
 10
364.77849295027181
 20
144.16117722006891
 30
0.0
 11
371.1842512950841
 21
150.56693556488119
 31
0.0
  0
LINE
  5
645
  8
0
 62
     0
 10
362.65717260671221
 20
144.16117722006891
 30
0.0
 11
370.16182982993649
 21
151.66583444329331
 31
0.0
  0
LINE
  5
646
  8
0
 62
     0
 10
360.53585226315249
 20
144.16117722006891
 30
0.0
 11
368.04050948637757
 21
151.66583444329399
 31
0.0
  0
LINE
  5
647
  8
0
 62
     0
 10
358.41453191959278
 20
144.16117722006891
 30
0.0
 11
365.91918914281791
 21
151.6658344432939
 31
0.0
  0
LINE
  5
648
  8
0
 62
     0
 10
356.29321157603317
 20
144.16117722006891
 30
0.0
 11
363.7978687992582
 21
151.6658344432939
 31
0.0
  0
LINE
  5
649
  8
0
 62
     0
 10
354.17189123247363
 20
144.16117722006891
 30
0.0
 11
361.67654845569859
 21
151.6658344432939
 31
0.0
  0
LINE
  5
64A
  8
0
 62
     0
 10
352.05057088891402
 20
144.16117722006891
 30
0.0
 11
359.55522811213888
 21
151.66583444329379
 31
0.0
  0
LINE
  5
64B
  8
0
 62
     0
 10
349.92925054535431
 20
144.16117722006891
 30
0.0
 11
357.43390776857922
 21
151.66583444329379
 31
0.0
  0
LINE
  5
64C
  8
0
 62
     0
 10
347.8079302017947
 20
144.16117722006891
 30
0.0
 11
355.3125874250195
 21
151.66583444329379
 31
0.0
  0
LINE
  5
64D
  8
0
 62
     0
 10
345.68660985823499
 20
144.16117722006891
 30
0.0
 11
353.1912670814599
 21
151.66583444329379
 31
0.0
  0
LINE
  5
64E
  8
0
 62
     0
 10
343.5652895146755
 20
144.16117722006891
 30
0.0
 11
351.06994673790018
 21
151.66583444329379
 31
0.0
  0
LINE
  5
64F
  8
0
 62
     0
 10
341.44396917111578
 20
144.16117722006891
 30
0.0
 11
348.94862639434058
 21
151.66583444329379
 31
0.0
  0
LINE
  5
650
  8
0
 62
     0
 10
339.32264882755612
 20
144.16117722006891
 30
0.0
 11
346.82730605078098
 21
151.66583444329379
 31
0.0
  0
LINE
  5
651
  8
0
 62
     0
 10
337.20132848399652
 20
144.16117722006891
 30
0.0
 11
344.70598570722137
 21
151.66583444329379
 31
0.0
  0
LINE
  5
652
  8
0
 62
     0
 10
335.08000814043692
 20
144.16117722006891
 30
0.0
 11
342.58466536366171
 21
151.66583444329379
 31
0.0
  0
LINE
  5
653
  8
0
 62
     0
 10
332.9586877968772
 20
144.16117722006891
 30
0.0
 11
340.463345020102
 21
151.66583444329379
 31
0.0
  0
LINE
  5
654
  8
0
 62
     0
 10
330.83736745331748
 20
144.16117722006891
 30
0.0
 11
338.34202467654228
 21
151.66583444329379
 31
0.0
  0
LINE
  5
655
  8
0
 62
     0
 10
328.71604710975788
 20
144.16117722006891
 30
0.0
 11
336.22070433298279
 21
151.66583444329379
 31
0.0
  0
LINE
  5
656
  8
0
 62
     0
 10
326.59472676619828
 20
144.16117722006891
 30
0.0
 11
334.09938398942319
 21
151.66583444329379
 31
0.0
  0
LINE
  5
657
  8
0
 62
     0
 10
325.1842512950841
 20
144.87202209251441
 30
0.0
 11
331.97806364586347
 21
151.66583444329379
 31
0.0
  0
LINE
  5
658
  8
0
 62
     0
 10
325.1842512950841
 20
146.99334243607399
 30
0.0
 11
329.85674330230393
 21
151.66583444329379
 31
0.0
  0
LINE
  5
659
  8
0
 62
     0
 10
325.1842512950841
 20
149.1146627796337
 30
0.0
 11
327.73542295874421
 21
151.66583444329379
 31
0.0
  0
LINE
  5
65A
  8
0
 62
     0
 10
325.1842512950841
 20
151.23598312319331
 30
0.0
 11
325.61410261518449
 21
151.66583444329379
 31
0.0
  0
LINE
  5
65B
  8
0
 62
     0
 10
359.5663754004313
 20
230.16583444329311
 30
0.0
 11
361.18425129508421
 21
231.78371033794591
 31
0.0
  0
LINE
  5
65C
  8
0
 62
     0
 10
357.44505505687158
 20
230.16583444329311
 30
0.0
 11
361.1842512950841
 21
233.90503068150551
 31
0.0
  0
LINE
  5
65D
  8
0
 62
     0
 10
355.32373471331198
 20
230.16583444329311
 30
0.0
 11
361.1842512950841
 21
236.02635102506511
 31
0.0
  0
LINE
  5
65E
  8
0
 62
     0
 10
353.20241436975238
 20
230.16583444329299
 30
0.0
 11
360.71742583015163
 21
237.68084590369219
 31
0.0
  0
LINE
  5
65F
  8
0
 62
     0
 10
351.08109402619272
 20
230.16583444329299
 30
0.0
 11
358.59610548659191
 21
237.68084590369219
 31
0.0
  0
LINE
  5
660
  8
0
 62
     0
 10
348.95977368263311
 20
230.16583444329299
 30
0.0
 11
356.47478514303242
 21
237.6808459036923
 31
0.0
  0
LINE
  5
661
  8
0
 62
     0
 10
346.83845333907351
 20
230.16583444329299
 30
0.0
 11
354.3534647994727
 21
237.6808459036923
 31
0.0
  0
LINE
  5
662
  8
0
 62
     0
 10
344.71713299551379
 20
230.16583444329311
 30
0.0
 11
352.2321444559131
 21
237.6808459036923
 31
0.0
  0
LINE
  5
663
  8
0
 62
     0
 10
342.59581265195419
 20
230.16583444329299
 30
0.0
 11
350.11082411235338
 21
237.6808459036923
 31
0.0
  0
LINE
  5
664
  8
0
 62
     0
 10
340.47449230839447
 20
230.16583444329299
 30
0.0
 11
347.98950376879378
 21
237.6808459036923
 31
0.0
  0
LINE
  5
665
  8
0
 62
     0
 10
338.35317196483493
 20
230.16583444329299
 30
0.0
 11
345.86818342523412
 21
237.6808459036923
 31
0.0
  0
LINE
  5
666
  8
0
 62
     0
 10
336.23185162127521
 20
230.16583444329299
 30
0.0
 11
343.74686308167452
 21
237.68084590369239
 31
0.0
  0
LINE
  5
667
  8
0
 62
     0
 10
334.11053127771549
 20
230.16583444329299
 30
0.0
 11
341.62554273811492
 21
237.6808459036923
 31
0.0
  0
LINE
  5
668
  8
0
 62
     0
 10
331.98921093415601
 20
230.16583444329299
 30
0.0
 11
339.5042223945552
 21
237.6808459036923
 31
0.0
  0
LINE
  5
669
  8
0
 62
     0
 10
329.86789059059629
 20
230.16583444329311
 30
0.0
 11
337.38290205099571
 21
237.68084590369239
 31
0.0
  0
LINE
  5
66A
  8
0
 62
     0
 10
327.74657024703669
 20
230.16583444329311
 30
0.0
 11
335.26158170743588
 21
237.6808459036923
 31
0.0
  0
LINE
  5
66B
  8
0
 62
     0
 10
325.62524990347703
 20
230.16583444329299
 30
0.0
 11
333.14026136387628
 21
237.6808459036923
 31
0.0
  0
LINE
  5
66C
  8
0
 62
     0
 10
325.18425129508398
 20
231.84615617845969
 30
0.0
 11
331.01894102031662
 21
237.68084590369239
 31
0.0
  0
LINE
  5
66D
  8
0
 62
     0
 10
325.1842512950841
 20
233.96747652201941
 30
0.0
 11
328.89762067675701
 21
237.68084590369239
 31
0.0
  0
LINE
  5
66E
  8
0
 62
     0
 10
325.18425129508398
 20
236.08879686557901
 30
0.0
 11
326.77630033319741
 21
237.6808459036923
 31
0.0
  0
ENDBLK
  5
670
  8
0
  0
BLOCK
  8
0
  2
*X6
 70
     1
 10
0.0
 20
0.0
 30
0.0
  3
*X6
  1

  0
LINE
  5
672
  8
0
 62
     0
 10
537.12528154391453
 20
65.329696027023942
 30
0.0
 11
536.454977557966
 21
66.000000012972436
 31
0.0
  0
LINE
  5
673
  8
0
 62
     0
 10
537.12528154391453
 20
63.208375683464283
 30
0.0
 11
534.33365721440634
 21
66.000000012972436
 31
0.0
  0
LINE
  5
674
  8
0
 62
     0
 10
537.12528154391453
 20
61.08705533990468
 30
0.0
 11
532.21233687084657
 21
66.000000012972407
 31
0.0
  0
LINE
  5
675
  8
0
 62
     0
 10
537.12528154391453
 20
58.96573499634502
 30
0.0
 11
530.09101652728702
 21
66.000000012972436
 31
0.0
  0
LINE
  5
676
  8
0
 62
     0
 10
537.12528154391453
 20
56.84441465278536
 30
0.0
 11
529.61027008351527
 21
64.359426113184469
 31
0.0
  0
LINE
  5
677
  8
0
 62
     0
 10
537.12528154391453
 20
54.723094309225701
 30
0.0
 11
529.61027008351527
 21
62.238105769624838
 31
0.0
  0
LINE
  5
678
  8
0
 62
     0
 10
537.12528154391453
 20
52.601773965666119
 30
0.0
 11
529.61027008351527
 21
60.116785426065242
 31
0.0
  0
LINE
  5
679
  8
0
 62
     0
 10
537.12528154391453
 20
50.480453622106431
 30
0.0
 11
529.61027008351527
 21
57.995465082505568
 31
0.0
  0
LINE
  5
67A
  8
0
 62
     0
 10
537.12528154391453
 20
48.359133278546778
 30
0.0
 11
529.61027008351527
 21
55.874144738945937
 31
0.0
  0
LINE
  5
67B
  8
0
 62
     0
 10
537.12528154391453
 20
46.237812934987112
 30
0.0
 11
529.61027008351527
 21
53.752824395386277
 31
0.0
  0
LINE
  5
67C
  8
0
 62
     0
 10
537.12528154391453
 20
44.11649259142748
 30
0.0
 11
529.61027008351527
 21
51.631504051826617
 31
0.0
  0
LINE
  5
67D
  8
0
 62
     0
 10
537.12528154391453
 20
41.995172247867849
 30
0.0
 11
529.61027008351527
 21
49.510183708266943
 31
0.0
  0
LINE
  5
67E
  8
0
 62
     0
 10
537.12528154391453
 20
39.873851904308232
 30
0.0
 11
529.61027008351527
 21
47.388863364707333
 31
0.0
  0
LINE
  5
67F
  8
0
 62
     0
 10
537.12528154391453
 20
37.752531560748572
 30
0.0
 11
529.61027008351527
 21
45.267543021147702
 31
0.0
  0
LINE
  5
680
  8
0
 62
     0
 10
537.12528154391453
 20
35.631211217188927
 30
0.0
 11
529.61027008351527
 21
43.146222677588042
 31
0.0
  0
LINE
  5
681
  8
0
 62
     0
 10
537.12528154391453
 20
33.509890873629281
 30
0.0
 11
529.6102700835155
 21
41.02490233402829
 31
0.0
  0
LINE
  5
682
  8
0
 62
     0
 10
537.12528154391453
 20
31.388570530069671
 30
0.0
 11
529.61027008351562
 21
38.903581990468581
 31
0.0
  0
LINE
  5
683
  8
0
 62
     0
 10
536.33105259157219
 20
30.061479138852238
 30
0.0
 11
529.61027008351562
 21
36.782261646908893
 31
0.0
  0
LINE
  5
684
  8
0
 62
     0
 10
534.20973224801264
 20
30.06147913885221
 30
0.0
 11
529.61027008351562
 21
34.660941303349233
 31
0.0
  0
LINE
  5
685
  8
0
 62
     0
 10
532.08841190445298
 20
30.06147913885226
 30
0.0
 11
529.61027008351562
 21
32.539620959789687
 31
0.0
  0
LINE
  5
686
  8
0
 62
     0
 10
529.96709156089344
 20
30.06147913885221
 30
0.0
 11
529.61027008351562
 21
30.418300616230031
 31
0.0
  0
LINE
  5
687
  8
0
 62
     0
 10
451.11027008351601
 20
64.370573401477031
 30
0.0
 11
449.48084347202069
 21
66.000000012972379
 31
0.0
  0
LINE
  5
688
  8
0
 62
     0
 10
451.11027008351601
 20
62.2492530579174
 30
0.0
 11
447.35952312846109
 21
66.000000012972379
 31
0.0
  0
LINE
  5
689
  8
0
 62
     0
 10
451.11027008351601
 20
60.127932714357769
 30
0.0
 11
445.23820278490138
 21
66.000000012972407
 31
0.0
  0
LINE
  5
68A
  8
0
 62
     0
 10
451.11027008351601
 20
58.006612370798109
 30
0.0
 11
443.60561286029122
 21
65.511269594022906
 31
0.0
  0
LINE
  5
68B
  8
0
 62
     0
 10
451.11027008351601
 20
55.885292027238471
 30
0.0
 11
443.60561286029122
 21
63.389949250463253
 31
0.0
  0
LINE
  5
68C
  8
0
 62
     0
 10
451.11027008351601
 20
53.763971683678818
 30
0.0
 11
443.60561286029122
 21
61.268628906903579
 31
0.0
  0
LINE
  5
68D
  8
0
 62
     0
 10
451.11027008351613
 20
51.642651340119073
 30
0.0
 11
443.60561286029122
 21
59.147308563344012
 31
0.0
  0
LINE
  5
68E
  8
0
 62
     0
 10
451.1102700835163
 20
49.5213309965593
 30
0.0
 11
443.60561286029122
 21
57.025988219784473
 31
0.0
  0
LINE
  5
68F
  8
0
 62
     0
 10
451.1102700835163
 20
47.40001065299964
 30
0.0
 11
443.6056128602911
 21
54.904667876224863
 31
0.0
  0
LINE
  5
690
  8
0
 62
     0
 10
451.1102700835163
 20
45.27869030944003
 30
0.0
 11
443.60561286029122
 21
52.783347532665204
 31
0.0
  0
LINE
  5
691
  8
0
 62
     0
 10
451.1102700835163
 20
43.157369965880378
 30
0.0
 11
443.6056128602911
 21
50.662027189105601
 31
0.0
  0
LINE
  5
692
  8
0
 62
     0
 10
451.1102700835163
 20
41.036049622320711
 30
0.0
 11
443.6056128602911
 21
48.540706845545941
 31
0.0
  0
LINE
  5
693
  8
0
 62
     0
 10
451.1102700835163
 20
38.914729278761087
 30
0.0
 11
443.6056128602911
 21
46.41938650198631
 31
0.0
  0
LINE
  5
694
  8
0
 62
     0
 10
451.1102700835163
 20
36.793408935201462
 30
0.0
 11
443.6056128602911
 21
44.298066158426671
 31
0.0
  0
LINE
  5
695
  8
0
 62
     0
 10
451.1102700835163
 20
34.672088591641803
 30
0.0
 11
443.6056128602911
 21
42.176745814867019
 31
0.0
  0
LINE
  5
696
  8
0
 62
     0
 10
451.1102700835163
 20
32.550768248082171
 30
0.0
 11
443.6056128602911
 21
40.055425471307387
 31
0.0
  0
LINE
  5
697
  8
0
 62
     0
 10
451.11027008351613
 20
30.429447904522672
 30
0.0
 11
443.6056128602911
 21
37.934105127747728
 31
0.0
  0
LINE
  5
698
  8
0
 62
     0
 10
451.11027008351567
 20
28.308127560963531
 30
0.0
 11
443.6056128602911
 21
35.812784784188104
 31
0.0
  0
LINE
  5
699
  8
0
 62
     0
 10
451.11027008351562
 20
26.186807217403949
 30
0.0
 11
443.6056128602911
 21
33.691464440628437
 31
0.0
  0
LINE
  5
69A
  8
0
 62
     0
 10
451.11027008351562
 20
24.065486873844321
 30
0.0
 11
443.6056128602911
 21
31.570144097068809
 31
0.0
  0
LINE
  5
69B
  8
0
 62
     0
 10
451.1102700835155
 20
21.94416653028475
 30
0.0
 11
443.6056128602911
 21
29.448823753509181
 31
0.0
  0
LINE
  5
69C
  8
0
 62
     0
 10
451.1102700835155
 20
19.82284618672508
 30
0.0
 11
443.6056128602911
 21
27.327503409949522
 31
0.0
  0
LINE
  5
69D
  8
0
 62
     0
 10
451.11027008351527
 20
17.70152584316557
 30
0.0
 11
443.6056128602911
 21
25.20618306638989
 31
0.0
  0
LINE
  5
69E
  8
0
 62
     0
 10
451.11027008351539
 20
15.58020549960591
 30
0.0
 11
443.6056128602911
 21
23.084862722830248
 31
0.0
  0
LINE
  5
69F
  8
0
 62
     0
 10
451.11027008351539
 20
13.45888515604625
 30
0.0
 11
443.6056128602911
 21
20.963542379270589
 31
0.0
  0
LINE
  5
6A0
  8
0
 62
     0
 10
451.11027008351527
 20
11.337564812486621
 30
0.0
 11
443.6056128602911
 21
18.842222035710961
 31
0.0
  0
LINE
  5
6A1
  8
0
 62
     0
 10
451.11027008351539
 20
9.2162444689269876
 30
0.0
 11
443.6056128602911
 21
16.720901692151301
 31
0.0
  0
LINE
  5
6A2
  8
0
 62
     0
 10
451.11027008351539
 20
7.094924125367327
 30
0.0
 11
443.6056128602911
 21
14.59958134859167
 31
0.0
  0
LINE
  5
6A3
  8
0
 62
     0
 10
450.08387385234721
 20
6.0000000129758169
 30
0.0
 11
443.6056128602911
 21
12.47826100503201
 31
0.0
  0
LINE
  5
6A4
  8
0
 62
     0
 10
447.96255350878761
 20
6.0000000129758462
 30
0.0
 11
443.6056128602911
 21
10.356940661472381
 31
0.0
  0
LINE
  5
6A5
  8
0
 62
     0
 10
445.84123316522789
 20
6.0000000129758462
 30
0.0
 11
443.60561286029122
 21
8.2356203179126908
 31
0.0
  0
LINE
  5
6A6
  8
0
 62
     0
 10
443.7199128216684
 20
6.0000000129757893
 30
0.0
 11
443.6056128602911
 21
6.114299974353087
 31
0.0
  0
LINE
  5
6A7
  8
0
 62
     0
 10
537.05704124960687
 20
30.06147913885221
 30
0.0
 11
537.12528154391453
 21
30.12971943315986
 31
0.0
  0
LINE
  5
6A8
  8
0
 62
     0
 10
534.93572090604721
 20
30.06147913885226
 30
0.0
 11
537.12528154391453
 21
32.25103977671953
 31
0.0
  0
LINE
  5
6A9
  8
0
 62
     0
 10
532.81440056248755
 20
30.061479138852238
 30
0.0
 11
537.12528154391453
 21
34.372360120279147
 31
0.0
  0
LINE
  5
6AA
  8
0
 62
     0
 10
530.69308021892778
 20
30.061479138852182
 30
0.0
 11
537.12528154391453
 21
36.493680463838821
 31
0.0
  0
LINE
  5
6AB
  8
0
 62
     0
 10
529.61027008351562
 20
31.099989346999511
 30
0.0
 11
537.12528154391453
 21
38.615000807398417
 31
0.0
  0
LINE
  5
6AC
  8
0
 62
     0
 10
529.61027008351562
 20
33.221309690559139
 30
0.0
 11
537.12528154391453
 21
40.736321150958041
 31
0.0
  0
LINE
  5
6AD
  8
0
 62
     0
 10
529.61027008351562
 20
35.342630034118798
 30
0.0
 11
537.12528154391453
 21
42.857641494517708
 31
0.0
  0
LINE
  5
6AE
  8
0
 62
     0
 10
529.61027008351562
 20
37.463950377678458
 30
0.0
 11
537.12528154391453
 21
44.97896183807736
 31
0.0
  0
LINE
  5
6AF
  8
0
 62
     0
 10
529.61027008351562
 20
39.585270721238118
 30
0.0
 11
537.12528154391453
 21
47.10028218163702
 31
0.0
  0
LINE
  5
6B0
  8
0
 62
     0
 10
529.61027008351527
 20
41.706591064797578
 30
0.0
 11
537.12528154391453
 21
49.221602525196658
 31
0.0
  0
LINE
  5
6B1
  8
0
 62
     0
 10
529.61027008351527
 20
43.827911408357181
 30
0.0
 11
537.12528154391453
 21
51.342922868756311
 31
0.0
  0
LINE
  5
6B2
  8
0
 62
     0
 10
529.61027008351527
 20
45.949231751916827
 30
0.0
 11
537.12528154391453
 21
53.464243212315921
 31
0.0
  0
LINE
  5
6B3
  8
0
 62
     0
 10
529.61027008351527
 20
48.070552095476472
 30
0.0
 11
537.12528154391453
 21
55.585563555875552
 31
0.0
  0
LINE
  5
6B4
  8
0
 62
     0
 10
529.61027008351527
 20
50.191872439036082
 30
0.0
 11
537.12528154391453
 21
57.706883899435212
 31
0.0
  0
LINE
  5
6B5
  8
0
 62
     0
 10
529.61027008351527
 20
52.313192782595728
 30
0.0
 11
537.12528154391453
 21
59.828204242994872
 31
0.0
  0
LINE
  5
6B6
  8
0
 62
     0
 10
529.61027008351527
 20
54.434513126155359
 30
0.0
 11
537.12528154391453
 21
61.949524586554503
 31
0.0
  0
LINE
  5
6B7
  8
0
 62
     0
 10
529.61027008351527
 20
56.555833469715033
 30
0.0
 11
537.12528154391453
 21
64.070844930114163
 31
0.0
  0
LINE
  5
6B8
  8
0
 62
     0
 10
529.61027008351527
 20
58.677153813274678
 30
0.0
 11
536.93311628321305
 21
66.00000001297235
 31
0.0
  0
LINE
  5
6B9
  8
0
 62
     0
 10
529.61027008351527
 20
60.798474156834352
 30
0.0
 11
534.81179593965339
 21
66.000000012972407
 31
0.0
  0
LINE
  5
6BA
  8
0
 62
     0
 10
529.61027008351527
 20
62.919794500393913
 30
0.0
 11
532.69047559609385
 21
66.000000012972379
 31
0.0
  0
LINE
  5
6BB
  8
0
 62
     0
 10
529.61027008351527
 20
65.041114843953579
 30
0.0
 11
530.56915525253419
 21
66.000000012972379
 31
0.0
  0
LINE
  5
6BC
  8
0
 62
     0
 10
449.35595181694111
 20
6.0000000129758169
 30
0.0
 11
451.11027008351527
 21
7.754318279550005
 31
0.0
  0
LINE
  5
6BD
  8
0
 62
     0
 10
447.23463147338151
 20
6.0000000129758462
 30
0.0
 11
451.11027008351527
 21
9.8756386231096371
 31
0.0
  0
LINE
  5
6BE
  8
0
 62
     0
 10
445.1133111298218
 20
6.0000000129757893
 30
0.0
 11
451.11027008351527
 21
11.99695896666927
 31
0.0
  0
LINE
  5
6BF
  8
0
 62
     0
 10
443.6056128602911
 20
6.6136220870046989
 30
0.0
 11
451.11027008351527
 21
14.11827931022893
 31
0.0
  0
LINE
  5
6C0
  8
0
 62
     0
 10
443.6056128602911
 20
8.7349424305643311
 30
0.0
 11
451.11027008351527
 21
16.239599653788609
 31
0.0
  0
LINE
  5
6C1
  8
0
 62
     0
 10
443.6056128602911
 20
10.856262774123961
 30
0.0
 11
451.11027008351527
 21
18.360919997348301
 31
0.0
  0
LINE
  5
6C2
  8
0
 62
     0
 10
443.6056128602911
 20
12.97758311768359
 30
0.0
 11
451.1102700835155
 21
20.482240340907971
 31
0.0
  0
LINE
  5
6C3
  8
0
 62
     0
 10
443.6056128602911
 20
15.09890346124328
 30
0.0
 11
451.1102700835155
 21
22.603560684467649
 31
0.0
  0
LINE
  5
6C4
  8
0
 62
     0
 10
443.6056128602911
 20
17.220223804802941
 30
0.0
 11
451.1102700835155
 21
24.72488102802734
 31
0.0
  0
LINE
  5
6C5
  8
0
 62
     0
 10
443.6056128602911
 20
19.341544148362569
 30
0.0
 11
451.11027008351562
 21
26.846201371587028
 31
0.0
  0
LINE
  5
6C6
  8
0
 62
     0
 10
443.6056128602911
 20
21.462864491922211
 30
0.0
 11
451.11027008351579
 21
28.967521715146859
 31
0.0
  0
LINE
  5
6C7
  8
0
 62
     0
 10
443.6056128602911
 20
23.58418483548186
 30
0.0
 11
451.11027008351618
 21
31.08884205870698
 31
0.0
  0
LINE
  5
6C8
  8
0
 62
     0
 10
443.6056128602911
 20
25.705505179041499
 30
0.0
 11
451.1102700835163
 21
33.210162402266661
 31
0.0
  0
LINE
  5
6C9
  8
0
 62
     0
 10
443.6056128602911
 20
27.82682552260113
 30
0.0
 11
451.1102700835163
 21
35.331482745826321
 31
0.0
  0
LINE
  5
6CA
  8
0
 62
     0
 10
443.6056128602911
 20
29.94814586616079
 30
0.0
 11
451.1102700835163
 21
37.452803089385931
 31
0.0
  0
LINE
  5
6CB
  8
0
 62
     0
 10
443.6056128602911
 20
32.069466209720453
 30
0.0
 11
451.1102700835163
 21
39.574123432945591
 31
0.0
  0
LINE
  5
6CC
  8
0
 62
     0
 10
443.6056128602911
 20
34.190786553280049
 30
0.0
 11
451.1102700835163
 21
41.695443776505243
 31
0.0
  0
LINE
  5
6CD
  8
0
 62
     0
 10
443.6056128602911
 20
36.312106896839708
 30
0.0
 11
451.1102700835163
 21
43.816764120064903
 31
0.0
  0
LINE
  5
6CE
  8
0
 62
     0
 10
443.6056128602911
 20
38.433427240399368
 30
0.0
 11
451.1102700835163
 21
45.938084463624513
 31
0.0
  0
LINE
  5
6CF
  8
0
 62
     0
 10
443.6056128602911
 20
40.554747583958999
 30
0.0
 11
451.1102700835163
 21
48.059404807184137
 31
0.0
  0
LINE
  5
6D0
  8
0
 62
     0
 10
443.6056128602911
 20
42.676067927518631
 30
0.0
 11
451.1102700835163
 21
50.180725150743768
 31
0.0
  0
LINE
  5
6D1
  8
0
 62
     0
 10
443.6056128602911
 20
44.79738827107829
 30
0.0
 11
451.11027008351613
 21
52.302045494303307
 31
0.0
  0
LINE
  5
6D2
  8
0
 62
     0
 10
443.6056128602911
 20
46.91870861463795
 30
0.0
 11
451.11027008351601
 21
54.423365837862832
 31
0.0
  0
LINE
  5
6D3
  8
0
 62
     0
 10
443.6056128602911
 20
49.040028958197553
 30
0.0
 11
451.1102700835159
 21
56.544686181422463
 31
0.0
  0
LINE
  5
6D4
  8
0
 62
     0
 10
443.6056128602911
 20
51.161349301757213
 30
0.0
 11
451.11027008351601
 21
58.666006524982123
 31
0.0
  0
LINE
  5
6D5
  8
0
 62
     0
 10
443.6056128602911
 20
53.282669645316822
 30
0.0
 11
451.11027008351601
 21
60.787326868541747
 31
0.0
  0
LINE
  5
6D6
  8
0
 62
     0
 10
443.6056128602911
 20
55.403989988876468
 30
0.0
 11
451.1102700835159
 21
62.908647212101357
 31
0.0
  0
LINE
  5
6D7
  8
0
 62
     0
 10
443.60561286029122
 20
57.52531033243622
 30
0.0
 11
451.11027008351601
 21
65.029967555661017
 31
0.0
  0
LINE
  5
6D8
  8
0
 62
     0
 10
443.60561286029122
 20
59.646630675995908
 30
0.0
 11
449.95898219726757
 21
66.000000012972407
 31
0.0
  0
LINE
  5
6D9
  8
0
 62
     0
 10
443.60561286029122
 20
61.767951019555568
 30
0.0
 11
447.83766185370808
 21
66.000000012972379
 31
0.0
  0
LINE
  5
6DA
  8
0
 62
     0
 10
443.60561286029122
 20
63.88927136311522
 30
0.0
 11
445.71634151014842
 21
66.000000012972379
 31
0.0
  0
ENDBLK
  5
6DC
  8
0
  0
BLOCK
  8
0
  2
*X7
 70
     1
 10
0.0
 20
0.0
 30
0.0
  3
*X7
  1

  0
LINE
  5
6DE
  8
0
 62
     0
 10
299.43425129508432
 20
235.5
 30
0.0
 11
159.05925129508429
 21
235.5
 31
0.0
  0
LINE
  5
6DF
  8
0
 62
     0
 10
299.43425129508432
 20
234.0
 30
0.0
 11
159.05925129508429
 21
234.0
 31
0.0
  0
LINE
  5
6E0
  8
0
 62
     0
 10
299.43425129508432
 20
232.5
 30
0.0
 11
159.05925129508429
 21
232.5
 31
0.0
  0
LINE
  5
6E1
  8
0
 62
     0
 10
299.43425129508432
 20
231.0
 30
0.0
 11
159.05925129508429
 21
231.0
 31
0.0
  0
LINE
  5
6E2
  8
0
 62
     0
 10
299.43425129508432
 20
229.5
 30
0.0
 11
159.05925129508429
 21
229.5
 31
0.0
  0
LINE
  5
6E3
  8
0
 62
     0
 10
299.43425129508432
 20
228.0
 30
0.0
 11
159.05925129508429
 21
228.0
 31
0.0
  0
LINE
  5
6E4
  8
0
 62
     0
 10
299.43425129508432
 20
226.5
 30
0.0
 11
159.05925129508421
 21
226.5
 31
0.0
  0
LINE
  5
6E5
  8
0
 62
     0
 10
299.43425129508432
 20
225.0
 30
0.0
 11
159.05925129508421
 21
225.0
 31
0.0
  0
LINE
  5
6E6
  8
0
 62
     0
 10
299.43425129508432
 20
223.5
 30
0.0
 11
159.05925129508421
 21
223.5
 31
0.0
  0
LINE
  5
6E7
  8
0
 62
     0
 10
299.43425129508432
 20
222.0
 30
0.0
 11
159.05925129508421
 21
222.0
 31
0.0
  0
LINE
  5
6E8
  8
0
 62
     0
 10
299.43425129508432
 20
220.5
 30
0.0
 11
159.05925129508421
 21
220.5
 31
0.0
  0
LINE
  5
6E9
  8
0
 62
     0
 10
299.43425129508421
 20
219.0
 30
0.0
 11
159.05925129508421
 21
219.0
 31
0.0
  0
LINE
  5
6EA
  8
0
 62
     0
 10
299.43425129508421
 20
217.5
 30
0.0
 11
159.05925129508421
 21
217.5
 31
0.0
  0
LINE
  5
6EB
  8
0
 62
     0
 10
299.43425129508421
 20
216.0
 30
0.0
 11
159.05925129508421
 21
216.0
 31
0.0
  0
LINE
  5
6EC
  8
0
 62
     0
 10
299.43425129508421
 20
214.5
 30
0.0
 11
159.05925129508421
 21
214.5
 31
0.0
  0
LINE
  5
6ED
  8
0
 62
     0
 10
299.43425129508421
 20
213.0
 30
0.0
 11
159.05925129508421
 21
213.0
 31
0.0
  0
LINE
  5
6EE
  8
0
 62
     0
 10
299.43425129508421
 20
211.5
 30
0.0
 11
159.05925129508421
 21
211.5
 31
0.0
  0
LINE
  5
6EF
  8
0
 62
     0
 10
299.43425129508421
 20
210.0
 30
0.0
 11
159.0592512950841
 21
210.0
 31
0.0
  0
LINE
  5
6F0
  8
0
 62
     0
 10
299.43425129508421
 20
208.5
 30
0.0
 11
159.0592512950841
 21
208.5
 31
0.0
  0
LINE
  5
6F1
  8
0
 62
     0
 10
299.4342512950841
 20
207.0
 30
0.0
 11
159.0592512950841
 21
207.0
 31
0.0
  0
LINE
  5
6F2
  8
0
 62
     0
 10
299.4342512950841
 20
205.5
 30
0.0
 11
159.0592512950841
 21
205.5
 31
0.0
  0
LINE
  5
6F3
  8
0
 62
     0
 10
299.4342512950841
 20
204.0
 30
0.0
 11
159.0592512950841
 21
204.0
 31
0.0
  0
LINE
  5
6F4
  8
0
 62
     0
 10
299.4342512950841
 20
202.5
 30
0.0
 11
159.0592512950841
 21
202.5
 31
0.0
  0
LINE
  5
6F5
  8
0
 62
     0
 10
299.4342512950841
 20
201.0
 30
0.0
 11
159.0592512950841
 21
201.0
 31
0.0
  0
LINE
  5
6F6
  8
0
 62
     0
 10
299.4342512950841
 20
199.49999999999989
 30
0.0
 11
159.0592512950841
 21
199.49999999999989
 31
0.0
  0
LINE
  5
6F7
  8
0
 62
     0
 10
299.4342512950841
 20
198.0
 30
0.0
 11
159.0592512950841
 21
198.0
 31
0.0
  0
LINE
  5
6F8
  8
0
 62
     0
 10
299.4342512950841
 20
196.5
 30
0.0
 11
159.0592512950841
 21
196.5
 31
0.0
  0
LINE
  5
6F9
  8
0
 62
     0
 10
299.4342512950841
 20
195.0
 30
0.0
 11
159.0592512950841
 21
195.0
 31
0.0
  0
LINE
  5
6FA
  8
0
 62
     0
 10
299.4342512950841
 20
193.5
 30
0.0
 11
159.0592512950841
 21
193.5
 31
0.0
  0
LINE
  5
6FB
  8
0
 62
     0
 10
299.4342512950841
 20
191.99999999999989
 30
0.0
 11
159.0592512950841
 21
191.99999999999989
 31
0.0
  0
LINE
  5
6FC
  8
0
 62
     0
 10
299.4342512950841
 20
190.5
 30
0.0
 11
159.0592512950841
 21
190.5
 31
0.0
  0
LINE
  5
6FD
  8
0
 62
     0
 10
299.4342512950841
 20
188.99999999999989
 30
0.0
 11
159.0592512950841
 21
188.99999999999989
 31
0.0
  0
LINE
  5
6FE
  8
0
 62
     0
 10
299.4342512950841
 20
187.5
 30
0.0
 11
159.05925129508401
 21
187.5
 31
0.0
  0
LINE
  5
6FF
  8
0
 62
     0
 10
299.4342512950841
 20
185.99999999999989
 30
0.0
 11
159.05925129508401
 21
185.99999999999989
 31
0.0
  0
LINE
  5
700
  8
0
 62
     0
 10
299.43425129508398
 20
184.49999999999989
 30
0.0
 11
159.05925129508401
 21
184.49999999999989
 31
0.0
  0
LINE
  5
701
  8
0
 62
     0
 10
299.43425129508398
 20
183.0
 30
0.0
 11
159.05925129508401
 21
183.0
 31
0.0
  0
LINE
  5
702
  8
0
 62
     0
 10
299.43425129508398
 20
181.49999999999989
 30
0.0
 11
159.05925129508401
 21
181.49999999999989
 31
0.0
  0
LINE
  5
703
  8
0
 62
     0
 10
299.43425129508398
 20
180.0
 30
0.0
 11
159.05925129508401
 21
180.0
 31
0.0
  0
LINE
  5
704
  8
0
 62
     0
 10
299.43425129508398
 20
178.49999999999989
 30
0.0
 11
159.05925129508401
 21
178.49999999999989
 31
0.0
  0
LINE
  5
705
  8
0
 62
     0
 10
299.43425129508398
 20
177.0
 30
0.0
 11
159.05925129508401
 21
177.0
 31
0.0
  0
LINE
  5
706
  8
0
 62
     0
 10
299.43425129508398
 20
175.49999999999989
 30
0.0
 11
159.05925129508401
 21
175.49999999999989
 31
0.0
  0
LINE
  5
707
  8
0
 62
     0
 10
299.43425129508398
 20
174.0
 30
0.0
 11
159.05925129508401
 21
174.0
 31
0.0
  0
LINE
  5
708
  8
0
 62
     0
 10
299.43425129508398
 20
172.49999999999989
 30
0.0
 11
159.05925129508401
 21
172.49999999999989
 31
0.0
  0
LINE
  5
709
  8
0
 62
     0
 10
299.43425129508398
 20
170.99999999999989
 30
0.0
 11
159.05925129508401
 21
170.99999999999989
 31
0.0
  0
LINE
  5
70A
  8
0
 62
     0
 10
299.43425129508398
 20
169.5
 30
0.0
 11
159.05925129508401
 21
169.5
 31
0.0
  0
LINE
  5
70B
  8
0
 62
     0
 10
299.43425129508398
 20
167.99999999999989
 30
0.0
 11
159.05925129508401
 21
167.99999999999989
 31
0.0
  0
LINE
  5
70C
  8
0
 62
     0
 10
299.43425129508398
 20
166.5
 30
0.0
 11
159.05925129508401
 21
166.5
 31
0.0
  0
LINE
  5
70D
  8
0
 62
     0
 10
299.43425129508398
 20
164.99999999999989
 30
0.0
 11
159.0592512950839
 21
164.99999999999989
 31
0.0
  0
LINE
  5
70E
  8
0
 62
     0
 10
299.43425129508398
 20
163.49999999999989
 30
0.0
 11
159.0592512950839
 21
163.49999999999989
 31
0.0
  0
LINE
  5
70F
  8
0
 62
     0
 10
299.43425129508393
 20
161.99999999999989
 30
0.0
 11
159.0592512950839
 21
161.99999999999989
 31
0.0
  0
LINE
  5
710
  8
0
 62
     0
 10
299.43425129508393
 20
160.49999999999989
 30
0.0
 11
159.0592512950839
 21
160.49999999999989
 31
0.0
  0
LINE
  5
711
  8
0
 62
     0
 10
299.43425129508393
 20
159.0
 30
0.0
 11
159.0592512950839
 21
159.0
 31
0.0
  0
LINE
  5
712
  8
0
 62
     0
 10
299.43425129508393
 20
157.5
 30
0.0
 11
159.0592512950839
 21
157.5
 31
0.0
  0
LINE
  5
713
  8
0
 62
     0
 10
299.43425129508393
 20
156.0
 30
0.0
 11
159.0592512950839
 21
156.0
 31
0.0
  0
LINE
  5
714
  8
0
 62
     0
 10
299.43425129508393
 20
154.49999999999989
 30
0.0
 11
159.0592512950839
 21
154.49999999999989
 31
0.0
  0
LINE
  5
715
  8
0
 62
     0
 10
299.43425129508393
 20
153.0
 30
0.0
 11
159.0592512950839
 21
153.0
 31
0.0
  0
LINE
  5
716
  8
0
 62
     0
 10
299.43425129508393
 20
151.49999999999989
 30
0.0
 11
159.0592512950839
 21
151.49999999999989
 31
0.0
  0
LINE
  5
717
  8
0
 62
     0
 10
299.43425129508393
 20
150.0
 30
0.0
 11
159.0592512950839
 21
150.0
 31
0.0
  0
LINE
  5
718
  8
0
 62
     0
 10
299.43425129508393
 20
148.49999999999989
 30
0.0
 11
159.0592512950839
 21
148.49999999999989
 31
0.0
  0
LINE
  5
719
  8
0
 62
     0
 10
299.43425129508393
 20
146.99999999999989
 30
0.0
 11
159.05925129508381
 21
146.99999999999989
 31
0.0
  0
LINE
  5
71A
  8
0
 62
     0
 10
299.43425129508393
 20
145.5
 30
0.0
 11
159.05925129508381
 21
145.5
 31
0.0
  0
ENDBLK
  5
71C
  8
0
  0
ENDSEC
  0
SECTION
  2
ENTITIES
  0
LINE
  5
35A
  8
0
 10
330.81625162589899
 20
34.922057354318653
 30
0.0
 11
359.37447364595658
 21
7.9141334234954552
 31
0.0
  0
LINE
  5
35B
  8
0
 10
370.93520429895079
 20
14.85057655545836
 30
0.0
 11
360.5438476029247
 21
52.758614940533832
 31
0.0
  0
ARC
  5
35C
  8
0
 10
343.1842512950841
 20
48.000000012972428
 30
0.0
 40
17.999999999999979
 50
90.0
 51
226.59814036224839
1001
ACAD
1000
ASC_BOUNDS
1002
{
1070
    19
1005
4E2
1002
}
  0
ARC
  5
35D
  8
0
 10
343.1842512950841
 20
48.000000012972428
 30
0.0
 40
17.999999999999979
 50
15.329372701899921
 51
90.0
1001
ACAD
1000
ASC_BOUNDS
1002
{
1070
    19
1005
4E2
1002
}
  0
ARC
  5
35E
  8
0
 10
364.1842512950841
 20
13.000000012971929
 30
0.0
 40
6.9999999999999991
 50
226.5981403622487
 51
270.0
1001
ACAD
1000
ASC_BOUNDS
1002
{
1070
    19
1005
4E2
1002
}
  0
ARC
  5
35F
  8
0
 10
364.1842512950841
 20
13.000000012971929
 30
0.0
 40
6.9999999999999973
 50
270.0
 51
15.329372701900169
1001
ACAD
1000
ASC_BOUNDS
1002
{
1070
    19
1005
4E2
1002
}
  0
LINE
  5
360
  8
0
 10
330.81625162589899
 20
34.922057354318312
 30
0.0
 11
359.37447364595658
 21
7.9141334234951151
 31
0.0
1001
ACAD
1000
ASC_BOUNDS
1002
{
1070
    19
1005
4E2
1002
}
  0
LINE
  5
361
  8
0
 10
370.93520541479978
 20
14.85057248480139
 30
0.0
 11
360.5438476029247
 21
52.758614940533491
 31
0.0
1001
ACAD
1000
ASC_BOUNDS
1002
{
1070
    19
1005
4E2
1002
}
  0
LINE
  5
362
  8
0
 10
301.05925129508393
 20
79.000000012972436
 30
0.0
 11
301.05925129508393
 21
6.0000000129743132
 31
0.0
  0
LINE
  5
363
  8
0
 10
157.4342512950839
 20
6.0000000129743132
 30
0.0
 11
157.4342512950839
 21
79.000000012972436
 31
0.0
  0
LINE
  5
364
  8
0
 10
301.05925129508393
 20
6.0000000129743132
 30
0.0
 11
157.4342512950839
 21
6.0000000129743132
 31
0.0
  0
LINE
  5
365
  8
0
 10
157.4342512950839
 20
79.000000012972436
 30
0.0
 11
301.05925129508393
 21
79.000000012972436
 31
0.0
  0
LINE
  5
366
  8
0
 10
304.0592512950841
 20
6.0000000129710704
 30
0.0
 11
343.1842512950841
 21
10.77537689977293
 31
0.0
  0
ARC
  5
367
  8
0
 10
340.18425129508432
 20
40.625000012971547
 30
0.0
 40
30.000000000000011
 50
275.7391704772615
 51
295.91139169256172
  0
ARC
  5
368
  8
0
 10
340.18425129508432
 20
40.625000012971547
 30
0.0
 40
30.000000000000011
 50
334.95256645166421
 51
114.07907070550461
  0
LINE
  5
369
  8
0
 10
327.94434164237799
 20
68.014498213807343
 30
0.0
 11
301.0592512950841
 21
56.000000012971462
 31
0.0
  0
LINE
  5
36A
  8
0
 10
157.43425129508429
 20
0.0000000129704042
 30
0.0
 11
157.4342512950841
 21
6.0000000129728237
 31
0.0
  0
LINE
  5
36B
  8
0
 10
373.1842512950841
 20
6.0000000129758071
 30
0.0
 11
373.1842512950841
 21
0.0000000129733881
 31
0.0
  0
LINE
  5
36C
  8
0
 10
157.43425129508429
 20
0.0000000129704042
 30
0.0
 11
373.1842512950841
 21
0.0000000129733876
 31
0.0
  0
LINE
  5
36D
  8
0
 10
373.1842512950841
 20
6.0000000129758071
 30
0.0
 11
157.4342512950841
 21
6.0000000129728237
 31
0.0
  0
ARC
  5
36E
  8
0
 10
229.2467512950854
 20
61.000000012970197
 30
0.0
 40
8.2500000000000089
 50
179.9999999999998
 51
359.99999999999881
  0
ARC
  5
36F
  8
0
 10
229.2467512950854
 20
61.000000012970197
 30
0.0
 40
8.25
 50
359.9999999999996
 51
179.9999999999998
  0
ARC
  5
370
  8
0
 10
229.2467512950854
 20
61.000000012970197
 30
0.0
 40
7.6874999999999902
 50
0.0000000000007252
 51
180.0000000000002
  0
ARC
  5
371
  8
0
 10
229.2467512950854
 20
61.000000012970197
 30
0.0
 40
7.687499999999992
 50
180.0000000000002
 51
0.0000000000000509
  0
LINE
  5
372
  8
0
 10
234.3692520690733
 20
58.55814416417283
 30
0.0
 11
234.17431159288279
 21
58.109235434014103
 31
0.0
  0
LINE
  5
373
  8
0
 10
234.17431159288279
 20
58.109235434014103
 30
0.0
 11
233.7234187357401
 21
57.95199337052204
 31
0.0
  0
LINE
  5
374
  8
0
 10
233.7234187357401
 20
57.95199337052204
 30
0.0
 11
233.39888996589869
 21
58.016229481633147
 31
0.0
  0
LINE
  5
375
  8
0
 10
233.39888996589869
 20
58.016229481633147
 30
0.0
 11
233.16339889447019
 21
58.208937814966468
 31
0.0
  0
LINE
  5
376
  8
0
 10
233.16339889447019
 20
58.208937814966468
 30
0.0
 11
232.9724266722481
 21
58.966874322902989
 31
0.0
  0
LINE
  5
377
  8
0
 10
232.9724266722481
 20
58.966874322902989
 30
0.0
 11
233.15645445002571
 21
59.730763211791867
 31
0.0
  0
LINE
  5
378
  8
0
 10
233.15645445002571
 20
59.730763211791867
 30
0.0
 11
233.38624115637501
 21
59.920495354648999
 31
0.0
  0
LINE
  5
379
  8
0
 10
233.38624115637501
 20
59.920495354648999
 30
0.0
 11
233.70754571986711
 21
59.983739402268057
 31
0.0
  0
LINE
  5
37A
  8
0
 10
233.70754571986711
 20
59.983739402268057
 30
0.0
 11
234.17579968812109
 21
59.840386227664901
 31
0.0
  0
LINE
  5
37B
  8
0
 10
234.17579968812109
 20
59.840386227664901
 30
0.0
 11
234.3692520690733
 21
59.41528702131567
 31
0.0
  0
LINE
  5
37C
  8
0
 10
234.3692520690733
 20
59.41528702131567
 30
0.0
 11
235.51210921193049
 21
59.41528702131567
 31
0.0
  0
LINE
  5
37D
  8
0
 10
235.51210921193049
 20
59.41528702131567
 30
0.0
 11
235.3518909579623
 21
60.062980473696619
 31
0.0
  0
LINE
  5
37E
  8
0
 10
235.3518909579623
 20
60.062980473696619
 30
0.0
 11
234.98433143415261
 21
60.541775116553779
 31
0.0
  0
LINE
  5
37F
  8
0
 10
234.98433143415261
 20
60.541775116553779
 30
0.0
 11
234.42530365637501
 21
60.83753404512521
 31
0.0
  0
LINE
  5
380
  8
0
 10
234.42530365637501
 20
60.83753404512521
 30
0.0
 11
233.69068064050199
 21
60.936120354649027
 31
0.0
  0
LINE
  5
381
  8
0
 10
233.69068064050199
 20
60.936120354649027
 30
0.0
 11
232.89268956907341
 21
60.804175910204577
 31
0.0
  0
LINE
  5
382
  8
0
 10
232.89268956907341
 20
60.804175910204577
 30
0.0
 11
232.2824465135177
 21
60.408342576871249
 31
0.0
  0
LINE
  5
383
  8
0
 10
232.2824465135177
 20
60.408342576871249
 30
0.0
 11
231.89516972780351
 21
59.784334640363298
 31
0.0
  0
LINE
  5
384
  8
0
 10
231.89516972780351
 20
59.784334640363298
 30
0.0
 11
231.76607746589869
 21
58.967866386395052
 31
0.0
  0
LINE
  5
385
  8
0
 10
231.76607746589869
 20
58.967866386395052
 30
0.0
 11
231.89578976748609
 21
58.149538013379171
 31
0.0
  0
LINE
  5
386
  8
0
 10
231.89578976748609
 20
58.149538013379171
 30
0.0
 11
232.2849266722481
 21
57.525902100680781
 31
0.0
  0
LINE
  5
387
  8
0
 10
232.2849266722481
 20
57.525902100680781
 30
0.0
 11
232.9002540532004
 21
57.131184838776001
 31
0.0
  0
LINE
  5
388
  8
0
 10
232.9002540532004
 20
57.131184838776001
 30
0.0
 11
233.70853778335919
 21
56.999612418141083
 31
0.0
  0
LINE
  5
389
  8
0
 10
233.70853778335919
 20
56.999612418141083
 30
0.0
 11
234.43162806113671
 21
57.101794957823621
 31
0.0
  0
LINE
  5
38A
  8
0
 10
234.43162806113671
 20
57.101794957823621
 30
0.0
 11
234.98780365637509
 21
57.408342576871242
 31
0.0
  0
LINE
  5
38B
  8
0
 10
234.98780365637509
 20
57.408342576871242
 30
0.0
 11
235.35523917224799
 21
57.900158053061723
 31
0.0
  0
LINE
  5
38C
  8
0
 10
235.35523917224799
 20
57.900158053061723
 30
0.0
 11
235.51210921193049
 21
58.55814416417283
 31
0.0
  0
LINE
  5
38D
  8
0
 10
235.51210921193049
 20
58.55814416417283
 30
0.0
 11
234.3692520690733
 21
58.55814416417283
 31
0.0
  0
LINE
  5
38E
  8
0
 10
227.14752469130579
 20
59.332218353096017
 30
0.0
 11
228.32510405638499
 21
59.332218353096017
 31
0.0
  0
LINE
  5
38F
  8
0
 10
228.32510405638499
 20
59.332218353096017
 30
0.0
 11
228.47192945321029
 21
59.840154861032531
 31
0.0
  0
LINE
  5
390
  8
0
 10
228.47192945321029
 20
59.840154861032531
 30
0.0
 11
229.67530246908339
 21
59.840154861032531
 31
0.0
  0
LINE
  5
391
  8
0
 10
229.67530246908339
 20
59.840154861032531
 30
0.0
 11
229.8171675484484
 21
59.332218353096017
 31
0.0
  0
LINE
  5
392
  8
0
 10
229.8171675484484
 20
59.332218353096017
 30
0.0
 11
231.02054056432141
 21
59.332218353096017
 31
0.0
  0
LINE
  5
393
  8
0
 10
231.02054056432141
 20
59.332218353096017
 30
0.0
 11
229.6911754849564
 21
63.141742162619821
 31
0.0
  0
LINE
  5
394
  8
0
 10
229.6911754849564
 20
63.141742162619821
 30
0.0
 11
228.46200881828989
 21
63.141742162619821
 31
0.0
  0
LINE
  5
395
  8
0
 10
228.46200881828989
 20
63.141742162619821
 30
0.0
 11
227.14752469130579
 21
59.332218353096017
 31
0.0
  0
LINE
  5
396
  8
0
 10
228.6921675484484
 20
60.665551686429353
 30
0.0
 11
229.07808024686119
 21
61.969123115000791
 31
0.0
  0
LINE
  5
397
  8
0
 10
229.07808024686119
 20
61.969123115000791
 30
0.0
 11
229.45506437384529
 21
60.665551686429353
 31
0.0
  0
LINE
  5
398
  8
0
 10
229.45506437384529
 20
60.665551686429353
 30
0.0
 11
228.6921675484484
 21
60.665551686429353
 31
0.0
  0
LINE
  5
399
  8
0
 10
223.3867935010442
 20
61.072606662276279
 30
0.0
 11
225.08619826294901
 21
61.072606662276279
 31
0.0
  0
LINE
  5
39A
  8
0
 10
225.08619826294901
 20
61.072606662276279
 30
0.0
 11
225.85405540580609
 21
61.11129713846676
 31
0.0
  0
LINE
  5
39B
  8
0
 10
225.85405540580609
 20
61.11129713846676
 30
0.0
 11
226.26675381850461
 21
61.24324158291121
 31
0.0
  0
LINE
  5
39C
  8
0
 10
226.26675381850461
 20
61.24324158291121
 30
0.0
 11
226.67498794548871
 21
61.626178090847709
 31
0.0
  0
LINE
  5
39D
  8
0
 10
226.67498794548871
 20
61.626178090847709
 30
0.0
 11
226.8153649296157
 21
62.213479678149298
 31
0.0
  0
LINE
  5
39E
  8
0
 10
226.8153649296157
 20
62.213479678149298
 30
0.0
 11
226.67151572326659
 21
62.776475709895323
 31
0.0
  0
LINE
  5
39F
  8
0
 10
226.67151572326659
 20
62.776475709895323
 30
0.0
 11
226.2280633423141
 21
63.10137650354612
 31
0.0
  0
LINE
  5
3A0
  8
0
 10
226.2280633423141
 20
63.10137650354612
 30
0.0
 11
226.57330143755209
 21
63.41883682100643
 31
0.0
  0
LINE
  5
3A1
  8
0
 10
226.57330143755209
 20
63.41883682100643
 30
0.0
 11
226.6883808026316
 21
63.871217773387393
 31
0.0
  0
LINE
  5
3A2
  8
0
 10
226.6883808026316
 20
63.871217773387393
 30
0.0
 11
226.53461096136169
 21
64.431237614657263
 31
0.0
  0
LINE
  5
3A3
  8
0
 10
226.53461096136169
 20
64.431237614657263
 30
0.0
 11
226.0921506439015
 21
64.771019360688996
 31
0.0
  0
LINE
  5
3A4
  8
0
 10
226.0921506439015
 20
64.771019360688996
 30
0.0
 11
225.6968133423141
 21
64.856336821006465
 31
0.0
  0
LINE
  5
3A5
  8
0
 10
225.6968133423141
 20
64.856336821006465
 30
0.0
 11
224.96318238993311
 21
64.882130471800096
 31
0.0
  0
LINE
  5
3A6
  8
0
 10
224.96318238993311
 20
64.882130471800096
 30
0.0
 11
223.3867935010442
 21
64.882130471800096
 31
0.0
  0
LINE
  5
3A7
  8
0
 10
223.3867935010442
 20
64.882130471800096
 30
0.0
 11
223.3867935010442
 21
61.072606662276279
 31
0.0
  0
LINE
  5
3A8
  8
0
 10
224.5931427073935
 20
61.961495551165179
 30
0.0
 11
224.5931427073935
 21
62.65990824957786
 31
0.0
  0
LINE
  5
3A9
  8
0
 10
224.5931427073935
 20
62.65990824957786
 30
0.0
 11
225.14175381850461
 21
62.65990824957786
 31
0.0
  0
LINE
  5
3AA
  8
0
 10
225.14175381850461
 20
62.65990824957786
 30
0.0
 11
225.55098000898079
 21
62.580543170212792
 31
0.0
  0
LINE
  5
3AB
  8
0
 10
225.55098000898079
 20
62.580543170212792
 30
0.0
 11
225.67250778675859
 21
62.313678090847709
 31
0.0
  0
LINE
  5
3AC
  8
0
 10
225.67250778675859
 20
62.313678090847709
 30
0.0
 11
225.55346016771091
 21
62.043836821006437
 31
0.0
  0
LINE
  5
3AD
  8
0
 10
225.55346016771091
 20
62.043836821006437
 30
0.0
 11
225.15266651691721
 21
61.961495551165179
 31
0.0
  0
LINE
  5
3AE
  8
0
 10
225.15266651691721
 20
61.961495551165179
 30
0.0
 11
224.5931427073935
 21
61.961495551165179
 31
0.0
  0
LINE
  5
3AF
  8
0
 10
224.5931427073935
 20
63.358320947990578
 30
0.0
 11
224.5931427073935
 21
63.993241582911203
 31
0.0
  0
LINE
  5
3B0
  8
0
 10
224.5931427073935
 20
63.993241582911203
 30
0.0
 11
224.92746810421889
 21
63.993241582911203
 31
0.0
  0
LINE
  5
3B1
  8
0
 10
224.92746810421889
 20
63.993241582911203
 30
0.0
 11
225.4359006439015
 21
63.925781265450887
 31
0.0
  0
LINE
  5
3B2
  8
0
 10
225.4359006439015
 20
63.925781265450887
 30
0.0
 11
225.54552365977449
 21
63.675781265450887
 31
0.0
  0
LINE
  5
3B3
  8
0
 10
225.54552365977449
 20
63.675781265450887
 30
0.0
 11
225.4433411200919
 21
63.43074158291121
 31
0.0
  0
LINE
  5
3B4
  8
0
 10
225.4433411200919
 20
63.43074158291121
 30
0.0
 11
225.0911585804092
 21
63.358320947990578
 31
0.0
  0
LINE
  5
3B5
  8
0
 10
225.0911585804092
 20
63.358320947990578
 30
0.0
 11
224.5931427073935
 21
63.358320947990578
 31
0.0
  0
ARC
  5
3B6
  8
0
 10
229.24675129508501
 20
61.000000012970872
 30
0.0
 40
9.0000000000000195
 50
179.9999999999998
 51
359.99999999999881
  0
ARC
  5
3B7
  8
0
 10
229.24675129508501
 20
61.000000012970872
 30
0.0
 40
9.0000000000000231
 50
359.9999999999996
 51
179.99999999999969
  0
LINE
  5
3B8
  8
0
 10
152.43425129508429
 20
3.1250000129719511
 30
0.0
 11
157.4342512950841
 21
3.1250000129719511
 31
0.0
  0
LINE
  5
3B9
  8
0
 10
157.4342512950839
 20
9.1250000129719524
 30
0.0
 11
152.43425129508429
 21
9.1250000129719524
 31
0.0
  0
LINE
  5
3BA
  8
0
 10
152.43425129508429
 20
65.000000012971938
 30
0.0
 11
157.4342512950839
 21
65.000000012971938
 31
0.0
  0
LINE
  5
3BB
  8
0
 10
157.4342512950839
 20
71.000000012972095
 30
0.0
 11
152.43425129508429
 21
71.000000012972095
 31
0.0
  0
LINE
  5
3BC
  8
0
 10
152.4342512950841
 20
6.125000254135851
 30
0.0
 11
152.4342512950841
 21
7.6250000129720092
 31
0.0
  0
LINE
  5
3BD
  8
0
 10
152.4342512950841
 20
7.6250002739745426
 30
0.0
 11
152.4342512950841
 21
8.2463200576960016
 31
0.0
  0
LINE
  5
3BE
  8
0
 10
152.4342512950841
 20
8.2463203565316512
 30
0.0
 11
152.4342512950841
 21
8.7230759404369884
 31
0.0
  0
LINE
  5
3BF
  8
0
 10
152.4342512950841
 20
8.7230762243253288
 30
0.0
 11
152.4342512950841
 21
9.1250000129720181
 31
0.0
  0
LINE
  5
3C0
  8
0
 10
152.4342512950841
 20
3.1250000129720199
 30
0.0
 11
152.4342512950841
 21
3.2272223779906581
 31
0.0
  0
LINE
  5
3C1
  8
0
 10
152.4342512950841
 20
3.2272225341048171
 30
0.0
 11
152.4342512950841
 21
3.5269238016187048
 31
0.0
  0
LINE
  5
3C2
  8
0
 10
152.4342512950841
 20
3.5269238891237631
 30
0.0
 11
152.4342512950841
 21
4.0036796694123771
 31
0.0
  0
LINE
  5
3C3
  8
0
 10
152.4342512950841
 20
4.0036797551399417
 30
0.0
 11
152.4342512950841
 21
4.6249998824705107
 31
0.0
  0
LINE
  5
3C4
  8
0
 10
152.4342512950841
 20
4.6250000129720181
 30
0.0
 11
152.4342512950841
 21
6.125000012972011
 31
0.0
  0
LINE
  5
3C5
  8
0
 10
152.4342512950841
 20
68.000000012972023
 30
0.0
 11
152.4342512950841
 21
70.121320356531655
 31
0.0
  0
LINE
  5
3C6
  8
0
 10
152.4342512950841
 20
70.121320800264115
 30
0.0
 11
152.4342512950841
 21
70.598075940436985
 31
0.0
  0
LINE
  5
3C7
  8
0
 10
152.4342512950841
 20
70.598076224325354
 30
0.0
 11
152.4342512950841
 21
70.897777491839193
 31
0.0
  0
LINE
  5
3C8
  8
0
 10
152.4342512950841
 20
70.897781440799776
 30
0.0
 11
152.4342512950841
 21
71.000000012972023
 31
0.0
  0
LINE
  5
3C9
  8
0
 10
152.4342512950841
 20
65.000000012972023
 30
0.0
 11
152.4342512950841
 21
65.102222377990657
 31
0.0
  0
LINE
  5
3CA
  8
0
 10
152.4342512950841
 20
65.102222534104826
 30
0.0
 11
152.4342512950841
 21
65.401923801618707
 31
0.0
  0
LINE
  5
3CB
  8
0
 10
152.4342512950841
 20
65.401925656572899
 30
0.0
 11
152.4342512950841
 21
65.878679669412378
 31
0.0
  0
LINE
  5
3CC
  8
0
 10
152.4342512950841
 20
65.878681033787373
 30
0.0
 11
152.4342512950841
 21
66.499997924950591
 31
0.0
  0
LINE
  5
3CD
  8
0
 10
152.4342512950841
 20
66.500000012971995
 30
0.0
 11
152.4342512950841
 21
67.999998083659804
 31
0.0
  0
ARC
  5
3CE
  8
0
 10
260.05925129508432
 20
20.000000012971888
 30
0.0
 40
0.999999999999992
 50
359.9999999999996
 51
179.99999999999989
  0
ARC
  5
3CF
  8
0
 10
260.05925129508432
 20
20.000000012971888
 30
0.0
 40
1.0000000000000071
 50
180.0000000000002
 51
359.9999999999992
  0
ARC
  5
3D0
  8
0
 10
274.05925129508432
 20
11.62500001297189
 30
0.0
 40
1.5
 50
359.99999999999937
 51
179.9999999999996
  0
ARC
  5
3D1
  8
0
 10
274.05925129508432
 20
11.62500001297189
 30
0.0
 40
1.5000000000000031
 50
180.00000000000011
 51
359.99999999999937
  0
ARC
  5
3D2
  8
0
 10
281.18425129508432
 20
2.6250000129718951
 30
0.0
 40
0.9999999999999856
 50
359.9999999999996
 51
179.99999999999969
  0
ARC
  5
3D3
  8
0
 10
281.18425129508432
 20
2.6250000129718951
 30
0.0
 40
1.0000000000000011
 50
180.00000000000011
 51
359.9999999999992
  0
CIRCLE
  5
3D4
  8
0
 10
284.99675129508432
 20
20.375000012971888
 30
0.0
 40
8.4999999999999911
  0
LINE
  5
3D5
  8
0
 10
443.60561286029082
 20
14.85057655545836
 30
0.0
 11
443.6056128602911
 21
52.418741239168121
 31
0.0
  0
LINE
  5
3D6
  8
0
 10
443.6056128602911
 20
52.451890152708373
 30
0.0
 11
443.6056128602911
 21
52.758614940533832
 31
0.0
  0
LINE
  5
3D7
  8
0
 10
451.11027008351527
 20
27.929417505065881
 30
0.0
 11
451.11027008351527
 21
14.85057655545835
 31
0.0
  0
LINE
  5
3D8
  8
0
 10
537.1252815439143
 20
48.000000012972343
 30
0.0
 11
537.1252815439143
 21
42.155410751430018
 31
0.0
  0
LINE
  5
3D9
  8
0
 10
537.1252815439143
 20
42.155409567288039
 30
0.0
 11
537.1252815439143
 21
34.756969620855983
 31
0.0
  0
LINE
  5
3DA
  8
0
 10
537.1252815439143
 20
34.756968395864973
 30
0.0
 11
537.1252815439143
 21
31.516080133181308
 31
0.0
  0
LINE
  5
3DB
  8
0
 10
537.1252815439143
 20
31.516078682559971
 30
0.0
 11
537.1252815439143
 21
30.55079548494145
 31
0.0
  0
LINE
  5
3DC
  8
0
 10
537.1252815439143
 20
30.55079522606437
 30
0.0
 11
537.1252815439143
 21
30.061479138852221
 31
0.0
  0
LINE
  5
3DE
  8
0
 10
537.1252815439143
 20
65.938520887092324
 30
0.0
 11
537.1252815439143
 21
65.44920856113292
 31
0.0
  0
LINE
  5
3DF
  8
0
 10
537.1252815439143
 20
65.449204799880221
 30
0.0
 11
537.1252815439143
 21
64.483921343383415
 31
0.0
  0
LINE
  5
3E0
  8
0
 10
537.1252815439143
 20
64.483919892763311
 30
0.0
 11
537.1252815439143
 21
61.243030405088682
 31
0.0
  0
LINE
  5
3E1
  8
0
 10
537.1252815439143
 20
61.243028791001187
 30
0.0
 11
537.1252815439143
 21
53.844590458656612
 31
0.0
  0
LINE
  5
3E2
  8
0
 10
537.1252815439143
 20
53.844589274513652
 30
0.0
 11
537.1252815439143
 21
50.962703737950648
 31
0.0
  0
LINE
  5
3E3
  8
0
 10
537.1252815439143
 20
50.962702638025512
 30
0.0
 11
537.1252815439143
 21
48.000000012972343
 31
0.0
  0
LINE
  5
3E4
  8
0
 10
465.11027008351539
 20
16.000000012971999
 30
0.0
 11
451.11027008351527
 21
16.000000012971999
 31
0.0
  0
LINE
  5
3E5
  8
0
 10
451.11027008351527
 20
6.0000000129720252
 30
0.0
 11
451.11027008351527
 21
6.1703708815266829
 31
0.0
  0
LINE
  5
3E6
  8
0
 10
465.11027008351539
 20
16.000000012971999
 30
0.0
 11
465.11027008351539
 21
15.829629720680041
 31
0.0
  0
LINE
  5
3E7
  8
0
 10
465.11027008351539
 20
15.829629144417339
 30
0.0
 11
465.11027008351539
 21
15.330127945360431
 31
0.0
  0
LINE
  5
3E8
  8
0
 10
465.11027008351539
 20
15.3301270318942
 30
0.0
 11
465.11027008351539
 21
14.53553447330739
 31
0.0
  0
LINE
  5
3E9
  8
0
 10
465.11027008351539
 20
14.535533918904751
 30
0.0
 11
465.11027008351539
 21
12.29409523848463
 31
0.0
  0
LINE
  5
3EA
  8
0
 10
465.11027008351539
 20
12.29409459071889
 30
0.0
 11
465.11027008351539
 21
11.00000025413587
 31
0.0
  0
LINE
  5
3EB
  8
0
 10
465.11027008351539
 20
11.00000001297202
 30
0.0
 11
465.11027008351539
 21
9.7059047874594295
 31
0.0
  0
LINE
  5
3EC
  8
0
 10
465.11027008351539
 20
9.7059044826677194
 30
0.0
 11
465.11027008351539
 21
8.500000012972027
 31
0.0
  0
LINE
  5
3ED
  8
0
 10
465.11027008351539
 20
8.4999997519691775
 30
0.0
 11
465.11027008351539
 21
6.6698729940498227
 31
0.0
  0
LINE
  5
3EE
  8
0
 10
465.11027008351539
 20
6.6698727053834457
 30
0.0
 11
465.11027008351539
 21
6.1703710083944889
 31
0.0
  0
LINE
  5
3EF
  8
0
 10
465.11027008351539
 20
6.1703708815266687
 30
0.0
 11
465.11027008351539
 21
6.000000012972003
 31
0.0
  0
LINE
  5
3F0
  8
0
 10
443.6056128602911
 20
52.76658081966427
 30
0.0
 11
443.6056128602911
 21
55.23051765672583
 31
0.0
  0
LINE
  5
3F1
  8
0
 10
443.6056128602911
 20
55.230520371982131
 30
0.0
 11
443.6056128602911
 21
60.191068302235728
 31
0.0
  0
LINE
  5
3F2
  8
0
 10
443.6056128602911
 20
60.191070768071327
 30
0.0
 11
443.6056128602911
 21
65.024710363583822
 31
0.0
  0
LINE
  5
3F3
  8
0
 10
443.6056128602911
 20
65.024712029779181
 30
0.0
 11
443.6056128602911
 21
65.754502052191398
 31
0.0
  0
LINE
  5
3F4
  8
0
 10
443.6056128602911
 20
65.754503474221394
 30
0.0
 11
443.6056128602911
 21
66.000000012972421
 31
0.0
  0
LINE
  5
3F5
  8
0
 10
443.60561286029082
 20
6.0000000129719391
 30
0.0
 11
443.60561286029082
 21
6.2385191807564873
 31
0.0
  0
LINE
  5
3F6
  8
0
 10
443.60561286029082
 20
6.2385192289484603
 30
0.0
 11
443.60561286029082
 21
6.9378217823482737
 31
0.0
  0
LINE
  5
3F7
  8
0
 10
443.60561286029082
 20
6.9378221864808651
 30
0.0
 11
443.60561286029082
 21
13.00000001297192
 31
0.0
  0
LINE
  5
3F8
  8
0
 10
443.60561286029082
 20
13.00000049529989
 30
0.0
 11
443.60561286029082
 21
14.85242742953432
 31
0.0
  0
LINE
  5
3F9
  8
0
 10
451.11027008351527
 20
14.852427429534369
 30
0.0
 11
451.11027008351527
 21
13.000000495299931
 31
0.0
  0
LINE
  5
3FA
  8
0
 10
451.11027008351527
 20
13.000000012971951
 30
0.0
 11
451.11027008351527
 21
6.9378221864808749
 31
0.0
  0
LINE
  5
3FB
  8
0
 10
451.11027008351527
 20
6.9378217823482817
 30
0.0
 11
451.11027008351527
 21
6.2385192289484577
 31
0.0
  0
LINE
  5
3FC
  8
0
 10
451.11027008351527
 20
6.2385191807564837
 30
0.0
 11
451.11027008351527
 21
6.1220353132409331
 31
0.0
  0
LINE
  5
3FD
  8
0
 10
451.11027008351527
 20
6.1220349675190171
 30
0.0
 11
451.11027008351527
 21
6.000000012971924
 31
0.0
  0
LINE
  5
3FE
  8
0
 10
443.6056128602911
 20
14.850576555458449
 30
0.0
 11
443.6056128602911
 21
52.418741239168291
 31
0.0
1001
ACAD
1000
ASC_BOUNDS
1002
{
1070
    19
1005
56B
1002
}
  0
LINE
  5
3FF
  8
0
 10
443.6056128602911
 20
52.451890152707684
 30
0.0
 11
443.6056128602911
 21
52.758614940533491
 31
0.0
1001
ACAD
1000
ASC_BOUNDS
1002
{
1070
    19
1005
56B
1002
}
  0
LINE
  5
400
  8
0
 10
451.11027008351562
 20
27.929417505065821
 30
0.0
 11
451.11027008351527
 21
14.85057655545844
 31
0.0
1001
ACAD
1000
ASC_BOUNDS
1002
{
1070
    19
1005
56B
1002
}
  0
LINE
  5
401
  8
0
 10
537.12528154391453
 20
48.000000012972002
 30
0.0
 11
537.12528154391453
 21
42.155410751430097
 31
0.0
1001
ACAD
1000
ASC_BOUNDS
1002
{
1070
    19
1005
56B
1002
}
  0
LINE
  5
402
  8
0
 10
537.12528154391453
 20
42.155409567287677
 30
0.0
 11
537.12528154391453
 21
34.756969620855642
 31
0.0
1001
ACAD
1000
ASC_BOUNDS
1002
{
1070
    19
1005
56B
1002
}
  0
LINE
  5
403
  8
0
 10
537.12528154391453
 20
34.756968395864952
 30
0.0
 11
537.12528154391453
 21
31.51608013318096
 31
0.0
1001
ACAD
1000
ASC_BOUNDS
1002
{
1070
    19
1005
56B
1002
}
  0
LINE
  5
404
  8
0
 10
537.12528154391453
 20
31.51607868256016
 30
0.0
 11
537.12528154391453
 21
30.550795484941322
 31
0.0
1001
ACAD
1000
ASC_BOUNDS
1002
{
1070
    19
1005
56B
1002
}
  0
LINE
  5
405
  8
0
 10
537.12528154391453
 20
30.550795226064022
 30
0.0
 11
537.12528154391453
 21
30.06147913885188
 31
0.0
1001
ACAD
1000
ASC_BOUNDS
1002
{
1070
    19
1005
56B
1002
}
  0
LINE
  5
407
  8
0
 10
537.12528154391453
 20
66.000000012972407
 30
0.0
 11
537.12528154391453
 21
65.449208561133204
 31
0.0
1001
ACAD
1000
ASC_BOUNDS
1002
{
1070
    19
1005
56B
1002
}
  0
LINE
  5
408
  8
0
 10
537.12528154391453
 20
65.449204799879894
 30
0.0
 11
537.12528154391453
 21
64.483921343383599
 31
0.0
1001
ACAD
1000
ASC_BOUNDS
1002
{
1070
    19
1005
56B
1002
}
  0
LINE
  5
409
  8
0
 10
537.12528154391453
 20
64.483919892762984
 30
0.0
 11
537.12528154391453
 21
61.243030405088327
 31
0.0
1001
ACAD
1000
ASC_BOUNDS
1002
{
1070
    19
1005
56B
1002
}
  0
LINE
  5
40A
  8
0
 10
537.12528154391453
 20
61.243028791001109
 30
0.0
 11
537.12528154391453
 21
53.844590458656263
 31
0.0
1001
ACAD
1000
ASC_BOUNDS
1002
{
1070
    19
1005
56B
1002
}
  0
LINE
  5
40B
  8
0
 10
537.12528154391453
 20
53.844589274513567
 30
0.0
 11
537.12528154391453
 21
50.962703737950612
 31
0.0
1001
ACAD
1000
ASC_BOUNDS
1002
{
1070
    19
1005
56B
1002
}
  0
LINE
  5
40C
  8
0
 10
537.12528154391453
 20
50.962702638025178
 30
0.0
 11
537.12528154391453
 21
48.000000012972002
 31
0.0
1001
ACAD
1000
ASC_BOUNDS
1002
{
1070
    19
1005
56B
1002
}
  0
LINE
  5
40D
  8
0
 10
465.11027008351539
 20
16.000000012971501
 30
0.0
 11
451.11027008351527
 21
16.000000012971661
 31
0.0
  0
LINE
  5
40E
  8
0
 10
451.11027008351527
 20
6.0000000129716859
 30
0.0
 11
451.11027008351527
 21
6.1703708815263418
 31
0.0
  0
LINE
  5
40F
  8
0
 10
465.1102700835155
 20
16.00000001297165
 30
0.0
 11
465.1102700835155
 21
15.82962972068027
 31
0.0
  0
LINE
  5
410
  8
0
 10
465.1102700835155
 20
15.829629144417
 30
0.0
 11
465.1102700835155
 21
15.33012794536066
 31
0.0
  0
LINE
  5
411
  8
0
 10
465.1102700835155
 20
15.330127031893859
 30
0.0
 11
465.1102700835155
 21
14.535534473307379
 31
0.0
  0
LINE
  5
412
  8
0
 10
465.1102700835155
 20
14.535533918904409
 30
0.0
 11
465.11027008351539
 21
12.29409523848428
 31
0.0
  0
LINE
  5
413
  8
0
 10
465.11027008351539
 20
12.29409459071883
 30
0.0
 11
465.11027008351539
 21
11.000000254135809
 31
0.0
  0
LINE
  5
414
  8
0
 10
465.11027008351539
 20
11.000000012971681
 30
0.0
 11
465.11027008351539
 21
9.7059047874590902
 31
0.0
  0
LINE
  5
415
  8
0
 10
465.11027008351539
 20
9.7059044826678296
 30
0.0
 11
465.11027008351539
 21
8.5000000129716877
 31
0.0
  0
LINE
  5
416
  8
0
 10
465.11027008351539
 20
8.4999997519691544
 30
0.0
 11
465.11027008351539
 21
6.6698729940494843
 31
0.0
  0
LINE
  5
417
  8
0
 10
465.11027008351539
 20
6.6698727053836677
 30
0.0
 11
465.11027008351539
 21
6.1703710083943424
 31
0.0
  0
LINE
  5
418
  8
0
 10
465.11027008351539
 20
6.1703708815263276
 30
0.0
 11
465.11027008351539
 21
6.0000000129716629
 31
0.0
  0
LINE
  5
419
  8
0
 10
443.6056128602911
 20
52.766580819664249
 30
0.0
 11
443.6056128602911
 21
55.230517656725503
 31
0.0
1001
ACAD
1000
ASC_BOUNDS
1002
{
1070
    19
1005
56B
1002
}
  0
LINE
  5
41A
  8
0
 10
443.6056128602911
 20
55.23052037198223
 30
0.0
 11
443.60561286029122
 21
60.191068302235387
 31
0.0
1001
ACAD
1000
ASC_BOUNDS
1002
{
1070
    19
1005
56B
1002
}
  0
LINE
  5
41B
  8
0
 10
443.60561286029122
 20
60.191070768071299
 30
0.0
 11
443.60561286029122
 21
65.02471036358348
 31
0.0
1001
ACAD
1000
ASC_BOUNDS
1002
{
1070
    19
1005
56B
1002
}
  0
LINE
  5
41C
  8
0
 10
443.60561286029122
 20
65.024712029779209
 30
0.0
 11
443.60561286029122
 21
65.754502052191256
 31
0.0
1001
ACAD
1000
ASC_BOUNDS
1002
{
1070
    19
1005
56B
1002
}
  0
LINE
  5
41D
  8
0
 10
443.60561286029122
 20
65.754503474221067
 30
0.0
 11
443.60561286029122
 21
66.000000012972407
 31
0.0
1001
ACAD
1000
ASC_BOUNDS
1002
{
1070
    19
1005
56B
1002
}
  0
LINE
  5
41E
  8
0
 10
443.6056128602911
 20
6.000000012971598
 30
0.0
 11
443.6056128602911
 21
6.2385191807567173
 31
0.0
1001
ACAD
1000
ASC_BOUNDS
1002
{
1070
    19
1005
56B
1002
}
  0
LINE
  5
41F
  8
0
 10
443.6056128602911
 20
6.2385192289481193
 30
0.0
 11
443.6056128602911
 21
6.9378217823483093
 31
0.0
1001
ACAD
1000
ASC_BOUNDS
1002
{
1070
    19
1005
56B
1002
}
  0
LINE
  5
420
  8
0
 10
443.6056128602911
 20
6.9378221864805241
 30
0.0
 11
443.6056128602911
 21
13.00000001297157
 31
0.0
1001
ACAD
1000
ASC_BOUNDS
1002
{
1070
    19
1005
56B
1002
}
  0
LINE
  5
421
  8
0
 10
443.6056128602911
 20
13.00000049529984
 30
0.0
 11
443.6056128602911
 21
14.85242742953429
 31
0.0
1001
ACAD
1000
ASC_BOUNDS
1002
{
1070
    19
1005
56B
1002
}
  0
LINE
  5
422
  8
0
 10
451.11027008351527
 20
14.85242742953432
 30
0.0
 11
451.11027008351527
 21
13.00000049529989
 31
0.0
1001
ACAD
1000
ASC_BOUNDS
1002
{
1070
    19
1005
56B
1002
}
  0
LINE
  5
423
  8
0
 10
451.11027008351527
 20
13.00000001297161
 30
0.0
 11
451.11027008351527
 21
6.9378221864805338
 31
0.0
1001
ACAD
1000
ASC_BOUNDS
1002
{
1070
    19
1005
56B
1002
}
  0
LINE
  5
424
  8
0
 10
451.11027008351527
 20
6.937821782348319
 30
0.0
 11
451.11027008351527
 21
6.2385192289481184
 31
0.0
1001
ACAD
1000
ASC_BOUNDS
1002
{
1070
    19
1005
56B
1002
}
  0
LINE
  5
425
  8
0
 10
451.11027008351527
 20
6.2385191807567173
 30
0.0
 11
451.11027008351527
 21
6.1220353132403904
 31
0.0
1001
ACAD
1000
ASC_BOUNDS
1002
{
1070
    19
1005
56B
1002
}
  0
LINE
  5
426
  8
0
 10
451.11027008351527
 20
6.122034967519089
 30
0.0
 11
451.11027008351527
 21
6.0000000129715847
 31
0.0
1001
ACAD
1000
ASC_BOUNDS
1002
{
1070
    19
1005
56B
1002
}
  0
LINE
  5
427
  8
0
 10
537.61027008351584
 20
6.0000000129743141
 30
0.0
 11
537.61027008351584
 21
79.000000012972436
 31
0.0
  0
LINE
  5
428
  8
0
 10
537.61027008351584
 20
79.000000012972436
 30
0.0
 11
443.11027008351579
 21
79.000000012972436
 31
0.0
  0
LINE
  5
429
  8
0
 10
443.11027008351579
 20
79.000000012972436
 30
0.0
 11
443.11027008351579
 21
6.0000000129743141
 31
0.0
  0
LINE
  5
42A
  8
0
 10
529.61027008351505
 20
70.625000012972293
 30
0.0
 11
451.11027008351579
 21
70.625000012971427
 31
0.0
  0
LINE
  5
42B
  8
0
 10
451.1102700835163
 20
27.923947313900861
 30
0.0
 11
451.1102700835163
 21
31.281054486724699
 31
0.0
1001
ACAD
1000
ASC_BOUNDS
1002
{
1070
    19
1005
56B
1002
}
  0
LINE
  5
42C
  8
0
 10
451.1102700835163
 20
31.281055456868579
 30
0.0
 11
451.1102700835163
 21
35.002733232882257
 31
0.0
1001
ACAD
1000
ASC_BOUNDS
1002
{
1070
    19
1005
56B
1002
}
  0
LINE
  5
42D
  8
0
 10
451.1102700835163
 20
35.002733947214743
 30
0.0
 11
451.1102700835163
 21
38.816704381045483
 31
0.0
1001
ACAD
1000
ASC_BOUNDS
1002
{
1070
    19
1005
56B
1002
}
  0
LINE
  5
42E
  8
0
 10
451.1102700835163
 20
38.816705715201572
 30
0.0
 11
451.1102700835163
 21
42.660358442463007
 31
0.0
1001
ACAD
1000
ASC_BOUNDS
1002
{
1070
    19
1005
56B
1002
}
  0
LINE
  5
42F
  8
0
 10
451.1102700835163
 20
42.660358774388818
 30
0.0
 11
451.1102700835163
 21
46.470601868163207
 31
0.0
1001
ACAD
1000
ASC_BOUNDS
1002
{
1070
    19
1005
56B
1002
}
  0
LINE
  5
430
  8
0
 10
451.1102700835163
 20
46.470603019969829
 30
0.0
 11
451.1102700835163
 21
50.184886864305277
 31
0.0
1001
ACAD
1000
ASC_BOUNDS
1002
{
1070
    19
1005
56B
1002
}
  0
LINE
  5
431
  8
0
 10
451.1102700835163
 20
50.1848889021297
 30
0.0
 11
451.11027008351601
 21
53.742242158671743
 31
0.0
1001
ACAD
1000
ASC_BOUNDS
1002
{
1070
    19
1005
56B
1002
}
  0
LINE
  5
432
  8
0
 10
451.11027008351601
 20
53.742244823671108
 30
0.0
 11
451.11027008351601
 21
57.08427221644758
 31
0.0
1001
ACAD
1000
ASC_BOUNDS
1002
{
1070
    19
1005
56B
1002
}
  0
LINE
  5
433
  8
0
 10
451.11027008351601
 20
57.084274402797128
 30
0.0
 11
451.11027008351601
 21
62.90734833532575
 31
0.0
1001
ACAD
1000
ASC_BOUNDS
1002
{
1070
    19
1005
56B
1002
}
  0
LINE
  5
434
  8
0
 10
451.11027008351601
 20
62.907348670503822
 30
0.0
 11
451.11027008351601
 21
65.292806068557397
 31
0.0
1001
ACAD
1000
ASC_BOUNDS
1002
{
1070
    19
1005
56B
1002
}
  0
LINE
  5
435
  8
0
 10
451.11027008351601
 20
65.29280669830969
 30
0.0
 11
451.11027008351601
 21
67.273331033445501
 31
0.0
1001
ACAD
1000
ASC_BOUNDS
1002
{
1070
    19
1005
56B
1002
}
  0
LINE
  5
436
  8
0
 10
451.11027008351601
 20
67.273332837030082
 30
0.0
 11
451.11027008351601
 21
68.816412051047038
 31
0.0
  0
LINE
  5
437
  8
0
 10
451.11027008351601
 20
68.816414292888325
 30
0.0
 11
451.11027008351601
 21
69.896718775127439
 31
0.0
  0
LINE
  5
438
  8
0
 10
451.11027008351601
 20
69.896719079498325
 30
0.0
 11
451.11027008351601
 21
70.496516188346206
 31
0.0
  0
LINE
  5
439
  8
0
 10
451.11027008351601
 20
70.49651750081415
 30
0.0
 11
451.11027008351601
 21
70.605962271077459
 31
0.0
  0
LINE
  5
43A
  8
0
 10
529.61027008351527
 20
70.605962271078241
 30
0.0
 11
529.61027008351527
 21
70.49651750081496
 31
0.0
  0
LINE
  5
43B
  8
0
 10
529.61027008351527
 20
70.496516188346504
 30
0.0
 11
529.61027008351527
 21
69.896719079497998
 31
0.0
  0
LINE
  5
43C
  8
0
 10
529.61027008351527
 20
69.896718775128292
 30
0.0
 11
529.61027008351505
 21
68.816414292888169
 31
0.0
  0
LINE
  5
43D
  8
0
 10
529.61027008351505
 20
68.816412051047905
 30
0.0
 11
529.61027008351527
 21
67.273332837030011
 31
0.0
  0
LINE
  5
43E
  8
0
 10
529.61027008351527
 20
67.273331033446411
 30
0.0
 11
529.61027008351527
 21
65.292806698309633
 31
0.0
1001
ACAD
1000
ASC_BOUNDS
1002
{
1070
    19
1005
56B
1002
}
  0
LINE
  5
43F
  8
0
 10
529.61027008351527
 20
65.292806068558306
 30
0.0
 11
529.61027008351527
 21
62.907348670503993
 31
0.0
1001
ACAD
1000
ASC_BOUNDS
1002
{
1070
    19
1005
56B
1002
}
  0
LINE
  5
440
  8
0
 10
529.61027008351527
 20
62.907348335326702
 30
0.0
 11
529.61027008351527
 21
57.08427440279717
 31
0.0
1001
ACAD
1000
ASC_BOUNDS
1002
{
1070
    19
1005
56B
1002
}
  0
LINE
  5
441
  8
0
 10
529.61027008351527
 20
57.084272216448532
 30
0.0
 11
529.61027008351527
 21
53.742244823671193
 31
0.0
1001
ACAD
1000
ASC_BOUNDS
1002
{
1070
    19
1005
56B
1002
}
  0
LINE
  5
442
  8
0
 10
529.61027008351527
 20
53.74224215867271
 30
0.0
 11
529.61027008351527
 21
50.184888902129963
 31
0.0
1001
ACAD
1000
ASC_BOUNDS
1002
{
1070
    19
1005
56B
1002
}
  0
LINE
  5
443
  8
0
 10
529.61027008351527
 20
50.18488686430625
 30
0.0
 11
529.61027008351527
 21
46.47060301997012
 31
0.0
1001
ACAD
1000
ASC_BOUNDS
1002
{
1070
    19
1005
56B
1002
}
  0
LINE
  5
444
  8
0
 10
529.61027008351527
 20
46.470601868164209
 30
0.0
 11
529.61027008351527
 21
42.660358774389827
 31
0.0
1001
ACAD
1000
ASC_BOUNDS
1002
{
1070
    19
1005
56B
1002
}
  0
LINE
  5
445
  8
0
 10
529.61027008351527
 20
42.660358442463298
 30
0.0
 11
529.61027008351562
 21
38.816705715201849
 31
0.0
1001
ACAD
1000
ASC_BOUNDS
1002
{
1070
    19
1005
56B
1002
}
  0
LINE
  5
446
  8
0
 10
529.61027008351562
 20
38.816704381046478
 30
0.0
 11
529.61027008351562
 21
35.002733947215738
 31
0.0
1001
ACAD
1000
ASC_BOUNDS
1002
{
1070
    19
1005
56B
1002
}
  0
LINE
  5
447
  8
0
 10
529.61027008351562
 20
35.002733232882527
 30
0.0
 11
529.61027008351562
 21
31.281055456869591
 31
0.0
1001
ACAD
1000
ASC_BOUNDS
1002
{
1070
    19
1005
56B
1002
}
  0
LINE
  5
448
  8
0
 10
529.61027008351562
 20
31.281054486724969
 30
0.0
 11
529.61027008351562
 21
27.712761881575251
 31
0.0
1001
ACAD
1000
ASC_BOUNDS
1002
{
1070
    19
1005
56B
1002
}
  0
LINE
  5
449
  8
0
 10
529.61027008351562
 20
27.71276090580778
 30
0.0
 11
529.61027008351584
 21
18.495640723264302
 31
0.0
  0
LINE
  5
44A
  8
0
 10
529.61027008351584
 20
18.495640062459579
 30
0.0
 11
529.61027008351584
 21
16.087393254070872
 31
0.0
  0
LINE
  5
44B
  8
0
 10
529.61027008351584
 20
16.087392769833841
 30
0.0
 11
529.61027008351584
 21
14.081940975401199
 31
0.0
  0
LINE
  5
44C
  8
0
 10
529.61027008351584
 20
14.08194061970773
 30
0.0
 11
529.61027008351584
 21
12.512205042856291
 31
0.0
  0
LINE
  5
44D
  8
0
 10
529.61027008351584
 20
12.51220457906204
 30
0.0
 11
529.61027008351584
 21
11.403953041688821
 31
0.0
  0
LINE
  5
44E
  8
0
 10
529.61027008351584
 20
11.40395287045895
 30
0.0
 11
529.61027008351584
 21
10.775376899773709
 31
0.0
  0
LINE
  5
44F
  8
0
 10
529.61027008351584
 20
10.775376899773731
 30
0.0
 11
529.61027008351596
 21
6.0000000129718778
 31
0.0
  0
LINE
  5
450
  8
0
 10
529.61027008351584
 20
10.77537689977369
 30
0.0
 11
465.11026799419949
 21
10.775376899773031
 31
0.0
  0
LINE
  5
451
  8
0
 10
443.11027008351601
 20
0.0000000129733881
 30
0.0
 11
537.61027008351596
 21
0.0000000129733881
 31
0.0
  0
LINE
  5
452
  8
0
 10
537.61027008351596
 20
0.0000000129733882
 30
0.0
 11
537.61027008351596
 21
6.0000000129758071
 31
0.0
  0
LINE
  5
453
  8
0
 10
537.61027008351596
 20
6.0000000129758071
 30
0.0
 11
443.11027008351601
 21
6.0000000129758071
 31
0.0
1001
ACAD
1000
ASC_BOUNDS
1002
{
1070
    19
1005
56B
1002
}
  0
LINE
  5
454
  8
0
 10
443.11027008351601
 20
6.0000000129758071
 30
0.0
 11
443.11027008351601
 21
0.0000000129733886
 31
0.0
  0
LINE
  5
455
  8
0
 10
94.500000312602637
 20
6.0000000129743132
 30
0.0
 11
94.500000312602637
 21
79.000000012972436
 31
0.0
  0
LINE
  5
456
  8
0
 10
94.500000312602637
 20
79.000000012972436
 30
0.0
 11
0.0000003126026513
 21
79.000000012972436
 31
0.0
  0
LINE
  5
457
  8
0
 10
0.0000003126026513
 20
79.000000012972436
 30
0.0
 11
0.0000003126026513
 21
6.0000000129743132
 31
0.0
  0
LINE
  5
458
  8
0
 10
0.0000003126026513
 20
6.0000000129743132
 30
0.0
 11
44.266456874800951
 21
6.0000000129743132
 31
0.0
  0
LINE
  5
459
  8
0
 10
50.233543750404579
 20
6.0000000129743132
 30
0.0
 11
94.500000312602637
 21
6.0000000129743132
 31
0.0
  0
LINE
  5
45A
  8
0
 10
94.500000312602424
 20
0.0000000129704042
 30
0.0
 11
94.500000312602424
 21
6.0000000129728237
 31
0.0
  0
LINE
  5
45B
  8
0
 10
94.500000312602424
 20
6.0000000129728237
 30
0.0
 11
50.233543750404351
 21
6.0000000129728237
 31
0.0
  0
LINE
  5
45C
  8
0
 10
44.266456874800951
 20
6.0000000129728237
 30
0.0
 11
0.0000003126024239
 21
6.0000000129728237
 31
0.0
  0
LINE
  5
45D
  8
0
 10
0.0000003126024239
 20
6.0000000129728237
 30
0.0
 11
0.0000003126024239
 21
0.0000000129704038
 31
0.0
  0
LINE
  5
45E
  8
0
 10
0.0000003126024239
 20
0.0000000129704042
 30
0.0
 11
94.500000312602424
 21
0.0000000129704042
 31
0.0
  0
ARC
  5
45F
  8
0
 10
47.250000312602651
 20
6.1250000129720199
 30
0.0
 40
2.9999999999999929
 50
359.9999999999996
 51
179.99999999999969
  0
ARC
  5
460
  8
0
 10
47.250000312602651
 20
6.1250000129720199
 30
0.0
 40
3.000000000000008
 50
180.00000000000011
 51
359.9999999999992
  0
ARC
  5
461
  8
0
 10
47.250000312602879
 20
68.000000012972023
 30
0.0
 40
3.0
 50
0.0
 51
179.99999999999989
  0
ARC
  5
462
  8
0
 10
47.250000312602879
 20
68.000000012972023
 30
0.0
 40
2.9999999999999911
 50
180.00000000000091
 51
359.99999999999949
  0
LINE
  5
463
  8
0
 10
370.93520541479978
 20
144.16117722006871
 30
0.0
 11
360.5438476029247
 21
144.16117722006871
 31
0.0
  0
LINE
  5
464
  8
0
 10
360.5438476029247
 20
144.16117722006871
 30
0.0
 11
360.5191078103453
 21
144.16117722006871
 31
0.0
  0
LINE
  5
465
  8
0
 10
370.12970303153912
 20
151.66583444329319
 30
0.0
 11
370.93520541479978
 21
151.66583444329319
 31
0.0
  0
LINE
  5
466
  8
0
 10
371.1842512950841
 20
151.66583444329319
 30
0.0
 11
371.1842512950841
 21
144.16117722006871
 31
0.0
  0
LINE
  5
467
  8
0
 10
325.1842512950841
 20
237.68084590369219
 30
0.0
 11
325.42974635213699
 21
237.68084590369219
 31
0.0
  0
LINE
  5
468
  8
0
 10
325.42974783383511
 20
237.68084590369219
 30
0.0
 11
326.15953927828292
 21
237.68084590369219
 31
0.0
  0
LINE
  5
469
  8
0
 10
326.15954094447261
 20
237.68084590369219
 30
0.0
 11
328.97972145911763
 21
237.68084590369219
 31
0.0
  0
LINE
  5
46A
  8
0
 10
328.97972212594908
 20
237.68084590369219
 30
0.0
 11
335.9537309360789
 21
237.68084590369219
 31
0.0
  0
LINE
  5
46B
  8
0
 10
335.95373365133059
 20
237.68084590369219
 30
0.0
 11
338.7655100047416
 21
237.68084590369219
 31
0.0
  0
LINE
  5
46C
  8
0
 10
338.76551252654963
 20
237.68084590369219
 30
0.0
 11
341.6978230765821
 21
237.68084590369219
 31
0.0
  0
LINE
  5
46D
  8
0
 10
341.69782398588268
 20
237.68084590369219
 30
0.0
 11
344.67067860429529
 21
237.68084590369219
 31
0.0
  0
LINE
  5
46E
  8
0
 10
344.67067951358598
 20
237.68084590369219
 30
0.0
 11
347.60299006361862
 21
237.68084590369219
 31
0.0
  0
LINE
  5
46F
  8
0
 10
347.60299258543643
 20
237.68084590369219
 30
0.0
 11
350.4147689388376
 21
237.68084590369219
 31
0.0
  0
LINE
  5
470
  8
0
 10
350.41477165409952
 20
237.68084590369219
 30
0.0
 11
355.37531958434738
 21
237.6808459036921
 31
0.0
  0
LINE
  5
471
  8
0
 10
355.37532205018869
 20
237.6808459036921
 30
0.0
 11
360.20896164569558
 21
237.6808459036921
 31
0.0
  0
LINE
  5
472
  8
0
 10
360.20896331189761
 20
237.6808459036921
 30
0.0
 11
360.93875333430668
 21
237.6808459036921
 31
0.0
  0
LINE
  5
473
  8
0
 10
360.93875475633308
 20
237.6808459036921
 30
0.0
 11
361.1842512950841
 21
237.6808459036921
 31
0.0
  0
LINE
  5
474
  8
0
 10
343.1842512950841
 20
144.16117722006879
 30
0.0
 11
340.22154867003093
 21
144.16117722006879
 31
0.0
  0
LINE
  5
475
  8
0
 10
340.2215475701102
 20
144.16117722006879
 30
0.0
 11
337.33966203354697
 21
144.16117722006879
 31
0.0
  0
LINE
  5
476
  8
0
 10
337.33966084939988
 20
144.16117722006879
 30
0.0
 11
329.94122090296793
 21
144.16117722006879
 31
0.0
  0
LINE
  5
477
  8
0
 10
329.94121967798242
 20
144.16117722006879
 30
0.0
 11
326.70033141529302
 21
144.16117722006871
 31
0.0
  0
LINE
  5
478
  8
0
 10
326.7003299646783
 20
144.16117722006871
 30
0.0
 11
325.73504676705721
 21
144.16117722006871
 31
0.0
  0
LINE
  5
479
  8
0
 10
325.73504650817608
 20
144.16117722006871
 30
0.0
 11
325.24573042096398
 21
144.16117722006871
 31
0.0
  0
LINE
  5
47A
  8
0
 10
360.54356177361001
 20
144.16117722006871
 30
0.0
 11
359.66817262550171
 21
144.16117722006871
 31
0.0
  0
LINE
  5
47B
  8
0
 10
359.66817117487523
 20
144.16117722006871
 30
0.0
 11
356.42728168720049
 21
144.16117722006871
 31
0.0
  0
LINE
  5
47C
  8
0
 10
356.42728007311757
 20
144.16117722006871
 30
0.0
 11
349.02884174076848
 21
144.16117722006879
 31
0.0
  0
LINE
  5
47D
  8
0
 10
349.02884055663048
 20
144.16117722006879
 30
0.0
 11
346.14695502006771
 21
144.16117722006879
 31
0.0
  0
LINE
  5
47E
  8
0
 10
346.14695392013732
 20
144.16117722006879
 30
0.0
 11
343.1842512950841
 21
144.16117722006879
 31
0.0
  0
LINE
  5
47F
  8
0
 10
371.1842512950841
 20
144.16117722006871
 30
0.0
 11
370.93853975560518
 21
144.16117722006871
 31
0.0
  0
LINE
  5
480
  8
0
 10
370.93853975560518
 20
151.66583444329319
 30
0.0
 11
371.1842512950841
 21
151.66583444329319
 31
0.0
  0
LINE
  5
481
  8
0
 10
370.93520541479978
 20
144.16117722006891
 30
0.0
 11
360.5438476029247
 21
144.16117722006891
 31
0.0
1001
ACAD
1000
ASC_BOUNDS
1002
{
1070
    19
1005
52C
1002
}
  0
LINE
  5
482
  8
0
 10
360.5438476029247
 20
144.16117722006891
 30
0.0
 11
360.5191078103453
 21
144.16117722006891
 31
0.0
1001
ACAD
1000
ASC_BOUNDS
1002
{
1070
    19
1005
52C
1002
}
  0
LINE
  5
483
  8
0
 10
370.12970303153912
 20
151.66583444329331
 30
0.0
 11
370.93520541479978
 21
151.66583444329331
 31
0.0
1001
ACAD
1000
ASC_BOUNDS
1002
{
1070
    19
1005
52C
1002
}
  0
LINE
  5
484
  8
0
 10
371.1842512950841
 20
151.66583444329331
 30
0.0
 11
371.1842512950841
 21
144.16117722006891
 31
0.0
1001
ACAD
1000
ASC_BOUNDS
1002
{
1070
    19
1005
52C
1002
}
  0
LINE
  5
485
  8
0
 10
325.1842512950841
 20
237.68084590369239
 30
0.0
 11
325.42974635213699
 21
237.68084590369239
 31
0.0
1001
ACAD
1000
ASC_BOUNDS
1002
{
1070
    19
1005
52C
1002
}
  0
LINE
  5
486
  8
0
 10
325.42974783383511
 20
237.68084590369239
 30
0.0
 11
326.15953927828292
 21
237.68084590369239
 31
0.0
1001
ACAD
1000
ASC_BOUNDS
1002
{
1070
    19
1005
52C
1002
}
  0
LINE
  5
487
  8
0
 10
326.15954094447261
 20
237.68084590369239
 30
0.0
 11
328.97972145911763
 21
237.6808459036923
 31
0.0
1001
ACAD
1000
ASC_BOUNDS
1002
{
1070
    19
1005
52C
1002
}
  0
LINE
  5
488
  8
0
 10
328.97972212594908
 20
237.6808459036923
 30
0.0
 11
335.95373093607873
 21
237.6808459036923
 31
0.0
1001
ACAD
1000
ASC_BOUNDS
1002
{
1070
    19
1005
52C
1002
}
  0
LINE
  5
489
  8
0
 10
335.95373365133059
 20
237.6808459036923
 30
0.0
 11
338.7655100047416
 21
237.6808459036923
 31
0.0
1001
ACAD
1000
ASC_BOUNDS
1002
{
1070
    19
1005
52C
1002
}
  0
LINE
  5
48A
  8
0
 10
338.76551252654963
 20
237.6808459036923
 30
0.0
 11
341.6978230765821
 21
237.6808459036923
 31
0.0
1001
ACAD
1000
ASC_BOUNDS
1002
{
1070
    19
1005
52C
1002
}
  0
LINE
  5
48B
  8
0
 10
341.69782398588268
 20
237.6808459036923
 30
0.0
 11
344.67067860429501
 21
237.6808459036923
 31
0.0
1001
ACAD
1000
ASC_BOUNDS
1002
{
1070
    19
1005
52C
1002
}
  0
LINE
  5
48C
  8
0
 10
344.67067951358598
 20
237.6808459036923
 30
0.0
 11
347.60299006361862
 21
237.6808459036923
 31
0.0
1001
ACAD
1000
ASC_BOUNDS
1002
{
1070
    19
1005
52C
1002
}
  0
LINE
  5
48D
  8
0
 10
347.60299258543643
 20
237.6808459036923
 30
0.0
 11
350.4147689388376
 21
237.6808459036923
 31
0.0
1001
ACAD
1000
ASC_BOUNDS
1002
{
1070
    19
1005
52C
1002
}
  0
LINE
  5
48E
  8
0
 10
350.41477165409918
 20
237.6808459036923
 30
0.0
 11
355.37531958434738
 21
237.6808459036923
 31
0.0
1001
ACAD
1000
ASC_BOUNDS
1002
{
1070
    19
1005
52C
1002
}
  0
LINE
  5
48F
  8
0
 10
355.37532205018869
 20
237.6808459036923
 30
0.0
 11
360.20896164569558
 21
237.6808459036923
 31
0.0
1001
ACAD
1000
ASC_BOUNDS
1002
{
1070
    19
1005
52C
1002
}
  0
LINE
  5
490
  8
0
 10
360.20896331189778
 20
237.6808459036923
 30
0.0
 11
360.93875333430668
 21
237.6808459036923
 31
0.0
1001
ACAD
1000
ASC_BOUNDS
1002
{
1070
    19
1005
52C
1002
}
  0
LINE
  5
491
  8
0
 10
360.93875475633308
 20
237.6808459036923
 30
0.0
 11
361.1842512950841
 21
237.6808459036923
 31
0.0
1001
ACAD
1000
ASC_BOUNDS
1002
{
1070
    19
1005
52C
1002
}
  0
LINE
  5
492
  8
0
 10
343.1842512950841
 20
144.16117722006891
 30
0.0
 11
340.22154867003093
 21
144.16117722006891
 31
0.0
1001
ACAD
1000
ASC_BOUNDS
1002
{
1070
    19
1005
52C
1002
}
  0
LINE
  5
493
  8
0
 10
340.2215475701102
 20
144.16117722006891
 30
0.0
 11
337.33966203354697
 21
144.16117722006891
 31
0.0
1001
ACAD
1000
ASC_BOUNDS
1002
{
1070
    19
1005
52C
1002
}
  0
LINE
  5
494
  8
0
 10
337.33966084939988
 20
144.16117722006891
 30
0.0
 11
329.94122090296793
 21
144.16117722006891
 31
0.0
1001
ACAD
1000
ASC_BOUNDS
1002
{
1070
    19
1005
52C
1002
}
  0
LINE
  5
495
  8
0
 10
329.94121967798242
 20
144.16117722006891
 30
0.0
 11
326.70033141529302
 21
144.16117722006891
 31
0.0
1001
ACAD
1000
ASC_BOUNDS
1002
{
1070
    19
1005
52C
1002
}
  0
LINE
  5
496
  8
0
 10
326.7003299646783
 20
144.16117722006891
 30
0.0
 11
325.73504676705721
 21
144.16117722006891
 31
0.0
1001
ACAD
1000
ASC_BOUNDS
1002
{
1070
    19
1005
52C
1002
}
  0
LINE
  5
497
  8
0
 10
325.73504650817608
 20
144.16117722006891
 30
0.0
 11
325.1842512950841
 21
144.16117722006891
 31
0.0
1001
ACAD
1000
ASC_BOUNDS
1002
{
1070
    19
1005
52C
1002
}
  0
LINE
  5
498
  8
0
 10
360.54356177361001
 20
144.16117722006891
 30
0.0
 11
359.66817262550171
 21
144.16117722006891
 31
0.0
1001
ACAD
1000
ASC_BOUNDS
1002
{
1070
    19
1005
52C
1002
}
  0
LINE
  5
499
  8
0
 10
359.66817117487523
 20
144.16117722006891
 30
0.0
 11
356.42728168720049
 21
144.16117722006891
 31
0.0
1001
ACAD
1000
ASC_BOUNDS
1002
{
1070
    19
1005
52C
1002
}
  0
LINE
  5
49A
  8
0
 10
356.42728007311757
 20
144.16117722006891
 30
0.0
 11
349.02884174076848
 21
144.16117722006891
 31
0.0
1001
ACAD
1000
ASC_BOUNDS
1002
{
1070
    19
1005
52C
1002
}
  0
LINE
  5
49B
  8
0
 10
349.02884055663048
 20
144.16117722006891
 30
0.0
 11
346.14695502006771
 21
144.16117722006891
 31
0.0
1001
ACAD
1000
ASC_BOUNDS
1002
{
1070
    19
1005
52C
1002
}
  0
LINE
  5
49C
  8
0
 10
346.14695392013732
 20
144.16117722006891
 30
0.0
 11
343.1842512950841
 21
144.16117722006891
 31
0.0
1001
ACAD
1000
ASC_BOUNDS
1002
{
1070
    19
1005
52C
1002
}
  0
LINE
  5
49D
  8
0
 10
371.1842512950841
 20
144.16117722006879
 30
0.0
 11
370.93853975560518
 21
144.16117722006879
 31
0.0
1001
ACAD
1000
ASC_BOUNDS
1002
{
1070
    19
1005
52C
1002
}
  0
LINE
  5
49E
  8
0
 10
370.93853975560518
 20
151.66583444329331
 30
0.0
 11
371.1842512950841
 21
151.66583444329331
 31
0.0
1001
ACAD
1000
ASC_BOUNDS
1002
{
1070
    19
1005
52C
1002
}
  0
LINE
  5
49F
  8
0
 10
301.05925129508432
 20
238.16583444329339
 30
0.0
 11
301.05925129508393
 21
143.66583444329331
 31
0.0
  0
LINE
  5
4A0
  8
0
 10
157.4342512950839
 20
143.66583444329379
 30
0.0
 11
157.43425129508429
 21
238.16583444329379
 31
0.0
  0
LINE
  5
4A1
  8
0
 10
157.43425129508429
 20
238.16583444329379
 30
0.0
 11
301.0592512950841
 21
238.16583444329339
 31
0.0
  0
LINE
  5
4A2
  8
0
 10
159.05925129508429
 20
236.54083444329379
 30
0.0
 11
299.43425129508432
 21
236.54083444329331
 31
0.0
1001
ACAD
1000
ASC_BOUNDS
1002
{
1070
    19
1005
577
1002
}
  0
LINE
  5
4A3
  8
0
 10
299.43425129508432
 20
236.54083444329331
 30
0.0
 11
299.43425129508393
 21
145.29083444329339
 31
0.0
1001
ACAD
1000
ASC_BOUNDS
1002
{
1070
    19
1005
577
1002
}
  0
LINE
  5
4A4
  8
0
 10
299.43425129508393
 20
145.29083444329339
 30
0.0
 11
159.05925129508381
 21
145.29083444329379
 31
0.0
1001
ACAD
1000
ASC_BOUNDS
1002
{
1070
    19
1005
577
1002
}
  0
LINE
  5
4A5
  8
0
 10
159.05925129508381
 20
145.29083444329379
 30
0.0
 11
159.05925129508429
 21
236.54083444329379
 31
0.0
1001
ACAD
1000
ASC_BOUNDS
1002
{
1070
    19
1005
577
1002
}
  0
LINE
  5
4A6
  8
0
 10
157.4342512950839
 20
143.66583444329379
 30
0.0
 11
301.05925129508393
 21
143.66583444329331
 31
0.0
  0
LINE
  5
4A7
  8
0
 10
370.18425129508432
 20
151.6658344432941
 30
0.0
 11
370.18425129508432
 21
230.16583444329331
 31
0.0
  0
LINE
  5
4A8
  8
0
 10
370.12970281793758
 20
151.6658344432941
 30
0.0
 11
370.11513106702802
 21
151.6658344432941
 31
0.0
  0
LINE
  5
4A9
  8
0
 10
370.11512690393221
 20
151.6658344432941
 30
0.0
 11
369.60922264512283
 21
151.66583444329399
 31
0.0
1001
ACAD
1000
ASC_BOUNDS
1002
{
1070
    19
1005
52C
1002
}
  0
LINE
  5
4AA
  8
0
 10
369.60922065153449
 20
151.66583444329399
 30
0.0
 11
368.62029630123402
 21
151.66583444329399
 31
0.0
1001
ACAD
1000
ASC_BOUNDS
1002
{
1070
    19
1005
52C
1002
}
  0
LINE
  5
4AB
  8
0
 10
368.6202946800156
 20
151.66583444329399
 30
0.0
 11
367.16457924445149
 21
151.66583444329399
 31
0.0
1001
ACAD
1000
ASC_BOUNDS
1002
{
1070
    19
1005
52C
1002
}
  0
LINE
  5
4AC
  8
0
 10
367.16457669139982
 20
151.66583444329399
 30
0.0
 11
365.26596492338109
 21
151.6658344432939
 31
0.0
1001
ACAD
1000
ASC_BOUNDS
1002
{
1070
    19
1005
52C
1002
}
  0
LINE
  5
4AD
  8
0
 10
365.26596409628928
 20
151.6658344432939
 30
0.0
 11
360.27148788067319
 21
151.66583444329379
 31
0.0
1001
ACAD
1000
ASC_BOUNDS
1002
{
1070
    19
1005
52C
1002
}
  0
LINE
  5
4AE
  8
0
 10
360.27148488364202
 20
151.66583444329379
 30
0.0
 11
357.25760615643821
 21
151.66583444329379
 31
0.0
1001
ACAD
1000
ASC_BOUNDS
1002
{
1070
    19
1005
52C
1002
}
  0
LINE
  5
4AF
  8
0
 10
357.25760317466569
 20
151.66583444329379
 30
0.0
 11
350.44311513565918
 21
151.66583444329379
 31
0.0
1001
ACAD
1000
ASC_BOUNDS
1002
{
1070
    19
1005
52C
1002
}
  0
LINE
  5
4B0
  8
0
 10
350.44311288314537
 20
151.66583444329379
 30
0.0
 11
346.7543730857879
 21
151.66583444329379
 31
0.0
1001
ACAD
1000
ASC_BOUNDS
1002
{
1070
    19
1005
52C
1002
}
  0
LINE
  5
4B1
  8
0
 10
346.75437159149078
 20
151.66583444329379
 30
0.0
 11
342.9577784560297
 21
151.66583444329379
 31
0.0
1001
ACAD
1000
ASC_BOUNDS
1002
{
1070
    19
1005
52C
1002
}
  0
LINE
  5
4B2
  8
0
 10
342.9577766642696
 20
151.66583444329379
 30
0.0
 11
339.1156535016878
 21
151.66583444329379
 31
0.0
1001
ACAD
1000
ASC_BOUNDS
1002
{
1070
    19
1005
52C
1002
}
  0
LINE
  5
4B3
  8
0
 10
339.11565311146728
 20
151.66583444329379
 30
0.0
 11
335.29107234520762
 21
151.66583444329379
 31
0.0
1001
ACAD
1000
ASC_BOUNDS
1002
{
1070
    19
1005
52C
1002
}
  0
LINE
  5
4B4
  8
0
 10
335.29107106275183
 20
151.66583444329379
 30
0.0
 11
331.54681269637013
 21
151.66583444329379
 31
0.0
1001
ACAD
1000
ASC_BOUNDS
1002
{
1070
    19
1005
52C
1002
}
  0
LINE
  5
4B5
  8
0
 10
331.5468115419269
 20
151.66583444329379
 30
0.0
 11
327.94434164237828
 21
151.66583444329379
 31
0.0
1001
ACAD
1000
ASC_BOUNDS
1002
{
1070
    19
1005
52C
1002
}
  0
LINE
  5
4B6
  8
0
 10
327.94434021568208
 20
151.66583444329379
 30
0.0
 11
301.0592512950841
 21
151.66583444329399
 31
0.0
1001
ACAD
1000
ASC_BOUNDS
1002
{
1070
    19
1005
52C
1002
}
  0
LINE
  5
4B7
  8
0
 10
301.0592512950841
 20
230.16583444329319
 30
0.0
 11
327.94434021568208
 21
230.16583444329299
 31
0.0
1001
ACAD
1000
ASC_BOUNDS
1002
{
1070
    19
1005
52C
1002
}
  0
LINE
  5
4B8
  8
0
 10
327.94434164237799
 20
230.16583444329299
 30
0.0
 11
331.54681154192667
 21
230.16583444329299
 31
0.0
1001
ACAD
1000
ASC_BOUNDS
1002
{
1070
    19
1005
52C
1002
}
  0
LINE
  5
4B9
  8
0
 10
331.5468126963699
 20
230.16583444329299
 30
0.0
 11
335.2910710627516
 21
230.16583444329299
 31
0.0
1001
ACAD
1000
ASC_BOUNDS
1002
{
1070
    19
1005
52C
1002
}
  0
LINE
  5
4BA
  8
0
 10
335.29107234520728
 20
230.16583444329299
 30
0.0
 11
339.115653111467
 21
230.16583444329299
 31
0.0
1001
ACAD
1000
ASC_BOUNDS
1002
{
1070
    19
1005
52C
1002
}
  0
LINE
  5
4BB
  8
0
 10
339.11565350168758
 20
230.16583444329299
 30
0.0
 11
342.95777666426937
 21
230.16583444329299
 31
0.0
1001
ACAD
1000
ASC_BOUNDS
1002
{
1070
    19
1005
52C
1002
}
  0
LINE
  5
4BC
  8
0
 10
342.95777845602947
 20
230.16583444329299
 30
0.0
 11
346.75437159149061
 21
230.16583444329299
 31
0.0
1001
ACAD
1000
ASC_BOUNDS
1002
{
1070
    19
1005
52C
1002
}
  0
LINE
  5
4BD
  8
0
 10
346.75437308578762
 20
230.16583444329299
 30
0.0
 11
350.44311288314537
 21
230.16583444329299
 31
0.0
1001
ACAD
1000
ASC_BOUNDS
1002
{
1070
    19
1005
52C
1002
}
  0
LINE
  5
4BE
  8
0
 10
350.4431151356589
 20
230.16583444329299
 30
0.0
 11
353.96345286643009
 21
230.16583444329299
 31
0.0
1001
ACAD
1000
ASC_BOUNDS
1002
{
1070
    19
1005
52C
1002
}
  0
LINE
  5
4BF
  8
0
 10
353.96345496667732
 20
230.16583444329299
 30
0.0
 11
357.25760317466552
 21
230.16583444329299
 31
0.0
1001
ACAD
1000
ASC_BOUNDS
1002
{
1070
    19
1005
52C
1002
}
  0
LINE
  5
4C0
  8
0
 10
357.25760615643821
 20
230.16583444329299
 30
0.0
 11
360.27148488364168
 21
230.16583444329311
 31
0.0
1001
ACAD
1000
ASC_BOUNDS
1002
{
1070
    19
1005
52C
1002
}
  0
LINE
  5
4C1
  8
0
 10
360.27148788067302
 20
230.16583444329311
 30
0.0
 11
365.26596409628911
 21
230.16583444329311
 31
0.0
1001
ACAD
1000
ASC_BOUNDS
1002
{
1070
    19
1005
52C
1002
}
  0
LINE
  5
4C2
  8
0
 10
365.26596492338081
 20
230.16583444329311
 30
0.0
 11
367.16457669139982
 21
230.16583444329319
 31
0.0
  0
LINE
  5
4C3
  8
0
 10
367.1645792444512
 20
230.16583444329319
 30
0.0
 11
368.6202946800156
 21
230.16583444329319
 31
0.0
  0
LINE
  5
4C4
  8
0
 10
368.62029630123402
 20
230.16583444329319
 30
0.0
 11
369.60922065153449
 21
230.16583444329331
 31
0.0
  0
LINE
  5
4C5
  8
0
 10
369.6092226451226
 20
230.16583444329331
 30
0.0
 11
370.11512690393221
 21
230.16583444329331
 31
0.0
  0
LINE
  5
4C6
  8
0
 10
370.11513106702802
 20
230.16583444329331
 30
0.0
 11
370.12970281793758
 21
230.16583444329331
 31
0.0
  0
LINE
  5
4C7
  8
0
 10
373.1842512950841
 20
238.16583444329399
 30
0.0
 11
373.1842512950841
 21
143.6658344432939
 31
0.0
  0
LINE
  5
4C8
  8
0
 10
373.1842512950841
 20
143.6658344432939
 30
0.0
 11
301.05925129508393
 21
143.66583444329399
 31
0.0
  0
LINE
  5
4C9
  8
0
 10
373.1842512950841
 20
238.16583444329399
 30
0.0
 11
301.0592512950841
 21
238.16583444329399
 31
0.0
  0
LINE
  5
4CA
  8
0
 10
152.4342512950839
 20
187.91583444329359
 30
0.0
 11
157.4342512950839
 21
187.91583444329359
 31
0.0
  0
LINE
  5
4CB
  8
0
 10
157.4342512950839
 20
193.91583444329359
 30
0.0
 11
152.4342512950841
 21
193.91583444329359
 31
0.0
  0
LINE
  5
4CC
  8
0
 10
152.4342512950841
 20
187.91583444329351
 30
0.0
 11
152.4342512950841
 21
188.79451344403211
 31
0.0
  0
LINE
  5
4CD
  8
0
 10
152.4342512950841
 20
188.7945140997339
 30
0.0
 11
152.4342512950841
 21
189.4158332000784
 31
0.0
  0
LINE
  5
4CE
  8
0
 10
152.4342512950841
 20
189.41583444329359
 30
0.0
 11
152.4342512950841
 21
190.139377307986
 31
0.0
  0
LINE
  5
4CF
  8
0
 10
152.4342512950841
 20
190.13937742567549
 30
0.0
 11
152.4342512950841
 21
190.9158332945745
 31
0.0
  0
LINE
  5
4D0
  8
0
 10
152.4342512950841
 20
190.91583444329351
 30
0.0
 11
152.4342512950841
 21
191.6922915786011
 31
0.0
  0
LINE
  5
4D1
  8
0
 10
152.4342512950841
 20
191.6922920706474
 30
0.0
 11
152.4342512950841
 21
193.03715478685319
 31
0.0
  0
LINE
  5
4D2
  8
0
 10
152.4342512950841
 20
193.0371561295261
 30
0.0
 11
152.4342512950841
 21
193.51391065464679
 31
0.0
  0
LINE
  5
4D3
  8
0
 10
152.4342512950841
 20
193.5139112142144
 30
0.0
 11
152.4342512950841
 21
193.91583444329351
 31
0.0
  0
INSERT
  5
4E2
  8
0
  6
CONTINUOUS
  2
*X4
 10
0.0
 20
0.0
 30
0.0
1001
GRADIENTCOLOR1ACI
1070
     5
1001
GRADIENTCOLOR2ACI
1070
     2
1001
ACAD
1000
HATCH
1002
{
1070
    19
1000
NET
1040
12.0
1040
0.7853981633974483
1000
ASC_BOUNDS
1070
     1
1070
     1
1070
     6
1005
361
1005
35F
1005
35E
1005
360
1005
35C
1005
35D
1000
ASC_SEEDPOINT
1011
339.1816521201942
1021
0.0
1031
0.0
1021
49.25093507532619
1031
0.0
1000
R14_HATCH_DATA
1000
4E2
1011
1.0
1021
0.0
1031
0.0
1021
0.0
1031
0.0
1011
0.0
1021
0.0
1031
0.0
1021
1.0
1031
0.0
1011
0.0
1021
0.0
1031
0.0
1021
0.0
1031
1.0
1040
0.0
1010
0.0
1020
0.0
1030
1.0
1000
NET
1070
     0
1070
     1
1071
        1
1071
        7
1070
     1
1070
     1
1071
        6
1040
360.54384760292459
1040
52.758614940533832
1040
0.337852277024659
1040
343.1842512950841
1040
66.000000012972407
1040
0.6783124970280918
1040
330.81625162589899
1040
34.922057354318667
1040
0.0
1040
359.37447364595653
1040
7.9141334234954854
1040
0.1916731857395717
1040
364.1842512950841
1040
6.0000000129719311
1040
0.4949333602420863
1040
370.93520541479978
1040
14.85057248480136
1040
0.0
1071
        6
1005
35D
1005
35C
1005
360
1005
35E
1005
35F
1005
361
1070
     1
1070
     1
1040
0.7853981633974483
1040
12.0
1070
     0
1070
     2
1040
0.7853981633974483
1040
0.0
1040
0.0
1040
-1.060660171779821
1040
1.060660171779821
1070
     0
1040
2.3561944901923439
1040
0.0
1040
0.0
1040
-1.060660171779821
1040
-1.060660171779821
1070
     0
1040
0.0835792293810866
1071
        1
1040
339.1816521201942
1040
49.25093507532619
1040
0.0
1002
}
  0
LINE
  5
4EA
  8
0
 10
325.1842512950841
 20
237.68084590369239
 30
0.0
 11
325.1842512950841
 21
230.16583444329311
 31
0.0
1001
ACAD
1000
ASC_BOUNDS
1002
{
1070
    19
1005
52C
1002
}
  0
LINE
  5
4EB
  8
0
 10
361.1842512950841
 20
237.6808459036921
 30
0.0
 11
361.18425129508421
 21
230.16583444329311
 31
0.0
1001
ACAD
1000
ASC_BOUNDS
1002
{
1070
    19
1005
52C
1002
}
  0
LINE
  5
4EC
  8
0
 10
325.1842512950841
 20
151.66583444329379
 30
0.0
 11
325.1842512950841
 21
144.16117722006891
 31
0.0
1001
ACAD
1000
ASC_BOUNDS
1002
{
1070
    19
1005
52C
1002
}
  0
INSERT
  5
52C
  8
0
  6
CONTINUOUS
  2
*X5
 10
0.0
 20
0.0
 30
0.0
1001
GRADIENTCOLOR1ACI
1070
     5
1001
GRADIENTCOLOR2ACI
1070
     2
1001
ACAD
1000
HATCH
1002
{
1070
    19
1000
NET
1040
12.0
1040
0.7853981633974483
1000
ASC_BOUNDS
1070
     2
1070
     1
1070
    32
1005
484
1005
49D
1005
481
1005
482
1005
498
1005
499
1005
49A
1005
49B
1005
49C
1005
492
1005
493
1005
494
1005
495
1005
496
1005
497
1005
4EC
1005
4B6
1005
4B5
1005
4B4
1005
4B3
1005
4B2
1005
4B1
1005
4B0
1005
4AF
1005
4AE
1005
4AD
1005
4AC
1005
4AB
1005
4AA
1005
4A9
1005
483
1005
49E
1070
     1
1070
    26
1005
4EB
1005
4C1
1005
4C0
1005
4BF
1005
4BE
1005
4BD
1005
4BC
1005
4BB
1005
4BA
1005
4B9
1005
4B8
1005
4B7
1005
4EA
1005
485
1005
486
1005
487
1005
488
1005
489
1005
48A
1005
48B
1005
48C
1005
48D
1005
48E
1005
48F
1005
490
1005
491
1000
ASC_SEEDPOINT
1011
338.93339638015232
1021
0.0
1031
0.0
1021
233.2790514291606
1031
0.0
1000
R14_HATCH_DATA
1000
52C
1011
1.0
1021
0.0
1031
0.0
1021
0.0
1031
0.0
1011
0.0
1021
0.0
1031
0.0
1021
1.0
1031
0.0
1011
0.0
1021
0.0
1031
0.0
1021
0.0
1031
1.0
1040
0.0
1010
0.0
1020
0.0
1030
1.0
1000
NET
1070
     0
1070
     1
1071
        2
1071
        7
1070
     0
1070
     1
1071
       26
1040
361.1842512950841
1040
237.6808459036923
1040
360.93875475633308
1040
237.6808459036923
1040
360.20896331189778
1040
237.6808459036923
1040
355.37532205018869
1040
237.6808459036923
1040
350.41477165409918
1040
237.6808459036923
1040
347.60299258543643
1040
237.6808459036923
1040
344.67067951358598
1040
237.6808459036923
1040
341.69782398588268
1040
237.6808459036923
1040
338.76551252654963
1040
237.6808459036923
1040
335.95373365133059
1040
237.6808459036923
1040
328.97972212594908
1040
237.6808459036923
1040
326.15954094447261
1040
237.68084590369239
1040
325.42974783383511
1040
237.68084590369239
1040
325.1842512950841
1040
237.68084590369239
1040
325.1842512950841
1040
230.16583444329299
1040
327.94434021568208
1040
230.16583444329299
1040
331.54681154192667
1040
230.16583444329299
1040
335.2910710627516
1040
230.16583444329299
1040
339.115653111467
1040
230.16583444329299
1040
342.95777666426937
1040
230.16583444329299
1040
346.75437159149061
1040
230.16583444329299
1040
350.44311288314537
1040
230.16583444329299
1040
353.96345286643009
1040
230.16583444329299
1040
357.25760317466552
1040
230.16583444329299
1040
360.27148488364168
1040
230.16583444329311
1040
361.18425129508421
1040
230.16583444329311
1071
       26
1005
491
1005
490
1005
48F
1005
48E
1005
48D
1005
48C
1005
48B
1005
48A
1005
489
1005
488
1005
487
1005
486
1005
485
1005
4EA
1005
4B7
1005
4B8
1005
4B9
1005
4BA
1005
4BB
1005
4BC
1005
4BD
1005
4BE
1005
4BF
1005
4C0
1005
4C1
1005
4EB
1071
        7
1070
     0
1070
     1
1071
       32
1040
371.1842512950841
1040
151.66583444329331
1040
370.93853975560518
1040
151.66583444329331
1040
370.12970303153912
1040
151.66583444329331
1040
369.60922264512283
1040
151.66583444329399
1040
368.62029630123402
1040
151.66583444329399
1040
367.16457924445149
1040
151.66583444329399
1040
365.26596492338109
1040
151.6658344432939
1040
360.27148788067319
1040
151.66583444329379
1040
357.25760615643821
1040
151.66583444329379
1040
350.44311513565918
1040
151.66583444329379
1040
346.7543730857879
1040
151.66583444329379
1040
342.9577784560297
1040
151.66583444329379
1040
339.1156535016878
1040
151.66583444329379
1040
335.29107234520762
1040
151.66583444329379
1040
331.54681269637013
1040
151.66583444329379
1040
327.94434164237828
1040
151.66583444329379
1040
325.1842512950841
1040
151.66583444329379
1040
325.1842512950841
1040
144.16117722006891
1040
325.73504650817608
1040
144.16117722006891
1040
326.7003299646783
1040
144.16117722006891
1040
329.94121967798242
1040
144.16117722006891
1040
337.33966084939988
1040
144.16117722006891
1040
340.2215475701102
1040
144.16117722006891
1040
343.1842512950841
1040
144.16117722006891
1040
346.14695392013732
1040
144.16117722006891
1040
349.02884055663048
1040
144.16117722006891
1040
356.42728007311757
1040
144.16117722006891
1040
359.66817117487523
1040
144.16117722006891
1040
360.54356177361001
1040
144.16117722006891
1040
360.5438476029247
1040
144.16117722006891
1040
370.93520541479978
1040
144.16117722006891
1040
371.1842512950841
1040
144.16117722006879
1071
       32
1005
49E
1005
483
1005
4A9
1005
4AA
1005
4AB
1005
4AC
1005
4AD
1005
4AE
1005
4AF
1005
4B0
1005
4B1
1005
4B2
1005
4B3
1005
4B4
1005
4B5
1005
4B6
1005
4EC
1005
497
1005
496
1005
495
1005
494
1005
493
1005
492
1005
49C
1005
49B
1005
49A
1005
499
1005
498
1005
482
1005
481
1005
49D
1005
484
1070
     1
1070
     1
1040
0.7853981633974483
1040
12.0
1070
     0
1070
     2
1040
0.7853981633974483
1040
0.0
1040
0.0
1040
-1.060660171779821
1040
1.060660171779821
1070
     0
1040
2.3561944901923439
1040
0.0
1040
0.0
1040
-1.060660171779821
1040
-1.060660171779821
1070
     0
1040
0.1442637335800054
1071
        2
1040
338.93339638015232
1040
233.2790514291606
1040
0.0
1040
349.3253985697923
1040
145.85522868768501
1040
0.0
1002
}
  0
LINE
  5
52D
  8
0
 10
443.60561286029122
 20
66.000000012972407
 30
0.0
 11
451.11027008351613
 21
66.000000012972407
 31
0.0
1001
ACAD
1000
ASC_BOUNDS
1002
{
1070
    19
1005
56B
1002
}
  0
LINE
  5
52E
  8
0
 10
529.61027008351527
 20
66.000000012972407
 30
0.0
 11
537.12528154391453
 21
66.000000012972407
 31
0.0
1001
ACAD
1000
ASC_BOUNDS
1002
{
1070
    19
1005
56B
1002
}
  0
LINE
  5
52F
  8
0
 10
529.61027008351505
 20
30.061479138852221
 30
0.0
 11
537.1252815439143
 21
30.061479138852221
 31
0.0
1001
ACAD
1000
ASC_BOUNDS
1002
{
1070
    19
1005
56B
1002
}
  0
INSERT
  5
56B
  8
0
  6
CONTINUOUS
  2
*X6
 10
0.0
 20
0.0
 30
0.0
1001
GRADIENTCOLOR1ACI
1070
     5
1001
GRADIENTCOLOR2ACI
1070
     2
1001
ACAD
1000
HATCH
1002
{
1070
    19
1000
NET
1040
12.0
1040
0.7853981633974483
1000
ASC_BOUNDS
1070
     2
1070
     1
1070
    24
1005
401
1005
402
1005
403
1005
404
1005
405
1005
52F
1005
448
1005
447
1005
446
1005
445
1005
444
1005
443
1005
442
1005
441
1005
440
1005
43F
1005
43E
1005
52E
1005
407
1005
408
1005
409
1005
40A
1005
40B
1005
40C
1070
     1
1070
    30
1005
432
1005
431
1005
430
1005
42F
1005
42E
1005
42D
1005
42C
1005
42B
1005
400
1005
422
1005
423
1005
424
1005
425
1005
426
1005
453
1005
41E
1005
41F
1005
420
1005
421
1005
3FE
1005
3FF
1005
419
1005
41A
1005
41B
1005
41C
1005
41D
1005
52D
1005
435
1005
434
1005
433
1000
ASC_SEEDPOINT
1011
445.56300914398861
1021
0.0
1031
0.0
1021
54.713510057094361
1031
0.0
1000
R14_HATCH_DATA
1000
56B
1011
1.0
1021
0.0
1031
0.0
1021
0.0
1031
0.0
1011
0.0
1021
0.0
1031
0.0
1021
1.0
1031
0.0
1011
0.0
1021
0.0
1031
0.0
1021
0.0
1031
1.0
1040
0.0
1010
0.0
1020
0.0
1030
1.0
1000
NET
1070
     0
1070
     1
1071
        2
1071
        7
1070
     0
1070
     1
1071
       30
1040
451.11027008351601
1040
57.08427221644758
1040
451.11027008351601
1040
62.90734833532575
1040
451.11027008351601
1040
65.292806068557397
1040
451.11027008351601
1040
66.000000012972407
1040
443.60561286029122
1040
66.000000012972407
1040
443.60561286029122
1040
65.754503474221067
1040
443.60561286029122
1040
65.024712029779209
1040
443.60561286029122
1040
60.191070768071299
1040
443.6056128602911
1040
55.23052037198223
1040
443.6056128602911
1040
52.766580819664249
1040
443.6056128602911
1040
52.451890152707684
1040
443.6056128602911
1040
14.85057655545846
1040
443.6056128602911
1040
13.00000049529984
1040
443.6056128602911
1040
6.9378221864805241
1040
443.6056128602911
1040
6.2385192289481211
1040
443.6056128602911
1040
6.0000000129758098
1040
451.11027008351527
1040
6.0000000129758098
1040
451.11027008351527
1040
6.1220349675190908
1040
451.11027008351527
1040
6.2385191807567182
1040
451.11027008351527
1040
6.9378217823483217
1040
451.11027008351527
1040
13.00000001297162
1040
451.11027008351527
1040
14.85242742953433
1040
451.11027008351562
1040
27.929417505065821
1040
451.1102700835163
1040
31.281054486724699
1040
451.1102700835163
1040
35.002733232882257
1040
451.1102700835163
1040
38.816704381045483
1040
451.1102700835163
1040
42.660358442463007
1040
451.1102700835163
1040
46.470601868163207
1040
451.1102700835163
1040
50.184886864305277
1040
451.11027008351601
1040
53.742242158671743
1071
       30
1005
433
1005
434
1005
435
1005
52D
1005
41D
1005
41C
1005
41B
1005
41A
1005
419
1005
3FF
1005
3FE
1005
421
1005
420
1005
41F
1005
41E
1005
453
1005
426
1005
425
1005
424
1005
423
1005
422
1005
400
1005
42B
1005
42C
1005
42D
1005
42E
1005
42F
1005
430
1005
431
1005
432
1071
        7
1070
     0
1070
     1
1071
       24
1040
537.12528154391453
1040
48.000000012972002
1040
537.12528154391453
1040
50.962702638025178
1040
537.12528154391453
1040
53.844589274513567
1040
537.12528154391453
1040
61.243028791001109
1040
537.12528154391453
1040
64.483919892762984
1040
537.12528154391453
1040
65.449204799879894
1040
537.12528154391453
1040
66.000000012972407
1040
529.61027008351527
1040
66.000000012972407
1040
529.61027008351527
1040
65.292806698309633
1040
529.61027008351527
1040
62.907348670503993
1040
529.61027008351527
1040
57.08427440279717
1040
529.61027008351527
1040
53.742244823671193
1040
529.61027008351527
1040
50.184888902129963
1040
529.61027008351527
1040
46.47060301997012
1040
529.61027008351527
1040
42.660358774389827
1040
529.61027008351562
1040
38.816705715201849
1040
529.61027008351562
1040
35.002733947215738
1040
529.61027008351562
1040
31.281055456869591
1040
529.61027008351562
1040
30.061479138852221
1040
537.12528154391453
1040
30.061479138852221
1040
537.12528154391453
1040
30.550795226064022
1040
537.12528154391453
1040
31.51607868256016
1040
537.12528154391453
1040
34.756968395864952
1040
537.12528154391453
1040
42.155409567287677
1071
       24
1005
40C
1005
40B
1005
40A
1005
409
1005
408
1005
407
1005
52E
1005
43E
1005
43F
1005
440
1005
441
1005
442
1005
443
1005
444
1005
445
1005
446
1005
447
1005
448
1005
52F
1005
405
1005
404
1005
403
1005
402
1005
401
1070
     1
1070
     1
1040
0.7853981633974483
1040
12.0
1070
     0
1070
     2
1040
0.7853981633974483
1040
0.0
1040
0.0
1040
-1.060660171779821
1040
1.060660171779821
1070
     0
1040
2.3561944901923439
1040
0.0
1040
0.0
1040
-1.060660171779821
1040
-1.060660171779821
1070
     0
1040
0.09965606616943
1071
        2
1040
445.56300914398861
1040
54.713510057094361
1040
0.0
1040
534.79823455373594
1040
42.256501463305433
1040
0.0
1002
}
  0
INSERT
  5
577
  8
0
  6
CONTINUOUS
  2
*X7
 10
0.0
 20
0.0
 30
0.0
1001
GRADIENTCOLOR1ACI
1070
     5
1001
GRADIENTCOLOR2ACI
1070
     2
1001
ACAD
1000
HATCH
1002
{
1070
    19
1000
ANSI31
1040
12.0
1040
2.3561944901923439
1000
ASC_BOUNDS
1070
     1
1070
     1
1070
     4
1005
4A3
1005
4A4
1005
4A5
1005
4A2
1000
ASC_SEEDPOINT
1011
194.3407280341207
1021
0.0
1031
0.0
1021
195.3721255597471
1031
0.0
1000
R14_HATCH_DATA
1000
577
1011
1.0
1021
0.0
1031
0.0
1021
0.0
1031
0.0
1011
0.0
1021
0.0
1031
0.0
1021
1.0
1031
0.0
1011
0.0
1021
0.0
1031
0.0
1021
0.0
1031
1.0
1040
0.0
1010
0.0
1020
0.0
1030
1.0
1000
ANSI31
1070
     0
1070
     1
1071
        1
1071
        7
1070
     0
1070
     1
1071
        4
1040
299.43425129508432
1040
236.54083444329331
1040
159.05925129508429
1040
236.54083444329379
1040
159.05925129508381
1040
145.29083444329379
1040
299.43425129508393
1040
145.29083444329339
1071
        4
1005
4A2
1005
4A5
1005
4A4
1005
4A3
1070
     1
1070
     1
1040
2.3561944901923439
1040
12.0
1070
     0
1070
     1
1040
3.1415926535897931
1040
0.0
1040
0.0
1040
-0.0000000000000002
1040
-1.5
1070
     0
1040
0.1626924892644451
1071
        1
1040
194.3407280341207
1040
195.3721255597471
1040
0.0
1002
}
  0
ENDSEC
  0
EOF
