  0
SECTION
  2
HEADER
  9
$ACADVER
  1
AC1015
  9
$ACADMAINTVER
 70
    20
  9
$DWGCODEPAGE
  3
ANSI_1252
  9
$INSBASE
 10
0.0
 20
0.0
 30
0.0
  9
$EXTMIN
 10
1688.406884836887
 20
-0.0905831179892403
 30
-0.0000000349181948
  9
$EXTMAX
 10
2304.292375905928
 20
427.747717063283
 30
0.0000000814935747
  9
$LIMMIN
 10
0.0
 20
0.0
  9
$LIMMAX
 10
12.0
 20
9.0
  9
$ORTHOMODE
 70
     1
  9
$REGENMODE
 70
     1
  9
$FILLMODE
 70
     1
  9
$QTEXTMODE
 70
     0
  9
$MIRRTEXT
 70
     0
  9
$LTSCALE
 40
1.0
  9
$ATTMODE
 70
     1
  9
$TEXTSIZE
 40
0.2
  9
$TRACEWID
 40
0.05
  9
$TEXTSTYLE
  7
Standard
  9
$CLAYER
  8
0
  9
$CELTYPE
  6
ByLayer
  9
$CECOLOR
 62
   256
  9
$CELTSCALE
 40
1.0
  9
$DISPSILH
 70
     0
  9
$DIMSCALE
 40
24.0
  9
$DIMASZ
 40
0.18
  9
$DIMEXO
 40
0.0625
  9
$DIMDLI
 40
0.38
  9
$DIMRND
 40
0.0
  9
$DIMDLE
 40
0.0
  9
$DIMEXE
 40
0.18
  9
$DIMTP
 40
0.0
  9
$DIMTM
 40
0.0
  9
$DIMTXT
 40
0.18
  9
$DIMCEN
 40
0.09
  9
$DIMTSZ
 40
0.0
  9
$DIMTOL
 70
     0
  9
$DIMLIM
 70
     0
  9
$DIMTIH
 70
     1
  9
$DIMTOH
 70
     1
  9
$DIMSE1
 70
     0
  9
$DIMSE2
 70
     0
  9
$DIMTAD
 70
     0
  9
$DIMZIN
 70
     0
  9
$DIMBLK
  1

  9
$DIMASO
 70
     1
  9
$DIMSHO
 70
     1
  9
$DIMPOST
  1

  9
$DIMAPOST
  1

  9
$DIMALT
 70
     0
  9
$DIMALTD
 70
     2
  9
$DIMALTF
 40
25.4
  9
$DIMLFAC
 40
1.0
  9
$DIMTOFL
 70
     0
  9
$DIMTVP
 40
0.0
  9
$DIMTIX
 70
     0
  9
$DIMSOXD
 70
     0
  9
$DIMSAH
 70
     0
  9
$DIMBLK1
  1

  9
$DIMBLK2
  1

  9
$DIMSTYLE
  2
Standard
  9
$DIMCLRD
 70
     0
  9
$DIMCLRE
 70
     0
  9
$DIMCLRT
 70
     0
  9
$DIMTFAC
 40
1.0
  9
$DIMGAP
 40
0.09
  9
$DIMJUST
 70
     0
  9
$DIMSD1
 70
     0
  9
$DIMSD2
 70
     0
  9
$DIMTOLJ
 70
     1
  9
$DIMTZIN
 70
     0
  9
$DIMALTZ
 70
     0
  9
$DIMALTTZ
 70
     0
  9
$DIMUPT
 70
     0
  9
$DIMDEC
 70
     3
  9
$DIMTDEC
 70
     3
  9
$DIMALTU
 70
     4
  9
$DIMALTTD
 70
     2
  9
$DIMTXSTY
  7
Standard
  9
$DIMAUNIT
 70
     0
  9
$DIMADEC
 70
     0
  9
$DIMALTRND
 40
0.0
  9
$DIMAZIN
 70
     0
  9
$DIMDSEP
 70
    46
  9
$DIMATFIT
 70
     3
  9
$DIMFRAC
 70
     1
  9
$DIMLDRBLK
  1

  9
$DIMLUNIT
 70
     5
  9
$DIMLWD
 70
    -2
  9
$DIMLWE
 70
    -2
  9
$DIMTMOVE
 70
     0
  9
$LUNITS
 70
     4
  9
$LUPREC
 70
     4
  9
$SKETCHINC
 40
0.1
  9
$FILLETRAD
 40
0.0
  9
$AUNITS
 70
     0
  9
$AUPREC
 70
     0
  9
$MENU
  1
.
  9
$ELEVATION
 40
0.0
  9
$PELEVATION
 40
0.0
  9
$THICKNESS
 40
0.0
  9
$LIMCHECK
 70
     0
  9
$CHAMFERA
 40
0.0
  9
$CHAMFERB
 40
0.0
  9
$CHAMFERC
 40
0.0
  9
$CHAMFERD
 40
0.0
  9
$SKPOLY
 70
     0
  9
$TDCREATE
 40
2457120.704469248
  9
$TDUCREATE
 40
2457120.871135914
  9
$TDUPDATE
 40
2457120.721554387
  9
$TDUUPDATE
 40
2457120.888221054
  9
$TDINDWG
 40
0.0151321991
  9
$TDUSRTIMER
 40
0.0151320486
  9
$USRTIMER
 70
     1
  9
$ANGBASE
 50
0.0
  9
$ANGDIR
 70
     0
  9
$PDMODE
 70
     0
  9
$PDSIZE
 40
0.0
  9
$PLINEWID
 40
0.0
  9
$SPLFRAME
 70
     0
  9
$SPLINETYPE
 70
     6
  9
$SPLINESEGS
 70
     8
  9
$HANDSEED
  5
9D9
  9
$SURFTAB1
 70
     6
  9
$SURFTAB2
 70
     6
  9
$SURFTYPE
 70
     6
  9
$SURFU
 70
     6
  9
$SURFV
 70
     6
  9
$UCSBASE
  2

  9
$UCSNAME
  2

  9
$UCSORG
 10
0.0
 20
0.0
 30
0.0
  9
$UCSXDIR
 10
1.0
 20
0.0
 30
0.0
  9
$UCSYDIR
 10
0.0
 20
1.0
 30
0.0
  9
$UCSORTHOREF
  2

  9
$UCSORTHOVIEW
 70
     0
  9
$UCSORGTOP
 10
0.0
 20
0.0
 30
0.0
  9
$UCSORGBOTTOM
 10
0.0
 20
0.0
 30
0.0
  9
$UCSORGLEFT
 10
0.0
 20
0.0
 30
0.0
  9
$UCSORGRIGHT
 10
0.0
 20
0.0
 30
0.0
  9
$UCSORGFRONT
 10
0.0
 20
0.0
 30
0.0
  9
$UCSORGBACK
 10
0.0
 20
0.0
 30
0.0
  9
$PUCSBASE
  2

  9
$PUCSNAME
  2

  9
$PUCSORG
 10
0.0
 20
0.0
 30
0.0
  9
$PUCSXDIR
 10
1.0
 20
0.0
 30
0.0
  9
$PUCSYDIR
 10
0.0
 20
1.0
 30
0.0
  9
$PUCSORTHOREF
  2

  9
$PUCSORTHOVIEW
 70
     0
  9
$PUCSORGTOP
 10
0.0
 20
0.0
 30
0.0
  9
$PUCSORGBOTTOM
 10
0.0
 20
0.0
 30
0.0
  9
$PUCSORGLEFT
 10
0.0
 20
0.0
 30
0.0
  9
$PUCSORGRIGHT
 10
0.0
 20
0.0
 30
0.0
  9
$PUCSORGFRONT
 10
0.0
 20
0.0
 30
0.0
  9
$PUCSORGBACK
 10
0.0
 20
0.0
 30
0.0
  9
$USERI1
 70
     0
  9
$USERI2
 70
     0
  9
$USERI3
 70
     0
  9
$USERI4
 70
     0
  9
$USERI5
 70
     0
  9
$USERR1
 40
0.0
  9
$USERR2
 40
0.0
  9
$USERR3
 40
0.0
  9
$USERR4
 40
0.0
  9
$USERR5
 40
0.0
  9
$WORLDVIEW
 70
     1
  9
$SHADEDGE
 70
     3
  9
$SHADEDIF
 70
    70
  9
$TILEMODE
 70
     1
  9
$MAXACTVP
 70
    64
  9
$PINSBASE
 10
0.0
 20
0.0
 30
0.0
  9
$PLIMCHECK
 70
     0
  9
$PEXTMIN
 10
1.000000000000000E+20
 20
1.000000000000000E+20
 30
1.000000000000000E+20
  9
$PEXTMAX
 10
-1.000000000000000E+20
 20
-1.000000000000000E+20
 30
-1.000000000000000E+20
  9
$PLIMMIN
 10
457.0559704444398
 20
-936.3798351776614
  9
$PLIMMAX
 10
3103.405920651643
 20
1108.526931389329
  9
$UNITMODE
 70
     0
  9
$VISRETAIN
 70
     1
  9
$PLINEGEN
 70
     0
  9
$PSLTSCALE
 70
     1
  9
$TREEDEPTH
 70
  3020
  9
$CMLSTYLE
  2
Standard
  9
$CMLJUST
 70
     0
  9
$CMLSCALE
 40
1.0
  9
$PROXYGRAPHICS
 70
     1
  9
$MEASUREMENT
 70
     0
  9
$CELWEIGHT
370
    -1
  9
$ENDCAPS
280
     0
  9
$JOINSTYLE
280
     0
  9
$LWDISPLAY
290
     0
  9
$INSUNITS
 70
     1
  9
$HYPERLINKBASE
  1

  9
$STYLESHEET
  1

  9
$XEDIT
290
     1
  9
$CEPSNTYPE
380
     0
  9
$PSTYLEMODE
290
     1
  9
$FINGERPRINTGUID
  2
{91571519-E427-4A6A-8D89-435D623E67E7}
  9
$VERSIONGUID
  2
{5696D35D-35D5-40BE-9216-501ABA9285EC}
  9
$EXTNAMES
290
     1
  9
$PSVPSCALE
 40
0.0
  9
$OLESTARTUP
290
     0
  0
ENDSEC
  0
SECTION
  2
CLASSES
  0
CLASS
  1
ACDBDICTIONARYWDFLT
  2
AcDbDictionaryWithDefault
  3
ObjectDBX Classes
 90
        0
280
     0
281
     0
  0
CLASS
  1
MATERIAL
  2
AcDbMaterial
  3
ObjectDBX Classes
 90
     1153
280
     0
281
     0
  0
CLASS
  1
VISUALSTYLE
  2
AcDbVisualStyle
  3
ObjectDBX Classes
 90
     4095
280
     0
281
     0
  0
CLASS
  1
SCALE
  2
AcDbScale
  3
ObjectDBX Classes
 90
     1153
280
     0
281
     0
  0
CLASS
  1
TABLESTYLE
  2
AcDbTableStyle
  3
ObjectDBX Classes
 90
     4095
280
     0
281
     0
  0
CLASS
  1
MLEADERSTYLE
  2
AcDbMLeaderStyle
  3
ACDB_MLEADERSTYLE_CLASS
 90
     4095
280
     0
281
     0
  0
CLASS
  1
ACDBSECTIONVIEWSTYLE
  2
AcDbSectionViewStyle
  3
ObjectDBX Classes
 90
     1025
280
     0
281
     0
  0
CLASS
  1
ACDBDETAILVIEWSTYLE
  2
AcDbDetailViewStyle
  3
ObjectDBX Classes
 90
     1025
280
     0
281
     0
  0
CLASS
  1
RASTERVARIABLES
  2
AcDbRasterVariables
  3
ISM
 90
        0
280
     0
281
     0
  0
CLASS
  1
DICTIONARYVAR
  2
AcDbDictionaryVar
  3
ObjectDBX Classes
 90
        0
280
     0
281
     0
  0
CLASS
  1
CELLSTYLEMAP
  2
AcDbCellStyleMap
  3
ObjectDBX Classes
 90
     1152
280
     0
281
     0
  0
CLASS
  1
SORTENTSTABLE
  2
AcDbSortentsTable
  3
ObjectDBX Classes
 90
        0
280
     0
281
     0
  0
CLASS
  1
SUN
  2
AcDbSun
  3
SCENEOE
 90
    33921
280
     0
281
     0
  0
CLASS
  1
EXACXREFPANELOBJECT
  2
ExAcXREFPanelObject
  3
EXAC_ESW
 90
     1025
280
     0
281
     0
  0
CLASS
  1
NPOCOLLECTION
  2
AcDbImpNonPersistentObjectsCollection
  3
ObjectDBX Classes
 90
     1153
280
     0
281
     0
  0
CLASS
  1
DIMASSOC
  2
AcDbDimAssoc
  3
"AcDbDimAssoc|Product Desc:     AcDim ARX App For Dimension|Company:          Autodesk, Inc.|WEB Address:      www.autodesk.com"
 90
        0
280
     0
281
     0
  0
CLASS
  1
ACDBPLACEHOLDER
  2
AcDbPlaceHolder
  3
ObjectDBX Classes
 90
        0
280
     0
281
     0
  0
CLASS
  1
LAYOUT
  2
AcDbLayout
  3
ObjectDBX Classes
 90
        0
280
     0
281
     0
  0
ENDSEC
  0
SECTION
  2
TABLES
  0
TABLE
  2
VPORT
  5
8
330
0
100
AcDbSymbolTable
 70
     1
  0
VPORT
  5
57
330
8
100
AcDbSymbolTableRecord
100
AcDbViewportTableRecord
  2
*Active
 70
     0
 10
0.0
 20
0.0
 11
1.0
 21
1.0
 12
1996.349630371408
 22
213.8285669726469
 13
0.0
 23
0.0
 14
1.0
 24
1.0
 15
0.0
 25
0.0
 16
0.0
 26
0.0
 36
1.0
 17
0.0
 27
0.0
 37
0.0
 40
431.1209469857321
 41
2.451984635083226
 42
50.0
 43
0.0
 44
0.0
 50
0.0
 51
0.0
 71
     0
 72
  1000
 73
     1
 74
     1
 75
     0
 76
     0
 77
     0
 78
     0
281
     0
 65
     1
110
0.0
120
0.0
130
0.0
111
1.0
121
0.0
131
0.0
112
0.0
122
1.0
132
0.0
 79
     0
146
0.0
1001
ACAD_NAV_VCDISPLAY
1070
     3
  0
ENDTAB
  0
TABLE
  2
LTYPE
  5
5
330
0
100
AcDbSymbolTable
 70
     2
  0
LTYPE
  5
5B
330
5
100
AcDbSymbolTableRecord
100
AcDbLinetypeTableRecord
  2
ByBlock
 70
     0
  3

 72
    65
 73
     0
 40
0.0
  0
LTYPE
  5
5C
330
5
100
AcDbSymbolTableRecord
100
AcDbLinetypeTableRecord
  2
ByLayer
 70
     0
  3

 72
    65
 73
     0
 40
0.0
  0
LTYPE
  5
5D
330
5
100
AcDbSymbolTableRecord
100
AcDbLinetypeTableRecord
  2
Continuous
 70
     0
  3
Solid line
 72
    65
 73
     0
 40
0.0
  0
LTYPE
  5
69
330
5
100
AcDbSymbolTableRecord
100
AcDbLinetypeTableRecord
  2
PHANTOM2
 70
     0
  3
___ _ _ ___ _ _ ___ _ _ ___ _ _
 72
    65
 73
     6
 40
1.25
 49
0.625
 74
     0
 49
-0.125
 74
     0
 49
0.125
 74
     0
 49
-0.125
 74
     0
 49
0.125
 74
     0
 49
-0.125
 74
     0
  0
ENDTAB
  0
TABLE
  2
LAYER
  5
2
102
{ACAD_XDICTIONARY
360
3E4
102
}
330
0
100
AcDbSymbolTable
 70
     2
  0
LAYER
  5
54
330
2
100
AcDbSymbolTableRecord
100
AcDbLayerTableRecord
  2
0
 70
     0
 62
     7
  6
Continuous
370
    -3
390
F
  0
LAYER
  5
303
330
2
100
AcDbSymbolTableRecord
100
AcDbLayerTableRecord
  2
Defpoints
 70
     0
 62
     7
  6
Continuous
290
     0
370
    -3
390
F
  0
ENDTAB
  0
TABLE
  2
STYLE
  5
3
330
0
100
AcDbSymbolTable
 70
     2
  0
STYLE
  5
55
330
3
100
AcDbSymbolTableRecord
100
AcDbTextStyleTableRecord
  2
Standard
 70
     0
 40
0.0
 41
1.0
 50
0.0
 71
     0
 42
0.2
  3
txt
  4

  0
STYLE
  5
2F8
330
3
100
AcDbSymbolTableRecord
100
AcDbTextStyleTableRecord
  2
Arial_1
 70
     0
 40
0.0922062125748503
 41
1.0
 50
0.0
 71
     0
 42
0.2
  3
arial.ttf
  4

1001
ACAD
1000
Arial
1071
       34
  0
ENDTAB
  0
TABLE
  2
VIEW
  5
6
330
0
100
AcDbSymbolTable
 70
     0
  0
ENDTAB
  0
TABLE
  2
UCS
  5
7
330
0
100
AcDbSymbolTable
 70
     0
  0
ENDTAB
  0
TABLE
  2
APPID
  5
9
330
0
100
AcDbSymbolTable
 70
    11
  0
APPID
  5
56
330
9
100
AcDbSymbolTableRecord
100
AcDbRegAppTableRecord
  2
ACAD
 70
     0
  0
APPID
  5
5E
330
9
100
AcDbSymbolTableRecord
100
AcDbRegAppTableRecord
  2
AcadAnnotative
 70
     0
  0
APPID
  5
79
330
9
100
AcDbSymbolTableRecord
100
AcDbRegAppTableRecord
  2
REVIT
 70
     0
  0
APPID
  5
3DD
330
9
100
AcDbSymbolTableRecord
100
AcDbRegAppTableRecord
  2
ACAD_PSEXT
 70
     0
  0
APPID
  5
5E1
330
9
100
AcDbSymbolTableRecord
100
AcDbRegAppTableRecord
  2
ACAD_NAV_VCDISPLAY
 70
     0
  0
APPID
  5
67E
330
9
100
AcDbSymbolTableRecord
100
AcDbRegAppTableRecord
  2
GradientColor1ACI
 70
     0
  0
APPID
  5
67F
330
9
100
AcDbSymbolTableRecord
100
AcDbRegAppTableRecord
  2
GradientColor2ACI
 70
     0
  0
APPID
  5
681
330
9
100
AcDbSymbolTableRecord
100
AcDbRegAppTableRecord
  2
ACAD_DSTYLE_DIMJAG
 70
     0
  0
APPID
  5
682
330
9
100
AcDbSymbolTableRecord
100
AcDbRegAppTableRecord
  2
ACAD_DSTYLE_DIMTALN
 70
     0
  0
APPID
  5
683
330
9
100
AcDbSymbolTableRecord
100
AcDbRegAppTableRecord
  2
ACAD_EXEMPT_FROM_CAD_STANDARDS
 70
     0
  0
APPID
  5
97C
330
9
100
AcDbSymbolTableRecord
100
AcDbRegAppTableRecord
  2
ACAD_MLEADERVER
 70
     0
  0
ENDTAB
  0
TABLE
  2
DIMSTYLE
  5
A
330
0
100
AcDbSymbolTable
 70
     1
100
AcDbDimStyleTable
 71
     1
340
58
  0
DIMSTYLE
105
58
330
A
100
AcDbSymbolTableRecord
100
AcDbDimStyleTableRecord
  2
Standard
 70
     0
340
55
  0
ENDTAB
  0
TABLE
  2
BLOCK_RECORD
  5
1
330
0
100
AcDbSymbolTable
 70
     5
  0
BLOCK_RECORD
  5
71
102
{ACAD_XDICTIONARY
360
3CB
102
}
330
1
100
AcDbSymbolTableRecord
100
AcDbBlockTableRecord
  2
*Model_Space
340
74
  0
BLOCK_RECORD
  5
6D
330
1
100
AcDbSymbolTableRecord
100
AcDbBlockTableRecord
  2
*Paper_Space
340
70
  0
BLOCK_RECORD
  5
2FD
330
1
100
AcDbSymbolTableRecord
100
AcDbBlockTableRecord
  2
_Oblique
340
0
102
{BLKREFS
331
429
331
42A
102
}
  0
ENDTAB
  0
ENDSEC
  0
SECTION
  2
BLOCKS
  0
BLOCK
  5
72
330
71
100
AcDbEntity
  8
0
100
AcDbBlockBegin
  2
*Model_Space
 70
     0
 10
0.0
 20
0.0
 30
0.0
  3
*Model_Space
  1

  0
ENDBLK
  5
73
330
71
100
AcDbEntity
  8
0
100
AcDbBlockEnd
  0
BLOCK
  5
6E
330
6D
100
AcDbEntity
 67
     1
  8
0
100
AcDbBlockBegin
  2
*Paper_Space
 70
     0
 10
0.0
 20
0.0
 30
0.0
  3
*Paper_Space
  1

  0
ENDBLK
  5
6F
330
6D
100
AcDbEntity
 67
     1
  8
0
100
AcDbBlockEnd
  0
BLOCK
  5
2FF
330
2FD
100
AcDbEntity
  8
0
100
AcDbBlockBegin
  2
_Oblique
 70
     0
 10
0.0
 20
0.0
 30
0.0
  3
_Oblique
  1

  0
LINE
  5
2FE
330
2FD
100
AcDbEntity
  8
0
  6
ByBlock
 62
     0
370
    -2
100
AcDbLine
 10
-0.5
 20
-0.5
 30
0.0
 11
0.5
 21
0.5
 31
0.0
  0
ENDBLK
  5
300
330
2FD
100
AcDbEntity
  8
0
100
AcDbBlockEnd
  0
ENDSEC
  0
SECTION
  2
ENTITIES
  0
LINE
  5
425
330
71
100
AcDbEntity
  8
0
100
AcDbLine
 10
2304.165950929055
 20
0.0625
 30
0.0
 11
2304.165950929055
 21
0.09375
 31
0.0
  0
LINE
  5
426
330
71
100
AcDbEntity
  8
0
100
AcDbLine
 10
2304.165950929055
 20
0.0625
 30
0.0
 11
2304.165950929055
 21
0.09375
 31
0.0
  0
LINE
  5
427
330
71
100
AcDbEntity
  8
0
100
AcDbLine
 10
2304.165950929055
 20
0.0
 30
0.0
 11
2304.040950929055
 21
0.0
 31
0.0
  0
LINE
  5
428
330
71
100
AcDbEntity
  8
0
100
AcDbLine
 10
2304.165950929055
 20
0.0
 30
0.0
 11
2304.290950929055
 21
0.0
 31
0.0
  0
INSERT
  5
429
330
71
100
AcDbEntity
  8
0
100
AcDbBlockReference
  2
_Oblique
 10
2304.165950929055
 20
0.0
 30
0.0
 41
0.1250000000000004
 42
0.1250000000000004
 43
0.1250000000000004
  0
INSERT
  5
42A
330
71
100
AcDbEntity
  8
0
100
AcDbBlockReference
  2
_Oblique
 10
2304.165950929055
 20
0.0
 30
0.0
 41
0.1250000000000004
 42
0.1250000000000004
 43
0.1250000000000004
 50
180.0
  0
MTEXT
  5
42B
330
71
100
AcDbEntity
  8
0
100
AcDbMText
 10
2304.165950929055
 20
0.1095780014408447
 30
0.0
 40
0.0922062125748503
 41
0.0
 71
     5
 72
     1
  1
\A1;0
  7
Arial_1
 73
     1
 44
1.0
1001
ACAD
1000
MTEXTBEGIN
1070
    73
1070
     1
1070
    44
1040
1.0
1070
    74
1070
     0
1000
MTEXTEND
1000
ACAD_MTEXT_BBRT
1070
    91
1071
        3
1070
    46
1040
1.25
1070
    64
1071
-1027028792
1070
    65
1000

1070
    66
1000

1070
   442
1071
        0
1000
ACAD_MTEXT_BERT
  0
LINE
  5
438
330
71
100
AcDbEntity
  8
0
100
AcDbLine
 10
2067.17559418078
 20
366.2308469040953
 30
0.0
 11
2072.175594180781
 21
366.2308469040953
 31
0.0
  0
LINE
  5
439
330
71
100
AcDbEntity
  8
0
100
AcDbLine
 10
2072.175594180781
 20
371.2308469040952
 30
0.0
 11
2067.17559418078
 21
371.2308469040952
 31
0.0
  0
LWPOLYLINE
  5
43A
330
71
100
AcDbEntity
  8
0
100
AcDbPolyline
 90
       41
 70
   128
 43
0.0
 10
2072.175594180781
 20
366.2308469040953
 10
2072.335551517527
 20
366.2308469040953
 10
2072.495252956657
 20
366.2308469040953
 10
2072.654443009936
 20
366.2308469040953
 10
2072.812867007238
 20
366.2308469040953
 10
2072.970271503961
 20
366.2308469040953
 10
2073.126404686489
 20
366.2308469040953
 10
2073.281016775037
 20
366.2308469040953
 10
2073.433860423245
 20
366.2308469040953
 10
2073.584691113881
 20
366.2308469040953
 10
2073.733267550015
 20
366.2308469040953
 10
2073.879352041045
 20
366.2308469040953
 10
2074.022710882947
 20
366.2308469040953
 10
2074.163114732156
 20
366.2308469040953
 10
2074.300338972465
 20
366.2308469040953
 10
2074.434164074361
 20
366.2308469040953
 10
2074.564375946231
 20
366.2308469040953
 10
2074.690766276855
 20
366.2308469040953
 10
2074.813132868667
 20
366.2308469040953
 10
2074.931279961223
 20
366.2308469040953
 10
2075.045018544379
 20
366.2308469040953
 10
2075.154166660665
 20
366.2308469040953
 10
2075.258549696377
 20
366.2308469040953
 10
2075.358000660926
 20
366.2308469040953
 10
2075.452360453985
 20
366.2308469040953
 10
2075.541478120013
 20
366.2308469040953
 10
2075.625211089755
 20
366.2308469040953
 10
2075.70342540832
 20
366.2308469040953
 10
2075.775995949487
 20
366.2308469040953
 10
2075.842806615868
 20
366.2308469040953
 10
2075.90375052465
 20
366.2308469040953
 10
2075.958730178579
 20
366.2308469040953
 10
2076.007657621938
 20
366.2308469040953
 10
2076.050454581254
 20
366.2308469040953
 10
2076.087052590522
 20
366.2308469040953
 10
2076.117393100735
 20
366.2308469040953
 10
2076.141427573548
 20
366.2308469040953
 10
2076.159117558932
 20
366.2308469040953
 10
2076.170434756683
 20
366.2308469040953
 10
2076.175361061701
 20
366.2308469040953
 10
2076.175594180781
 20
366.2308469040953
  0
LWPOLYLINE
  5
43B
330
71
100
AcDbEntity
  8
0
100
AcDbPolyline
 90
       41
 70
   128
 43
0.0
 10
2076.175594180781
 20
371.2308469040953
 10
2076.172394607425
 20
371.2308469040953
 10
2076.162801005991
 20
371.2308469040953
 10
2076.146828724196
 20
371.2308469040953
 10
2076.124503314284
 20
371.2308469040953
 10
2076.095860492146
 20
371.2308469040953
 10
2076.06094608019
 20
371.2308469040953
 10
2076.019815934024
 20
371.2308469040953
 10
2075.972535853111
 20
371.2308469040953
 10
2075.919181475493
 20
371.2308469040953
 10
2075.859838156793
 20
371.2308469040953
 10
2075.794600833661
 20
371.2308469040953
 10
2075.723573871898
 20
371.2308469040953
 10
2075.646870899491
 20
371.2308469040953
 10
2075.564614624834
 20
371.2308469040953
 10
2075.47693664042
 20
371.2308469040953
 10
2075.383977212318
 20
371.2308469040953
 10
2075.285885055785
 20
371.2308469040953
 10
2075.182817097345
 20
371.2308469040952
 10
2075.074938223744
 20
371.2308469040952
 10
2074.96242101817
 20
371.2308469040952
 10
2074.845445484146
 20
371.2308469040952
 10
2074.724198757575
 20
371.2308469040952
 10
2074.598874807355
 20
371.2308469040952
 10
2074.46967412507
 20
371.2308469040952
 10
2074.336803404253
 20
371.2308469040952
 10
2074.200475209712
 20
371.2308469040952
 10
2074.060907637476
 20
371.2308469040952
 10
2073.918323965887
 20
371.2308469040952
 10
2073.772952298406
 20
371.2308469040952
 10
2073.625025198687
 20
371.2308469040952
 10
2073.474779318536
 20
371.2308469040952
 10
2073.322455019308
 20
371.2308469040952
 10
2073.16829598739
 20
371.2308469040952
 10
2073.012548844346
 20
371.2308469040952
 10
2072.855462752382
 20
371.2308469040952
 10
2072.697289015733
 20
371.2308469040952
 10
2072.538280678638
 20
371.2308469040952
 10
2072.378692120515
 20
371.2308469040952
 10
2072.218778649014
 20
371.2308469040952
 10
2072.175594180781
 20
371.2308469040952
  0
LINE
  5
43C
330
71
100
AcDbEntity
  8
0
100
AcDbLine
 10
2087.17559418078
 20
355.9808469040973
 30
0.0
 11
2082.17559418078
 21
355.9808469040973
 31
0.0
  0
LINE
  5
43D
330
71
100
AcDbEntity
  8
0
100
AcDbLine
 10
2082.17559418078
 20
355.9808469040973
 30
0.0
 11
2082.17559418078
 21
351.445015029789
 31
0.0
  0
LINE
  5
43E
330
71
100
AcDbEntity
  8
0
100
AcDbLine
 10
2087.17559418078
 20
349.4759929051834
 30
0.0
 11
2087.17559418078
 21
355.9808469040973
 31
0.0
  0
LINE
  5
43F
330
71
100
AcDbEntity
  8
0
100
AcDbLine
 10
2067.175594180783
 20
345.9808469040961
 30
0.0
 11
2073.675594180781
 21
345.9808469040961
 31
0.0
  0
LINE
  5
440
330
71
100
AcDbEntity
  8
0
100
AcDbLine
 10
2073.675594180781
 20
349.9808469040979
 30
0.0
 11
2067.175594180783
 21
349.9808469040979
 31
0.0
  0
LINE
  5
441
330
71
100
AcDbEntity
  8
0
100
AcDbLine
 10
2078.675594180781
 20
344.980846904096
 30
0.0
 11
2080.42559418078
 21
344.980846904096
 31
0.0
  0
LINE
  5
442
330
71
100
AcDbEntity
  8
0
100
AcDbLine
 10
2080.42559418078
 20
350.980846904098
 30
0.0
 11
2078.675594180781
 21
350.980846904098
 31
0.0
  0
LWPOLYLINE
  5
443
330
71
100
AcDbEntity
  8
0
100
AcDbPolyline
 90
       41
 70
   128
 43
0.0
 10
2081.175594180781
 20
343.9808469040962
 10
2081.145602180141
 20
343.9814468241003
 10
2081.115658160304
 20
343.983245624369
 10
2081.085810025314
 20
343.9862404272056
 10
2081.05610552582
 20
343.9904264415643
 10
2081.026592182684
 20
343.9957969707151
 10
2080.997317210961
 20
344.002343422957
 10
2080.968327444358
 20
344.0100553253632
 10
2080.939669260319
 20
344.0189203405342
 10
2080.911388505824
 20
344.0289242863374
 10
2080.883530424049
 20
344.0400511585938
 10
2080.856139581981
 20
344.0522831566811
 10
2080.829259799124
 20
344.0656007120115
 10
2080.802934077398
 20
344.0799825193377
 10
2080.77720453234
 20
344.095405570836
 10
2080.752112325734
 20
344.1118451929138
 10
2080.727697599759
 20
344.1292750856827
 10
2080.703999412767
 20
344.1476673650326
 10
2080.681055676802
 20
344.1669926072405
 10
2080.658903096948
 20
344.1872198960404
 10
2080.637577112606
 20
344.2083168720857
 10
2080.617111840803
 20
344.2302497847151
 10
2080.597540021607
 20
344.2529835459473
 10
2080.578892965753
 20
344.2764817866136
 10
2080.561200504555
 20
344.3007069145417
 10
2080.544490942175
 20
344.3256201746949
 10
2080.528791010348
 20
344.3511817111714
 10
2080.514125825617
 20
344.3773506309657
 10
2080.500518849148
 20
344.4040850693884
 10
2080.487991849202
 20
344.4313422570413
 10
2080.476564866305
 20
344.4590785882385
 10
2080.466256181193
 20
344.4872496907672
 10
2080.457082285564
 20
344.5158104968722
 10
2080.449057855692
 20
344.5447153153566
 10
2080.442195728954
 20
344.5739179046775
 10
2080.436506883289
 20
344.6033715469208
 10
2080.432000419637
 20
344.6330291225423
 10
2080.428683547377
 20
344.6628431857478
 10
2080.426561572799
 20
344.6927660403959
 10
2080.425637890608
 20
344.7227498163023
 10
2080.42559418078
 20
344.7308469040962
  0
LWPOLYLINE
  5
444
330
71
100
AcDbEntity
  8
0
100
AcDbPolyline
 90
       41
 70
   128
 43
0.0
 10
2080.42559418078
 20
347.980846904097
 10
2080.42559418078
 20
347.8508815679903
 10
2080.42559418078
 20
347.7211241486972
 10
2080.42559418078
 20
347.5917822304079
 10
2080.42559418078
 20
347.4630627326005
 10
2080.42559418078
 20
347.3351715790129
 10
2080.42559418078
 20
347.2083133682086
 10
2080.42559418078
 20
347.0826910462633
 10
2080.42559418078
 20
346.9585055820943
 10
2080.42559418078
 20
346.8359556459527
 10
2080.42559418078
 20
346.7152372915935
 10
2080.42559418078
 20
346.596543642632
 10
2080.42559418078
 20
346.4800645835867
 10
2080.42559418078
 20
346.3659864561045
 10
2080.42559418078
 20
346.2544917608536
 10
2080.42559418078
 20
346.1457588655627
 10
2080.42559418078
 20
346.0399617196687
 10
2080.42559418078
 20
345.9372695760363
 10
2080.42559418078
 20
345.8378467201892
 10
2080.42559418078
 20
345.7418522074871
 10
2080.42559418078
 20
345.6494396086729
 10
2080.42559418078
 20
345.560756764191
 10
2080.42559418078
 20
345.4759455476747
 10
2080.42559418078
 20
345.3951416389781
 10
2080.42559418078
 20
345.3184743071182
 10
2080.42559418078
 20
345.2460662034706
 10
2080.42559418078
 20
345.1780331655553
 10
2080.42559418078
 20
345.11448403172
 10
2080.42559418078
 20
345.0555204670225
 10
2080.42559418078
 20
345.0012368005878
 10
2080.42559418078
 20
344.9517198747027
 10
2080.42559418078
 20
344.9070489058852
 10
2080.42559418078
 20
344.8672953581561
 10
2080.42559418078
 20
344.8325228287117
 10
2080.42559418078
 20
344.8027869461812
 10
2080.42559418078
 20
344.7781352816335
 10
2080.42559418078
 20
344.758607272473
 10
2080.42559418078
 20
344.7442341593488
 10
2080.42559418078
 20
344.7350389361753
 10
2080.42559418078
 20
344.7310363133486
 10
2080.42559418078
 20
344.7308469040962
  0
LWPOLYLINE
  5
445
330
71
100
AcDbEntity
  8
0
100
AcDbPolyline
 90
       11
 70
   128
 43
0.0
 10
2080.42559418078
 20
344.7308469040962
 10
2080.42559418078
 20
344.7334465574479
 10
2080.42559418078
 20
344.7412413586125
 10
2080.42559418078
 20
344.754218837571
 10
2080.42559418078
 20
344.7723582331253
 10
2080.42559418078
 20
344.7956305261119
 10
2080.42559418078
 20
344.8239984858269
 10
2080.42559418078
 20
344.8574167295861
 10
2080.42559418078
 20
344.8958317953282
 10
2080.42559418078
 20
344.9391822271427
 10
2080.42559418078
 20
344.980846904096
  0
LWPOLYLINE
  5
446
330
71
100
AcDbEntity
  8
0
100
AcDbPolyline
 90
       41
 70
   128
 43
0.0
 10
2080.42559418078
 20
351.2308469040982
 10
2080.426194100785
 20
351.260838904738
 10
2080.427992901054
 20
351.2907829245751
 10
2080.43098770389
 20
351.3206310595649
 10
2080.435173718249
 20
351.3503355590589
 10
2080.4405442474
 20
351.3798489021943
 10
2080.447090699642
 20
351.4091238739185
 10
2080.454802602048
 20
351.4381136405213
 10
2080.463667617219
 20
351.4667718245602
 10
2080.473671563022
 20
351.4950525790545
 10
2080.484798435279
 20
351.5229106608296
 10
2080.497030433366
 20
351.5503015028975
 10
2080.510347988695
 20
351.5771812857541
 10
2080.524729796022
 20
351.6035070074809
 10
2080.54015284752
 20
351.6292365525387
 10
2080.556592469598
 20
351.6543287591444
 10
2080.574022362368
 20
351.67874348512
 10
2080.592414641717
 20
351.7024416721118
 10
2080.611739883925
 20
351.7253854080767
 10
2080.631967172725
 20
351.7475379879311
 10
2080.653064148771
 20
351.7688639722727
 10
2080.6749970614
 20
351.7893292440763
 10
2080.697730822631
 20
351.8089010632723
 10
2080.721229063298
 20
351.8275481191253
 10
2080.745454191226
 20
351.8452405803238
 10
2080.770367451379
 20
351.861950142704
 10
2080.795928987857
 20
351.8776500745305
 10
2080.82209790765
 20
351.8923152592616
 10
2080.848832346073
 20
351.9059222357305
 10
2080.876089533726
 20
351.9184492356768
 10
2080.903825864923
 20
351.9298762185735
 10
2080.931996967452
 20
351.9401849036853
 10
2080.960557773556
 20
351.9493587993151
 10
2080.989462592041
 20
351.9573832291867
 10
2081.018665181362
 20
351.9642453559245
 10
2081.048118823606
 20
351.9699342015893
 10
2081.077776399227
 20
351.9744406652419
 10
2081.107590462432
 20
351.9777575375014
 10
2081.137513317081
 20
351.9798795120797
 10
2081.167497092987
 20
351.9808031942705
 10
2081.175594180781
 20
351.9808469040981
  0
LWPOLYLINE
  5
447
330
71
100
AcDbEntity
  8
0
100
AcDbPolyline
 90
       12
 70
   128
 43
0.0
 10
2080.42559418078
 20
350.980846904098
 10
2080.42559418078
 20
351.0099739334914
 10
2080.42559418078
 20
351.0546449023089
 10
2080.42559418078
 20
351.094398450038
 10
2080.42559418078
 20
351.1291709794824
 10
2080.42559418078
 20
351.1589068620128
 10
2080.42559418078
 20
351.1835585265604
 10
2080.42559418078
 20
351.2030865357209
 10
2080.42559418078
 20
351.2174596488454
 10
2080.42559418078
 20
351.2266548720187
 10
2080.42559418078
 20
351.2306574948453
 10
2080.42559418078
 20
351.2308469040982
  0
LWPOLYLINE
  5
448
330
71
100
AcDbEntity
  8
0
100
AcDbPolyline
 90
       41
 70
   128
 43
0.0
 10
2080.42559418078
 20
351.2308469040982
 10
2080.42559418078
 20
351.2282472507461
 10
2080.42559418078
 20
351.2204524495814
 10
2080.42559418078
 20
351.207474970623
 10
2080.42559418078
 20
351.1893355750689
 10
2080.42559418078
 20
351.1660632820821
 10
2080.42559418078
 20
351.1376953223671
 10
2080.42559418078
 20
351.1042770786081
 10
2080.42559418078
 20
351.0658620128659
 10
2080.42559418078
 20
351.0225115810514
 10
2080.42559418078
 20
350.9742951346074
 10
2080.42559418078
 20
350.9212898095628
 10
2080.42559418078
 20
350.8635804031306
 10
2080.42559418078
 20
350.8012592380503
 10
2080.42559418078
 20
350.7344260148915
 10
2080.42559418078
 20
350.6631876525544
 10
2080.42559418078
 20
350.5876581172219
 10
2080.42559418078
 20
350.5079582400383
 10
2080.42559418078
 20
350.4242155238058
 10
2080.42559418078
 20
350.3365639390056
 10
2080.42559418078
 20
350.245143709476
 10
2080.42559418078
 20
350.1501010880819
 10
2080.42559418078
 20
350.0515881227432
 10
2080.42559418078
 20
349.949762413189
 10
2080.42559418078
 20
349.8447868588332
 10
2080.42559418078
 20
349.7368293981691
 10
2080.42559418078
 20
349.6260627401042
 10
2080.42559418078
 20
349.5126640876621
 10
2080.42559418078
 20
349.3968148544968
 10
2080.42559418078
 20
349.2787003746678
 10
2080.42559418078
 20
349.1585096061466
 10
2080.42559418078
 20
349.0364348285234
 10
2080.42559418078
 20
348.9126713354012
 10
2080.42559418078
 20
348.7874171219676
 10
2080.42559418078
 20
348.6608725682444
 10
2080.42559418078
 20
348.533240118523
 10
2080.42559418078
 20
348.4047239574962
 10
2080.42559418078
 20
348.2755296836062
 10
2080.42559418078
 20
348.1458639801314
 10
2080.42559418078
 20
348.0159342845364
 10
2080.42559418078
 20
347.980846904097
  0
LINE
  5
449
330
71
100
AcDbEntity
  8
0
100
AcDbLine
 10
2081.175594180781
 20
343.9808469040962
 30
0.0
 11
2085.675594180781
 21
343.9808469040962
 31
0.0
  0
LINE
  5
44A
330
71
100
AcDbEntity
  8
0
100
AcDbLine
 10
2082.17559418078
 20
351.9808469040981
 30
0.0
 11
2081.175594180781
 21
351.9808469040981
 31
0.0
  0
LWPOLYLINE
  5
44B
330
71
100
AcDbEntity
  8
0
100
AcDbPolyline
 90
       41
 70
   128
 43
0.0
 10
2087.175594180781
 20
345.4808469040961
 10
2087.174394340772
 20
345.4208629028162
 10
2087.170796740235
 20
345.3609748631421
 10
2087.164807134561
 20
345.3012785931627
 10
2087.156435105844
 20
345.2418695941745
 10
2087.145694047542
 20
345.1828429079035
 10
2087.132601143059
 20
345.1242929644552
 10
2087.117177338247
 20
345.0663134312498
 10
2087.099447307904
 20
345.0089970631718
 10
2087.079439416298
 20
344.9524355541834
 10
2087.057185671785
 20
344.8967193906331
 10
2087.032721675611
 20
344.8419377064971
 10
2087.00608656495
 20
344.7881781407838
 10
2086.977322950297
 20
344.7355266973304
 10
2086.946476847301
 20
344.6840676072147
 10
2086.913597603146
 20
344.6338831940034
 10
2086.878737817607
 20
344.5850537420523
 10
2086.841953258907
 20
344.5376573680684
 10
2086.803302774493
 20
344.4917698961388
 10
2086.762848196892
 20
344.4474647364301
 10
2086.720654244802
 20
344.4048127677468
 10
2086.676788419543
 20
344.3638822241397
 10
2086.631320897079
 20
344.3247385857476
 10
2086.584324415746
 20
344.2874444740414
 10
2086.535874159889
 20
344.2520595516446
 10
2086.486047639583
 20
344.2186404268842
 10
2086.43492456663
 20
344.187240563231
 10
2086.382586727042
 20
344.1579101937685
 10
2086.329117850196
 20
344.1306962408313
 10
2086.27460347489
 20
344.1056422409383
 10
2086.219130812496
 20
344.0827882751452
 10
2086.162788607439
 20
344.0621709049218
 10
2086.105666995229
 20
344.0438231136621
 10
2086.047857358259
 20
344.0277742539187
 10
2085.989452179618
 20
344.014050000443
 10
2085.930544895131
 20
344.0026723091134
 10
2085.871229743888
 20
343.9936593818085
 10
2085.811601617477
 20
343.9870256372897
 10
2085.751755908181
 20
343.9827816881327
 10
2085.691788356368
 20
343.9809343237512
 10
2085.675594180781
 20
343.9808469040962
  0
LWPOLYLINE
  5
44C
330
71
100
AcDbEntity
  8
0
100
AcDbPolyline
 90
       41
 70
   128
 43
0.0
 10
2087.175594180781
 20
347.980846904097
 10
2087.175594180781
 20
347.8808735686302
 10
2087.175594180781
 20
347.7810601691739
 10
2087.175594180781
 20
347.6815663858747
 10
2087.175594180781
 20
347.5825513875614
 10
2087.175594180781
 20
347.4841735771091
 10
2087.175594180781
 20
347.3865903380289
 10
2087.175594180781
 20
347.2899577826864
 10
2087.175594180781
 20
347.1944305025564
 10
2087.175594180781
 20
347.1001613209089
 10
2087.175594180781
 20
347.007301048325
 10
2087.175594180781
 20
346.9159982414317
 10
2087.175594180781
 20
346.8263989652428
 10
2087.175594180781
 20
346.7386465594872
 10
2087.175594180781
 20
346.6528814092943
 10
2087.175594180781
 20
346.5692407206089
 10
2087.175594180781
 20
346.4878583006904
 10
2087.175594180781
 20
346.4088643440502
 10
2087.175594180781
 20
346.3323852241676
 10
2087.175594180781
 20
346.2585432913199
 10
2087.175594180781
 20
346.1874566768476
 10
2087.175594180781
 20
346.1192391041691
 10
2087.175594180781
 20
346.0539997068489
 10
2087.175594180781
 20
345.9918428540053
 10
2087.175594180781
 20
345.9328679833437
 10
2087.175594180781
 20
345.8771694420765
 10
2087.175594180781
 20
345.8248363359877
 10
2087.175594180781
 20
345.7759523868838
 10
2087.175594180781
 20
345.7305957986549
 10
2087.175594180781
 20
345.6888391321669
 10
2087.175594180781
 20
345.6507491891782
 10
2087.175594180781
 20
345.6163869054723
 10
2087.175594180781
 20
345.5858072533729
 10
2087.175594180781
 20
345.5590591538005
 10
2087.175594180781
 20
345.5361853980079
 10
2087.175594180781
 20
345.5172225791248
 10
2087.175594180781
 20
345.5022010336169
 10
2087.175594180781
 20
345.491144792752
 10
2087.175594180781
 20
345.484071544157
 10
2087.175594180781
 20
345.4809926035212
 10
2087.175594180781
 20
345.4808469040961
  0
LWPOLYLINE
  5
44D
330
71
100
AcDbEntity
  8
0
100
AcDbPolyline
 90
       41
 70
   128
 43
0.0
 10
2087.175594180781
 20
345.4808469040961
 10
2087.175594180781
 20
345.4828466374436
 10
2087.175594180781
 20
345.4888426383396
 10
2087.175594180781
 20
345.4988253144614
 10
2087.175594180781
 20
345.512778695657
 10
2087.175594180781
 20
345.530680459493
 10
2087.175594180781
 20
345.552501966966
 10
2087.175594180781
 20
345.5782083083192
 10
2087.175594180781
 20
345.6077583588899
 10
2087.175594180781
 20
345.6411048449013
 10
2087.175594180781
 20
345.678194419089
 10
2087.175594180781
 20
345.7189677460462
 10
2087.175594180781
 20
345.763359597148
 10
2087.175594180781
 20
345.8112989549021
 10
2087.175594180781
 20
345.8627091265628
 10
2087.175594180781
 20
345.9175078668219
 10
2087.175594180781
 20
345.9756075093856
 10
2087.175594180781
 20
346.036915107219
 10
2087.175594180781
 20
346.101332581244
 10
2087.175594180781
 20
346.1687568772441
 10
2087.175594180781
 20
346.2390801307285
 10
2087.175594180781
 20
346.3121898394931
 10
2087.175594180781
 20
346.3879690435998
 10
2087.175594180781
 20
346.4662965124878
 10
2087.175594180781
 20
346.5470469389154
 10
2087.175594180781
 20
346.6300911394261
 10
2087.175594180781
 20
346.7152962610147
 10
2087.175594180781
 20
346.8025259936621
 10
2087.175594180781
 20
346.8916407884048
 10
2087.175594180781
 20
346.982498080581
 10
2087.175594180781
 20
347.074952517905
 10
2087.175594180781
 20
347.1688561929998
 10
2087.175594180781
 20
347.2640588800168
 10
2087.175594180781
 20
347.3604082749659
 10
2087.175594180781
 20
347.4577502393684
 10
2087.175594180781
 20
347.5559290468463
 10
2087.175594180781
 20
347.6547876322515
 10
2087.175594180781
 20
347.7541678429362
 10
2087.175594180781
 20
347.8539106917631
 10
2087.175594180781
 20
347.9538566114513
 10
2087.175594180781
 20
347.980846904097
  0
LWPOLYLINE
  5
44E
330
71
100
AcDbEntity
  8
0
100
AcDbPolyline
 90
       20
 70
   128
 43
0.0
 10
2087.175594180781
 20
347.980846904097
 10
2087.175594180781
 20
348.0808202395638
 10
2087.175594180781
 20
348.18063363902
 10
2087.175594180781
 20
348.2801274223195
 10
2087.175594180781
 20
348.3791424206328
 10
2087.175594180781
 20
348.477520231085
 10
2087.175594180781
 20
348.5751034701652
 10
2087.175594180781
 20
348.6717360255076
 10
2087.175594180781
 20
348.7672633056378
 10
2087.175594180781
 20
348.8615324872851
 10
2087.175594180781
 20
348.9543927598692
 10
2087.175594180781
 20
349.0456955667625
 10
2087.175594180781
 20
349.1352948429512
 10
2087.175594180781
 20
349.223047248707
 10
2087.175594180781
 20
349.3088123988998
 10
2087.175594180781
 20
349.3924530875852
 10
2087.175594180781
 20
349.4738355075037
 10
2087.175594180781
 20
349.5528294641439
 10
2087.175594180781
 20
349.6293085840264
 10
2087.175594180781
 20
349.6693092455572
  0
LWPOLYLINE
  5
44F
330
71
100
AcDbEntity
  8
0
100
AcDbPolyline
 90
        4
 70
   128
 43
0.0
 10
2087.175594180781
 20
350.4744522433985
 10
2087.175594180781
 20
350.477622264037
 10
2087.175594180781
 20
350.480701204673
 10
2087.175594180781
 20
350.480846904098
  0
LINE
  5
450
330
71
100
AcDbEntity
  8
0
100
AcDbLine
 10
2087.175594180781
 20
350.4788471707505
 30
0.0
 11
2087.175594180781
 21
350.4757735544107
 31
0.0
  0
LWPOLYLINE
  5
451
330
71
100
AcDbEntity
  8
0
100
AcDbPolyline
 90
        4
 70
   128
 43
0.0
 10
2078.67559418078
 20
343.7308469040973
 10
2078.673594447433
 20
343.6308735686417
 10
2078.667598446537
 20
343.5310601691853
 10
2078.66583504898
 20
343.5134850127524
  0
LWPOLYLINE
  5
452
330
71
100
AcDbEntity
  8
0
100
AcDbPolyline
 90
        4
 70
   128
 43
0.0
 10
2078.665782125899
 20
343.5129575472282
 10
2078.657615770415
 20
343.4315663858858
 10
2078.64366238922
 20
343.3325513875726
 10
2078.641675358376
 20
343.3216318074979
  0
LWPOLYLINE
  5
453
330
71
100
AcDbEntity
  8
0
100
AcDbPolyline
 90
       37
 70
   128
 43
0.0
 10
2078.637143344009
 20
343.29672645993
 10
2078.625760625383
 20
343.2341735771206
 10
2078.603939117911
 20
343.1365903380404
 10
2078.578232776557
 20
343.0399577826979
 10
2078.548682725987
 20
342.9444305025678
 10
2078.515336239976
 20
342.8501613209205
 10
2078.478246665788
 20
342.7573010483367
 10
2078.43747333883
 20
342.6659982414433
 10
2078.393081487729
 20
342.5763989652546
 10
2078.345142129975
 20
342.4886465594989
 10
2078.293731958314
 20
342.402881409306
 10
2078.238933218055
 20
342.3192407206207
 10
2078.180833575491
 20
342.2378583007023
 10
2078.119525977658
 20
342.1588643440621
 10
2078.055108503633
 20
342.0823852241796
 10
2077.987684207633
 20
342.0085432913319
 10
2077.917360954149
 20
341.9374566768594
 10
2077.844251245384
 20
341.8692391041811
 10
2077.768472041277
 20
341.8039997068607
 10
2077.69014457239
 20
341.7418428540174
 10
2077.609394145962
 20
341.6828679833559
 10
2077.526349945451
 20
341.6271694420885
 10
2077.441144823862
 20
341.5748363359999
 10
2077.353915091215
 20
341.5259523868958
 10
2077.264800296473
 20
341.480595798667
 10
2077.173943004297
 20
341.4388391321788
 10
2077.081488566973
 20
341.4007491891902
 10
2076.987584891877
 20
341.3663869054843
 10
2076.892382204861
 20
341.3358072533851
 10
2076.796032809912
 20
341.3090591538126
 10
2076.698690845509
 20
341.2861853980199
 10
2076.600512038031
 20
341.2672225791371
 10
2076.501653452627
 20
341.252201033629
 10
2076.402273241941
 20
341.2411447927642
 10
2076.302530393114
 20
341.2340715441693
 10
2076.202584473426
 20
341.2309926035333
 10
2076.17559418078
 20
341.231241020381
  0
LWPOLYLINE
  5
454
330
71
100
AcDbEntity
  8
0
100
AcDbPolyline
 90
       10
 70
   128
 43
0.0
 10
2074.130633274152
 20
342.2933469040971
 10
2074.086622237952
 20
342.3574583130404
 10
2074.033372297359
 20
342.4420934745547
 10
2073.983549454795
 20
342.5287903666367
 10
2073.937233416182
 20
342.6174102927537
 10
2073.894498277301
 20
342.7078114799283
 10
2073.855412405257
 20
342.7998493055457
 10
2073.820038329109
 20
342.8933765287185
 10
2073.788432639831
 20
342.9882435258412
 10
2073.760645899787
 20
343.0842985299555
  0
LWPOLYLINE
  5
455
330
71
100
AcDbEntity
  8
0
100
AcDbPolyline
 90
        4
 70
   128
 43
0.0
 10
2073.757842431315
 20
343.0956759938386
 10
2073.736722561828
 20
343.1813878735454
 10
2073.716700898196
 20
343.2793562343727
 10
2073.713869308006
 20
343.2967264599298
  0
LWPOLYLINE
  5
456
330
71
100
AcDbEntity
  8
0
100
AcDbPolyline
 90
        6
 70
   128
 43
0.0
 10
2073.712292046591
 20
343.3064020784728
 10
2073.700612939279
 20
343.3780468839586
 10
2073.688484422381
 20
343.4773019383167
 10
2073.680334750543
 20
343.5769626105334
 10
2073.676176961498
 20
343.676869464793
 10
2073.675594180781
 20
343.7308469040973
  0
LWPOLYLINE
  5
457
330
71
100
AcDbEntity
  8
0
100
AcDbPolyline
 90
        8
 70
   128
 43
0.0
 10
2073.675594180781
 20
347.4589188657558
 10
2073.675594180781
 20
347.3037445259882
 10
2073.675594180781
 20
347.1365022482203
 10
2073.675594180781
 20
346.9706107417843
 10
2073.675594180781
 20
346.8063353977027
 10
2073.675594180781
 20
346.6439390214822
 10
2073.675594180781
 20
346.4836814126819
 10
2073.675594180781
 20
346.3928359788422
  0
LWPOLYLINE
  5
458
330
71
100
AcDbEntity
  8
0
100
AcDbPolyline
 90
        7
 70
   128
 43
0.0
 10
2073.675594180781
 20
344.8718612927523
 10
2073.675594180781
 20
344.8161136442292
 10
2073.675594180781
 20
344.7052066687851
 10
2073.675594180781
 20
344.5995400189513
 10
2073.675594180781
 20
344.4992827388269
 10
2073.675594180781
 20
344.404595218673
 10
2073.675594180781
 20
344.3532834513902
  0
LWPOLYLINE
  5
459
330
71
100
AcDbEntity
  8
0
100
AcDbPolyline
 90
        7
 70
   128
 43
0.0
 10
2073.675594180781
 20
344.1758424886706
 10
2073.675594180781
 20
344.1554200248571
 10
2073.675594180781
 20
344.0844336918274
 10
2073.675594180781
 20
344.0196807887469
 10
2073.675594180781
 20
343.9612649064471
 10
2073.675594180781
 20
343.9092794978786
 10
2073.675594180781
 20
343.8696870400288
  0
LWPOLYLINE
  5
45A
330
71
100
AcDbEntity
  8
0
100
AcDbPolyline
 90
        7
 70
   128
 43
0.0
 10
2073.675594180781
 20
343.8696870400288
 10
2073.675594180781
 20
343.896361291287
 10
2073.675594180781
 20
343.9465963772572
 10
2073.675594180781
 20
344.0032854034764
 10
2073.675594180781
 20
344.0663376795951
 10
2073.675594180781
 20
344.1356523354224
 10
2073.675594180781
 20
344.1758424886706
  0
LWPOLYLINE
  5
45B
330
71
100
AcDbEntity
  8
0
100
AcDbPolyline
 90
        7
 70
   128
 43
0.0
 10
2073.675594180781
 20
344.3532834513902
 10
2073.675594180781
 20
344.3800126822995
 10
2073.675594180781
 20
344.47317054074
 10
2073.675594180781
 20
344.5719399330977
 10
2073.675594180781
 20
344.6761628494142
 10
2073.675594180781
 20
344.7856725552567
 10
2073.675594180781
 20
344.8718612927523
  0
LWPOLYLINE
  5
45C
330
71
100
AcDbEntity
  8
0
100
AcDbPolyline
 90
        6
 70
   128
 43
0.0
 10
2078.675594180781
 20
344.7088088447371
 10
2078.675594180781
 20
344.7052066687851
 10
2078.675594180781
 20
344.5995400189513
 10
2078.675594180781
 20
344.4992827388269
 10
2078.675594180781
 20
344.404595218673
 10
2078.675594180781
 20
344.3866368057612
  0
LWPOLYLINE
  5
45D
330
71
100
AcDbEntity
  8
0
100
AcDbPolyline
 90
        8
 70
   128
 43
0.0
 10
2078.675594180781
 20
343.9811471603038
 10
2078.675594180781
 20
343.961264906447
 10
2078.675594180781
 20
343.9092794978786
 10
2078.675594180781
 20
343.8638077286054
 10
2078.675594180781
 20
343.824922343758
 10
2078.675594180781
 20
343.7926855516572
 10
2078.675594180781
 20
343.7671489242934
 10
2078.675594180781
 20
343.7510635023719
  0
LWPOLYLINE
  5
45E
330
71
100
AcDbEntity
  8
0
100
AcDbPolyline
 90
        8
 70
   128
 43
0.0
 10
2078.675594180781
 20
343.7510635023719
 10
2078.675594180781
 20
343.7614102017292
 10
2078.675594180781
 20
343.7851309497617
 10
2078.675594180781
 20
343.8155639482827
 10
2078.675594180781
 20
343.8526605109867
 10
2078.675594180781
 20
343.896361291287
 10
2078.675594180781
 20
343.9465963772572
 10
2078.675594180781
 20
343.9811471603038
  0
LWPOLYLINE
  5
45F
330
71
100
AcDbEntity
  8
0
100
AcDbPolyline
 90
        5
 70
   128
 43
0.0
 10
2078.675594180781
 20
344.3866368057612
 10
2078.675594180781
 20
344.47317054074
 10
2078.675594180781
 20
344.5719399330977
 10
2078.675594180781
 20
344.6761628494142
 10
2078.675594180781
 20
344.7088088447371
  0
LWPOLYLINE
  5
460
330
71
100
AcDbEntity
  8
0
100
AcDbPolyline
 90
        5
 70
   128
 43
0.0
 10
2078.675594180781
 20
345.2438189856357
 10
2078.675594180781
 20
345.2729545412602
 10
2078.675594180781
 20
345.406111238369
 10
2078.675594180781
 20
345.5433869632955
 10
2078.675594180781
 20
345.6761587333681
  0
LWPOLYLINE
  5
461
330
71
100
AcDbEntity
  8
0
100
AcDbPolyline
 90
        8
 70
   128
 43
0.0
 10
2078.675594180781
 20
346.1011454991727
 10
2078.675594180781
 20
346.129196507426
 10
2078.675594180781
 20
346.2836539041249
 10
2078.675594180781
 20
346.4408264475753
 10
2078.675594180781
 20
346.6004626952358
 10
2078.675594180781
 20
346.7623072631645
 10
2078.675594180781
 20
346.9261012345774
 10
2078.675594180781
 20
346.972075502351
  0
LWPOLYLINE
  5
462
330
71
100
AcDbEntity
  8
0
100
AcDbPolyline
 90
       41
 70
   128
 43
0.0
 10
2078.67559418078
 20
343.7308469040973
 10
2078.67559418078
 20
343.7340464774534
 10
2078.67559418078
 20
343.7436400788869
 10
2078.67559418078
 20
343.7596123606819
 10
2078.67559418078
 20
343.7819377705947
 10
2078.67559418078
 20
343.8105805927323
 10
2078.67559418078
 20
343.8454950046891
 10
2078.67559418078
 20
343.8866251508542
 10
2078.67559418078
 20
343.9339052317675
 10
2078.67559418078
 20
343.9872596093855
 10
2078.67559418078
 20
344.0466029280857
 10
2078.67559418078
 20
344.1118402512175
 10
2078.67559418078
 20
344.1828672129801
 10
2078.67559418078
 20
344.2595701853867
 10
2078.67559418078
 20
344.3418264600435
 10
2078.67559418078
 20
344.4295044444587
 10
2078.67559418078
 20
344.5224638725601
 10
2078.67559418078
 20
344.6205560290936
 10
2078.67559418078
 20
344.7236239875338
 10
2078.67559418078
 20
344.8315028611336
 10
2078.67559418078
 20
344.9440200667086
 10
2078.67559418078
 20
345.060995600732
 10
2078.67559418078
 20
345.1822423273029
 10
2078.67559418078
 20
345.3075662775235
 10
2078.67559418078
 20
345.4367669598074
 10
2078.67559418078
 20
345.5696376806248
 10
2078.67559418078
 20
345.7059658751662
 10
2078.67559418078
 20
345.8455334474023
 10
2078.67559418078
 20
345.9881171189904
 10
2078.67559418078
 20
346.1334887864722
 10
2078.67559418078
 20
346.2814158861907
 10
2078.67559418078
 20
346.4316617663422
 10
2078.67559418078
 20
346.5839860655695
 10
2078.67559418078
 20
346.7381450974879
 10
2078.67559418078
 20
346.8938922405314
 10
2078.67559418078
 20
347.0509783324964
 10
2078.67559418078
 20
347.2091520691448
 10
2078.67559418078
 20
347.3681604062398
 10
2078.67559418078
 20
347.527748964363
 10
2078.67559418078
 20
347.6876624358642
 10
2078.67559418078
 20
347.7308469040973
  0
LWPOLYLINE
  5
463
330
71
100
AcDbEntity
  8
0
100
AcDbPolyline
 90
       41
 70
   128
 43
0.0
 10
2073.675594180781
 20
347.7308469040973
 10
2073.675594180781
 20
347.5708895673507
 10
2073.675594180781
 20
347.4111881282206
 10
2073.675594180781
 20
347.2519980749415
 10
2073.675594180781
 20
347.0935740776403
 10
2073.675594180781
 20
346.9361695809169
 10
2073.675594180781
 20
346.7800363983888
 10
2073.675594180781
 20
346.6254243098408
 10
2073.675594180781
 20
346.4725806616327
 10
2073.675594180781
 20
346.3217499709969
 10
2073.675594180781
 20
346.1731735348627
 10
2073.675594180781
 20
346.0270890438333
 10
2073.675594180781
 20
345.8837302019313
 10
2073.675594180781
 20
345.7433263527224
 10
2073.675594180781
 20
345.6061021124138
 10
2073.675594180781
 20
345.4722770105171
 10
2073.675594180781
 20
345.3420651386476
 10
2073.675594180781
 20
345.2156748080235
 10
2073.675594180781
 20
345.0933082162114
 10
2073.675594180781
 20
344.9751611236551
 10
2073.675594180781
 20
344.8614225404991
 10
2073.675594180781
 20
344.7522744242139
 10
2073.675594180781
 20
344.6478913885014
 10
2073.675594180781
 20
344.5484404239519
 10
2073.675594180781
 20
344.4540806308932
 10
2073.675594180781
 20
344.3649629648657
 10
2073.675594180781
 20
344.2812299951239
 10
2073.675594180781
 20
344.2030156765575
 10
2073.675594180781
 20
344.1304451353913
 10
2073.675594180781
 20
344.0636344690101
 10
2073.675594180781
 20
344.0026905602284
 10
2073.675594180781
 20
343.9477109062991
 10
2073.675594180781
 20
343.8987834629403
 10
2073.675594180781
 20
343.8559865036244
 10
2073.675594180781
 20
343.819388494356
 10
2073.675594180781
 20
343.7890479841434
 10
2073.675594180781
 20
343.7650135113305
 10
2073.675594180781
 20
343.7473235259467
 10
2073.675594180781
 20
343.7360063281949
 10
2073.675594180781
 20
343.7310800231774
 10
2073.675594180781
 20
343.7308469040973
  0
LINE
  5
464
330
71
100
AcDbEntity
  8
0
100
AcDbLine
 10
2078.67559418078
 20
347.7308469040973
 30
0.0
 11
2078.67559418078
 21
364.7308469040971
 31
0.0
  0
LINE
  5
465
330
71
100
AcDbEntity
  8
0
100
AcDbLine
 10
2073.675594180781
 20
364.7308469040971
 30
0.0
 11
2073.675594180781
 21
347.7308469040973
 31
0.0
  0
LWPOLYLINE
  5
466
330
71
100
AcDbEntity
  8
0
100
AcDbPolyline
 90
        4
 70
   128
 43
0.0
 10
2076.175594180781
 20
371.230846904097
 10
2076.275567516247
 20
371.2288471707495
 10
2076.375380915703
 20
371.2228511698536
 10
2076.39348353765
 20
371.2210348492167
  0
LWPOLYLINE
  5
467
330
71
100
AcDbEntity
  8
0
100
AcDbPolyline
 90
        4
 70
   128
 43
0.0
 10
2076.423140357456
 20
371.2180592419262
 10
2076.474874699003
 20
371.2128684937316
 10
2076.573889697316
 20
371.1989151125361
 10
2076.598659347546
 20
371.1944077909494
  0
LWPOLYLINE
  5
468
330
71
100
AcDbEntity
  8
0
100
AcDbPolyline
 90
        4
 70
   128
 43
0.0
 10
2076.609714624948
 20
371.192396067327
 10
2076.672267507768
 20
371.1810133487
 10
2076.769850746848
 20
371.1591918412271
 10
2076.807290123152
 20
371.1492321606217
  0
LWPOLYLINE
  5
469
330
71
100
AcDbEntity
  8
0
100
AcDbPolyline
 90
       35
 70
   128
 43
0.0
 10
2076.822641793538
 20
371.1451482855974
 10
2076.866483302191
 20
371.1334854998739
 10
2076.96201058232
 20
371.1039354493032
 10
2077.056279763968
 20
371.0705889632917
 10
2077.149140036552
 20
371.0334993891044
 10
2077.240442843445
 20
370.992726062147
 10
2077.330042119634
 20
370.9483342110453
 10
2077.417794525389
 20
370.9003948532912
 10
2077.503559675582
 20
370.8489846816306
 10
2077.587200364268
 20
370.7941859413712
 10
2077.668582784186
 20
370.7360862988078
 10
2077.747576740827
 20
370.6747787009744
 10
2077.824055860709
 20
370.6103612269493
 10
2077.897897793556
 20
370.5429369309494
 10
2077.968984408029
 20
370.4726136774649
 10
2078.037201980707
 20
370.3995039687003
 10
2078.102441378028
 20
370.3237247645934
 10
2078.164598230871
 20
370.2453972957056
 10
2078.223573101533
 20
370.1646468692783
 10
2078.2792716428
 20
370.0816026687673
 10
2078.331604748889
 20
369.9963975471789
 10
2078.380488697993
 20
369.9091678145314
 10
2078.425845286222
 20
369.8200530197886
 10
2078.46760195271
 20
369.7291957276128
 10
2078.505691895699
 20
369.6367412902889
 10
2078.540054179404
 20
369.542837615194
 10
2078.570633831503
 20
369.447634928177
 10
2078.597381931076
 20
369.3512855332281
 10
2078.620255686868
 20
369.2539435688257
 10
2078.639218505751
 20
369.1557647613478
 10
2078.654240051259
 20
369.0569061759423
 10
2078.665296292125
 20
368.9575259652579
 10
2078.672369540719
 20
368.8577831164311
 10
2078.675448481355
 20
368.7578371967428
 10
2078.67559418078
 20
368.7308469040971
  0
LWPOLYLINE
  5
46A
330
71
100
AcDbEntity
  8
0
100
AcDbPolyline
 90
       41
 70
   128
 43
0.0
 10
2078.67559418078
 20
368.7308469040971
 10
2078.67559418078
 20
368.727647330741
 10
2078.67559418078
 20
368.7180537293077
 10
2078.67559418078
 20
368.7020814475126
 10
2078.67559418078
 20
368.6797560375995
 10
2078.67559418078
 20
368.651113215462
 10
2078.67559418078
 20
368.6161988035051
 10
2078.67559418078
 20
368.57506865734
 10
2078.67559418078
 20
368.5277885764269
 10
2078.67559418078
 20
368.4744341988087
 10
2078.67559418078
 20
368.4150908801087
 10
2078.67559418078
 20
368.3498535569768
 10
2078.67559418078
 20
368.2788265952142
 10
2078.67559418078
 20
368.2021236228079
 10
2078.67559418078
 20
368.1198673481507
 10
2078.67559418078
 20
368.0321893637357
 10
2078.67559418078
 20
367.9392299356341
 10
2078.67559418078
 20
367.8411377791007
 10
2078.67559418078
 20
367.7380698206607
 10
2078.67559418078
 20
367.6301909470608
 10
2078.67559418078
 20
367.5176737414856
 10
2078.67559418078
 20
367.4006982074623
 10
2078.67559418078
 20
367.2794514808913
 10
2078.67559418078
 20
367.154127530671
 10
2078.67559418078
 20
367.0249268483868
 10
2078.67559418078
 20
366.8920561275695
 10
2078.67559418078
 20
366.7557279330281
 10
2078.67559418078
 20
366.616160360792
 10
2078.67559418078
 20
366.473576689204
 10
2078.67559418078
 20
366.3282050217222
 10
2078.67559418078
 20
366.1802779220037
 10
2078.67559418078
 20
366.030032041852
 10
2078.67559418078
 20
365.8777077426248
 10
2078.67559418078
 20
365.7235487107066
 10
2078.67559418078
 20
365.5678015676627
 10
2078.67559418078
 20
365.4107154756979
 10
2078.67559418078
 20
365.2525417390497
 10
2078.67559418078
 20
365.0935334019544
 10
2078.67559418078
 20
364.9339448438315
 10
2078.67559418078
 20
364.77403137233
 10
2078.67559418078
 20
364.7308469040971
  0
LWPOLYLINE
  5
46B
330
71
100
AcDbEntity
  8
0
100
AcDbPolyline
 90
       11
 70
   128
 43
0.0
 10
2073.675594180781
 20
364.7308469040971
 10
2073.675594180781
 20
364.8908042408435
 10
2073.675594180781
 20
365.0505056799738
 10
2073.675594180781
 20
365.2096957332527
 10
2073.675594180781
 20
365.3681197305541
 10
2073.675594180781
 20
365.5255242272773
 10
2073.675594180781
 20
365.6816574098057
 10
2073.675594180781
 20
365.8362694983534
 10
2073.675594180781
 20
365.9891131465615
 10
2073.675594180781
 20
366.1399438371973
 10
2073.675594180781
 20
366.2320547438938
  0
LINE
  5
46C
330
71
100
AcDbEntity
  8
0
100
AcDbLine
 10
2067.175594180763
 20
309.7308469041321
 30
0.0
 11
2067.175594180763
 21
427.7308469041321
 31
0.0
  0
LINE
  5
46D
330
71
100
AcDbEntity
  8
0
100
AcDbLine
 10
2067.175594180763
 20
427.7308469041321
 30
0.0
 11
1923.425594180762
 21
427.7308469041321
 31
0.0
  0
LINE
  5
46E
330
71
100
AcDbEntity
  8
0
100
AcDbLine
 10
1923.425594180762
 20
427.7308469041321
 30
0.0
 11
1923.425594180762
 21
309.7308469041321
 31
0.0
  0
LINE
  5
46F
330
71
100
AcDbEntity
  8
0
100
AcDbLine
 10
1923.425594180762
 20
309.7308469041321
 30
0.0
 11
2067.175594180763
 21
309.7308469041321
 31
0.0
  0
ARC
  5
470
330
71
100
AcDbEntity
  8
0
100
AcDbCircle
 10
1995.300594180781
 20
368.7308469040937
 30
0.0
 40
49.74999999999989
100
AcDbArc
 50
0.0
 51
180.0
  0
ARC
  5
471
330
71
100
AcDbEntity
  8
0
100
AcDbCircle
 10
1995.300594180781
 20
368.7308469040937
 30
0.0
 40
49.74999999999989
100
AcDbArc
 50
180.0
 51
0.0
  0
ARC
  5
472
330
71
100
AcDbEntity
  8
0
100
AcDbCircle
 10
1995.300594180781
 20
368.7308469040937
 30
0.0
 40
48.24999999999992
100
AcDbArc
 50
0.0
 51
180.0
  0
ARC
  5
473
330
71
100
AcDbEntity
  8
0
100
AcDbCircle
 10
1995.300594180781
 20
368.7308469040937
 30
0.0
 40
48.24999999999992
100
AcDbArc
 50
180.0
 51
0.0
  0
ARC
  5
474
330
71
100
AcDbEntity
  8
0
100
AcDbCircle
 10
1995.300594180781
 20
368.7308469040935
 30
0.0
 40
2.999999999999993
100
AcDbArc
 50
0.0
 51
180.0
  0
ARC
  5
475
330
71
100
AcDbEntity
  8
0
100
AcDbCircle
 10
1995.300594180781
 20
368.7308469040935
 30
0.0
 40
3.0
100
AcDbArc
 50
180.0
 51
0.0
  0
LINE
  5
476
330
71
100
AcDbEntity
  8
0
100
AcDbLine
 10
2067.42559418078
 20
382.3558469040968
 30
0.0
 11
2067.175594180783
 21
382.3558469040968
 31
0.0
  0
LINE
  5
477
330
71
100
AcDbEntity
  8
0
100
AcDbLine
 10
2067.175594180783
 20
379.3558469040968
 30
0.0
 11
2067.42559418078
 21
379.3558469040968
 31
0.0
  0
LINE
  5
478
330
71
100
AcDbEntity
  8
0
100
AcDbLine
 10
2067.42559418078
 20
318.9808469040968
 30
0.0
 11
2067.175594180783
 21
318.9808469040968
 31
0.0
  0
LINE
  5
479
330
71
100
AcDbEntity
  8
0
100
AcDbLine
 10
2067.175594180783
 20
316.9808469040969
 30
0.0
 11
2067.42559418078
 21
316.9808469040969
 31
0.0
  0
LINE
  5
47A
330
71
100
AcDbEntity
  8
0
100
AcDbLine
 10
2067.42559418078
 20
417.9808469040968
 30
0.0
 11
2067.175594180783
 21
417.9808469040968
 31
0.0
  0
LINE
  5
47B
330
71
100
AcDbEntity
  8
0
100
AcDbLine
 10
2067.175594180783
 20
416.4808469040966
 30
0.0
 11
2067.42559418078
 21
416.4808469040966
 31
0.0
  0
LINE
  5
47C
330
71
100
AcDbEntity
  8
0
100
AcDbLine
 10
2067.42559418078
 20
382.3558469040968
 30
0.0
 11
2067.42559418078
 21
379.3558469040968
 31
0.0
  0
LINE
  5
47D
330
71
100
AcDbEntity
  8
0
100
AcDbLine
 10
2067.42559418078
 20
318.9808469040968
 30
0.0
 11
2067.42559418078
 21
316.9808469040968
 31
0.0
  0
LINE
  5
47E
330
71
100
AcDbEntity
  8
0
100
AcDbLine
 10
2067.425594180781
 20
417.9808469040968
 30
0.0
 11
2067.425594180781
 21
416.4808469040966
 31
0.0
  0
LINE
  5
47F
330
71
100
AcDbEntity
  8
0
100
AcDbLine
 10
2076.17559418078
 20
342.2933469040971
 30
0.0
 11
2067.17559418078
 21
342.2933469040971
 31
0.0
  0
LINE
  5
480
330
71
100
AcDbEntity
  8
0
100
AcDbLine
 10
2067.17559418078
 20
338.2933469040971
 30
0.0
 11
2076.17559418078
 21
338.2933469040971
 31
0.0
  0
LINE
  5
481
330
71
100
AcDbEntity
  8
0
100
AcDbLine
 10
2076.175594180781
 20
399.1683469040972
 30
0.0
 11
2067.17559418078
 21
399.1683469040972
 31
0.0
  0
LINE
  5
482
330
71
100
AcDbEntity
  8
0
100
AcDbLine
 10
2067.17559418078
 20
395.1683469040972
 30
0.0
 11
2076.175594180781
 21
395.1683469040972
 31
0.0
  0
LINE
  5
483
330
71
100
AcDbEntity
  8
0
100
AcDbLine
 10
2076.17559418078
 20
342.293346904097
 30
0.0
 11
2076.17559418078
 21
338.293346904097
 31
0.0
  0
LINE
  5
484
330
71
100
AcDbEntity
  8
0
100
AcDbLine
 10
2076.17559418078
 20
399.168346904097
 30
0.0
 11
2076.17559418078
 21
395.168346904097
 31
0.0
  0
LINE
  5
485
330
71
100
AcDbEntity
  8
0
100
AcDbLine
 10
1688.488013276304
 20
195.7499999999973
 30
0.0
 11
1806.488013276305
 21
195.7499999999976
 31
0.0
  0
LINE
  5
486
330
71
100
AcDbEntity
  8
0
100
AcDbLine
 10
1806.488013276305
 20
154.9950353879072
 30
0.0
 11
1688.488013276305
 21
154.9950353879069
 31
0.0
  0
LINE
  5
487
330
71
100
AcDbEntity
  8
0
100
AcDbLine
 10
1688.488013276305
 20
154.9950353879069
 30
0.0
 11
1688.488013276304
 21
195.7499999999973
 31
0.0
  0
LINE
  5
488
330
71
100
AcDbEntity
  8
0
100
AcDbLine
 10
1806.488013276305
 20
154.9950353879072
 30
0.0
 11
1806.488013276305
 21
195.7499999999976
 31
0.0
  0
LWPOLYLINE
  5
489
330
71
100
AcDbEntity
  8
0
100
AcDbPolyline
 90
       41
 70
   128
 43
0.0
 10
1697.738013276343
 20
195.7500000000008
 10
1697.857981278902
 20
195.7523996800181
 10
1697.97775735825
 20
195.7595948810931
 10
1698.097149898209
 20
195.7715740924392
 10
1698.215967896185
 20
195.788318149874
 10
1698.334021268728
 20
195.8098002664773
 10
1698.451121155624
 20
195.8359860754447
 10
1698.567080222035
 20
195.8668336850686
 10
1698.68171295819
 20
195.9022937457535
 10
1698.794835976167
 20
195.942309528967
 10
1698.906268303269
 20
195.9868170179924
 10
1699.015831671539
 20
196.0357450103411
 10
1699.123350802967
 20
196.089015231663
 10
1699.228653689874
 20
196.146542460968
 10
1699.331571870105
 20
196.2082346669608
 10
1699.431940696528
 20
196.273993155272
 10
1699.529599600429
 20
196.343712726348
 10
1699.624392348398
 20
196.4172818437481
 10
1699.716167292257
 20
196.4945828125782
 10
1699.804777611674
 20
196.5754919677783
 10
1699.890081549041
 20
196.6598798719595
 10
1699.971942636255
 20
196.747611522477
 10
1700.050229913039
 20
196.8385465674051
 10
1700.124818136451
 20
196.9325395300706
 10
1700.195587981245
 20
197.0294400417835
 10
1700.262426230766
 20
197.1290930823964
 10
1700.325225958073
 20
197.2313392283025
 10
1700.383886696998
 20
197.3360149074797
 10
1700.438314602872
 20
197.4429526611707
 10
1700.488422602658
 20
197.5519814117821
 10
1700.534130534244
 20
197.6629267365709
 10
1700.575365274691
 20
197.7756111466845
 10
1700.61206085721
 20
197.8898543711049
 10
1700.644158576697
 20
198.0054736450438
 10
1700.671607083648
 20
198.1222840023266
 10
1700.694362466308
 20
198.2400985713001
 10
1700.712388320918
 20
198.3587288737865
 10
1700.725655809955
 20
198.477985126608
 10
1700.73414370827
 20
198.5976765452002
 10
1700.737838437032
 20
198.7176116488262
 10
1700.738013276342
 20
198.7500000000008
  0
LWPOLYLINE
  5
48A
330
71
100
AcDbEntity
  8
0
100
AcDbPolyline
 90
       41
 70
   128
 43
0.0
 10
1794.238013276343
 20
198.7499999999994
 10
1794.24041295636
 20
198.6300319974396
 10
1794.247608157435
 20
198.5102559180921
 10
1794.259587368781
 20
198.3908633781329
 10
1794.276331426215
 20
198.2720453801568
 10
1794.297813542819
 20
198.1539920076143
 10
1794.323999351786
 20
198.0368921207183
 10
1794.35484696141
 20
197.9209330543073
 10
1794.390307022095
 20
197.8063003181511
 10
1794.430322805309
 20
197.6931773001744
 10
1794.474830294334
 20
197.5817449730735
 10
1794.523758286683
 20
197.4721816048016
 10
1794.577028508005
 20
197.3646624733751
 10
1794.634555737309
 20
197.2593595864683
 10
1794.696247943302
 20
197.1564414062368
 10
1794.762006431614
 20
197.0560725798144
 10
1794.83172600269
 20
196.9584136759125
 10
1794.90529512009
 20
196.8636209279443
 10
1794.98259608892
 20
196.7718459840851
 10
1795.06350524412
 20
196.6832356646679
 10
1795.147893148301
 20
196.5979317273011
 10
1795.235624798818
 20
196.516070640087
 10
1795.326559843747
 20
196.4377833633027
 10
1795.420552806412
 20
196.3631951398904
 10
1795.517453318125
 20
196.2924252950966
 10
1795.617106358738
 20
196.225587045576
 10
1795.719352504644
 20
196.1627873182695
 10
1795.824028183821
 20
196.1041265793448
 10
1795.930965937512
 20
196.04969867347
 10
1796.039994688124
 20
195.9995906736843
 10
1796.150940012912
 20
195.9538827420979
 10
1796.263624423026
 20
195.9126480016508
 10
1796.377867647447
 20
195.875952419132
 10
1796.493486921385
 20
195.8438546996447
 10
1796.610297278668
 20
195.8164061926936
 10
1796.728111847642
 20
195.7936508100341
 10
1796.846742150128
 20
195.7756249554245
 10
1796.965998402949
 20
195.7623574663866
 10
1797.085689821542
 20
195.7538695680728
 10
1797.205624925168
 20
195.7501748393097
 10
1797.238013276343
 20
195.7499999999996
  0
LINE
  5
48B
330
71
100
AcDbEntity
  8
0
100
AcDbLine
 10
1700.738013276343
 20
208.3750000000009
 30
0.0
 11
1700.738013276342
 21
198.7500000000008
 31
0.0
  0
LINE
  5
48C
330
71
100
AcDbEntity
  8
0
100
AcDbLine
 10
1794.238013276343
 20
198.7499999999994
 30
0.0
 11
1794.238013276343
 21
208.3749999999995
 31
0.0
  0
LINE
  5
48D
330
71
100
AcDbEntity
  8
0
100
AcDbLine
 10
1699.238013276343
 20
208.6250000000009
 30
0.0
 11
1699.238013276343
 21
208.3750000000009
 31
0.0
  0
LINE
  5
48E
330
71
100
AcDbEntity
  8
0
100
AcDbLine
 10
1795.738013276343
 20
208.3749999999995
 30
0.0
 11
1795.738013276343
 21
208.6249999999997
 31
0.0
  0
LINE
  5
48F
330
71
100
AcDbEntity
  8
0
100
AcDbLine
 10
1744.488013276343
 20
215.3750000000004
 30
0.0
 11
1699.238013276343
 21
208.6250000000009
 31
0.0
  0
LINE
  5
490
330
71
100
AcDbEntity
  8
0
100
AcDbLine
 10
1795.738013276343
 20
208.6249999999997
 30
0.0
 11
1750.488013276343
 21
215.3750000000002
 31
0.0
  0
LINE
  5
491
330
71
100
AcDbEntity
  8
0
100
AcDbLine
 10
1747.488013276343
 20
208.375
 30
0.0
 11
1699.29994180534
 21
208.3750000000006
 31
0.0
  0
LINE
  5
492
330
71
100
AcDbEntity
  8
0
100
AcDbLine
 10
1795.676084747346
 20
208.3749999999993
 30
0.0
 11
1747.488013276343
 21
208.375
 31
0.0
  0
LINE
  5
493
330
71
100
AcDbEntity
  8
0
100
AcDbLine
 10
1747.488013276343
 20
208.625
 30
0.0
 11
1699.29994180534
 21
208.6250000000007
 31
0.0
  0
LINE
  5
494
330
71
100
AcDbEntity
  8
0
100
AcDbLine
 10
1795.676084747346
 20
208.6249999999994
 30
0.0
 11
1747.488013276343
 21
208.625
 31
0.0
  0
LINE
  5
495
330
71
100
AcDbEntity
  8
0
100
AcDbLine
 10
1747.488013276343
 20
215.3749999999999
 30
0.0
 11
1744.488013276343
 21
215.375
 31
0.0
  0
LINE
  5
496
330
71
100
AcDbEntity
  8
0
100
AcDbLine
 10
1750.488013276343
 20
215.3749999999999
 30
0.0
 11
1747.488013276343
 21
215.3749999999999
 31
0.0
  0
LINE
  5
497
330
71
100
AcDbEntity
  8
0
100
AcDbLine
 10
1688.488013276339
 20
154.75
 30
0.0
 11
1806.488013276339
 21
154.75
 31
0.0
  0
LINE
  5
498
330
71
100
AcDbEntity
  8
0
100
AcDbLine
 10
1806.488013276339
 20
52.37499999999998
 30
0.0
 11
1688.488013276339
 21
52.37499999999998
 31
0.0
  0
LINE
  5
499
330
71
100
AcDbEntity
  8
0
100
AcDbLine
 10
1688.488013276339
 20
52.37499999999998
 30
0.0
 11
1688.488013276339
 21
154.75
 31
0.0
  0
LINE
  5
49A
330
71
100
AcDbEntity
  8
0
100
AcDbLine
 10
1806.488013276339
 20
52.37499999999998
 30
0.0
 11
1806.488013276339
 21
154.75
 31
0.0
  0
LINE
  5
49E
330
71
100
AcDbEntity
  8
0
100
AcDbLine
 10
1688.488013276339
 20
52.37499999999998
 30
0.0
 11
1806.488013276339
 21
52.37499999999998
 31
0.0
  0
LINE
  5
49F
330
71
100
AcDbEntity
  8
0
100
AcDbLine
 10
1806.488013276339
 20
0.0
 30
0.0
 11
1688.488013276339
 21
0.0
 31
0.0
  0
LINE
  5
4A0
330
71
100
AcDbEntity
  8
0
100
AcDbLine
 10
1688.488013276339
 20
46.50000000000011
 30
0.0
 11
1688.488013276339
 21
52.37499999999998
 31
0.0
  0
LINE
  5
4A1
330
71
100
AcDbEntity
  8
0
100
AcDbLine
 10
1688.488013276339
 20
46.50000000000011
 30
0.0
 11
1806.488013276339
 21
46.50000000000011
 31
0.0
  0
LINE
  5
4A2
330
71
100
AcDbEntity
  8
0
100
AcDbLine
 10
1806.488013276339
 20
16.50000000000011
 30
0.0
 11
1688.488013276339
 21
16.50000000000011
 31
0.0
  0
LINE
  5
4A3
330
71
100
AcDbEntity
  8
0
100
AcDbLine
 10
1688.488013276339
 20
0.0
 30
0.0
 11
1688.488013276339
 21
16.5000000000001
 31
0.0
  0
LINE
  5
4A4
330
71
100
AcDbEntity
  8
0
100
AcDbLine
 10
1806.488013276339
 20
46.50000000000011
 30
0.0
 11
1806.488013276339
 21
52.37499999999998
 31
0.0
  0
LINE
  5
4A5
330
71
100
AcDbEntity
  8
0
100
AcDbLine
 10
1806.488013276339
 20
0.0
 30
0.0
 11
1806.488013276339
 21
16.5000000000001
 31
0.0
  0
LINE
  5
4A6
330
71
100
AcDbEntity
  8
0
100
AcDbLine
 10
1805.488013276339
 20
46.50000000000011
 30
0.0
 11
1805.488013276339
 21
16.50000000000008
 31
0.0
  0
LINE
  5
4A7
330
71
100
AcDbEntity
  8
0
100
AcDbLine
 10
1804.113013276339
 20
46.50000000000011
 30
0.0
 11
1804.113013276339
 21
16.5000000000001
 31
0.0
  0
LINE
  5
4A8
330
71
100
AcDbEntity
  8
0
100
AcDbLine
 10
1800.738013276339
 20
46.50000000000011
 30
0.0
 11
1800.738013276339
 21
16.5000000000001
 31
0.0
  0
LINE
  5
4A9
330
71
100
AcDbEntity
  8
0
100
AcDbLine
 10
1749.23801327634
 20
46.50000000000011
 30
0.0
 11
1749.23801327634
 21
16.5000000000001
 31
0.0
  0
LINE
  5
4AA
330
71
100
AcDbEntity
  8
0
100
AcDbLine
 10
1745.73801327634
 20
16.5000000000001
 30
0.0
 11
1745.73801327634
 21
46.50000000000011
 31
0.0
  0
LINE
  5
4AB
330
71
100
AcDbEntity
  8
0
100
AcDbLine
 10
1694.238013276339
 20
46.50000000000011
 30
0.0
 11
1694.238013276339
 21
16.5000000000001
 31
0.0
  0
LINE
  5
4AC
330
71
100
AcDbEntity
  8
0
100
AcDbLine
 10
1690.863013276339
 20
46.50000000000011
 30
0.0
 11
1690.863013276339
 21
16.5000000000001
 31
0.0
  0
LINE
  5
4AD
330
71
100
AcDbEntity
  8
0
100
AcDbLine
 10
1689.488013276339
 20
46.50000000000011
 30
0.0
 11
1689.488013276339
 21
16.50000000000008
 31
0.0
  0
LINE
  5
4AE
330
71
100
AcDbEntity
  8
0
100
AcDbLine
 10
2072.17559418078
 20
147.6250000000035
 30
0.0
 11
2067.175594180779
 21
147.6250000000035
 31
0.0
  0
LINE
  5
4AF
330
71
100
AcDbEntity
  8
0
100
AcDbLine
 10
2067.175594180779
 20
142.6250000000034
 30
0.0
 11
2072.17559418078
 21
142.6250000000034
 31
0.0
  0
LWPOLYLINE
  5
4B0
330
71
100
AcDbEntity
  8
0
100
AcDbPolyline
 90
       41
 70
   128
 43
0.0
 10
2078.675594180781
 20
141.1250000000029
 10
2078.670394874078
 20
141.3849306722163
 10
2078.654805271748
 20
141.6444455108027
 10
2078.628850313831
 20
141.903129347381
 10
2078.592571522722
 20
142.1605683429957
 10
2078.546026936749
 20
142.4163506501708
 10
2078.489291017319
 20
142.6700670717794
 10
2078.422454529802
 20
142.9213117156698
 10
2078.345624398316
 20
143.1696826440078
 10
2078.258923534687
 20
143.4147825162913
 10
2078.162490641799
 20
143.6562192250093
 10
2078.05647999171
 20
143.8936065229321
 10
2077.941061178846
 20
144.1265646410229
 10
2077.816418848685
 20
144.3547208959875
 10
2077.682752402368
 20
144.5777102864891
 10
2077.540275677693
 20
144.795176077071
 10
2077.389216607028
 20
145.0067703688589
 10
2077.229816852661
 20
145.2121546561233
 10
2077.062331420196
 20
145.411000367818
 10
2076.887028250597
 20
145.602989393222
 10
2076.704187791537
 20
145.7878145908503
 10
2076.514102548749
 20
145.9651802798138
 10
2076.317076618071
 20
146.1348027128467
 10
2076.113425198963
 20
146.2964105302397
 10
2075.903474090251
 20
146.44974519396
 10
2075.687559168923
 20
146.5945614012549
 10
2075.466025852794
 20
146.7306274770851
 10
2075.23922854791
 20
146.8577257447556
 10
2075.007530081579
 20
146.9756528741506
 10
2074.771301121921
 20
147.08422020702
 10
2074.530919584879
 20
147.1832540587904
 10
2074.286770029633
 20
147.2725959964253
 10
2074.039243043388
 20
147.3521030918834
 10
2073.788734616521
 20
147.421648150772
 10
2073.535645509075
 20
147.481119915833
 10
2073.280380609632
 20
147.5304232449285
 10
2073.023348287578
 20
147.5694792632495
 10
2072.764959739798
 20
147.598225489498
 10
2072.505628332848
 20
147.6166159358447
 10
2072.245768941659
 20
147.6246211814983
 10
2072.17559418078
 20
147.6250000000035
  0
LWPOLYLINE
  5
4B1
330
71
100
AcDbEntity
  8
0
100
AcDbPolyline
 90
       41
 70
   128
 43
0.0
 10
2072.17559418078
 20
142.6250000000034
 10
2072.23557818206
 20
142.6238001599949
 10
2072.295466221734
 20
142.6202025594573
 10
2072.355162491714
 20
142.6142129537842
 10
2072.414571490702
 20
142.6058409250669
 10
2072.473598176973
 20
142.5950998667652
 10
2072.532148120421
 20
142.5820069622815
 10
2072.590127653627
 20
142.5665831574695
 10
2072.647444021704
 20
142.548853127127
 10
2072.704005530693
 20
142.5288452355203
 10
2072.759721694243
 20
142.5065914910078
 10
2072.81450337838
 20
142.4821274948332
 10
2072.868262944093
 20
142.4554923841724
 10
2072.920914387546
 20
142.4267287695199
 10
2072.972373477663
 20
142.3958826665235
 10
2073.022557890873
 20
142.363003422368
 10
2073.071387342824
 20
142.3281436368298
 10
2073.118783716807
 20
142.2913590781296
 10
2073.164671188738
 20
142.2527085937147
 10
2073.208976348446
 20
142.2122540161146
 10
2073.25162831713
 20
142.1700600640239
 10
2073.292558860737
 20
142.1261942387651
 10
2073.33170249913
 20
142.0807267163011
 10
2073.368996610835
 20
142.0337302349684
 10
2073.404381533232
 20
141.9852799791118
 10
2073.437800657993
 20
141.9354534588054
 10
2073.469200521646
 20
141.8843303858523
 10
2073.498530891108
 20
141.8319925462636
 10
2073.525744844046
 20
141.7785236694181
 10
2073.550798843939
 20
141.7240092941124
 10
2073.573652809731
 20
141.6685366317181
 10
2073.594270179955
 20
141.6121944266613
 10
2073.612617971215
 20
141.5550728144511
 10
2073.628666830958
 20
141.4972631774815
 10
2073.642391084434
 20
141.4388579988403
 10
2073.653768775763
 20
141.3799507143534
 10
2073.662781703068
 20
141.3206355631103
 10
2073.669415447588
 20
141.2610074366994
 10
2073.673659396744
 20
141.2011617274032
 10
2073.675506761126
 20
141.1411941755905
 10
2073.675594180781
 20
141.1250000000029
  0
LINE
  5
4B2
330
71
100
AcDbEntity
  8
0
100
AcDbLine
 10
2078.675594180781
 20
133.1250000000027
 30
0.0
 11
2078.675594180781
 21
141.1250000000029
 31
0.0
  0
LINE
  5
4B3
330
71
100
AcDbEntity
  8
0
100
AcDbLine
 10
2073.675594180781
 20
141.1250000000029
 30
0.0
 11
2073.675594180781
 21
139.5000000000001
 31
0.0
  0
LINE
  5
4B4
330
71
100
AcDbEntity
  8
0
100
AcDbLine
 10
2073.675594180781
 20
135.5000000000002
 30
0.0
 11
2073.675594180781
 21
133.1250000000027
 31
0.0
  0
LINE
  5
4B6
330
71
100
AcDbEntity
  8
0
100
AcDbLine
 10
2067.175594180783
 20
6.249999999998236
 30
0.0
 11
2073.67559418078
 21
6.249999999998236
 31
0.0
  0
LINE
  5
4B7
330
71
100
AcDbEntity
  8
0
100
AcDbLine
 10
2073.67559418078
 20
10.25000000000039
 30
0.0
 11
2067.175594180783
 21
10.25000000000039
 31
0.0
  0
LINE
  5
4B8
330
71
100
AcDbEntity
  8
0
100
AcDbLine
 10
2078.675594180781
 20
5.249999999998292
 30
0.0
 11
2080.42559418078
 21
5.249999999998292
 31
0.0
  0
LINE
  5
4B9
330
71
100
AcDbEntity
  8
0
100
AcDbLine
 10
2080.42559418078
 20
11.25000000000034
 30
0.0
 11
2078.675594180781
 21
11.25000000000034
 31
0.0
  0
LWPOLYLINE
  5
4BA
330
71
100
AcDbEntity
  8
0
100
AcDbPolyline
 90
       80
 70
   128
 43
0.0
 10
2080.42559418078
 20
11.50000000000028
 10
2080.42559418078
 20
11.49740034664847
 10
2080.42559418078
 20
11.48960554548392
 10
2080.42559418078
 20
11.47662806652533
 10
2080.42559418078
 20
11.45848867097112
 10
2080.42559418078
 20
11.4352163779842
 10
2080.42559418078
 20
11.40684841826924
 10
2080.42559418078
 20
11.37343017451036
 10
2080.42559418078
 20
11.335015108768
 10
2080.42559418078
 20
11.29166467695347
 10
2080.42559418078
 20
11.2434482305095
 10
2080.42559418078
 20
11.19044290546514
 10
2080.42559418078
 20
11.13273349903278
 10
2080.42559418078
 20
11.07041233395244
 10
2080.42559418078
 20
11.00357911079356
 10
2080.42559418078
 20
10.93234074845645
 10
2080.42559418078
 20
10.85681121312399
 10
2080.42559418078
 20
10.77711133594056
 10
2080.42559418078
 20
10.69336861970782
 10
2080.42559418078
 20
10.60571703490785
 10
2080.42559418078
 20
10.5142968053783
 10
2080.42559418078
 20
10.41925418398415
 10
2080.42559418078
 20
10.32074121864536
 10
2080.42559418078
 20
10.21891550909106
 10
2080.42559418078
 20
10.11393995473525
 10
2080.42559418078
 20
10.00598249407136
 10
2080.42559418078
 20
9.895215836006171
 10
2080.42559418078
 20
9.781817183564553
 10
2080.42559418078
 20
9.665967950399075
 10
2080.42559418078
 20
9.547853470570199
 10
2080.42559418078
 20
9.427662702048731
 10
2080.42559418078
 20
9.305587924425537
 10
2080.42559418078
 20
9.181824431303251
 10
2080.42559418078
 20
9.056570217869703
 10
2080.42559418078
 20
8.930025664146624
 10
2080.42559418078
 20
8.802393214425192
 10
2080.42559418078
 20
8.673877053398369
 10
2080.42559418078
 20
8.544682779508487
 10
2080.42559418078
 20
8.415017076033446
 10
2080.42559418078
 20
8.285087380438762
 10
2080.42559418078
 20
8.155101552519907
 10
2080.42559418078
 20
8.025267541873571
 10
2080.42559418078
 20
7.895793055219598
 10
2080.42559418078
 20
7.766885224117117
 10
2080.42559418078
 20
7.638750273597167
 10
2080.42559418078
 20
7.511593192246492
 10
2080.42559418078
 20
7.385617404269849
 10
2080.42559418078
 20
7.261024444054497
 10
2080.42559418078
 20
7.138013633758361
 10
2080.42559418078
 20
7.016781764437379
 10
2080.42559418078
 20
6.897522781220572
 10
2080.42559418078
 20
6.780427473040787
 10
2080.42559418078
 20
6.665683167412168
 10
2080.42559418078
 20
6.553473430745895
 10
2080.42559418078
 20
6.443977774684127
 10
2080.42559418078
 20
6.337371368918863
 10
2080.42559418078
 20
6.23382476095736
 10
2080.42559418078
 20
6.133503603284109
 10
2080.42559418078
 20
6.036568388350358
 10
2080.42559418078
 20
5.943174191821523
 10
2080.42559418078
 20
5.853470424489272
 10
2080.42559418078
 20
5.76760059324573
 10
2080.42559418078
 20
5.685702071502361
 10
2080.42559418078
 20
5.607905879423864
 10
2080.42559418078
 20
5.534336474321433
 10
2080.42559418078
 20
5.465111551549282
 10
2080.42559418078
 20
5.400341856216924
 10
2080.42559418078
 20
5.340131006019986
 10
2080.42559418078
 20
5.284575325474576
 10
2080.42559418078
 20
5.233763691817952
 10
2080.42559418078
 20
5.187777392825181
 10
2080.42559418078
 20
5.146689996764449
 10
2080.42559418078
 20
5.110567234704943
 10
2080.42559418078
 20
5.0794668953597
 10
2080.42559418078
 20
5.053438732637743
 10
2080.42559418078
 20
5.0325243860467
 10
2080.42559418078
 20
5.016757314079938
 10
2080.42559418078
 20
5.006162740689148
 10
2080.42559418078
 20
5.000757614931273
 10
2080.42559418078
 20
4.999999999998347
  0
LWPOLYLINE
  5
4BB
330
71
100
AcDbEntity
  8
0
100
AcDbPolyline
 90
       41
 70
   128
 43
0.0
 10
2080.42559418078
 20
11.50000000000028
 10
2080.426194100784
 20
11.52999200064027
 10
2080.427992901053
 20
11.55993602047715
 10
2080.43098770389
 20
11.58978415546703
 10
2080.435173718249
 20
11.61948865496094
 10
2080.4405442474
 20
11.64900199809665
 10
2080.447090699641
 20
11.67827696982061
 10
2080.454802602048
 20
11.70726673642332
 10
2080.463667617219
 20
11.73592492046242
 10
2080.473671563022
 20
11.76420567495654
 10
2080.484798435279
 20
11.79206375673169
 10
2080.497030433366
 20
11.81945459879978
 10
2080.510347988696
 20
11.84633438165644
 10
2080.524729796022
 20
11.87266010338299
 10
2080.54015284752
 20
11.89838964844085
 10
2080.556592469598
 20
11.92348185504653
 10
2080.574022362367
 20
11.94789658102206
 10
2080.592414641717
 20
11.97159476801414
 10
2080.611739883925
 20
11.99453850397895
 10
2080.631967172725
 20
12.01669108383316
 10
2080.65306414877
 20
12.03801706817495
 10
2080.674997061399
 20
12.05848233997835
 10
2080.697730822631
 20
12.07805415917454
 10
2080.721229063298
 20
12.09670121502745
 10
2080.745454191226
 20
12.11439367622603
 10
2080.770367451379
 20
12.1311032386061
 10
2080.795928987855
 20
12.1468031704328
 10
2080.82209790765
 20
12.16146835516394
 10
2080.848832346073
 20
12.17507533163274
 10
2080.876089533726
 20
12.18760233157911
 10
2080.903825864923
 20
12.19902931447575
 10
2080.931996967451
 20
12.20933799958743
 10
2080.960557773556
 20
12.21851189521715
 10
2080.989462592041
 20
12.226536325089
 10
2081.018665181362
 20
12.23339845182664
 10
2081.048118823605
 20
12.23908729749143
 10
2081.077776399227
 20
12.24359376114398
 10
2081.107590462432
 20
12.2469106334035
 10
2081.13751331708
 20
12.24903260798197
 10
2081.167497092987
 20
12.2499562901728
 10
2081.175594180781
 20
12.25000000000028
  0
LWPOLYLINE
  5
4BC
330
71
100
AcDbEntity
  8
0
100
AcDbPolyline
 90
       41
 70
   128
 43
0.0
 10
2081.175594180781
 20
4.249999999998347
 10
2081.145602180141
 20
4.250599920002456
 10
2081.115658160304
 20
4.252398720271343
 10
2081.085810025314
 20
4.255393523107783
 10
2081.056105525819
 20
4.259579537466433
 10
2081.026592182684
 20
4.264950066617131
 10
2080.99731721096
 20
4.271496518859293
 10
2080.968327444358
 20
4.279208421265138
 10
2080.939669260319
 20
4.28807343643649
 10
2080.911388505824
 20
4.298077382239736
 10
2080.883530424049
 20
4.30920425449625
 10
2080.856139581981
 20
4.321436252583223
 10
2080.829259799124
 20
4.334753807913783
 10
2080.802934077397
 20
4.349135615240014
 10
2080.77720453234
 20
4.364558666738218
 10
2080.752112325734
 20
4.380998288815816
 10
2080.727697599758
 20
4.398428181585017
 10
2080.703999412766
 20
4.416820460935183
 10
2080.681055676802
 20
4.436145703142527
 10
2080.658903096948
 20
4.456372991942427
 10
2080.637577112605
 20
4.477469967987813
 10
2080.617111840803
 20
4.499402880617195
 10
2080.597540021607
 20
4.522136641849328
 10
2080.578892965753
 20
4.545634882515627
 10
2080.561200504555
 20
4.569860010443731
 10
2080.544490942175
 20
4.594773270597213
 10
2080.528791010348
 20
4.620334807073558
 10
2080.514125825617
 20
4.646503726867818
 10
2080.500518849148
 20
4.673238165290737
 10
2080.487991849202
 20
4.700495352943502
 10
2080.476564866305
 20
4.728231684140608
 10
2080.466256181193
 20
4.756402786669183
 10
2080.457082285564
 20
4.78496359277426
 10
2080.449057855692
 20
4.813868411258794
 10
2080.442195728954
 20
4.843071000579754
 10
2080.436506883289
 20
4.872524642823122
 10
2080.432000419637
 20
4.902182218444749
 10
2080.428683547377
 20
4.931996281650014
 10
2080.426561572799
 20
4.961919136298035
 10
2080.425637890607
 20
4.991902912204579
 10
2080.42559418078
 20
4.999999999998347
  0
LWPOLYLINE
  5
4BD
330
71
100
AcDbEntity
  8
0
100
AcDbPolyline
 90
        4
 70
   128
 43
0.0
 10
2080.42559418078
 20
4.999999999998347
 10
2080.42559418078
 20
5.002599653349988
 10
2080.42559418078
 20
5.010394454514709
 10
2080.42559418078
 20
5.020558421801978
  0
LWPOLYLINE
  5
4BE
330
71
100
AcDbEntity
  8
0
100
AcDbPolyline
 90
        5
 70
   128
 43
0.0
 10
2080.42559418078
 20
11.47810537435737
 10
2080.42559418078
 20
11.48324268591835
 10
2080.42559418078
 20
11.49383725930948
 10
2080.42559418078
 20
11.49924238506719
 10
2080.42559418078
 20
11.50000000000028
  0
LINE
  5
4BF
330
71
100
AcDbEntity
  8
0
100
AcDbLine
 10
2081.175594180781
 20
4.249999999998347
 30
0.0
 11
2085.675594180781
 21
4.249999999998347
 31
0.0
  0
LINE
  5
4C0
330
71
100
AcDbEntity
  8
0
100
AcDbLine
 10
2085.675594180781
 20
12.25000000000028
 30
0.0
 11
2081.175594180781
 21
12.25000000000028
 31
0.0
  0
LWPOLYLINE
  5
4C1
330
71
100
AcDbEntity
  8
0
100
AcDbPolyline
 90
       80
 70
   128
 43
0.0
 10
2087.175594180781
 20
5.749999999998348
 10
2087.175594180781
 20
5.75199973334571
 10
2087.175594180781
 20
5.757995734241714
 10
2087.175594180781
 20
5.767978410363522
 10
2087.175594180781
 20
5.781931791559088
 10
2087.175594180781
 20
5.799833555395138
 10
2087.175594180781
 20
5.821655062868272
 10
2087.175594180781
 20
5.847361404221485
 10
2087.175594180781
 20
5.876911454792147
 10
2087.175594180781
 20
5.910257940803432
 10
2087.175594180781
 20
5.947347514991236
 10
2087.175594180781
 20
5.988120841948442
 10
2087.175594180781
 20
6.032512693050247
 10
2087.175594180781
 20
6.080452050804182
 10
2087.175594180781
 20
6.131862222464857
 10
2087.175594180781
 20
6.186660962724372
 10
2087.175594180781
 20
6.244760605287638
 10
2087.175594180781
 20
6.30606820312107
 10
2087.175594180781
 20
6.37048567714629
 10
2087.175594180781
 20
6.43790997314636
 10
2087.175594180781
 20
6.508233226630522
 10
2087.175594180781
 20
6.581342935395298
 10
2087.175594180781
 20
6.65712213950212
 10
2087.175594180781
 20
6.735449608389954
 10
2087.175594180781
 20
6.816200034817482
 10
2087.175594180781
 20
6.899244235328409
 10
2087.175594180781
 20
6.98444935691691
 10
2087.175594180781
 20
7.071679089564267
 10
2087.175594180781
 20
7.160793884307167
 10
2087.175594180781
 20
7.251651176483275
 10
2087.175594180781
 20
7.344105613807299
 10
2087.175594180781
 20
7.438009288902093
 10
2087.175594180781
 20
7.533211975919127
 10
2087.175594180781
 20
7.629561370868144
 10
2087.175594180781
 20
7.726903335270431
 10
2087.175594180781
 20
7.825082142748496
 10
2087.175594180781
 20
7.923940728153692
 10
2087.175594180781
 20
8.023320938838477
 10
2087.175594180781
 20
8.123063787665158
 10
2087.175594180781
 20
8.223009707353636
 10
2087.175594180781
 20
8.322998805752432
 10
2087.175594180781
 20
8.422871121634555
 10
2087.175594180781
 20
8.522466880599152
 10
2087.175594180781
 20
8.621626750677759
 10
2087.175594180781
 20
8.720192097231516
 10
2087.175594180781
 20
8.818005236732229
 10
2087.175594180781
 20
8.914909689021838
 10
2087.175594180781
 20
9.010750427649098
 10
2087.175594180781
 20
9.105374127876695
 10
2087.175594180781
 20
9.19862941196993
 10
2087.175594180781
 20
9.290367091367556
 10
2087.175594180781
 20
9.380440405352032
 10
2087.175594180781
 20
9.468705255835573
 10
2087.175594180781
 20
9.555020437886692
 10
2087.175594180781
 20
9.639247865626199
 10
2087.175594180781
 20
9.721252793138203
 10
2087.175594180781
 20
9.800904030031627
 10
2087.175594180781
 20
9.878074151318797
 10
2087.175594180781
 20
9.952639701267797
 10
2087.175594180781
 20
10.02448139090517
 10
2087.175594180781
 20
10.09348428885312
 10
2087.175594180781
 20
10.15953800519446
 10
2087.175594180781
 20
10.22253686807403
 10
2087.175594180781
 20
10.28238009274969
 10
2087.175594180781
 20
10.33897194282855
 10
2087.175594180781
 20
10.39222188342256
 10
2087.175594180781
 20
10.44204472598585
 10
2087.175594180781
 20
10.48836076459889
 10
2087.175594180781
 20
10.53109590348014
 10
2087.175594180781
 20
10.57018177552367
 10
2087.175594180781
 20
10.60555585167179
 10
2087.175594180781
 20
10.6371615409493
 10
2087.175594180781
 20
10.66494828099513
 10
2087.175594180781
 20
10.68887161895298
 10
2087.175594180781
 20
10.70889328258522
 10
2087.175594180781
 20
10.72498124150138
 10
2087.175594180781
 20
10.73710975839895
 10
2087.175594180781
 20
10.74525943023809
 10
2087.175594180781
 20
10.74941721928252
 10
2087.175594180781
 20
10.75000000000028
  0
LWPOLYLINE
  5
4C2
330
71
100
AcDbEntity
  8
0
100
AcDbPolyline
 90
       41
 70
   128
 43
0.0
 10
2085.675594180781
 20
12.25000000000028
 10
2085.735578182061
 20
12.24880015999173
 10
2085.795466221735
 20
12.24520255945412
 10
2085.855162491714
 20
12.23921295378107
 10
2085.914571490702
 20
12.23084092506377
 10
2085.973598176973
 20
12.22009986676204
 10
2086.032148120421
 20
12.20700696227839
 10
2086.090127653626
 20
12.19158315746637
 10
2086.147444021705
 20
12.17385312712383
 10
2086.204005530693
 20
12.15384523551716
 10
2086.259721694244
 20
12.13159149100448
 10
2086.31450337838
 20
12.10712749483036
 10
2086.368262944093
 20
12.08049238416924
 10
2086.420914387546
 20
12.05172876951678
 10
2086.472373477662
 20
12.02088266652038
 10
2086.522557890873
 20
11.98800342236467
 10
2086.571387342824
 20
11.95314363682678
 10
2086.618783716808
 20
11.91635907812661
 10
2086.664671188738
 20
11.87770859371158
 10
2086.708976348447
 20
11.83725401611161
 10
2086.751628317131
 20
11.79506006402101
 10
2086.792558860737
 20
11.75119423876208
 10
2086.831702499129
 20
11.70572671629815
 10
2086.868996610835
 20
11.65873023496539
 10
2086.904381533232
 20
11.61027997910883
 10
2086.937800657992
 20
11.56045345880255
 10
2086.969200521646
 20
11.50933038584935
 10
2086.998530891108
 20
11.456992546261
 10
2087.025744844045
 20
11.40352366941533
 10
2087.050798843938
 20
11.34900929410963
 10
2087.073652809731
 20
11.29353663171542
 10
2087.094270179955
 20
11.23719442665844
 10
2087.112617971214
 20
11.18007281444812
 10
2087.128666830958
 20
11.12226317747871
 10
2087.142391084433
 20
11.06385799883747
 10
2087.153768775763
 20
11.00495071435057
 10
2087.162781703068
 20
10.94563556310748
 10
2087.169415447587
 20
10.88600743669661
 10
2087.173659396744
 20
10.82616172740057
 10
2087.175506761126
 20
10.76619417558765
 10
2087.175594180781
 20
10.75000000000028
  0
LWPOLYLINE
  5
4C3
330
71
100
AcDbEntity
  8
0
100
AcDbPolyline
 90
       41
 70
   128
 43
0.0
 10
2087.175594180781
 20
5.749999999998348
 10
2087.174394340772
 20
5.690015998718194
 10
2087.170796740235
 20
5.630127959044612
 10
2087.164807134561
 20
5.57043168906483
 10
2087.156435105844
 20
5.511022690077026
 10
2087.145694047542
 20
5.451996003805787
 10
2087.132601143058
 20
5.393446060357688
 10
2087.117177338247
 20
5.335466527151933
 10
2087.099447307904
 20
5.278150159074072
 10
2087.079439416297
 20
5.221588650085663
 10
2087.057185671785
 20
5.165872486535362
 10
2087.032721675611
 20
5.111090802399186
 10
2087.006086564949
 20
5.057331236686023
 10
2086.977322950297
 20
5.004679793232582
 10
2086.9464768473
 20
4.953220703116866
 10
2086.913597603146
 20
4.903036289905683
 10
2086.878737817607
 20
4.854206837954788
 10
2086.841953258907
 20
4.806810463970462
 10
2086.803302774492
 20
4.760922992041002
 10
2086.762848196892
 20
4.716617832332416
 10
2086.720654244802
 20
4.673965863649013
 10
2086.676788419543
 20
4.633035320041869
 10
2086.631320897078
 20
4.593891681649835
 10
2086.584324415746
 20
4.556597569943673
 10
2086.535874159889
 20
4.521212647546688
 10
2086.486047639583
 20
4.487793522786375
 10
2086.43492456663
 20
4.456393659133308
 10
2086.382586727041
 20
4.427063289670853
 10
2086.329117850195
 20
4.399849336733438
 10
2086.27460347489
 20
4.37479533684069
 10
2086.219130812496
 20
4.351941371047415
 10
2086.162788607439
 20
4.331324000823881
 10
2086.105666995229
 20
4.312976209564451
 10
2086.047857358259
 20
4.296927349820745
 10
2085.989452179618
 20
4.283203096345116
 10
2085.930544895131
 20
4.271825405015531
 10
2085.871229743888
 20
4.26281247771061
 10
2085.811601617477
 20
4.256178733191743
 10
2085.751755908181
 20
4.25193478403497
 10
2085.691788356368
 20
4.25008741965331
 10
2085.675594180781
 20
4.249999999998347
  0
LWPOLYLINE
  5
4C4
330
71
100
AcDbEntity
  8
0
100
AcDbPolyline
 90
        5
 70
   128
 43
0.0
 10
2087.175594180781
 20
10.75000000000028
 10
2087.175594180781
 20
10.74800026665258
 10
2087.175594180781
 20
10.74200426575691
 10
2087.175594180781
 20
10.73202158963477
 10
2087.175594180781
 20
10.71806820843937
  0
LWPOLYLINE
  5
4C5
330
71
100
AcDbEntity
  8
0
100
AcDbPolyline
 90
        6
 70
   128
 43
0.0
 10
2087.175594180781
 20
5.780601476262574
 10
2087.175594180781
 20
5.775018758497082
 10
2087.175594180781
 20
5.762890241599506
 10
2087.175594180781
 20
5.754740569760539
 10
2087.175594180781
 20
5.750582780715771
 10
2087.175594180781
 20
5.749999999998348
  0
LWPOLYLINE
  5
4C6
330
71
100
AcDbEntity
  8
0
100
AcDbPolyline
 90
       48
 70
   128
 43
0.0
 10
2073.67559418078
 20
9.383890251732053
 10
2073.67559418078
 20
9.304745669519203
 10
2073.67559418078
 20
9.139264330035413
 10
2073.67559418078
 20
8.972360357323507
 10
2073.67559418078
 20
8.804300762134911
 10
2073.67559418078
 20
8.63535440397146
 10
2073.67559418078
 20
8.465791560966293
 10
2073.67559418078
 20
8.2958834974969
 10
2073.67559418078
 20
8.125902030219036
 10
2073.67559418078
 20
7.956119093220364
 10
2073.67559418078
 20
7.786806302981061
 10
2073.67559418078
 20
7.618234523847545
 10
2073.67559418078
 20
7.450673434706742
 10
2073.67559418078
 20
7.284391097556122
 10
2073.67559418078
 20
7.119653528663945
 10
2073.67559418078
 20
6.95672427299837
 10
2073.67559418078
 20
6.795863982611875
 10
2073.67559418078
 20
6.637329999653842
 10
2073.67559418078
 20
6.48137594467846
 10
2073.67559418078
 20
6.328251310905499
 10
2073.67559418078
 20
6.178201065083667
 10
2073.67559418078
 20
6.031465255597592
 10
2073.67559418078
 20
5.888278628440331
 10
2073.67559418078
 20
5.748870251670607
 10
2073.67559418078
 20
5.613463148952346
 10
2073.67559418078
 20
5.482273942764606
 10
2073.67559418078
 20
5.355512507851527
 10
2073.67559418078
 20
5.233381635468046
 10
2073.67559418078
 20
5.116076708957164
 10
2073.67559418078
 20
5.003785391177358
 10
2073.67559418078
 20
4.896687324282708
 10
2073.67559418078
 20
4.794953842333709
 10
2073.67559418078
 20
4.698747697200245
 10
2073.67559418078
 20
4.608222798190693
 10
2073.67559418078
 20
4.52352396583336
 10
2073.67559418078
 20
4.444786700191511
 10
2073.67559418078
 20
4.372136964093669
 10
2073.67559418078
 20
4.305690981619872
 10
2073.67559418078
 20
4.245555052167956
 10
2073.67559418078
 20
4.191825380396491
 10
2073.67559418078
 20
4.144587922318691
 10
2073.67559418078
 20
4.103918247790542
 10
2073.67559418078
 20
4.069881419615625
 10
2073.67559418078
 20
4.042531889458528
 10
2073.67559418078
 20
4.021913410732733
 10
2073.67559418078
 20
4.00805896860595
 10
2073.67559418078
 20
4.00099072723037
 10
2073.67559418078
 20
4.000000000010515
  0
LWPOLYLINE
  5
4C7
330
71
100
AcDbEntity
  8
0
100
AcDbPolyline
 90
       47
 70
   128
 43
0.0
 10
2078.675594180781
 20
4.000000000010515
 10
2078.675594180781
 20
4.003399546701301
 10
2078.675594180781
 20
4.013592748224253
 10
2078.675594180781
 20
4.030563297631428
 10
2078.675594180781
 20
4.054284045663903
 10
2078.675594180781
 20
4.084717044184968
 10
2078.675594180781
 20
4.121813606889076
 10
2078.675594180781
 20
4.165514387189146
 10
2078.675594180781
 20
4.215749473159461
 10
2078.675594180781
 20
4.272438499378607
 10
2078.675594180781
 20
4.335490775497361
 10
2078.675594180781
 20
4.404805431324461
 10
2078.675594180781
 20
4.480271578197172
 10
2078.675594180781
 20
4.561768486378978
 10
2078.675594180781
 20
4.649165778201619
 10
2078.675594180781
 20
4.742323636642367
 10
2078.675594180781
 20
4.841093028999861
 10
2078.675594180781
 20
4.945315945316563
 10
2078.675594180781
 20
5.054825651158806
 10
2078.675594180781
 20
5.169446954358533
 10
2078.675594180781
 20
5.288996485281641
 10
2078.675594180781
 20
5.413282990181127
 10
2078.675594180781
 20
5.542107637162471
 10
2078.675594180781
 20
5.67526433427133
 10
2078.675594180781
 20
5.812540059197771
 10
2078.675594180781
 20
5.9537152000658
 10
2078.675594180781
 20
6.098563906765604
 10
2078.675594180781
 20
6.246854452266233
 10
2078.675594180781
 20
6.398349603328084
 10
2078.675594180781
 20
6.5528070000272
 10
2078.675594180781
 20
6.709979543477456
 10
2078.675594180781
 20
6.869615791138127
 10
2078.675594180781
 20
7.031460359066612
 10
2078.675594180781
 20
7.195254330479427
 10
2078.675594180781
 20
7.360735669963047
 10
2078.675594180781
 20
7.527639642675124
 10
2078.675594180781
 20
7.695699237863718
 10
2078.675594180781
 20
7.864645596027002
 10
2078.675594180781
 20
8.034208439031996
 10
2078.675594180781
 20
8.204116502501731
 10
2078.675594180781
 20
8.374097969779425
 10
2078.675594180781
 20
8.543880906778268
 10
2078.675594180781
 20
8.713193697017571
 10
2078.675594180781
 20
8.881765476150743
 10
2078.675594180781
 20
9.04932656529189
 10
2078.675594180781
 20
9.215608902442507
 10
2078.675594180781
 20
9.380346471334343
  0
LINE
  5
4C8
330
71
100
AcDbEntity
  8
0
100
AcDbLine
 10
2078.675594180781
 20
12.49449930195055
 30
0.0
 11
2078.675594180781
 21
12.49900927276792
 31
0.0
  0
LWPOLYLINE
  5
4C9
330
71
100
AcDbEntity
  8
0
100
AcDbPolyline
 90
       80
 70
   128
 43
0.0
 10
2078.675594180781
 20
4.000000000010515
 10
2078.673594447433
 20
3.900026664543928
 10
2078.667598446537
 20
3.800213265087506
 10
2078.657615770415
 20
3.700719481788155
 10
2078.643662389219
 20
3.601704483474688
 10
2078.625760625383
 20
3.50332667302274
 10
2078.60393911791
 20
3.405743433942518
 10
2078.578232776557
 20
3.309110878600108
 10
2078.548682725987
 20
3.213583598470106
 10
2078.515336239975
 20
3.119314416822589
 10
2078.478246665788
 20
3.026454144238811
 10
2078.43747333883
 20
2.935151337345358
 10
2078.393081487729
 20
2.845552061156693
 10
2078.345142129974
 20
2.757799655401126
 10
2078.293731958314
 20
2.672034505208273
 10
2078.238933218055
 20
2.588393816522909
 10
2078.180833575491
 20
2.50701139660441
 10
2078.119525977657
 20
2.428017439964377
 10
2078.055108503633
 20
2.351538320081828
 10
2077.987684207633
 20
2.277696387233957
 10
2077.917360954148
 20
2.20660977276168
 10
2077.844251245384
 20
2.138392200083385
 10
2077.768472041277
 20
2.073152802763047
 10
2077.690144572389
 20
2.010995949919446
 10
2077.609394145961
 20
1.952021079257973
 10
2077.526349945451
 20
1.896322537990783
 10
2077.441144823862
 20
1.843989431902173
 10
2077.353915091215
 20
1.795105482798078
 10
2077.264800296472
 20
1.749748894569222
 10
2077.173943004296
 20
1.70799222808108
 10
2077.081488566972
 20
1.669902285092405
 10
2076.987584891877
 20
1.635540001386629
 10
2076.89238220486
 20
1.604960349287409
 10
2076.796032809911
 20
1.578212249714795
 10
2076.698690845509
 20
1.555338493922248
 10
2076.600512038031
 20
1.536375675039323
 10
2076.501653452627
 20
1.521354129531175
 10
2076.402273241941
 20
1.510297888666343
 10
2076.302530393114
 20
1.503224640071379
 10
2076.202584473426
 20
1.500145699435448
 10
2076.102595375027
 20
1.501065992406665
 10
2076.002723059145
 20
1.505984046712567
 10
2075.903127300181
 20
1.514891994515323
 10
2075.803967430102
 20
1.52777558499855
 10
2075.705402083548
 20
1.544614207166373
 10
2075.607588944048
 20
1.565380922814938
 10
2075.510684491758
 20
1.590042509629313
 10
2075.414843753131
 20
1.618559514331479
 10
2075.320220052903
 20
1.650886315797149
 10
2075.22696476881
 20
1.686971198039998
 10
2075.135227089413
 20
1.726756432946274
 10
2075.045153775428
 20
1.770178372627014
 10
2074.956888924945
 20
1.81716755124165
 10
2074.870573742893
 20
1.867648796128321
 10
2074.786346315154
 20
1.92154134806384
 10
2074.704341387642
 20
1.978758990461526
 10
2074.624690150749
 20
2.039210187299315
 10
2074.547520029462
 20
2.102798229558004
 10
2074.472954479512
 20
2.169421389934995
 10
2074.401112789875
 20
2.238973085585086
 10
2074.332109891928
 20
2.311342048632468
 10
2074.266056175586
 20
2.38641250417447
 10
2074.203057312706
 20
2.464064355496188
 10
2074.143214088031
 20
2.54417337620026
 10
2074.086622237952
 20
2.626611408942494
 10
2074.033372297359
 20
2.711246570456806
 10
2073.983549454794
 20
2.797943462538853
 10
2073.937233416182
 20
2.886563388655758
 10
2073.894498277301
 20
2.976964575830379
 10
2073.855412405257
 20
3.069002401447903
 10
2073.820038329109
 20
3.162529624620728
 10
2073.788432639831
 20
3.257396621743451
 10
2073.760645899785
 20
3.353451625857642
 10
2073.736722561828
 20
3.450540969447556
 10
2073.716700898195
 20
3.548509330274837
 10
2073.700612939279
 20
3.647199979860884
 10
2073.688484422382
 20
3.746455034219024
 10
2073.680334750543
 20
3.846115706435739
 10
2073.676176961498
 20
3.946022560695268
 10
2073.67559418078
 20
4.000000000010515
  0
LWPOLYLINE
  5
4CA
330
71
100
AcDbEntity
  8
0
100
AcDbPolyline
 90
        5
 70
   128
 43
0.0
 10
2073.67559418078
 20
4.000000000010515
 10
2073.67559418078
 20
4.003399546701301
 10
2073.67559418078
 20
4.013592748224253
 10
2073.67559418078
 20
4.030563297631428
 10
2073.67559418078
 20
4.037818277344737
  0
LINE
  5
4CB
330
71
100
AcDbEntity
  8
0
100
AcDbLine
 10
2073.67559418078
 20
12.49510659245601
 30
0.0
 11
2073.67559418078
 21
12.49900927276792
 31
0.0
  0
LWPOLYLINE
  5
4CC
330
71
100
AcDbEntity
  8
0
100
AcDbPolyline
 90
        5
 70
   128
 43
0.0
 10
2078.675594180781
 20
4.037799886274738
 10
2078.675594180781
 20
4.021913410732733
 10
2078.675594180781
 20
4.00805896860595
 10
2078.675594180781
 20
4.00099072723037
 10
2078.675594180781
 20
4.000000000010515
  0
LINE
  5
4CD
330
71
100
AcDbEntity
  8
0
100
AcDbLine
 10
2078.67559418078
 20
15.70000000000311
 30
0.0
 11
2078.67559418078
 21
28.25000000000006
 31
0.0
  0
LINE
  5
4CE
330
71
100
AcDbEntity
  8
0
100
AcDbLine
 10
2073.67559418078
 20
28.25000000000006
 30
0.0
 11
2073.67559418078
 21
15.70000000000311
 31
0.0
  0
LWPOLYLINE
  5
4CF
330
71
100
AcDbEntity
  8
0
100
AcDbPolyline
 90
       41
 70
   128
 43
0.0
 10
2078.67559418078
 20
28.25000000000006
 10
2078.67559418078
 20
28.40995733674663
 10
2078.67559418078
 20
28.5696587758768
 10
2078.67559418078
 20
28.72884882915576
 10
2078.67559418078
 20
28.88727282645703
 10
2078.67559418078
 20
29.04467732318022
 10
2078.67559418078
 20
29.20081050570854
 10
2078.67559418078
 20
29.35542259425654
 10
2078.67559418078
 20
29.50826624246457
 10
2078.67559418078
 20
29.6590969331005
 10
2078.67559418078
 20
29.80767336923458
 10
2078.67559418078
 20
29.95375786026403
 10
2078.67559418078
 20
30.09711670216603
 10
2078.67559418078
 20
30.23752055137504
 10
2078.67559418078
 20
30.37474479168361
 10
2078.67559418078
 20
30.50856989358015
 10
2078.67559418078
 20
30.63878176544955
 10
2078.67559418078
 20
30.76517209607391
 10
2078.67559418078
 20
30.88753868788592
 10
2078.67559418078
 20
31.0056857804422
 10
2078.67559418078
 20
31.11942436359806
 10
2078.67559418078
 20
31.2285724798835
 10
2078.67559418078
 20
31.33295551559604
 10
2078.67559418078
 20
31.43240648014546
 10
2078.67559418078
 20
31.52676627320408
 10
2078.67559418078
 20
31.61588393923177
 10
2078.67559418078
 20
31.69961690897344
 10
2078.67559418078
 20
31.77783122753982
 10
2078.67559418078
 20
31.85040176870609
 10
2078.67559418078
 20
31.91721243508715
 10
2078.67559418078
 20
31.97815634386893
 10
2078.67559418078
 20
32.03313599779824
 10
2078.67559418078
 20
32.08206344115688
 10
2078.67559418078
 20
32.1248604004732
 10
2078.67559418078
 20
32.16145840974138
 10
2078.67559418078
 20
32.19179891995389
 10
2078.67559418078
 20
32.21583339276679
 10
2078.67559418078
 20
32.23352337815066
 10
2078.67559418078
 20
32.2448405759024
 10
2078.67559418078
 20
32.24976688091981
 10
2078.67559418078
 20
32.25
  0
LWPOLYLINE
  5
4D0
330
71
100
AcDbEntity
  8
0
100
AcDbPolyline
 90
       41
 70
   128
 43
0.0
 10
2073.67559418078
 20
32.25
 10
2073.67559418078
 20
32.24680042664391
 10
2073.67559418078
 20
32.23720682521064
 10
2073.67559418078
 20
32.22123454341561
 10
2073.67559418078
 20
32.19890913350258
 10
2073.67559418078
 20
32.17026631136512
 10
2073.67559418078
 20
32.13535189940819
 10
2073.67559418078
 20
32.09422175324311
 10
2073.67559418078
 20
32.04694167232992
 10
2073.67559418078
 20
31.9935872947118
 10
2073.67559418078
 20
31.93424397601149
 10
2073.67559418078
 20
31.86900665287998
 10
2073.67559418078
 20
31.79797969111723
 10
2073.67559418078
 20
31.72127671871067
 10
2073.67559418078
 20
31.63902044405358
 10
2073.67559418078
 20
31.55134245963887
 10
2073.67559418078
 20
31.45838303153738
 10
2073.67559418078
 20
31.36029087500378
 10
2073.67559418078
 20
31.2572229165637
 10
2073.67559418078
 20
31.14934404296383
 10
2073.67559418078
 20
31.03682683738873
 10
2073.67559418078
 20
30.91985130336536
 10
2073.67559418078
 20
30.79860457679445
 10
2073.67559418078
 20
30.67328062657401
 10
2073.67559418078
 20
30.54407994428993
 10
2073.67559418078
 20
30.41120922347256
 10
2073.67559418078
 20
30.2748810289312
 10
2073.67559418078
 20
30.13531345669514
 10
2073.67559418078
 20
29.99272978510692
 10
2073.67559418078
 20
29.8473581176251
 10
2073.67559418078
 20
29.6994310179067
 10
2073.67559418078
 20
29.54918513775527
 10
2073.67559418078
 20
29.39686083852791
 10
2073.67559418078
 20
29.24270180660966
 10
2073.67559418078
 20
29.08695466356562
 10
2073.67559418078
 20
28.92986857160099
 10
2073.67559418078
 20
28.77169483495254
 10
2073.67559418078
 20
28.61268649785722
 10
2073.67559418078
 20
28.45309793973433
 10
2073.67559418078
 20
28.29318446823327
 10
2073.67559418078
 20
28.25000000000006
  0
LINE
  5
4D1
330
71
100
AcDbEntity
  8
0
100
AcDbLine
 10
2078.67525539064
 20
32.2330627516651
 30
0.0
 11
2078.673594447433
 21
32.15002666453358
 31
0.0
  0
LWPOLYLINE
  5
4D2
330
71
100
AcDbEntity
  8
0
100
AcDbPolyline
 90
       37
 70
   128
 43
0.0
 10
2078.67559418078
 20
36.24999999999994
 10
2078.67559418078
 20
36.09004266325336
 10
2078.67559418078
 20
35.93034122412336
 10
2078.67559418078
 20
35.7711511708444
 10
2078.67559418078
 20
35.61272717354297
 10
2078.67559418078
 20
35.45532267681994
 10
2078.67559418078
 20
35.29918949429145
 10
2078.67559418078
 20
35.14457740574363
 10
2078.67559418078
 20
34.99173375753577
 10
2078.67559418078
 20
34.84090306689984
 10
2078.67559418078
 20
34.69232663076541
 10
2078.67559418078
 20
34.54624213973613
 10
2078.67559418078
 20
34.4028832978343
 10
2078.67559418078
 20
34.26247944862512
 10
2078.67559418078
 20
34.12525520831656
 10
2078.67559418078
 20
33.99143010641984
 10
2078.67559418078
 20
33.86121823455044
 10
2078.67559418078
 20
33.73482790392607
 10
2078.67559418078
 20
33.61246131211407
 10
2078.67559418078
 20
33.49431421955797
 10
2078.67559418078
 20
33.38057563640194
 10
2078.67559418078
 20
33.2714275201165
 10
2078.67559418078
 20
33.16704448440412
 10
2078.67559418078
 20
33.06759351985454
 10
2078.67559418078
 20
32.97323372679591
 10
2078.67559418078
 20
32.8841160607684
 10
2078.67559418078
 20
32.80038309102656
 10
2078.67559418078
 20
32.72216877246017
 10
2078.67559418078
 20
32.6495982312939
 10
2078.67559418078
 20
32.58278756491301
 10
2078.67559418078
 20
32.52184365613106
 10
2078.67559418078
 20
32.46686400220192
 10
2078.67559418078
 20
32.4179365588431
 10
2078.67559418078
 20
32.37513959952713
 10
2078.67559418078
 20
32.33854159025895
 10
2078.67559418078
 20
32.30820108004611
 10
2078.67559418078
 20
32.28738597622407
  0
LWPOLYLINE
  5
4D3
330
71
100
AcDbEntity
  8
0
100
AcDbPolyline
 90
       41
 70
   128
 43
0.0
 10
2073.67559418078
 20
32.25
 10
2073.67559418078
 20
32.25319957335608
 10
2073.67559418078
 20
32.26279317478969
 10
2073.67559418078
 20
32.27876545658455
 10
2073.67559418078
 20
32.30109086649758
 10
2073.67559418078
 20
32.3297336886352
 10
2073.67559418078
 20
32.36464810059197
 10
2073.67559418078
 20
32.40577824675688
 10
2073.67559418078
 20
32.45305832767041
 10
2073.67559418078
 20
32.50641270528837
 10
2073.67559418078
 20
32.56575602398851
 10
2073.67559418078
 20
32.63099334712018
 10
2073.67559418078
 20
32.7020203088831
 10
2073.67559418078
 20
32.7787232812895
 10
2073.67559418078
 20
32.86097955594641
 10
2073.67559418078
 20
32.94865754036146
 10
2073.67559418078
 20
33.04161696846295
 10
2073.67559418078
 20
33.13970912499638
 10
2073.67559418078
 20
33.24277708343646
 10
2073.67559418078
 20
33.3506559570365
 10
2073.67559418078
 20
33.46317316261127
 10
2073.67559418078
 20
33.58014869663497
 10
2073.67559418078
 20
33.70139542320572
 10
2073.67559418078
 20
33.82671937342632
 10
2073.67559418078
 20
33.95592005571023
 10
2073.67559418078
 20
34.08879077652745
 10
2073.67559418078
 20
34.22511897106897
 10
2073.67559418078
 20
34.36468654330519
 10
2073.67559418078
 20
34.50727021489325
 10
2073.67559418078
 20
34.65264188237506
 10
2073.67559418078
 20
34.80056898209329
 10
2073.67559418078
 20
34.95081486224506
 10
2073.67559418078
 20
35.10313916147225
 10
2073.67559418078
 20
35.25729819339068
 10
2073.67559418078
 20
35.41304533643437
 10
2073.67559418078
 20
35.57013142839917
 10
2073.67559418078
 20
35.72830516504745
 10
2073.67559418078
 20
35.88731350214278
 10
2073.67559418078
 20
36.04690206026566
 10
2073.67559418078
 20
36.20681553176706
 10
2073.67559418078
 20
36.24999999999994
  0
LINE
  5
4D4
330
71
100
AcDbEntity
  8
0
100
AcDbLine
 10
2078.67559418078
 20
36.24999999999994
 30
0.0
 11
2078.67559418078
 21
133.1250000000005
 31
0.0
  0
LINE
  5
4D5
330
71
100
AcDbEntity
  8
0
100
AcDbLine
 10
2073.67559418078
 20
133.1250000000005
 30
0.0
 11
2073.67559418078
 21
68.37500000000021
 31
0.0
  0
LINE
  5
4D6
330
71
100
AcDbEntity
  8
0
100
AcDbLine
 10
2073.67559418078
 20
64.37500000000027
 30
0.0
 11
2073.67559418078
 21
36.24999999999994
 31
0.0
  0
LINE
  5
4DB
330
71
100
AcDbEntity
  8
0
100
AcDbLine
 10
2078.67559418078
 20
8.249999999999657
 30
0.0
 11
2078.67559418078
 21
15.6999999999997
 31
0.0
  0
LINE
  5
4DC
330
71
100
AcDbEntity
  8
0
100
AcDbLine
 10
2073.67559418078
 20
15.6999999999997
 30
0.0
 11
2073.67559418078
 21
8.249999999999657
 31
0.0
  0
LINE
  5
4EB
330
71
100
AcDbEntity
  8
0
100
AcDbLine
 10
1923.425594180762
 20
195.7499999999976
 30
0.0
 11
2067.175594180763
 21
195.7499999999976
 31
0.0
  0
LINE
  5
4EC
330
71
100
AcDbEntity
  8
0
100
AcDbLine
 10
2067.175594180763
 20
154.9950353879072
 30
0.0
 11
1923.425594180762
 21
154.9950353879072
 31
0.0
  0
LINE
  5
4ED
330
71
100
AcDbEntity
  8
0
100
AcDbLine
 10
2067.175594180763
 20
195.7499999999976
 30
0.0
 11
2067.175594180763
 21
154.9950353879072
 31
0.0
  0
LINE
  5
4EE
330
71
100
AcDbEntity
  8
0
100
AcDbLine
 10
1923.425594180762
 20
154.9950353879072
 30
0.0
 11
1923.425594180762
 21
195.7499999999976
 31
0.0
  0
LWPOLYLINE
  5
4EF
330
71
100
AcDbEntity
  8
0
100
AcDbPolyline
 90
       41
 70
   128
 43
0.0
 10
1945.550594180781
 20
195.7500000000001
 10
1945.67056218334
 20
195.7523996800172
 10
1945.790338262688
 20
195.7595948810923
 10
1945.909730802647
 20
195.7715740924387
 10
1946.028548800623
 20
195.7883181498733
 10
1946.146602173166
 20
195.8098002664764
 10
1946.263702060062
 20
195.8359860754441
 10
1946.379661126473
 20
195.866833685068
 10
1946.494293862629
 20
195.9022937457528
 10
1946.607416880606
 20
195.9423095289665
 10
1946.718849207706
 20
195.9868170179916
 10
1946.828412575978
 20
196.0357450103405
 10
1946.935931707405
 20
196.0890152316624
 10
1947.041234594312
 20
196.1465424609673
 10
1947.144152774543
 20
196.2082346669599
 10
1947.244521600966
 20
196.2739931552712
 10
1947.342180504868
 20
196.3437127263473
 10
1947.436973252836
 20
196.4172818437474
 10
1947.528748196695
 20
196.4945828125775
 10
1947.617358516112
 20
196.5754919677776
 10
1947.702662453479
 20
196.6598798719588
 10
1947.784523540693
 20
196.7476115224764
 10
1947.862810817477
 20
196.8385465674045
 10
1947.937399040889
 20
196.9325395300699
 10
1948.008168885683
 20
197.0294400417828
 10
1948.075007135203
 20
197.1290930823959
 10
1948.13780686251
 20
197.2313392283018
 10
1948.196467601435
 20
197.336014907479
 10
1948.25089550731
 20
197.4429526611702
 10
1948.301003507095
 20
197.5519814117814
 10
1948.346711438682
 20
197.6629267365703
 10
1948.387946179129
 20
197.775611146684
 10
1948.424641761648
 20
197.8898543711044
 10
1948.456739481135
 20
198.0054736450431
 10
1948.484187988086
 20
198.1222840023261
 10
1948.506943370746
 20
198.2400985712996
 10
1948.524969225356
 20
198.3587288737859
 10
1948.538236714393
 20
198.4779851266073
 10
1948.546724612707
 20
198.5976765451995
 10
1948.55041934147
 20
198.7176116488255
 10
1948.55059418078
 20
198.7500000000003
  0
LWPOLYLINE
  5
4F0
330
71
100
AcDbEntity
  8
0
100
AcDbPolyline
 90
       41
 70
   128
 43
0.0
 10
2042.05059418078
 20
198.7500000000003
 10
2042.052993860798
 20
198.6300319974403
 10
2042.060189061873
 20
198.5102559180928
 10
2042.072168273219
 20
198.3908633781336
 10
2042.088912330654
 20
198.2720453801575
 10
2042.110394447257
 20
198.153992007615
 10
2042.136580256224
 20
198.0368921207188
 10
2042.167427865848
 20
197.9209330543078
 10
2042.202887926533
 20
197.8063003181521
 10
2042.242903709746
 20
197.6931773001751
 10
2042.287411198772
 20
197.5817449730743
 10
2042.336339191121
 20
197.4721816048023
 10
2042.389609412443
 20
197.3646624733758
 10
2042.447136641747
 20
197.2593595864691
 10
2042.50882884774
 20
197.1564414062377
 10
2042.574587336051
 20
197.0560725798151
 10
2042.644306907128
 20
196.958413675913
 10
2042.717876024528
 20
196.8636209279449
 10
2042.795176993358
 20
196.7718459840859
 10
2042.876086148558
 20
196.6832356646687
 10
2042.960474052739
 20
196.5979317273018
 10
2043.048205703256
 20
196.5160706400877
 10
2043.139140748185
 20
196.4377833633034
 10
2043.23313371085
 20
196.3631951398911
 10
2043.330034222563
 20
196.2924252950971
 10
2043.429687263176
 20
196.2255870455765
 10
2043.531933409082
 20
196.1627873182704
 10
2043.63660908826
 20
196.1041265793455
 10
2043.74354684195
 20
196.0496986734708
 10
2043.852575592562
 20
195.999590673685
 10
2043.963520917351
 20
195.9538827420986
 10
2044.076205327464
 20
195.9126480016515
 10
2044.190448551884
 20
195.8759524191327
 10
2044.306067825823
 20
195.8438546996454
 10
2044.422878183107
 20
195.8164061926942
 10
2044.54069275208
 20
195.7936508100348
 10
2044.659323054566
 20
195.7756249554251
 10
2044.778579307387
 20
195.7623574663873
 10
2044.89827072598
 20
195.7538695680735
 10
2045.018205829606
 20
195.7501748393104
 10
2045.05059418078
 20
195.7500000000001
  0
LINE
  5
4F1
330
71
100
AcDbEntity
  8
0
100
AcDbLine
 10
2042.05059418078
 20
198.7500000000001
 30
0.0
 11
2042.05059418078
 21
208.3750000000002
 31
0.0
  0
LINE
  5
4F2
330
71
100
AcDbEntity
  8
0
100
AcDbLine
 10
1948.55059418078
 20
208.3750000000002
 30
0.0
 11
1948.55059418078
 21
198.7500000000001
 31
0.0
  0
LINE
  5
4F3
330
71
100
AcDbEntity
  8
0
100
AcDbLine
 10
2043.55059418078
 20
208.3750000000002
 30
0.0
 11
2043.55059418078
 21
208.6250000000002
 31
0.0
  0
LINE
  5
4F4
330
71
100
AcDbEntity
  8
0
100
AcDbLine
 10
1947.05059418078
 20
208.6250000000002
 30
0.0
 11
1947.05059418078
 21
208.3750000000002
 31
0.0
  0
LINE
  5
4F5
330
71
100
AcDbEntity
  8
0
100
AcDbLine
 10
2043.55059418078
 20
208.6250000000002
 30
0.0
 11
1998.30059418078
 21
215.3750000000002
 31
0.0
  0
LINE
  5
4F6
330
71
100
AcDbEntity
  8
0
100
AcDbLine
 10
1992.30059418078
 20
215.3750000000002
 30
0.0
 11
1947.05059418078
 21
208.6250000000002
 31
0.0
  0
LINE
  5
4F7
330
71
100
AcDbEntity
  8
0
100
AcDbLine
 10
2043.55059418078
 20
208.375
 30
0.0
 11
1947.05059418078
 21
208.375
 31
0.0
  0
LINE
  5
4F8
330
71
100
AcDbEntity
  8
0
100
AcDbLine
 10
2043.55059418078
 20
208.625
 30
0.0
 11
1947.05059418078
 21
208.625
 31
0.0
  0
LINE
  5
4F9
330
71
100
AcDbEntity
  8
0
100
AcDbLine
 10
1998.300594180781
 20
215.3749999999999
 30
0.0
 11
1992.30059418078
 21
215.3749999999999
 31
0.0
  0
LINE
  5
4FA
330
71
100
AcDbEntity
  8
0
100
AcDbLine
 10
1923.42559418078
 20
154.75
 30
0.0
 11
2067.17559418078
 21
154.75
 31
0.0
  0
LINE
  5
4FB
330
71
100
AcDbEntity
  8
0
100
AcDbLine
 10
2067.17559418078
 20
52.37499999999998
 30
0.0
 11
1923.42559418078
 21
52.37499999999998
 31
0.0
  0
LINE
  5
4FC
330
71
100
AcDbEntity
  8
0
100
AcDbLine
 10
1923.42559418078
 20
52.37499999999998
 30
0.0
 11
1923.42559418078
 21
154.75
 31
0.0
  0
LINE
  5
4FD
330
71
100
AcDbEntity
  8
0
100
AcDbLine
 10
2006.61309418078
 20
132.1250000000029
 30
0.0
 11
2041.11309418078
 21
132.1250000000029
 31
0.0
  0
LINE
  5
4FE
330
71
100
AcDbEntity
  8
0
100
AcDbLine
 10
2041.11309418078
 20
132.1250000000029
 30
0.0
 11
2041.11309418078
 21
73.1250000000025
 31
0.0
  0
LINE
  5
4FF
330
71
100
AcDbEntity
  8
0
100
AcDbLine
 10
2041.11309418078
 20
73.12500000000252
 30
0.0
 11
2006.61309418078
 21
73.12500000000252
 31
0.0
  0
LINE
  5
500
330
71
100
AcDbEntity
  8
0
100
AcDbLine
 10
2006.61309418078
 20
73.12500000000252
 30
0.0
 11
2006.61309418078
 21
132.1250000000029
 31
0.0
  0
LINE
  5
501
330
71
100
AcDbEntity
  8
0
100
AcDbLine
 10
1949.48809418078
 20
73.12500000000252
 30
0.0
 11
1949.48809418078
 21
132.1250000000029
 31
0.0
  0
LINE
  5
502
330
71
100
AcDbEntity
  8
0
100
AcDbLine
 10
1949.48809418078
 20
132.1250000000029
 30
0.0
 11
1983.98809418078
 21
132.1250000000029
 31
0.0
  0
LINE
  5
503
330
71
100
AcDbEntity
  8
0
100
AcDbLine
 10
1983.98809418078
 20
132.1250000000029
 30
0.0
 11
1983.98809418078
 21
73.12500000000252
 31
0.0
  0
LINE
  5
504
330
71
100
AcDbEntity
  8
0
100
AcDbLine
 10
1983.98809418078
 20
73.12500000000252
 30
0.0
 11
1949.48809418078
 21
73.12500000000252
 31
0.0
  0
LINE
  5
505
330
71
100
AcDbEntity
  8
0
100
AcDbLine
 10
2067.17559418078
 20
52.37499999999998
 30
0.0
 11
2067.17559418078
 21
154.75
 31
0.0
  0
LINE
  5
509
330
71
100
AcDbEntity
  8
0
100
AcDbLine
 10
1923.425594180782
 20
52.37499999999998
 30
0.0
 11
2067.175594180783
 21
52.37499999999998
 31
0.0
  0
LINE
  5
50A
330
71
100
AcDbEntity
  8
0
100
AcDbLine
 10
2067.175594180783
 20
0.0
 30
0.0
 11
1923.425594180782
 21
0.0
 31
0.0
  0
LINE
  5
50B
330
71
100
AcDbEntity
  8
0
100
AcDbLine
 10
2067.175594180783
 20
52.37499999999998
 30
0.0
 11
2067.175594180783
 21
46.49999999999963
 31
0.0
  0
LINE
  5
50C
330
71
100
AcDbEntity
  8
0
100
AcDbLine
 10
2067.175594180783
 20
16.49999999999964
 30
0.0
 11
2067.175594180783
 21
0.0
 31
0.0
  0
LINE
  5
50D
330
71
100
AcDbEntity
  8
0
100
AcDbLine
 10
1923.425594180782
 20
46.50000000000011
 30
0.0
 11
1923.425594180782
 21
52.37499999999998
 31
0.0
  0
LINE
  5
50E
330
71
100
AcDbEntity
  8
0
100
AcDbLine
 10
1923.425594180782
 20
46.50000000000011
 30
0.0
 11
2067.175594180783
 21
46.49999999999963
 31
0.0
  0
LINE
  5
50F
330
71
100
AcDbEntity
  8
0
100
AcDbLine
 10
2067.175594180783
 20
16.49999999999964
 30
0.0
 11
1923.425594180782
 21
16.50000000000011
 31
0.0
  0
LINE
  5
510
330
71
100
AcDbEntity
  8
0
100
AcDbLine
 10
1923.425594180782
 20
0.0
 30
0.0
 11
1923.425594180782
 21
16.5000000000001
 31
0.0
  0
LINE
  5
511
330
71
100
AcDbEntity
  8
0
100
AcDbLine
 10
2066.175594180782
 20
46.49999999999963
 30
0.0
 11
2066.175594180782
 21
16.49999999999965
 31
0.0
  0
LINE
  5
512
330
71
100
AcDbEntity
  8
0
100
AcDbLine
 10
2064.800594180782
 20
46.49999999999963
 30
0.0
 11
2064.800594180782
 21
16.49999999999965
 31
0.0
  0
LINE
  5
513
330
71
100
AcDbEntity
  8
0
100
AcDbLine
 10
2061.425594180782
 20
46.49999999999964
 30
0.0
 11
2061.425594180782
 21
16.49999999999966
 31
0.0
  0
LINE
  5
515
330
71
100
AcDbEntity
  8
0
100
AcDbLine
 10
1997.050594180783
 20
46.49999999999987
 30
0.0
 11
1997.050594180783
 21
16.49999999999986
 31
0.0
  0
LINE
  5
517
330
71
100
AcDbEntity
  8
0
100
AcDbLine
 10
1993.550594180783
 20
16.49999999999987
 30
0.0
 11
1993.550594180783
 21
46.49999999999989
 31
0.0
  0
LINE
  5
51A
330
71
100
AcDbEntity
  8
0
100
AcDbLine
 10
1929.175594180781
 20
46.50000000000011
 30
0.0
 11
1929.175594180781
 21
16.50000000000009
 31
0.0
  0
LINE
  5
51B
330
71
100
AcDbEntity
  8
0
100
AcDbLine
 10
1925.800594180783
 20
46.50000000000011
 30
0.0
 11
1925.800594180782
 21
16.5000000000001
 31
0.0
  0
LINE
  5
51C
330
71
100
AcDbEntity
  8
0
100
AcDbLine
 10
1924.425594180782
 20
46.50000000000011
 30
0.0
 11
1924.425594180782
 21
16.5000000000001
 31
0.0
  0
ARC
  5
51D
330
71
100
AcDbEntity
  8
0
100
AcDbCircle
 10
2043.175594180779
 20
175.2500000000013
 30
0.0
 40
8.249999999999996
100
AcDbArc
 50
179.9999999999996
 51
359.9999999999988
  0
ARC
  5
51E
330
71
100
AcDbEntity
  8
0
100
AcDbCircle
 10
2043.175594180779
 20
175.2500000000013
 30
0.0
 40
8.250000000000017
100
AcDbArc
 50
359.9999999999996
 51
179.9999999999995
  0
ARC
  5
51F
330
71
100
AcDbEntity
  8
0
100
AcDbCircle
 10
2043.175594180779
 20
175.2500000000013
 30
0.0
 40
7.687499999999986
100
AcDbArc
 50
0.0000000000007188
 51
180.0000000000001
  0
ARC
  5
520
330
71
100
AcDbEntity
  8
0
100
AcDbCircle
 10
2043.175594180779
 20
175.2500000000013
 30
0.0
 40
7.687500000000021
100
AcDbArc
 50
180.0
 51
0.0
  0
LINE
  5
521
330
71
100
AcDbEntity
  8
0
100
AcDbLine
 10
2048.298094954768
 20
172.8081441512039
 30
0.0
 11
2048.103154478576
 21
172.3592354210452
 31
0.0
  0
LINE
  5
522
330
71
100
AcDbEntity
  8
0
100
AcDbLine
 10
2048.103154478576
 20
172.3592354210452
 30
0.0
 11
2047.652261621434
 21
172.2019933575531
 31
0.0
  0
LINE
  5
523
330
71
100
AcDbEntity
  8
0
100
AcDbLine
 10
2047.652261621434
 20
172.2019933575531
 30
0.0
 11
2047.327732851593
 21
172.2662294686641
 31
0.0
  0
LINE
  5
524
330
71
100
AcDbEntity
  8
0
100
AcDbLine
 10
2047.327732851593
 20
172.2662294686641
 30
0.0
 11
2047.092241780164
 21
172.4589378019975
 31
0.0
  0
LINE
  5
525
330
71
100
AcDbEntity
  8
0
100
AcDbLine
 10
2047.092241780164
 20
172.4589378019975
 30
0.0
 11
2046.901269557942
 21
173.216874309934
 31
0.0
  0
LINE
  5
526
330
71
100
AcDbEntity
  8
0
100
AcDbLine
 10
2046.901269557942
 20
173.216874309934
 30
0.0
 11
2047.08529733572
 21
173.9807631988229
 31
0.0
  0
LINE
  5
527
330
71
100
AcDbEntity
  8
0
100
AcDbLine
 10
2047.08529733572
 20
173.9807631988229
 30
0.0
 11
2047.315084042069
 21
174.1704953416801
 31
0.0
  0
LINE
  5
528
330
71
100
AcDbEntity
  8
0
100
AcDbLine
 10
2047.315084042069
 20
174.1704953416801
 30
0.0
 11
2047.636388605561
 21
174.233739389299
 31
0.0
  0
LINE
  5
529
330
71
100
AcDbEntity
  8
0
100
AcDbLine
 10
2047.636388605561
 20
174.233739389299
 30
0.0
 11
2048.104642573815
 21
174.090386214696
 31
0.0
  0
LINE
  5
52A
330
71
100
AcDbEntity
  8
0
100
AcDbLine
 10
2048.104642573815
 20
174.090386214696
 30
0.0
 11
2048.298094954768
 21
173.6652870083468
 31
0.0
  0
LINE
  5
52B
330
71
100
AcDbEntity
  8
0
100
AcDbLine
 10
2048.298094954768
 20
173.6652870083468
 30
0.0
 11
2049.440952097624
 21
173.6652870083466
 31
0.0
  0
LINE
  5
52C
330
71
100
AcDbEntity
  8
0
100
AcDbLine
 10
2049.440952097624
 20
173.6652870083466
 30
0.0
 11
2049.280733843656
 21
174.3129804607277
 31
0.0
  0
LINE
  5
52D
330
71
100
AcDbEntity
  8
0
100
AcDbLine
 10
2049.280733843656
 20
174.3129804607277
 30
0.0
 11
2048.913174319846
 21
174.7917751035849
 31
0.0
  0
LINE
  5
52E
330
71
100
AcDbEntity
  8
0
100
AcDbLine
 10
2048.913174319846
 20
174.7917751035849
 30
0.0
 11
2048.354146542068
 21
175.0875340321563
 31
0.0
  0
LINE
  5
52F
330
71
100
AcDbEntity
  8
0
100
AcDbLine
 10
2048.354146542068
 20
175.0875340321563
 30
0.0
 11
2047.619523526196
 21
175.1861203416801
 31
0.0
  0
LINE
  5
530
330
71
100
AcDbEntity
  8
0
100
AcDbLine
 10
2047.619523526196
 20
175.1861203416801
 30
0.0
 11
2046.821532454767
 21
175.0541758972356
 31
0.0
  0
LINE
  5
531
330
71
100
AcDbEntity
  8
0
100
AcDbLine
 10
2046.821532454767
 20
175.0541758972356
 30
0.0
 11
2046.211289399212
 21
174.6583425639023
 31
0.0
  0
LINE
  5
532
330
71
100
AcDbEntity
  8
0
100
AcDbLine
 10
2046.211289399212
 20
174.6583425639023
 30
0.0
 11
2045.824012613497
 21
174.0343346273944
 31
0.0
  0
LINE
  5
533
330
71
100
AcDbEntity
  8
0
100
AcDbLine
 10
2045.824012613497
 20
174.0343346273944
 30
0.0
 11
2045.694920351593
 21
173.2178663734261
 31
0.0
  0
LINE
  5
534
330
71
100
AcDbEntity
  8
0
100
AcDbLine
 10
2045.694920351593
 20
173.2178663734261
 30
0.0
 11
2045.82463265318
 21
172.3995380004102
 31
0.0
  0
LINE
  5
535
330
71
100
AcDbEntity
  8
0
100
AcDbLine
 10
2045.82463265318
 20
172.3995380004102
 30
0.0
 11
2046.213769557942
 21
171.7759020877118
 31
0.0
  0
LINE
  5
536
330
71
100
AcDbEntity
  8
0
100
AcDbLine
 10
2046.213769557942
 20
171.7759020877118
 30
0.0
 11
2046.829096938894
 21
171.3811848258071
 31
0.0
  0
LINE
  5
537
330
71
100
AcDbEntity
  8
0
100
AcDbLine
 10
2046.829096938894
 20
171.3811848258071
 30
0.0
 11
2047.637380669053
 21
171.2496124051721
 31
0.0
  0
LINE
  5
538
330
71
100
AcDbEntity
  8
0
100
AcDbLine
 10
2047.637380669053
 20
171.2496124051721
 30
0.0
 11
2048.360470946831
 21
171.3517949448547
 31
0.0
  0
LINE
  5
539
330
71
100
AcDbEntity
  8
0
100
AcDbLine
 10
2048.360470946831
 20
171.3517949448547
 30
0.0
 11
2048.916646542068
 21
171.6583425639023
 31
0.0
  0
LINE
  5
53A
330
71
100
AcDbEntity
  8
0
100
AcDbLine
 10
2048.916646542068
 20
171.6583425639023
 30
0.0
 11
2049.284082057942
 21
172.1501580400928
 31
0.0
  0
LINE
  5
53B
330
71
100
AcDbEntity
  8
0
100
AcDbLine
 10
2049.284082057942
 20
172.1501580400928
 30
0.0
 11
2049.440952097624
 21
172.8081441512039
 31
0.0
  0
LINE
  5
53C
330
71
100
AcDbEntity
  8
0
100
AcDbLine
 10
2049.440952097624
 20
172.8081441512039
 30
0.0
 11
2048.298094954768
 21
172.8081441512039
 31
0.0
  0
LINE
  5
53D
330
71
100
AcDbEntity
  8
0
100
AcDbLine
 10
2041.076367577
 20
173.5822183401271
 30
0.0
 11
2042.253946942079
 21
173.5822183401271
 31
0.0
  0
LINE
  5
53E
330
71
100
AcDbEntity
  8
0
100
AcDbLine
 10
2042.253946942079
 20
173.5822183401271
 30
0.0
 11
2042.400772338904
 21
174.0901548480636
 31
0.0
  0
LINE
  5
53F
330
71
100
AcDbEntity
  8
0
100
AcDbLine
 10
2042.400772338904
 20
174.0901548480636
 30
0.0
 11
2043.604145354777
 21
174.0901548480636
 31
0.0
  0
LINE
  5
540
330
71
100
AcDbEntity
  8
0
100
AcDbLine
 10
2043.604145354777
 20
174.0901548480636
 30
0.0
 11
2043.746010434142
 21
173.5822183401271
 31
0.0
  0
LINE
  5
541
330
71
100
AcDbEntity
  8
0
100
AcDbLine
 10
2043.746010434142
 20
173.5822183401271
 30
0.0
 11
2044.949383450015
 21
173.5822183401271
 31
0.0
  0
LINE
  5
542
330
71
100
AcDbEntity
  8
0
100
AcDbLine
 10
2044.949383450015
 20
173.5822183401271
 30
0.0
 11
2043.62001837065
 21
177.3917421496509
 31
0.0
  0
LINE
  5
543
330
71
100
AcDbEntity
  8
0
100
AcDbLine
 10
2043.62001837065
 20
177.3917421496509
 30
0.0
 11
2042.390851703984
 21
177.3917421496509
 31
0.0
  0
LINE
  5
544
330
71
100
AcDbEntity
  8
0
100
AcDbLine
 10
2042.390851703984
 20
177.3917421496509
 30
0.0
 11
2041.076367577
 21
173.5822183401271
 31
0.0
  0
LINE
  5
545
330
71
100
AcDbEntity
  8
0
100
AcDbLine
 10
2042.621010434142
 20
174.9155516734604
 30
0.0
 11
2043.006923132555
 21
176.2191231020319
 31
0.0
  0
LINE
  5
546
330
71
100
AcDbEntity
  8
0
100
AcDbLine
 10
2043.006923132555
 20
176.2191231020319
 30
0.0
 11
2043.383907259539
 21
174.9155516734604
 31
0.0
  0
LINE
  5
547
330
71
100
AcDbEntity
  8
0
100
AcDbLine
 10
2043.383907259539
 20
174.9155516734604
 30
0.0
 11
2042.621010434142
 21
174.9155516734604
 31
0.0
  0
LINE
  5
548
330
71
100
AcDbEntity
  8
0
100
AcDbLine
 10
2037.315636386738
 20
175.3226066493074
 30
0.0
 11
2039.015041148643
 21
175.3226066493074
 31
0.0
  0
LINE
  5
549
330
71
100
AcDbEntity
  8
0
100
AcDbLine
 10
2039.015041148643
 20
175.3226066493074
 30
0.0
 11
2039.7828982915
 21
175.3612971254978
 31
0.0
  0
LINE
  5
54A
330
71
100
AcDbEntity
  8
0
100
AcDbLine
 10
2039.7828982915
 20
175.3612971254978
 30
0.0
 11
2040.195596704199
 21
175.4932415699423
 31
0.0
  0
LINE
  5
54B
330
71
100
AcDbEntity
  8
0
100
AcDbLine
 10
2040.195596704199
 20
175.4932415699423
 30
0.0
 11
2040.603830831182
 21
175.8761780778788
 31
0.0
  0
LINE
  5
54C
330
71
100
AcDbEntity
  8
0
100
AcDbLine
 10
2040.603830831182
 20
175.8761780778788
 30
0.0
 11
2040.744207815309
 21
176.4634796651804
 31
0.0
  0
LINE
  5
54D
330
71
100
AcDbEntity
  8
0
100
AcDbLine
 10
2040.744207815309
 20
176.4634796651804
 30
0.0
 11
2040.60035860896
 21
177.0264756969264
 31
0.0
  0
LINE
  5
54E
330
71
100
AcDbEntity
  8
0
100
AcDbLine
 10
2040.60035860896
 20
177.0264756969264
 30
0.0
 11
2040.156906228008
 21
177.3513764905772
 31
0.0
  0
LINE
  5
54F
330
71
100
AcDbEntity
  8
0
100
AcDbLine
 10
2040.156906228008
 20
177.3513764905772
 30
0.0
 11
2040.502144323246
 21
177.6688368080375
 31
0.0
  0
LINE
  5
550
330
71
100
AcDbEntity
  8
0
100
AcDbLine
 10
2040.502144323246
 20
177.6688368080375
 30
0.0
 11
2040.617223688325
 21
178.1212177604185
 31
0.0
  0
LINE
  5
551
330
71
100
AcDbEntity
  8
0
100
AcDbLine
 10
2040.617223688325
 20
178.1212177604185
 30
0.0
 11
2040.463453847056
 21
178.6812376016883
 31
0.0
  0
LINE
  5
552
330
71
100
AcDbEntity
  8
0
100
AcDbLine
 10
2040.463453847056
 20
178.6812376016883
 30
0.0
 11
2040.020993529595
 21
179.0210193477201
 31
0.0
  0
LINE
  5
553
330
71
100
AcDbEntity
  8
0
100
AcDbLine
 10
2040.020993529595
 20
179.0210193477201
 30
0.0
 11
2039.625656228008
 21
179.1063368080375
 31
0.0
  0
LINE
  5
554
330
71
100
AcDbEntity
  8
0
100
AcDbLine
 10
2039.625656228008
 20
179.1063368080375
 30
0.0
 11
2038.892025275627
 21
179.1321304588312
 31
0.0
  0
LINE
  5
555
330
71
100
AcDbEntity
  8
0
100
AcDbLine
 10
2038.892025275627
 20
179.1321304588312
 30
0.0
 11
2037.315636386738
 21
179.1321304588312
 31
0.0
  0
LINE
  5
556
330
71
100
AcDbEntity
  8
0
100
AcDbLine
 10
2037.315636386738
 20
179.1321304588312
 30
0.0
 11
2037.315636386738
 21
175.3226066493074
 31
0.0
  0
LINE
  5
557
330
71
100
AcDbEntity
  8
0
100
AcDbLine
 10
2038.521985593087
 20
176.2114955381961
 30
0.0
 11
2038.521985593087
 21
176.909908236609
 31
0.0
  0
LINE
  5
558
330
71
100
AcDbEntity
  8
0
100
AcDbLine
 10
2038.521985593087
 20
176.909908236609
 30
0.0
 11
2039.070596704199
 21
176.909908236609
 31
0.0
  0
LINE
  5
559
330
71
100
AcDbEntity
  8
0
100
AcDbLine
 10
2039.070596704199
 20
176.909908236609
 30
0.0
 11
2039.479822894675
 21
176.8305431572439
 31
0.0
  0
LINE
  5
55A
330
71
100
AcDbEntity
  8
0
100
AcDbLine
 10
2039.479822894675
 20
176.8305431572439
 30
0.0
 11
2039.601350672453
 21
176.5636780778788
 31
0.0
  0
LINE
  5
55B
330
71
100
AcDbEntity
  8
0
100
AcDbLine
 10
2039.601350672453
 20
176.5636780778788
 30
0.0
 11
2039.482303053405
 21
176.2938368080375
 31
0.0
  0
LINE
  5
55C
330
71
100
AcDbEntity
  8
0
100
AcDbLine
 10
2039.482303053405
 20
176.2938368080375
 30
0.0
 11
2039.081509402612
 21
176.2114955381961
 31
0.0
  0
LINE
  5
55D
330
71
100
AcDbEntity
  8
0
100
AcDbLine
 10
2039.081509402612
 20
176.2114955381961
 30
0.0
 11
2038.521985593087
 21
176.2114955381961
 31
0.0
  0
LINE
  5
55E
330
71
100
AcDbEntity
  8
0
100
AcDbLine
 10
2038.521985593087
 20
177.6083209350216
 30
0.0
 11
2038.521985593087
 21
178.2432415699423
 31
0.0
  0
LINE
  5
55F
330
71
100
AcDbEntity
  8
0
100
AcDbLine
 10
2038.521985593087
 20
178.2432415699423
 30
0.0
 11
2038.856310989913
 21
178.2432415699423
 31
0.0
  0
LINE
  5
560
330
71
100
AcDbEntity
  8
0
100
AcDbLine
 10
2038.856310989913
 20
178.2432415699423
 30
0.0
 11
2039.364743529596
 21
178.175781252482
 31
0.0
  0
LINE
  5
561
330
71
100
AcDbEntity
  8
0
100
AcDbLine
 10
2039.364743529596
 20
178.175781252482
 30
0.0
 11
2039.474366545468
 21
177.925781252482
 31
0.0
  0
LINE
  5
562
330
71
100
AcDbEntity
  8
0
100
AcDbLine
 10
2039.474366545468
 20
177.925781252482
 30
0.0
 11
2039.372184005786
 21
177.6807415699423
 31
0.0
  0
LINE
  5
563
330
71
100
AcDbEntity
  8
0
100
AcDbLine
 10
2039.372184005786
 20
177.6807415699423
 30
0.0
 11
2039.020001466103
 21
177.6083209350216
 31
0.0
  0
LINE
  5
564
330
71
100
AcDbEntity
  8
0
100
AcDbLine
 10
2039.020001466103
 20
177.6083209350216
 30
0.0
 11
2038.521985593087
 21
177.6083209350216
 31
0.0
  0
ARC
  5
565
330
71
100
AcDbEntity
  8
0
100
AcDbCircle
 10
2043.175594180779
 20
175.2500000000019
 30
0.0
 40
9.000000000000012
100
AcDbArc
 50
179.9999999999997
 51
359.9999999999987
  0
ARC
  5
566
330
71
100
AcDbEntity
  8
0
100
AcDbCircle
 10
2043.175594180779
 20
175.2500000000019
 30
0.0
 40
9.000000000000021
100
AcDbArc
 50
359.9999999999994
 51
179.9999999999998
  0
LINE
  5
567
330
71
100
AcDbEntity
  8
0
100
AcDbLine
 10
2067.175594180783
 20
11.50000000000011
 30
0.0
 11
2067.42559418078
 21
11.50000000000011
 31
0.0
  0
LINE
  5
568
330
71
100
AcDbEntity
  8
0
100
AcDbLine
 10
2067.42559418078
 20
14.50000000000011
 30
0.0
 11
2067.175594180783
 21
14.50000000000011
 31
0.0
  0
LINE
  5
569
330
71
100
AcDbEntity
  8
0
100
AcDbLine
 10
2067.175594180783
 20
2.12499999999994
 30
0.0
 11
2067.42559418078
 21
2.12499999999994
 31
0.0
  0
LINE
  5
56A
330
71
100
AcDbEntity
  8
0
100
AcDbLine
 10
2067.42559418078
 20
4.124999999999999
 30
0.0
 11
2067.175594180783
 21
4.124999999999999
 31
0.0
  0
LINE
  5
56B
330
71
100
AcDbEntity
  8
0
100
AcDbLine
 10
2066.175594180782
 20
21.24999999999994
 30
0.0
 11
2067.42559418078
 21
21.24999999999994
 31
0.0
  0
LINE
  5
56C
330
71
100
AcDbEntity
  8
0
100
AcDbLine
 10
2067.42559418078
 20
22.75000000000011
 30
0.0
 11
2066.175594180782
 21
22.75000000000011
 31
0.0
  0
LINE
  5
56F
330
71
100
AcDbEntity
  8
0
100
AcDbLine
 10
2067.42559418078
 20
14.5
 30
0.0
 11
2067.42559418078
 21
13.0
 31
0.0
  0
LINE
  5
570
330
71
100
AcDbEntity
  8
0
100
AcDbLine
 10
2067.42559418078
 20
12.99999999999999
 30
0.0
 11
2067.42559418078
 21
11.5
 31
0.0
  0
LINE
  5
571
330
71
100
AcDbEntity
  8
0
100
AcDbLine
 10
2067.42559418078
 20
4.125
 30
0.0
 11
2067.42559418078
 21
3.125000000000006
 31
0.0
  0
LINE
  5
572
330
71
100
AcDbEntity
  8
0
100
AcDbLine
 10
2067.42559418078
 20
3.124999999999995
 30
0.0
 11
2067.42559418078
 21
2.125
 31
0.0
  0
LINE
  5
573
330
71
100
AcDbEntity
  8
0
100
AcDbLine
 10
2067.42559418078
 20
22.75
 30
0.0
 11
2067.42559418078
 21
22.00000000000001
 31
0.0
  0
LINE
  5
574
330
71
100
AcDbEntity
  8
0
100
AcDbLine
 10
2067.42559418078
 20
21.99999999999999
 30
0.0
 11
2067.42559418078
 21
21.25
 31
0.0
  0
LINE
  5
575
330
71
100
AcDbEntity
  8
0
100
AcDbLine
 10
2067.17559418078
 20
135.5000000000002
 30
0.0
 11
2076.17559418078
 21
135.5000000000002
 31
0.0
  0
LINE
  5
576
330
71
100
AcDbEntity
  8
0
100
AcDbLine
 10
2076.17559418078
 20
139.5000000000001
 30
0.0
 11
2067.17559418078
 21
139.5000000000001
 31
0.0
  0
LINE
  5
577
330
71
100
AcDbEntity
  8
0
100
AcDbLine
 10
2067.17559418078
 20
64.37500000000027
 30
0.0
 11
2076.17559418078
 21
64.37500000000027
 31
0.0
  0
LINE
  5
578
330
71
100
AcDbEntity
  8
0
100
AcDbLine
 10
2076.17559418078
 20
68.37500000000021
 30
0.0
 11
2067.17559418078
 21
68.37500000000021
 31
0.0
  0
LINE
  5
579
330
71
100
AcDbEntity
  8
0
100
AcDbLine
 10
2076.17559418078
 20
139.5
 30
0.0
 11
2076.17559418078
 21
137.5
 31
0.0
  0
LINE
  5
57A
330
71
100
AcDbEntity
  8
0
100
AcDbLine
 10
2076.17559418078
 20
137.5
 30
0.0
 11
2076.17559418078
 21
135.5
 31
0.0
  0
LINE
  5
57B
330
71
100
AcDbEntity
  8
0
100
AcDbLine
 10
2076.17559418078
 20
68.375
 30
0.0
 11
2076.17559418078
 21
66.37500000000001
 31
0.0
  0
LINE
  5
57C
330
71
100
AcDbEntity
  8
0
100
AcDbLine
 10
2076.17559418078
 20
66.37499999999999
 30
0.0
 11
2076.17559418078
 21
64.375
 31
0.0
  0
LWPOLYLINE
  5
57D
330
71
100
AcDbEntity
  8
0
100
AcDbPolyline
 90
       41
 70
   128
 43
0.0
 10
2242.665950929053
 20
145.1250000000034
 10
2242.665950929053
 20
145.1218004266473
 10
2242.665950929053
 20
145.1122068252137
 10
2242.665950929053
 20
145.096234543419
 10
2242.665950929053
 20
145.0739091335058
 10
2242.665950929053
 20
145.0452663113683
 10
2242.665950929053
 20
145.0103518994114
 10
2242.665950929053
 20
144.9692217532465
 10
2242.665950929053
 20
144.921941672333
 10
2242.665950929053
 20
144.868587294715
 10
2242.665950929053
 20
144.809243976015
 10
2242.665950929053
 20
144.7440066528832
 10
2242.665950929053
 20
144.6729796911204
 10
2242.665950929053
 20
144.5962767187139
 10
2242.665950929053
 20
144.5140204440571
 10
2242.665950929053
 20
144.4263424596421
 10
2242.665950929053
 20
144.3333830315405
 10
2242.665950929053
 20
144.235290875007
 10
2242.665950929053
 20
144.1322229165669
 10
2242.665950929053
 20
144.0243440429669
 10
2242.665950929053
 20
143.9118268373919
 10
2242.665950929053
 20
143.7948513033684
 10
2242.665950929053
 20
143.6736045767975
 10
2242.665950929053
 20
143.548280626577
 10
2242.665950929053
 20
143.4190799442931
 10
2242.665950929053
 20
143.2862092234758
 10
2242.665950929053
 20
143.1498810289344
 10
2242.665950929053
 20
143.010313456698
 10
2242.665950929053
 20
142.8677297851099
 10
2242.665950929053
 20
142.7223581176283
 10
2242.665950929053
 20
142.5744310179097
 10
2242.665950929053
 20
142.4241851377581
 10
2242.665950929053
 20
142.2718608385308
 10
2242.665950929053
 20
142.1177018066123
 10
2242.665950929053
 20
141.9619546635687
 10
2242.665950929053
 20
141.804868571604
 10
2242.665950929053
 20
141.6466948349556
 10
2242.665950929053
 20
141.4876864978601
 10
2242.665950929053
 20
141.3280979397371
 10
2242.665950929053
 20
141.1681844682358
 10
2242.665950929053
 20
141.1250000000029
  0
LWPOLYLINE
  5
57E
330
71
100
AcDbEntity
  8
0
100
AcDbPolyline
 90
       41
 70
   128
 43
0.0
 10
2247.665950929052
 20
141.1250000000029
 10
2247.665950929052
 20
141.2849573367495
 10
2247.665950929052
 20
141.4446587758797
 10
2247.665950929052
 20
141.6038488291586
 10
2247.665950929052
 20
141.7622728264601
 10
2247.665950929052
 20
141.9196773231833
 10
2247.665950929052
 20
142.0758105057116
 10
2247.665950929052
 20
142.2304225942595
 10
2247.665950929052
 20
142.3832662424675
 10
2247.665950929052
 20
142.5340969331035
 10
2247.665950929052
 20
142.6826733692378
 10
2247.665950929052
 20
142.8287578602672
 10
2247.665950929052
 20
142.9721167021691
 10
2247.665950929052
 20
143.1125205513782
 10
2247.665950929052
 20
143.2497447916868
 10
2247.665950929052
 20
143.3835698935834
 10
2247.665950929052
 20
143.5137817654528
 10
2247.665950929052
 20
143.6401720960771
 10
2247.665950929052
 20
143.7625386878891
 10
2247.665950929052
 20
143.8806857804456
 10
2247.665950929052
 20
143.9944243636013
 10
2247.665950929052
 20
144.1035724798866
 10
2247.665950929052
 20
144.2079555155992
 10
2247.665950929052
 20
144.3074064801488
 10
2247.665950929052
 20
144.4017662732073
 10
2247.665950929052
 20
144.490883939235
 10
2247.665950929052
 20
144.5746169089768
 10
2247.665950929052
 20
144.6528312275431
 10
2247.665950929052
 20
144.7254017687093
 10
2247.665950929052
 20
144.7922124350904
 10
2247.665950929052
 20
144.8531563438725
 10
2247.665950929052
 20
144.9081359978016
 10
2247.665950929052
 20
144.9570634411603
 10
2247.665950929052
 20
144.9998604004766
 10
2247.665950929052
 20
145.0364584097448
 10
2247.665950929052
 20
145.0667989199574
 10
2247.665950929052
 20
145.0908333927702
 10
2247.665950929052
 20
145.108523378154
 10
2247.665950929052
 20
145.1198405759058
 10
2247.665950929052
 20
145.1247668809234
 10
2247.665950929052
 20
145.1250000000034
  0
LINE
  5
57F
330
71
100
AcDbEntity
  8
0
100
AcDbLine
 10
2242.665950929053
 20
141.1250000000029
 30
0.0
 11
2242.665950929053
 21
133.1250000000027
 31
0.0
  0
LINE
  5
580
330
71
100
AcDbEntity
  8
0
100
AcDbLine
 10
2247.665950929052
 20
133.125000000003
 30
0.0
 11
2247.665950929052
 21
141.1250000000029
 31
0.0
  0
LINE
  5
583
330
71
100
AcDbEntity
  8
0
100
AcDbLine
 10
2224.415950929055
 20
10.2498955993431
 30
0.0
 11
2232.415950929055
 21
10.2498955993431
 31
0.0
  0
LINE
  5
584
330
71
100
AcDbEntity
  8
0
100
AcDbLine
 10
2232.415950929055
 20
6.250104400656027
 30
0.0
 11
2224.415950929055
 21
6.250104400656027
 31
0.0
  0
LINE
  5
585
330
71
100
AcDbEntity
  8
0
100
AcDbLine
 10
2232.415950929055
 20
10.2498955993431
 30
0.0
 11
2232.415950929055
 21
6.250104400656027
 31
0.0
  0
LINE
  5
586
330
71
100
AcDbEntity
  8
0
100
AcDbLine
 10
2224.415950929055
 20
6.250104400656027
 30
0.0
 11
2224.415950929055
 21
10.2498955993431
 31
0.0
  0
LWPOLYLINE
  5
587
330
71
100
AcDbEntity
  8
0
100
AcDbPolyline
 90
       80
 70
   128
 43
0.0
 10
2224.415950929055
 20
12.25000000000028
 10
2224.255993592308
 20
12.24680042664418
 10
2224.096292153178
 20
12.23720682521059
 10
2223.937102099899
 20
12.22123454341573
 10
2223.778678102597
 20
12.19890913350269
 10
2223.621273605874
 20
12.17026631136508
 10
2223.465140423346
 20
12.1353518994083
 10
2223.310528334798
 20
12.0942217532434
 10
2223.15768468659
 20
12.04694167232986
 10
2223.006853995954
 20
11.99358729471191
 10
2222.85827755982
 20
11.93424397601177
 10
2222.71219306879
 20
11.8690066528801
 10
2222.568834226888
 20
11.79797969111734
 10
2222.428430377679
 20
11.72127671871078
 10
2222.29120613737
 20
11.6390204440537
 10
2222.157381035473
 20
11.55134245963881
 10
2222.027169163604
 20
11.45838303153715
 10
2221.90077883298
 20
11.36029087500372
 10
2221.778412241167
 20
11.25722291656347
 10
2221.660265148611
 20
11.1493440429636
 10
2221.546526565456
 20
11.03682683738867
 10
2221.43737844917
 20
10.9198513033653
 10
2221.332995413458
 20
10.79860457679404
 10
2221.233544448908
 20
10.6732806265736
 10
2221.13918465585
 20
10.5440799442897
 10
2221.050066989822
 20
10.41120922347249
 10
2220.96633402008
 20
10.27488102893096
 10
2220.888119701514
 20
10.13531345669474
 10
2220.815549160347
 20
9.992729785106519
 10
2220.748738493966
 20
9.847358117624708
 10
2220.687794585185
 20
9.699431017906306
 10
2220.632814931255
 20
9.549185137754703
 10
2220.583887487896
 20
9.396860838527343
 10
2220.54109052858
 20
9.242701806609089
 10
2220.504492519312
 20
9.086954663565052
 10
2220.4741520091
 20
8.929868571600421
 10
2220.450117536287
 20
8.771694834951972
 10
2220.432427550903
 20
8.612686497856484
 10
2220.421110353151
 20
8.453097939733595
 10
2220.416184048133
 20
8.293184468232198
 10
2220.417656516887
 20
8.133201910793957
 10
2220.425525403777
 20
7.9734062053829
 10
2220.439778120261
 20
7.814052991039543
 10
2220.460391865035
 20
7.655397198913702
 10
2220.487333660503
 20
7.497692644427558
 10
2220.520560405541
 20
7.341191621226585
 10
2220.560018944444
 20
7.186144497562906
 10
2220.605646151967
 20
7.032799315759632
 10
2220.657369034312
 20
6.8814013953953
 10
2220.715104845901
 20
6.732192940846232
 10
2220.778761221751
 20
6.585412653810237
 10
2220.84823632524
 20
6.441295351435313
 10
2220.923419011024
 20
6.300071590661275
 10
2221.004189002842
 20
6.161967299380021
 10
2221.090417085939
 20
6.027203414996164
 10
2221.181965313776
 20
5.895995530977303
 10
2221.278687228716
 20
5.768553551947717
 10
2221.38042809633
 20
5.645081357888385
 10
2221.487025152933
 20
5.525776477969883
 10
2221.598307865973
 20
5.410829774550109
 10
2221.714098206849
 20
5.300425137833542
 10
2221.834210935716
 20
5.194739191687459
 10
2221.958453897831
 20
5.09394101108046
 10
2222.086628330957
 20
4.99819185159896
 10
2222.218529183346
 20
4.907644891472783
 10
2222.353945441768
 20
4.822444986522498
 10
2222.4926604691
 20
4.742728438421238
 10
2222.634452350886
 20
4.668622776640403
 10
2222.779094250366
 20
4.600246554430327
 10
2222.926354771354
 20
4.537709159160954
 10
2223.07599832843
 20
4.481110637323695
 10
2223.227785523826
 20
4.430541534479742
 10
2223.381473530409
 20
4.386082750406217
 10
2223.536816480153
 20
4.347805409673924
 10
2223.693565857477
 20
4.315770747862244
 10
2223.851470896815
 20
4.290030013596491
 10
2224.010278983788
 20
4.270624386560371
 10
2224.169736059335
 20
4.257584911617755
 10
2224.32958702615
 20
4.250932449146603
 10
2224.415950929055
 20
4.249999999998351
  0
LWPOLYLINE
  5
588
330
71
100
AcDbEntity
  8
0
100
AcDbPolyline
 90
       28
 70
   128
 43
0.0
 10
2224.415950929055
 20
4.249999999998351
 10
2224.5759082658
 20
4.253199573354436
 10
2224.735609704931
 20
4.262793174787701
 10
2224.89479975821
 20
4.278765456582732
 10
2225.053223755512
 20
4.301090866495598
 10
2225.210628252235
 20
4.32973368863321
 10
2225.366761434763
 20
4.364648100589988
 10
2225.521373523311
 20
4.405778246755231
 10
2225.674217171519
 20
4.453058327668428
 10
2225.825047862155
 20
4.506412705286378
 10
2225.97362429829
 20
4.565756023986863
 10
2226.119708789319
 20
4.630993347118533
 10
2226.26306763122
 20
4.702020308881286
 10
2226.403471480431
 20
4.778723281287851
 10
2226.540695720738
 20
4.860979555944594
 10
2226.674520822635
 20
4.948657540359646
 10
2226.804732694505
 20
5.041616968461141
 10
2226.93112302513
 20
5.139709124994737
 10
2227.053489616941
 20
5.242777083434816
 10
2227.171636709497
 20
5.350655957034858
 10
2227.285375292653
 20
5.46317316260979
 10
2227.394523408939
 20
5.58014869663333
 10
2227.498906444651
 20
5.701395423204245
 10
2227.598357409201
 20
5.826719373424849
 10
2227.692717202259
 20
5.955920055708928
 10
2227.781834868287
 20
6.088790776526137
 10
2227.865567838028
 20
6.225118971067672
 10
2227.879569789328
 20
6.250104400656254
  0
LWPOLYLINE
  5
589
330
71
100
AcDbEntity
  8
0
100
AcDbPolyline
 90
       28
 70
   128
 43
0.0
 10
2227.879259645615
 20
10.24989559934323
 10
2227.827712855266
 20
10.33803270061861
 10
2227.74148477217
 20
10.47279658500228
 10
2227.649936544333
 20
10.60400446902116
 10
2227.553214629393
 20
10.73144644805057
 10
2227.451473761779
 20
10.85491864211007
 10
2227.344876705176
 20
10.97422352202858
 10
2227.233593992136
 20
11.08917022544852
 10
2227.11780365126
 20
11.19957486216508
 10
2226.997690922392
 20
11.30526080831117
 10
2226.873447960278
 20
11.40605898891817
 10
2226.745273527152
 20
11.50180814839967
 10
2226.613372674764
 20
11.59235510852568
 10
2226.477956416341
 20
11.67755501347579
 10
2226.33924138901
 20
11.75727156157722
 10
2226.197449507222
 20
11.83137722335823
 10
2226.052807607743
 20
11.89975344556796
 10
2225.905547086755
 20
11.96229084083751
 10
2225.755903529679
 20
12.01888936267494
 10
2225.604116334282
 20
12.06945846551872
 10
2225.450428327699
 20
12.11391724959207
 10
2225.295085377955
 20
12.15219459032454
 10
2225.138336000631
 20
12.18422925213622
 10
2224.980430961294
 20
12.20996998640214
 10
2224.821622874321
 20
12.22937561343808
 10
2224.662165798775
 20
12.24241508838088
 10
2224.502314831959
 20
12.24906755085203
 10
2224.415950929055
 20
12.25000000000028
  0
LWPOLYLINE
  5
58A
330
71
100
AcDbEntity
  8
0
100
AcDbPolyline
 90
        8
 70
   128
 43
0.0
 10
2224.415950929055
 20
14.99999999998806
 10
2224.146022923295
 20
14.99460071994957
 10
2223.876526744763
 20
14.97841151753061
 10
2223.607893529856
 20
14.9514582920018
 10
2223.340553034411
 20
14.91378416277359
 10
2223.07493294619
 20
14.86544940041665
 10
2222.811458200674
 20
14.8065313302394
 10
2222.659433224615
 20
14.76608941172742
  0
LWPOLYLINE
  5
58B
330
71
100
AcDbEntity
  8
0
100
AcDbPolyline
 90
       42
 70
   128
 43
0.0
 10
2217.672468633494
 20
8.521676061943878
 10
2217.666344317513
 20
8.322873790142407
 10
2217.668829108535
 20
8.05290322446592
 10
2217.682107855161
 20
7.783247971585125
 10
2217.706159314229
 20
7.514339422381397
 10
2217.740945008534
 20
7.246607773169102
 10
2217.786409288386
 20
6.980481337474372
 10
2217.842479420637
 20
6.71638586082355
 10
2217.909065705036
 20
6.454743839641593
 10
2217.986061617732
 20
6.19597384534876
 10
2218.073343981689
 20
5.940489854734663
 10
2218.170773163745
 20
5.688700587683398
 10
2218.278193297991
 20
5.441008853310563
 10
2218.395432535129
 20
5.197810905553295
 10
2218.522303317389
 20
4.959495809247754
 10
2218.658602678582
 20
4.726444817710898
 10
2218.804112568808
 20
4.499030762813788
 10
2218.958600203281
 20
4.277617458532232
 10
2219.121818434743
 20
4.062559118920717
 10
2219.293506148842
 20
3.854199791445637
 10
2219.473388681858
 20
3.652872806583728
 10
2219.661178260114
 20
3.458900244562697
 10
2219.856574460342
 20
3.272592420104047
 10
2220.059264690305
 20
3.094247385982896
 10
2220.268924688873
 20
2.924150456208848
 10
2220.485219044773
 20
2.76257374958419
 10
2220.707801733178
 20
2.609775754371526
 10
2220.936316669266
 20
2.46600091476847
 10
2221.170398277886
 20
2.331479239847681
 10
2221.409672078403
 20
2.206425935592789
 10
2221.653755283773
 20
2.09104106061386
 10
2221.902257412939
 20
1.985509206096536
 10
2222.154780915506
 20
1.889999200496332
 10
2222.410921807737
 20
1.804663839447357
 10
2222.670270318845
 20
1.729639641323899
 10
2222.932411546537
 20
1.665046628837727
 10
2223.19692612077
 20
1.610988137030744
 10
2223.463390874652
 20
1.567550647957317
 10
2223.731379521419
 20
1.534803652333948
 10
2224.000463336404
 20
1.512799538368198
 10
2224.270211842903
 20
1.501573507948194
 10
2224.415950929055
 20
1.500000000010401
  0
LWPOLYLINE
  5
58C
330
71
100
AcDbEntity
  8
0
100
AcDbPolyline
 90
       33
 70
   128
 43
0.0
 10
2224.415950929055
 20
1.500000000010401
 10
2224.685878934815
 20
1.505399280048719
 10
2224.955375113346
 20
1.521588482467676
 10
2225.224008328253
 20
1.548541707996831
 10
2225.491348823699
 20
1.586215837224699
 10
2225.756968911919
 20
1.634550599581984
 10
2226.020443657435
 20
1.693468669758884
 10
2226.281351556859
 20
1.76287579141234
 10
2226.53927521321
 20
1.842660927953318
 10
2226.793802003657
 20
1.932696440183575
 10
2227.044524739634
 20
2.032838290490133
 10
2227.291042318245
 20
2.14292627327444
 10
2227.532960363954
 20
2.26278427124896
 10
2227.769891859495
 20
2.392220537184698
 10
2228.001457765015
 20
2.531028000668015
 10
2228.227287624465
 20
2.678984599368105
 10
2228.447020158244
 20
2.835853634289378
 10
2228.660303841172
 20
3.001384148439171
 10
2228.866797464855
 20
3.175311328306633
 10
2229.066170683543
 20
3.357356927506088
 10
2229.258104542618
 20
3.547229711913701
 10
2229.442291988849
 20
3.744625925577962
 10
2229.618438361613
 20
3.949229776665958
 10
2229.78626186429
 20
4.160713942662653
 10
2229.945494015077
 20
4.378740094016619
 10
2230.095880076499
 20
4.602959435395405
 10
2230.237179462937
 20
4.83301326368354
 10
2230.369166125518
 20
5.068533541831868
 10
2230.491628913736
 20
5.309143487636447
 10
2230.604371913254
 20
5.554458176511332
 10
2230.707214759323
 20
5.804085157285782
 10
2230.799992925328
 20
6.057625080041247
 10
2230.861818393129
 20
6.250104400656254
  0
LWPOLYLINE
  5
58D
330
71
100
AcDbEntity
  8
0
100
AcDbPolyline
 90
       34
 70
   128
 43
0.0
 10
2230.861946557193
 20
10.24989559934323
 10
2230.845840240377
 20
10.30402615464953
 10
2230.75855787642
 20
10.55951014526397
 10
2230.661128694364
 20
10.81129941231489
 10
2230.553708560118
 20
11.05899114668773
 10
2230.43646932298
 20
11.30218909444534
 10
2230.309598540721
 20
11.54050419075071
 10
2230.173299179527
 20
11.77355518228773
 10
2230.027789289301
 20
12.0009692371845
 10
2229.873301654828
 20
12.22238254146623
 10
2229.710083423366
 20
12.43744088107791
 10
2229.538395709267
 20
12.64580020855282
 10
2229.35851317625
 20
12.8471271934149
 10
2229.170723597995
 20
13.04109975543559
 10
2228.975327397767
 20
13.22740757989424
 10
2228.772637167804
 20
13.40575261401574
 10
2228.562977169236
 20
13.57584954378978
 10
2228.346682813336
 20
13.73742625041444
 10
2228.124100124931
 20
13.89022424562677
 10
2227.895585188843
 20
14.03399908522999
 10
2227.661503580222
 20
14.16852076015095
 10
2227.422229779707
 20
14.29357406440584
 10
2227.178146574336
 20
14.40895893938477
 10
2226.929644445169
 20
14.51449079390175
 10
2226.677120942603
 20
14.61000079950213
 10
2226.420980050372
 20
14.69533616055093
 10
2226.161631539264
 20
14.77036035867473
 10
2225.899490311571
 20
14.83495337116056
 10
2225.634975737338
 20
14.88901186296789
 10
2225.368510983457
 20
14.93244935204114
 10
2225.100522336691
 20
14.96519634766451
 10
2224.831438521706
 20
14.98720046163043
 10
2224.561690015205
 20
14.99842649205027
 10
2224.415950929055
 20
14.99999999998806
  0
LINE
  5
58E
330
71
100
AcDbEntity
  8
0
100
AcDbLine
 10
2217.665950929054
 20
28.25000000000006
 30
0.0
 11
2217.665950929054
 21
15.70000000000311
 31
0.0
  0
LINE
  5
58F
330
71
100
AcDbEntity
  8
0
100
AcDbLine
 10
2222.665950929055
 20
15.70000000000311
 30
0.0
 11
2222.665950929055
 21
28.25000000000006
 31
0.0
  0
LWPOLYLINE
  5
590
330
71
100
AcDbEntity
  8
0
100
AcDbPolyline
 90
       41
 70
   128
 43
0.0
 10
2224.165950929055
 20
34.74999999999994
 10
2223.906020256842
 20
34.74480069329633
 10
2223.646505418256
 20
34.72921109096706
 10
2223.387821581678
 20
34.70325613305022
 10
2223.130382586062
 20
34.66697734194162
 10
2222.874600278887
 20
34.62043275596812
 10
2222.620883857278
 20
34.56369683653822
 10
2222.369639213388
 20
34.4968603490201
 10
2222.12126828505
 20
34.4200302175359
 10
2221.876168412767
 20
34.33332935390666
 10
2221.634731704048
 20
34.23689646101872
 10
2221.397344406126
 20
34.13088581092984
 10
2221.164386288035
 20
34.01546699806545
 10
2220.93623003307
 20
33.89082466790494
 10
2220.713240642569
 20
33.75715822158719
 10
2220.495774851987
 20
33.61468149691297
 10
2220.284180560199
 20
33.46362242624787
 10
2220.078796272935
 20
33.30422267188101
 10
2219.87995056124
 20
33.13673723941605
 10
2219.687961535836
 20
32.96143406981594
 10
2219.503136338208
 20
32.77859361075666
 10
2219.325770649244
 20
32.5885083679687
 10
2219.156148216212
 20
32.39148243729079
 10
2218.994540398819
 20
32.18783101818269
 10
2218.841205735098
 20
31.97787990947109
 10
2218.696389527803
 20
31.76196498814312
 10
2218.560323451973
 20
31.54043167201308
 10
2218.433225184302
 20
31.31363436712934
 10
2218.315298054907
 20
31.08193590079871
 10
2218.206730722038
 20
30.84570694114098
 10
2218.107696870268
 20
30.60532540409855
 10
2218.018354932633
 20
30.36117584885217
 10
2217.938847837175
 20
30.11364886260793
 10
2217.869302778286
 20
29.86314043574049
 10
2217.809831013225
 20
29.61005132829433
 10
2217.760527684129
 20
29.35478642885163
 10
2217.721471665809
 20
29.09775410679817
 10
2217.69272543956
 20
28.83936555901806
 10
2217.674334993214
 20
28.58003415206848
 10
2217.66632974756
 20
28.32017476087896
 10
2217.665950929054
 20
28.25000000000006
  0
LWPOLYLINE
  5
591
330
71
100
AcDbEntity
  8
0
100
AcDbPolyline
 90
       41
 70
   128
 43
0.0
 10
2222.665950929055
 20
28.25000000000006
 10
2222.667150769063
 20
28.30998400127987
 10
2222.670748369601
 20
28.36987204095379
 10
2222.676737975274
 20
28.42956831093341
 10
2222.685110003991
 20
28.48897730992138
 10
2222.695851062293
 20
28.54800399619263
 10
2222.708943966777
 20
28.60655393964072
 10
2222.724367771589
 20
28.66453347284613
 10
2222.742097801932
 20
28.72184984092434
 10
2222.762105693538
 20
28.77841134991275
 10
2222.78435943805
 20
28.83412751346305
 10
2222.808823434224
 20
28.88890919759905
 10
2222.835458544885
 20
28.94266876331239
 10
2222.864222159538
 20
28.99532020676566
 10
2222.895068262535
 20
29.04677929688137
 10
2222.92794750669
 20
29.09696371009255
 10
2222.962807292228
 20
29.14579316204362
 10
2222.999591850928
 20
29.19318953602778
 10
2223.038242335344
 20
29.23907700795723
 10
2223.078696912943
 20
29.28338216766599
 10
2223.120890865034
 20
29.32603413634939
 10
2223.164756690293
 20
29.36696467995637
 10
2223.210224212757
 20
29.40610831834857
 10
2223.257220694089
 20
29.44340243005473
 10
2223.305670949946
 20
29.47878735245172
 10
2223.355497470253
 20
29.51220647721203
 10
2223.406620543205
 20
29.54360634086508
 10
2223.458958382794
 20
29.57293671032756
 10
2223.51242725964
 20
29.6001506632648
 10
2223.566941634945
 20
29.62520466315772
 10
2223.62241429734
 20
29.64805862895099
 10
2223.678756502397
 20
29.66867599917435
 10
2223.735878114607
 20
29.68702379043396
 10
2223.793687751577
 20
29.70307265017732
 10
2223.852092930218
 20
29.71679690365295
 10
2223.911000214704
 20
29.72817459498271
 10
2223.970315365948
 20
29.73718752228746
 10
2224.029943492358
 20
29.74382126680649
 10
2224.089789201654
 20
29.74806521596344
 10
2224.149756753467
 20
29.7499125803451
 10
2224.165950929055
 20
29.75000000000006
  0
LINE
  5
592
330
71
100
AcDbEntity
  8
0
100
AcDbLine
 10
2241.165950929055
 20
34.74999999999994
 30
0.0
 11
2224.165950929054
 21
34.74999999999994
 31
0.0
  0
LINE
  5
593
330
71
100
AcDbEntity
  8
0
100
AcDbLine
 10
2224.165950929054
 20
29.75000000000006
 30
0.0
 11
2241.165950929055
 21
29.75000000000006
 31
0.0
  0
LWPOLYLINE
  5
594
330
71
100
AcDbEntity
  8
0
100
AcDbPolyline
 90
       41
 70
   128
 43
0.0
 10
2241.165950929055
 20
29.75000000000006
 10
2241.425881601267
 20
29.75519930670368
 10
2241.685396439854
 20
29.77078890903295
 10
2241.944080276432
 20
29.79674386694978
 10
2242.201519272047
 20
29.83302265805856
 10
2242.457301579222
 20
29.87956724403188
 10
2242.711018000831
 20
29.93630316346195
 10
2242.962262644721
 20
30.00313965098007
 10
2243.210633573059
 20
30.0799697824641
 10
2243.455733445343
 20
30.16667064609351
 10
2243.697170154061
 20
30.26310353898129
 10
2243.934557451984
 20
30.36911418907033
 10
2244.167515570074
 20
30.48453300193472
 10
2244.395671825039
 20
30.60917533209539
 10
2244.61866121554
 20
30.74284177841281
 10
2244.836127006122
 20
30.88531850308704
 10
2245.047721297911
 20
31.03637757375214
 10
2245.253105585175
 20
31.195777328119
 10
2245.451951296869
 20
31.36326276058429
 10
2245.643940322273
 20
31.53856593018407
 10
2245.828765519902
 20
31.72140638924333
 10
2246.006131208865
 20
31.91149163203164
 10
2246.175753641898
 20
32.1085175627092
 10
2246.337361459291
 20
32.31216898181765
 10
2246.490696123011
 20
32.52212009052926
 10
2246.635512330306
 20
32.73803501185721
 10
2246.771578406136
 20
32.95956832798693
 10
2246.898676673807
 20
33.18636563287066
 10
2247.016603803202
 20
33.41806409920162
 10
2247.125171136071
 20
33.65429305885938
 10
2247.224204987841
 20
33.89467459590179
 10
2247.313546925477
 20
34.13882415114802
 10
2247.393054020935
 20
34.3863511373924
 10
2247.462599079823
 20
34.63685956425968
 10
2247.522070844884
 20
34.88994867170585
 10
2247.571374173979
 20
35.14521357114853
 10
2247.610430192301
 20
35.40224589320218
 10
2247.639176418549
 20
35.66063444098211
 10
2247.657566864896
 20
35.91996584793186
 10
2247.665572110549
 20
36.17982523912139
 10
2247.665950929055
 20
36.24999999999995
  0
LWPOLYLINE
  5
595
330
71
100
AcDbEntity
  8
0
100
AcDbPolyline
 90
       41
 70
   128
 43
0.0
 10
2242.665950929055
 20
36.24999999999995
 10
2242.664751089046
 20
36.19001599872011
 10
2242.661153488509
 20
36.13012795904622
 10
2242.655163882835
 20
36.0704316890666
 10
2242.646791854118
 20
36.01102269007862
 10
2242.636050795816
 20
35.95199600380738
 10
2242.622957891333
 20
35.89344606035928
 10
2242.60753408652
 20
35.83546652715387
 10
2242.589804056178
 20
35.77815015907601
 10
2242.569796164572
 20
35.72158865008743
 10
2242.547542420059
 20
35.66587248653713
 10
2242.523078423884
 20
35.61109080240111
 10
2242.496443313223
 20
35.55733123668796
 10
2242.467679698571
 20
35.50467979323452
 10
2242.436833595575
 20
35.45322070311863
 10
2242.403954351419
 20
35.40303628990744
 10
2242.369094565881
 20
35.35420683795639
 10
2242.332310007181
 20
35.3068104639724
 10
2242.293659522766
 20
35.26092299204278
 10
2242.253204945166
 20
35.21661783233418
 10
2242.211010993075
 20
35.17396586365095
 10
2242.167145167816
 20
35.13303532004381
 10
2242.121677645352
 20
35.09389168165177
 10
2242.074681164019
 20
35.05659756994561
 10
2242.026230908163
 20
35.02121264754862
 10
2241.976404387856
 20
34.98779352278831
 10
2241.925281314903
 20
34.95639365913524
 10
2241.872943475315
 20
34.92706328967279
 10
2241.819474598469
 20
34.8998493367352
 10
2241.764960223164
 20
34.87479533684246
 10
2241.709487560769
 20
34.85194137104935
 10
2241.653145355713
 20
34.83132400082565
 10
2241.596023743503
 20
34.81297620956622
 10
2241.538214106533
 20
34.79692734982268
 10
2241.479808927891
 20
34.78320309634705
 10
2241.420901643405
 20
34.77182540501747
 10
2241.361586492162
 20
34.76281247771254
 10
2241.301958365751
 20
34.75617873319352
 10
2241.242112656455
 20
34.75193478403673
 10
2241.182145104642
 20
34.75008741965524
 10
2241.165950929055
 20
34.74999999999994
  0
LINE
  5
596
330
71
100
AcDbEntity
  8
0
100
AcDbLine
 10
2242.665950929055
 20
133.1250000000005
 30
0.0
 11
2242.665950929055
 21
36.24999999999995
 31
0.0
  0
LINE
  5
597
330
71
100
AcDbEntity
  8
0
100
AcDbLine
 10
2247.665950929055
 20
36.24999999999995
 30
0.0
 11
2247.665950929055
 21
133.1250000000005
 31
0.0
  0
LINE
  5
59A
330
71
100
AcDbEntity
  8
0
100
AcDbLine
 10
2222.665950929055
 20
14.75988003310266
 30
0.0
 11
2222.665950929055
 21
15.6999999999997
 31
0.0
  0
LINE
  5
59B
330
71
100
AcDbEntity
  8
0
100
AcDbLine
 10
2217.665950929054
 20
15.6999999999997
 30
0.0
 11
2217.665950929054
 21
8.249999999999657
 31
0.0
  0
LINE
  5
5A4
330
71
100
AcDbEntity
  8
0
100
AcDbLine
 10
2186.16595092909
 20
195.7499999999976
 30
0.0
 11
2304.165950929089
 21
195.7499999999973
 31
0.0
  0
LINE
  5
5A5
330
71
100
AcDbEntity
  8
0
100
AcDbLine
 10
2304.165950929089
 20
154.9950353879069
 30
0.0
 11
2186.16595092909
 21
154.9950353879072
 31
0.0
  0
LINE
  5
5A6
330
71
100
AcDbEntity
  8
0
100
AcDbLine
 10
2186.16595092909
 20
195.7499999999976
 30
0.0
 11
2186.16595092909
 21
154.9950353879072
 31
0.0
  0
LINE
  5
5A7
330
71
100
AcDbEntity
  8
0
100
AcDbLine
 10
2304.165950929089
 20
154.9950353879069
 30
0.0
 11
2304.165950929089
 21
195.7499999999973
 31
0.0
  0
LWPOLYLINE
  5
5A8
330
71
100
AcDbEntity
  8
0
100
AcDbPolyline
 90
       41
 70
   128
 43
0.0
 10
2291.915950929051
 20
198.7500000000008
 10
2291.918350609068
 20
198.630031997441
 10
2291.925545810144
 20
198.5102559180933
 10
2291.93752502149
 20
198.390863378134
 10
2291.954269078924
 20
198.2720453801582
 10
2291.975751195527
 20
198.1539920076157
 10
2292.001937004495
 20
198.0368921207195
 10
2292.032784614119
 20
197.9209330543087
 10
2292.068244674804
 20
197.8063003181526
 10
2292.108260458018
 20
197.6931773001756
 10
2292.152767947043
 20
197.581744973075
 10
2292.201695939391
 20
197.472181604803
 10
2292.254966160713
 20
197.3646624733765
 10
2292.312493390018
 20
197.2593595864698
 10
2292.374185596012
 20
197.1564414062381
 10
2292.439944084322
 20
197.0560725798158
 10
2292.509663655398
 20
196.9584136759137
 10
2292.583232772798
 20
196.8636209279455
 10
2292.660533741629
 20
196.7718459840866
 10
2292.741442896829
 20
196.6832356646693
 10
2292.82583080101
 20
196.5979317273023
 10
2292.913562451527
 20
196.5160706400883
 10
2293.004497496456
 20
196.4377833633039
 10
2293.09849045912
 20
196.3631951398918
 10
2293.195390970834
 20
196.2924252950978
 10
2293.295044011447
 20
196.2255870455772
 10
2293.397290157352
 20
196.1627873182709
 10
2293.50196583653
 20
196.1041265793462
 10
2293.608903590221
 20
196.0496986734715
 10
2293.717932340832
 20
195.9995906736856
 10
2293.828877665621
 20
195.953882742099
 10
2293.941562075735
 20
195.9126480016524
 10
2294.055805300156
 20
195.8759524191332
 10
2294.171424574094
 20
195.8438546996463
 10
2294.288234931377
 20
195.816406192695
 10
2294.40604950035
 20
195.7936508100357
 10
2294.524679802837
 20
195.775624955426
 10
2294.643936055658
 20
195.7623574663881
 10
2294.76362747425
 20
195.7538695680742
 10
2294.883562577877
 20
195.7501748393111
 10
2294.915950929051
 20
195.7500000000008
  0
LWPOLYLINE
  5
5A9
330
71
100
AcDbEntity
  8
0
100
AcDbPolyline
 90
       41
 70
   128
 43
0.0
 10
2195.415950929051
 20
195.7499999999996
 10
2195.535918931611
 20
195.7523996800165
 10
2195.655695010959
 20
195.7595948810917
 10
2195.775087550918
 20
195.771574092438
 10
2195.893905548894
 20
195.7883181498726
 10
2196.011958921436
 20
195.8098002664758
 10
2196.129058808333
 20
195.8359860754434
 10
2196.245017874744
 20
195.8668336850673
 10
2196.359650610899
 20
195.9022937457523
 10
2196.472773628876
 20
195.9423095289658
 10
2196.584205955977
 20
195.9868170179909
 10
2196.693769324249
 20
196.0357450103396
 10
2196.801288455676
 20
196.0890152316619
 10
2196.906591342582
 20
196.1465424609668
 10
2197.009509522814
 20
196.2082346669593
 10
2197.109878349236
 20
196.2739931552705
 10
2197.207537253138
 20
196.3437127263468
 10
2197.302330001106
 20
196.4172818437469
 10
2197.394104944965
 20
196.494582812577
 10
2197.482715264383
 20
196.5754919677768
 10
2197.56801920175
 20
196.659879871958
 10
2197.649880288964
 20
196.7476115224757
 10
2197.728167565748
 20
196.8385465674039
 10
2197.80275578916
 20
196.9325395300692
 10
2197.873525633954
 20
197.0294400417822
 10
2197.940363883475
 20
197.1290930823951
 10
2198.003163610781
 20
197.2313392283013
 10
2198.061824349706
 20
197.3360149074784
 10
2198.116252255581
 20
197.4429526611693
 10
2198.166360255366
 20
197.5519814117807
 10
2198.212068186953
 20
197.6629267365696
 10
2198.253302927399
 20
197.7756111466833
 10
2198.28999850992
 20
197.8898543711038
 10
2198.322096229406
 20
198.0054736450424
 10
2198.349544736357
 20
198.1222840023251
 10
2198.372300119016
 20
198.2400985712989
 10
2198.390325973626
 20
198.3587288737851
 10
2198.403593462664
 20
198.4779851266066
 10
2198.412081360978
 20
198.5976765451989
 10
2198.415776089741
 20
198.7176116488249
 10
2198.415950929051
 20
198.7499999999994
  0
LINE
  5
5AA
330
71
100
AcDbEntity
  8
0
100
AcDbLine
 10
2291.915950929051
 20
198.7500000000008
 30
0.0
 11
2291.915950929051
 21
208.3750000000009
 31
0.0
  0
LINE
  5
5AB
330
71
100
AcDbEntity
  8
0
100
AcDbLine
 10
2198.415950929051
 20
208.3749999999995
 30
0.0
 11
2198.415950929051
 21
198.7499999999994
 31
0.0
  0
LINE
  5
5AC
330
71
100
AcDbEntity
  8
0
100
AcDbLine
 10
2293.415950929051
 20
208.3750000000009
 30
0.0
 11
2293.415950929051
 21
208.6250000000009
 31
0.0
  0
LINE
  5
5AD
330
71
100
AcDbEntity
  8
0
100
AcDbLine
 10
2196.915950929051
 20
208.6249999999997
 30
0.0
 11
2196.915950929051
 21
208.3749999999995
 31
0.0
  0
LINE
  5
5AE
330
71
100
AcDbEntity
  8
0
100
AcDbLine
 10
2293.415950929051
 20
208.6250000000009
 30
0.0
 11
2248.165950929051
 21
215.3750000000004
 31
0.0
  0
LINE
  5
5AF
330
71
100
AcDbEntity
  8
0
100
AcDbLine
 10
2242.165950929051
 20
215.3750000000002
 30
0.0
 11
2196.915950929051
 21
208.6249999999997
 31
0.0
  0
LINE
  5
5B0
330
71
100
AcDbEntity
  8
0
100
AcDbLine
 10
2293.354022400054
 20
208.3750000000006
 30
0.0
 11
2245.165950929051
 21
208.375
 31
0.0
  0
LINE
  5
5B1
330
71
100
AcDbEntity
  8
0
100
AcDbLine
 10
2245.165950929051
 20
208.375
 30
0.0
 11
2196.977879458048
 21
208.3749999999993
 31
0.0
  0
LINE
  5
5B2
330
71
100
AcDbEntity
  8
0
100
AcDbLine
 10
2293.354022400054
 20
208.6250000000007
 30
0.0
 11
2245.165950929051
 21
208.625
 31
0.0
  0
LINE
  5
5B3
330
71
100
AcDbEntity
  8
0
100
AcDbLine
 10
2245.165950929051
 20
208.625
 30
0.0
 11
2196.977879458048
 21
208.6249999999994
 31
0.0
  0
LINE
  5
5B4
330
71
100
AcDbEntity
  8
0
100
AcDbLine
 10
2248.165950929051
 20
215.375
 30
0.0
 11
2245.165950929051
 21
215.3749999999999
 31
0.0
  0
LINE
  5
5B5
330
71
100
AcDbEntity
  8
0
100
AcDbLine
 10
2245.165950929051
 20
215.3749999999999
 30
0.0
 11
2242.165950929051
 21
215.3749999999999
 31
0.0
  0
LINE
  5
5B6
330
71
100
AcDbEntity
  8
0
100
AcDbLine
 10
2186.165950929054
 20
154.75
 30
0.0
 11
2304.165950929054
 21
154.75
 31
0.0
  0
LINE
  5
5B7
330
71
100
AcDbEntity
  8
0
100
AcDbLine
 10
2304.165950929054
 20
52.37499999999997
 30
0.0
 11
2247.665950929055
 21
52.37499999999997
 31
0.0
  0
LINE
  5
5B8
330
71
100
AcDbEntity
  8
0
100
AcDbLine
 10
2242.665950929055
 20
52.37499999999997
 30
0.0
 11
2186.165950929054
 21
52.37499999999997
 31
0.0
  0
LINE
  5
5B9
330
71
100
AcDbEntity
  8
0
100
AcDbLine
 10
2304.165950929054
 20
154.75
 30
0.0
 11
2304.165950929054
 21
52.37499999999997
 31
0.0
  0
LINE
  5
5BA
330
71
100
AcDbEntity
  8
0
100
AcDbLine
 10
2186.165950929054
 20
52.37499999999997
 30
0.0
 11
2186.165950929054
 21
154.75
 31
0.0
  0
LINE
  5
5BE
330
71
100
AcDbEntity
  8
0
100
AcDbLine
 10
2186.165950929055
 20
52.37499999999997
 30
0.0
 11
2242.665950929055
 21
52.37499999999997
 31
0.0
  0
LINE
  5
5BF
330
71
100
AcDbEntity
  8
0
100
AcDbLine
 10
2247.665950929055
 20
52.37499999999997
 30
0.0
 11
2304.165950929055
 21
52.37499999999997
 31
0.0
  0
LINE
  5
5C0
330
71
100
AcDbEntity
  8
0
100
AcDbLine
 10
2304.165950929055
 20
0.0
 30
0.0
 11
2186.165950929055
 21
0.0
 31
0.0
  0
LINE
  5
5C1
330
71
100
AcDbEntity
  8
0
100
AcDbLine
 10
2186.165950929055
 20
52.37499999999997
 30
0.0
 11
2186.165950929055
 21
46.49999999999963
 31
0.0
  0
LINE
  5
5C2
330
71
100
AcDbEntity
  8
0
100
AcDbLine
 10
2186.165950929055
 20
46.49999999999963
 30
0.0
 11
2242.665950929055
 21
46.49999999999963
 31
0.0
  0
LINE
  5
5C3
330
71
100
AcDbEntity
  8
0
100
AcDbLine
 10
2247.665950929055
 20
46.49999999999963
 30
0.0
 11
2304.165950929055
 21
46.49999999999963
 31
0.0
  0
LINE
  5
5C4
330
71
100
AcDbEntity
  8
0
100
AcDbLine
 10
2304.165950929055
 20
16.49999999999964
 30
0.0
 11
2222.665950929055
 21
16.49999999999964
 31
0.0
  0
LINE
  5
5C5
330
71
100
AcDbEntity
  8
0
100
AcDbLine
 10
2217.665950929054
 20
16.49999999999964
 30
0.0
 11
2186.165950929055
 21
16.49999999999964
 31
0.0
  0
LINE
  5
5C6
330
71
100
AcDbEntity
  8
0
100
AcDbLine
 10
2186.165950929055
 20
16.49999999999964
 30
0.0
 11
2186.165950929055
 21
0.0
 31
0.0
  0
LINE
  5
5C7
330
71
100
AcDbEntity
  8
0
100
AcDbLine
 10
2304.165950929055
 20
46.49999999999963
 30
0.0
 11
2304.165950929055
 21
52.37499999999997
 31
0.0
  0
LINE
  5
5C8
330
71
100
AcDbEntity
  8
0
100
AcDbLine
 10
2304.165950929055
 20
0.0
 30
0.0
 11
2304.165950929055
 21
16.49999999999964
 31
0.0
  0
LINE
  5
5C9
330
71
100
AcDbEntity
  8
0
100
AcDbLine
 10
2303.165950929055
 20
16.49999999999966
 30
0.0
 11
2303.165950929055
 21
46.49999999999964
 31
0.0
  0
LINE
  5
5CA
330
71
100
AcDbEntity
  8
0
100
AcDbLine
 10
2301.790950929055
 20
46.49999999999963
 30
0.0
 11
2301.790950929055
 21
16.49999999999964
 31
0.0
  0
LINE
  5
5CB
330
71
100
AcDbEntity
  8
0
100
AcDbLine
 10
2298.415950929055
 20
46.49999999999963
 30
0.0
 11
2298.415950929055
 21
16.49999999999964
 31
0.0
  0
LINE
  5
5CC
330
71
100
AcDbEntity
  8
0
100
AcDbLine
 10
2246.915950929055
 20
33.23212163596032
 30
0.0
 11
2246.915950929055
 21
16.49999999999964
 31
0.0
  0
LINE
  5
5CD
330
71
100
AcDbEntity
  8
0
100
AcDbLine
 10
2243.415950929055
 20
16.49999999999964
 30
0.0
 11
2243.415950929055
 21
30.1531274974241
 31
0.0
  0
LINE
  5
5CE
330
71
100
AcDbEntity
  8
0
100
AcDbLine
 10
2191.915950929055
 20
46.49999999999963
 30
0.0
 11
2191.915950929055
 21
16.49999999999964
 31
0.0
  0
LINE
  5
5CF
330
71
100
AcDbEntity
  8
0
100
AcDbLine
 10
2188.540950929055
 20
46.49999999999963
 30
0.0
 11
2188.540950929055
 21
16.49999999999964
 31
0.0
  0
LINE
  5
5D0
330
71
100
AcDbEntity
  8
0
100
AcDbLine
 10
2187.165950929055
 20
46.49999999999964
 30
0.0
 11
2187.165950929055
 21
16.49999999999966
 31
0.0
  0
ARC
  5
5D1
330
71
100
AcDbEntity
  8
0
100
AcDbCircle
 10
2257.290950929054
 20
13.0
 30
0.0
 40
1.499999999999995
100
AcDbArc
 50
359.9999999999996
 51
179.9999999999996
  0
ARC
  5
5D2
330
71
100
AcDbEntity
  8
0
100
AcDbCircle
 10
2257.290950929054
 20
13.0
 30
0.0
 40
1.5
100
AcDbArc
 50
180.0
 51
359.9999999999992
  0
ARC
  5
5D3
330
71
100
AcDbEntity
  8
0
100
AcDbCircle
 10
2194.415950929054
 20
3.125
 30
0.0
 40
1.000000000000021
100
AcDbArc
 50
359.9999999999988
 51
179.9999999999988
  0
ARC
  5
5D4
330
71
100
AcDbEntity
  8
0
100
AcDbCircle
 10
2194.415950929054
 20
3.125
 30
0.0
 40
1.000000000000001
100
AcDbArc
 50
180.0
 51
359.9999999999992
  0
ARC
  5
5D5
330
71
100
AcDbEntity
  8
0
100
AcDbCircle
 10
2293.665950929054
 20
22.0
 30
0.0
 40
0.7499999999999984
100
AcDbArc
 50
359.9999999999996
 51
179.9999999999996
  0
ARC
  5
5D6
330
71
100
AcDbEntity
  8
0
100
AcDbCircle
 10
2293.665950929054
 20
22.0
 30
0.0
 40
0.7500000000000036
100
AcDbArc
 50
180.0000000000004
 51
359.9999999999992
  0
ARC
  5
5D7
330
71
100
AcDbEntity
  8
0
100
AcDbCircle
 10
2216.728450929054
 20
137.5
 30
0.0
 40
2.0
100
AcDbArc
 50
359.9999999999988
 51
179.9999999999996
  0
ARC
  5
5D8
330
71
100
AcDbEntity
  8
0
100
AcDbCircle
 10
2216.728450929054
 20
137.5
 30
0.0
 40
2.0
100
AcDbArc
 50
180.0000000000004
 51
359.9999999999988
  0
ARC
  5
5D9
330
71
100
AcDbEntity
  8
0
100
AcDbCircle
 10
2216.728450929054
 20
66.375
 30
0.0
 40
2.0
100
AcDbArc
 50
0.0
 51
179.9999999999996
  0
ARC
  5
5DA
330
71
100
AcDbEntity
  8
0
100
AcDbCircle
 10
2216.728450929054
 20
66.375
 30
0.0
 40
2.000000000000005
100
AcDbArc
 50
180.0
 51
359.9999999999992
  0
ARC
  5
5DB
330
71
100
AcDbEntity
  8
0
100
AcDbCircle
 10
2273.603450929055
 20
137.5
 30
0.0
 40
1.99999999999996
100
AcDbArc
 50
359.9999999999992
 51
180.0
  0
ARC
  5
5DC
330
71
100
AcDbEntity
  8
0
100
AcDbCircle
 10
2273.603450929055
 20
137.5
 30
0.0
 40
2.000000000000034
100
AcDbArc
 50
180.0000000000004
 51
359.9999999999984
  0
ARC
  5
5DD
330
71
100
AcDbEntity
  8
0
100
AcDbCircle
 10
2273.603450929055
 20
66.375
 30
0.0
 40
1.999999999999971
100
AcDbArc
 50
0.0
 51
179.9999999999996
  0
ARC
  5
5DE
330
71
100
AcDbEntity
  8
0
100
AcDbCircle
 10
2273.603450929055
 20
66.375
 30
0.0
 40
2.00000000000003
100
AcDbArc
 50
180.0
 51
359.9999999999992
  0
HATCH
  5
680
330
71
100
AcDbEntity
  8
0
100
AcDbHatch
 10
0.0
 20
0.0
 30
0.0
210
0.0
220
0.0
230
1.0
  2
HONEY
 70
     0
 71
     0
 91
        8
 92
        7
 72
     0
 73
     1
 93
        4
 10
1745.73801327634
 20
46.50000000000011
 10
1694.238013276339
 20
46.50000000000011
 10
1694.238013276339
 20
16.50000000000011
 10
1745.73801327634
 20
16.50000000000011
 97
        0
 92
        7
 72
     0
 73
     1
 93
        4
 10
1800.738013276339
 20
46.50000000000011
 10
1749.23801327634
 20
46.50000000000011
 10
1749.23801327634
 20
16.50000000000011
 10
1800.738013276339
 20
16.50000000000011
 97
        0
 92
        7
 72
     0
 73
     1
 93
        4
 10
1993.550594180783
 20
46.49999999999988
 10
1929.175594180781
 20
46.50000000000008
 10
1929.175594180781
 20
16.50000000000009
 10
1993.550594180783
 20
16.49999999999988
 97
        0
 92
        7
 72
     0
 73
     1
 93
        4
 10
2061.425594180782
 20
46.49999999999965
 10
1997.050594180783
 20
46.49999999999987
 10
1997.050594180783
 20
16.49999999999987
 10
2061.425594180782
 20
16.49999999999966
 97
        0
 92
        7
 72
     0
 73
     1
 93
       66
 10
2224.165950929055
 20
34.74999999999994
 10
2241.165950929054
 20
34.74999999999994
 10
2241.182145104642
 20
34.75008741965524
 10
2241.242112656455
 20
34.75193478403673
 10
2241.301958365751
 20
34.75617873319349
 10
2241.361586492162
 20
34.76281247771256
 10
2241.420901643405
 20
34.77182540501753
 10
2241.479808927891
 20
34.78320309634699
 10
2241.538214106533
 20
34.79692734982268
 10
2241.596023743502
 20
34.81297620956614
 10
2241.653145355713
 20
34.83132400082562
 10
2241.709487560768
 20
34.85194137104926
 10
2241.764960223163
 20
34.87479533684251
 10
2241.81947459847
 20
34.89984933673529
 10
2241.872943475315
 20
34.92706328967261
 10
2241.925281314903
 20
34.95639365913586
 10
2241.976404387857
 20
34.98779352278788
 10
2242.026230908161
 20
35.02121264754752
 10
2242.074681164019
 20
35.05659756994534
 10
2242.121677645351
 20
35.09389168165111
 10
2242.167145167816
 20
35.13303532004338
 10
2242.211010993075
 20
35.17396586365111
 10
2242.253204945166
 20
35.21661783233309
 10
2242.293659522766
 20
35.26092299204317
 10
2242.33231000718
 20
35.30681046397204
 10
2242.369094565881
 20
35.35420683795698
 10
2242.403954351418
 20
35.40303628990586
 10
2242.436833595573
 20
35.45322070311639
 10
2242.467679698572
 20
35.50467979323526
 10
2242.496443313224
 20
35.55733123668878
 10
2242.523078423884
 20
35.61109080239921
 10
2242.547542420059
 20
35.6658724865374
 10
2242.569796164572
 20
35.72158865008802
 10
2242.589804056179
 20
35.77815015907602
 10
2242.60753408652
 20
35.83546652715288
 10
2242.622957891333
 20
35.89344606035989
 10
2242.636050795817
 20
35.95199600380929
 10
2242.646791854118
 20
36.01102269007844
 10
2242.655163882835
 20
36.07043168906727
 10
2242.661153488509
 20
36.13012795904519
 10
2242.664751089046
 20
36.1900159987179
 10
2242.665950929055
 20
36.25000000000214
 10
2242.665950929055
 20
46.49999999999963
 10
2191.915950929055
 20
46.49999999999963
 10
2191.915950929055
 20
16.49999999999964
 10
2217.665950929054
 20
16.49999999999964
 10
2217.665950929054
 20
28.46180694249646
 10
2217.701928023819
 20
28.9691350642588
 10
2217.780071326119
 20
29.48340547139301
 10
2217.899062465392
 20
29.98978629263724
 10
2218.058140304417
 20
30.48503841882357
 10
2218.256287287889
 20
30.96599392641712
 10
2218.492235951318
 20
31.42957634150484
 10
2218.764477028456
 20
31.87282031864802
 10
2219.07126910546
 20
32.29289060900556
 10
2219.410649759996
 20
32.68710019625429
 10
2219.780448114051
 20
33.05292748432139
 10
2220.178298720126
 20
33.38803242697762
 10
2220.601656692055
 20
33.69027149617962
 10
2221.047813983579
 20
33.9577113933092
 10
2221.513916710582
 20
34.18864141568622
 10
2221.996983406234
 20
34.38158439923968
 10
2222.493924092201
 20
34.53530616731554
 10
2223.001560043961
 20
34.6488234251902
 10
2223.516644123777
 20
34.72141004980148
 10
2223.906020256842
 20
34.74480069329633
 97
        0
 92
        7
 72
     0
 73
     1
 93
       11
 10
2298.415950929055
 20
46.49999999999963
 10
2247.665950929055
 20
46.49999999999963
 10
2247.665950929055
 20
36.03819305749893
 10
2247.629973834289
 20
35.53086493574261
 10
2247.551830531989
 20
35.01659452859705
 10
2247.432839392716
 20
34.51021370735557
 10
2247.273761553692
 20
34.01496158117716
 10
2247.07561457022
 20
33.53400607358253
 10
2246.915950929055
 20
33.22030539269051
 10
2246.915950929055
 20
16.49999999999964
 10
2298.415950929055
 20
16.49999999999964
 97
        0
 92
       22
 72
     1
 73
     1
 93
        2
 10
2292.915950929054
 20
22.00000000000001
 42
-1.0
 10
2294.415950929054
 20
21.99999999999999
 42
-1.0
 97
        0
 92
        7
 72
     0
 73
     1
 93
       49
 10
2243.415950929055
 20
30.15259810298117
 10
2243.087985531567
 20
30.03658464716899
 10
2242.585295113983
 20
29.90285816727239
 10
2242.073525737279
 20
29.80973173481678
 10
2241.555950979003
 20
29.75780104116556
 10
2241.165950929055
 20
29.75000000000006
 10
2224.165950929055
 20
29.75000000000006
 10
2224.149756753467
 20
29.7499125803451
 10
2224.089789201654
 20
29.74806521596344
 10
2224.029943492358
 20
29.7438212668065
 10
2223.970315365947
 20
29.73718752228744
 10
2223.911000214704
 20
29.72817459498268
 10
2223.852092930217
 20
29.71679690365292
 10
2223.793687751576
 20
29.7030726501773
 10
2223.735878114607
 20
29.68702379043391
 10
2223.678756502397
 20
29.66867599917462
 10
2223.62241429734
 20
29.64805862895087
 10
2223.566941634945
 20
29.62520466315753
 10
2223.512427259639
 20
29.60015066326461
 10
2223.458958382794
 20
29.57293671032783
 10
2223.406620543205
 20
29.5436063408648
 10
2223.355497470254
 20
29.51220647721314
 10
2223.305670949946
 20
29.47878735245143
 10
2223.257220694092
 20
29.44340243005554
 10
2223.210224212756
 20
29.40610831834702
 10
2223.164756690294
 20
29.36696467995667
 10
2223.120890865034
 20
29.32603413634864
 10
2223.078696912943
 20
29.28338216766643
 10
2223.038242335344
 20
29.23907700795715
 10
2222.99959185093
 20
29.1931895360285
 10
2222.962807292227
 20
29.14579316204352
 10
2222.92794750669
 20
29.09696371009092
 10
2222.895068262536
 20
29.04677929688352
 10
2222.864222159538
 20
28.99532020676481
 10
2222.835458544885
 20
28.9426687633117
 10
2222.808823434225
 20
28.88890919759893
 10
2222.78435943805
 20
28.83412751346212
 10
2222.762105693538
 20
28.77841134991291
 10
2222.742097801932
 20
28.7218498409237
 10
2222.724367771589
 20
28.66453347284544
 10
2222.708943966777
 20
28.60655393963943
 10
2222.695851062293
 20
28.54800399619343
 10
2222.685110003991
 20
28.48897730992208
 10
2222.676737975274
 20
28.42956831093414
 10
2222.670748369601
 20
28.36987204095357
 10
2222.667150769063
 20
28.30998400128083
 10
2222.665950929055
 20
28.25000000000221
 10
2222.665950929055
 20
16.49999999999964
 10
2243.415950929055
 20
16.49999999999964
 97
        0
 75
     1
 76
     1
 52
0.0
 41
8.0
 77
     0
 78
     3
 53
0.0
 43
0.0
 44
0.0
 45
1.5
 46
0.8660254037844385
 79
     2
 49
1.0
 49
-2.0
 53
120.0
 43
0.0
 44
0.0
 45
-1.499999999999999
 46
0.8660254037844389
 79
     2
 49
0.9999999999999998
 49
-1.999999999999999
 53
60.0
 43
0.0
 44
0.0
 45
0.0000000000000003
 46
1.732050807568876
 79
     2
 49
-2.0
 49
1.0
 47
0.3275308499791397
 98
        8
 10
1714.935946795038
 20
24.74559952552136
 10
1775.405592166556
 20
33.18546051393423
 10
1947.489595510672
 20
27.61742883022725
 10
2014.028757975983
 20
29.91014775881286
 10
2208.261373708301
 20
33.82793708485042
 10
2268.900498696228
 20
25.96719386737732
 10
2268.900498696228
 20
25.96719386737732
 10
2237.433716766096
 20
22.03682595605005
1001
GradientColor1ACI
1070
     5
1001
GradientColor2ACI
1070
     2
1001
ACAD
1010
0.0
1020
0.0
1030
0.0
  0
ARC
  5
68A
330
71
100
AcDbEntity
  8
0
100
AcDbCircle
 10
2245.165950929052
 20
145.1250000000034
 30
0.0
 40
2.5
100
AcDbArc
 50
0.0
 51
180.0
  0
VIEWPORT
  5
3A4
102
{ACAD_XDICTIONARY
360
9D7
102
}
330
6D
100
AcDbEntity
 67
     1
  8
0
100
AcDbViewport
 10
1780.230945548041
 20
86.073548105834
 30
0.0
 40
5052.551173629652
 41
2060.596588305356
 68
     1
 69
     1
 12
1780.230945548041
 22
86.073548105834
 13
0.0
 23
0.0
 14
0.0
 24
0.0
 15
0.0
 25
0.0
 16
0.0
 26
0.0
 36
1.0
 17
0.0
 27
0.0
 37
0.0
 42
50.0
 43
0.0
 44
0.0
 45
2060.596588305356
 50
0.0
 51
0.0
 72
   100
 90
    32800
  1

281
     0
 71
     1
 74
     1
110
0.0
120
0.0
130
0.0
111
1.0
121
0.0
131
0.0
112
0.0
122
1.0
132
0.0
 79
     0
146
0.0
  0
ENDSEC
  0
SECTION
  2
OBJECTS
  0
DICTIONARY
  5
C
330
0
100
AcDbDictionary
281
     1
  3
ACAD_CIP_PREVIOUS_PRODUCT_INFO
350
7A
  3
ACAD_COLOR
350
63
  3
ACAD_DETAILVIEWSTYLE
350
6B
  3
ACAD_GROUP
350
D
  3
ACAD_IMAGE_VARS
350
7B
  3
ACAD_LAYOUT
350
62
  3
ACAD_MATERIAL
350
10
  3
ACAD_MLEADERSTYLE
350
66
  3
ACAD_MLINESTYLE
350
5F
  3
ACAD_PLOTSETTINGS
350
61
  3
ACAD_PLOTSTYLENAME
350
E
  3
ACAD_SCALELIST
350
42
  3
ACAD_SECTIONVIEWSTYLE
350
68
  3
ACAD_TABLESTYLE
350
64
  3
ACAD_VISUALSTYLE
350
29
  3
ACDB_RECOMPOSE_DATA
350
99E
  3
AcDbVariableDictionary
350
7C
  3
DWGPROPS
350
99F
  3
REVIT_DICTIONARY
350
3C7
  0
DICTIONARY
  5
3E4
330
2
100
AcDbDictionary
280
     1
281
     1
  3
ACAD_LAYERSTATES
360
3E5
  0
DICTIONARY
  5
3CB
330
71
100
AcDbDictionary
280
     1
281
     1
  3
ACAD_SORTENTS
360
3CC
  0
DICTIONARY
  5
9D7
330
3A4
100
AcDbDictionary
280
     1
281
     1
  3
ACAD_XREC_ROUNDTRIP
360
9D8
  0
XRECORD
  5
7A
102
{ACAD_REACTORS
330
C
102
}
330
C
100
AcDbXrecord
280
     1
300
ACD
300
2013
300
85946BDSPRM_2013_0F
  0
DICTIONARY
  5
63
102
{ACAD_REACTORS
330
C
102
}
330
C
100
AcDbDictionary
281
     1
  0
DICTIONARY
  5
6B
102
{ACAD_REACTORS
330
C
102
}
330
C
100
AcDbDictionary
281
     1
  3
Imperial24
350
6C
  0
DICTIONARY
  5
D
102
{ACAD_REACTORS
330
C
102
}
330
C
100
AcDbDictionary
281
     1
  0
RASTERVARIABLES
  5
7B
102
{ACAD_REACTORS
330
C
102
}
330
C
100
AcDbRasterVariables
 90
        0
 70
     0
 71
     1
 72
     5
  0
DICTIONARY
  5
62
102
{ACAD_REACTORS
330
C
102
}
330
C
100
AcDbDictionary
281
     1
  3
Layout1
350
70
  3
Model
350
74
  0
DICTIONARY
  5
10
102
{ACAD_REACTORS
330
C
102
}
330
C
100
AcDbDictionary
281
     1
  3
ByBlock
350
19
  3
ByLayer
350
11
  3
Global
350
21
  0
DICTIONARY
  5
66
102
{ACAD_REACTORS
330
C
102
}
330
C
100
AcDbDictionary
281
     1
  3
Standard
350
67
  0
DICTIONARY
  5
5F
102
{ACAD_REACTORS
330
C
102
}
330
C
100
AcDbDictionary
281
     1
  3
Standard
350
60
  0
DICTIONARY
  5
61
102
{ACAD_REACTORS
330
C
102
}
330
C
100
AcDbDictionary
281
     1
  0
ACDBDICTIONARYWDFLT
  5
E
102
{ACAD_REACTORS
330
C
102
}
330
C
100
AcDbDictionary
281
     1
  3
Normal
350
F
100
AcDbDictionaryWithDefault
340
F
  0
DICTIONARY
  5
42
102
{ACAD_REACTORS
330
C
102
}
330
C
100
AcDbDictionary
281
     1
  3
A0
350
43
  3
A1
350
44
  3
A2
350
45
  3
A3
350
46
  3
A4
350
47
  3
A5
350
48
  3
A6
350
49
  3
A7
350
4A
  3
A8
350
4B
  3
A9
350
4C
  3
B0
350
4D
  3
B1
350
4E
  3
B2
350
4F
  3
B3
350
50
  3
B4
350
51
  3
B5
350
52
  3
B6
350
53
  0
DICTIONARY
  5
68
102
{ACAD_REACTORS
330
C
102
}
330
C
100
AcDbDictionary
281
     1
  3
Imperial24
350
6A
  0
DICTIONARY
  5
64
102
{ACAD_REACTORS
330
C
102
}
330
C
100
AcDbDictionary
281
     1
  3
Standard
350
65
  0
DICTIONARY
  5
29
102
{ACAD_REACTORS
330
C
102
}
330
C
100
AcDbDictionary
281
     1
  3
2dWireframe
350
2F
  3
Basic
350
2E
  3
Brighten
350
35
  3
ColorChange
350
39
  3
Conceptual
350
32
  3
Dim
350
34
  3
EdgeColorOff
350
41
  3
Facepattern
350
38
  3
Flat
350
2A
  3
FlatWithEdges
350
2B
  3
Gouraud
350
2C
  3
GouraudWithEdges
350
2D
  3
Hidden
350
31
  3
JitterOff
350
3F
  3
Linepattern
350
37
  3
OverhangOff
350
40
  3
Realistic
350
33
  3
Shaded
350
3E
  3
Shaded with edges
350
3D
  3
Shades of Gray
350
3A
  3
Sketchy
350
3B
  3
Thicken
350
36
  3
Wireframe
350
30
  3
X-Ray
350
3C
  0
XRECORD
  5
99E
102
{ACAD_REACTORS
330
C
102
}
330
C
100
AcDbXrecord
280
     1
 90
        1
330
65
  0
DICTIONARY
  5
7C
102
{ACAD_REACTORS
330
C
102
}
330
C
100
AcDbDictionary
281
     1
  3
CANNOSCALE
350
81
  3
CMLEADERSTYLE
350
7E
  3
CTABLESTYLE
350
7D
  3
CVIEWDETAILSTYLE
350
7F
  3
CVIEWSECTIONSTYLE
350
80
  3
DIMASSOC
350
6FC
  3
HIDETEXT
350
6FB
  3
INDEXCTL
350
6FA
  3
LATITUDE
350
999
  3
LAYEREVAL
350
6F7
  3
LAYERNOTIFY
350
6F8
  3
LIGHTINGUNITS
350
6F6
  3
LOFTANG1
350
997
  3
LOFTANG2
350
998
  3
LONGITUDE
350
99A
  3
MSLTSCALE
350
6F5
  3
SORTENTS
350
6F9
  3
TIMEZONE
350
99B
  3
XCLIPFRAME
350
99C
  0
XRECORD
  5
99F
102
{ACAD_REACTORS
330
C
102
}
330
C
100
AcDbXrecord
280
     1
  1
DWGPROPS COOKIE
  2

  3

  4

  6

  7

  8
jcl
  9

300
=
301
=
302
=
303
=
304
=
305
=
306
=
307
=
308
=
309
=
 40
0.0151307407407408
 41
2457120.704469248
 42
2457120.721554387
  1

 90
        0
  0
DICTIONARY
  5
3C7
102
{ACAD_REACTORS
330
C
102
}
330
C
100
AcDbDictionary
281
     1
  3
REVIT_CATEGORY_MAPPING
350
3C9
  3
REVIT_SUB_CATEGORY_MAPPING
350
3CA
  3
REVIT_TYPE_MAPPING
350
3C8
  0
DICTIONARY
  5
3E5
102
{ACAD_REACTORS
330
3E4
102
}
330
3E4
100
AcDbDictionary
281
     1
  0
SORTENTSTABLE
  5
3CC
102
{ACAD_REACTORS
330
3CB
102
}
330
3CB
100
AcDbSortentsTable
330
71
331
566
  5
53F
331
4EC
  5
4C3
331
527
  5
500
331
562
  5
53B
331
4DC
  5
4B3
331
523
  5
4FC
331
55E
  5
537
331
55A
  5
533
331
5DC
  5
482
331
5D8
  5
47E
331
5D4
  5
47A
331
5D0
  5
476
331
46D
  5
5B5
331
469
  5
5B1
331
465
  5
5AD
331
4A4
  5
576
331
461
  5
5A9
331
4A0
  5
572
331
51F
  5
4F8
331
556
  5
52F
331
595
  5
43B
331
4D4
  5
4AB
331
51B
  5
4F4
331
517
  5
4F2
331
552
  5
52B
331
591
  5
436
331
4D0
  5
4A7
331
4CC
  5
4A3
331
513
  5
4F0
331
54E
  5
527
331
58D
  5
42F
331
589
  5
42B
331
4C8
  5
49F
331
54A
  5
523
331
5CC
  5
472
331
5C8
  5
46E
331
5C4
  5
46A
331
5C0
  5
466
331
42A
  5
5E9
331
45D
  5
5A5
331
459
  5
5A1
331
498
  5
56C
331
455
  5
59D
331
494
  5
565
331
451
  5
599
331
490
  5
561
331
50F
  5
4EA
331
546
  5
51F
331
585
  5
427
331
4C4
  5
49B
331
50B
  5
4E4
331
542
  5
51B
331
4C0
  5
497
331
4BC
  5
493
331
503
  5
4DD
331
53E
  5
517
331
57D
  5
41F
331
579
  5
552
331
4B8
  5
48F
331
53A
  5
513
331
5B8
  5
461
331
5B4
  5
45A
331
5B0
  5
456
331
48C
  5
55D
331
44D
  5
595
331
449
  5
591
331
488
  5
559
331
445
  5
58D
331
484
  5
5D8
331
441
  5
589
331
480
  5
5D4
331
4FF
  5
4D6
331
575
  5
54E
331
4B4
  5
48B
331
4FB
  5
4D2
331
536
  5
50F
331
4F7
  5
4CE
331
532
  5
50B
331
571
  5
54A
331
4B0
  5
487
331
4AC
  5
57E
331
4F3
  5
4CA
331
52E
  5
507
331
4A8
  5
57A
331
52A
  5
503
331
569
  5
544
331
5AC
  5
452
331
5A8
  5
44E
331
5A4
  5
44A
331
47C
  5
5C4
331
43D
  5
585
331
478
  5
5C0
331
439
  5
581
331
425
  5
5E0
331
474
  5
5BC
331
470
  5
5B8
331
4EF
  5
4C6
331
565
  5
53E
331
4EB
  5
4C2
331
526
  5
4FF
331
561
  5
53A
331
4DB
  5
4B2
331
522
  5
4FB
331
55D
  5
536
331
559
  5
532
331
5DB
  5
481
331
5D7
  5
47D
331
5D3
  5
479
331
46C
  5
5B4
331
468
  5
5B0
331
4A7
  5
579
331
464
  5
5AC
331
4A3
  5
575
331
460
  5
5A8
331
51E
  5
4F7
331
51A
  5
4F3
331
555
  5
52E
331
594
  5
43A
331
4D3
  5
4AA
331
551
  5
52A
331
590
  5
435
331
4CF
  5
4A6
331
4CB
  5
4A2
331
512
  5
4EF
331
54D
  5
526
331
58C
  5
42E
331
588
  5
42A
331
5CF
  5
475
331
549
  5
522
331
5CB
  5
471
331
5C7
  5
46D
331
5C3
  5
469
331
49F
  5
571
331
429
  5
5E8
331
45C
  5
5A4
331
458
  5
5A0
331
497
  5
56B
331
454
  5
59C
331
493
  5
564
331
450
  5
598
331
4C7
  5
49E
331
50E
  5
4E8
331
545
  5
51E
331
584
  5
426
331
4C3
  5
49A
331
50A
  5
4E2
331
541
  5
51A
331
580
  5
422
331
4BF
  5
496
331
4BB
  5
492
331
502
  5
4DC
331
53D
  5
516
331
57C
  5
555
331
578
  5
551
331
5BF
  5
465
331
539
  5
512
331
5B7
  5
460
331
5B3
  5
459
331
48F
  5
560
331
48B
  5
55C
331
44C
  5
594
331
448
  5
590
331
487
  5
558
331
444
  5
58C
331
483
  5
5D7
331
440
  5
588
331
4B7
  5
48E
331
4FE
  5
4D5
331
535
  5
50E
331
574
  5
54D
331
4B3
  5
48A
331
4FA
  5
4D1
331
4F6
  5
4CD
331
531
  5
50A
331
570
  5
549
331
4AF
  5
486
331
4AB
  5
57D
331
4F2
  5
4C9
331
52D
  5
506
331
56C
  5
547
331
568
  5
543
331
5AF
  5
455
331
529
  5
502
331
5AB
  5
451
331
5A7
  5
44D
331
47F
  5
5D3
331
47B
  5
5C3
331
43C
  5
584
331
438
  5
580
331
477
  5
5BF
331
473
  5
5BB
331
4EE
  5
4C5
331
564
  5
53D
331
525
  5
4FE
331
560
  5
539
331
59B
  5
441
331
521
  5
4FA
331
55C
  5
535
331
5DE
  5
484
331
558
  5
531
331
5DA
  5
480
331
5D6
  5
47C
331
5D2
  5
478
331
46F
  5
5B7
331
46B
  5
5B3
331
467
  5
5AF
331
4A6
  5
578
331
463
  5
5AB
331
4A2
  5
574
331
597
  5
43D
331
4D6
  5
4AD
331
51D
  5
4F6
331
554
  5
52D
331
593
  5
439
331
4D2
  5
4A9
331
4CE
  5
4A5
331
515
  5
4F1
331
550
  5
529
331
58F
  5
434
331
4CA
  5
4A1
331
511
  5
4EE
331
54C
  5
525
331
58B
  5
42D
331
5CE
  5
474
331
548
  5
521
331
5CA
  5
470
331
5C6
  5
46C
331
5C2
  5
468
331
49E
  5
570
331
45F
  5
5A7
331
49A
  5
56F
331
428
  5
5E7
331
45B
  5
5A3
331
457
  5
59F
331
496
  5
56A
331
453
  5
59B
331
492
  5
563
331
587
  5
429
331
4C6
  5
49D
331
50D
  5
4E6
331
509
  5
4E0
331
544
  5
51D
331
583
  5
425
331
4C2
  5
499
331
505
  5
4DF
331
540
  5
519
331
57F
  5
421
331
4BE
  5
495
331
4BA
  5
491
331
501
  5
4D8
331
53C
  5
515
331
57B
  5
554
331
5BE
  5
464
331
538
  5
511
331
5BA
  5
463
331
5B6
  5
45C
331
5B2
  5
458
331
44F
  5
597
331
48E
  5
55F
331
48A
  5
55B
331
44B
  5
593
331
447
  5
58F
331
486
  5
557
331
443
  5
58B
331
482
  5
5D6
331
577
  5
550
331
4B6
  5
48D
331
4FD
  5
4D4
331
534
  5
50D
331
573
  5
54C
331
4B2
  5
489
331
4F9
  5
4D0
331
4F5
  5
4CC
331
530
  5
509
331
56F
  5
548
331
4AE
  5
485
331
4AA
  5
57C
331
4F1
  5
4C8
331
52C
  5
505
331
56B
  5
546
331
5AE
  5
454
331
528
  5
501
331
5AA
  5
450
331
5A6
  5
44C
331
43F
  5
587
331
47E
  5
5D2
331
47A
  5
5C2
331
43B
  5
583
331
427
  5
5E6
331
476
  5
5BE
331
472
  5
5BA
331
567
  5
542
331
4ED
  5
4C4
331
563
  5
53C
331
524
  5
4FD
331
55F
  5
538
331
59A
  5
440
331
520
  5
4F9
331
55B
  5
534
331
5DD
  5
483
331
5D9
  5
47F
331
5D5
  5
47B
331
5D1
  5
477
331
46E
  5
5B6
331
46A
  5
5B2
331
466
  5
5AE
331
4A5
  5
577
331
462
  5
5AA
331
4A1
  5
573
331
557
  5
530
331
596
  5
43C
331
4D5
  5
4AC
331
51C
  5
4F5
331
553
  5
52C
331
592
  5
438
331
4D1
  5
4A8
331
4CD
  5
4A4
331
54F
  5
528
331
58E
  5
433
331
58A
  5
42C
331
4C9
  5
4A0
331
510
  5
4ED
331
54B
  5
524
331
5CD
  5
473
331
5C9
  5
46F
331
5C5
  5
46B
331
5C1
  5
467
331
42B
  5
5EA
331
45E
  5
5A6
331
45A
  5
5A2
331
499
  5
56E
331
456
  5
59E
331
495
  5
569
331
452
  5
59A
331
491
  5
562
331
586
  5
428
331
4C5
  5
49C
331
50C
  5
4E5
331
547
  5
520
331
543
  5
51C
331
4C1
  5
498
331
4BD
  5
494
331
504
  5
4DE
331
53F
  5
518
331
57E
  5
420
331
4B9
  5
490
331
500
  5
4D7
331
53B
  5
514
331
57A
  5
553
331
5B9
  5
462
331
5B5
  5
45B
331
5B1
  5
457
331
48D
  5
55E
331
44E
  5
596
331
489
  5
55A
331
44A
  5
592
331
446
  5
58E
331
485
  5
556
331
442
  5
58A
331
481
  5
5D5
331
576
  5
54F
331
4FC
  5
4D3
331
537
  5
510
331
4F8
  5
4CF
331
533
  5
50C
331
572
  5
54B
331
4B1
  5
488
331
4F4
  5
4CB
331
52F
  5
508
331
4AD
  5
57F
331
4A9
  5
57B
331
4F0
  5
4C7
331
52B
  5
504
331
56A
  5
545
331
5AD
  5
453
331
5A9
  5
44F
331
5A5
  5
44B
331
43E
  5
586
331
47D
  5
5C5
331
479
  5
5C1
331
43A
  5
582
331
426
  5
5E3
331
475
  5
5BD
331
680
  5
430
331
471
  5
5B9
  0
XRECORD
  5
9D8
102
{ACAD_REACTORS
330
9D7
102
}
330
9D7
100
AcDbXrecord
280
     1
102
SHADEPLOT
 70
     0
  0
ACDBDETAILVIEWSTYLE
  5
6C
102
{ACAD_REACTORS
330
6B
102
}
330
6B
100
AcDbModelDocViewStyle
 70
     0
  3
Imperial24
290
     0
100
AcDbDetailViewStyle
 70
     0
 71
     0
 90
        3
 71
     1
340
55
 40
0.24
340
0
 40
0.24
300

 40
0.36
280
     3
 71
     2
340
5D
 90
       25
 71
     3
340
55
 40
0.24
 90
        1
 40
0.75
 90
        1
300
%<\AcVar ViewType \f "%tc1">% %<\AcVar ViewDetailId>%\PSCALE %<\AcVar ViewScale \f "%sn">%
 71
     4
340
5D
 90
       25
340
5D
 90
       25
280
     0
  0
LAYOUT
  5
70
102
{ACAD_XDICTIONARY
360
9D3
102
}
102
{ACAD_REACTORS
330
62
102
}
330
62
100
AcDbPlotSettings
  1

  2
\\USJESR-FS01\MD_ENGR_Copier
  4
Letter
  6

 40
7.143749713897705
 41
5.027099609375
 42
7.14373779296875
 43
5.027069091796875
 44
215.8999938964844
 45
279.3999938964844
 46
0.0
 47
0.0
 48
0.0
 49
0.0
140
0.0
141
0.0
142
1.0
143
240.5772734560848
 70
   688
 72
     0
 73
     1
 74
     1
  7

 75
     0
147
0.004156668606449
148
-12818.62022486862
149
22065.4239850904
100
AcDbLayout
  1
Layout1
 70
     1
 71
     1
 10
457.0559704444398
 20
-936.3798351776614
 11
3103.405920651643
 21
1108.526931389329
 12
0.0
 22
0.0
 32
0.0
 14
1.000000000000000E+20
 24
1.000000000000000E+20
 34
1.000000000000000E+20
 15
-1.000000000000000E+20
 25
-1.000000000000000E+20
 35
-1.000000000000000E+20
146
0.0
 13
0.0
 23
0.0
 33
0.0
 16
1.0
 26
0.0
 36
0.0
 17
0.0
 27
1.0
 37
0.0
 76
     0
330
6D
331
3A4
1001
ACAD_PSEXT
1000
\\USJESR-FS01\MD_ENGR_Copier
1000
SAVIN C6055 PCL 5c
1000
2nd Floor Left Rear - near room 230
1000

1070
     0
  0
LAYOUT
  5
74
102
{ACAD_XDICTIONARY
360
9D5
102
}
102
{ACAD_REACTORS
330
62
102
}
330
62
100
AcDbPlotSettings
  1

  2

  4

  6

 40
0.0
 41
0.0
 42
0.0
 43
0.0
 44
0.0
 45
0.0
 46
0.0
 47
0.0
 48
0.0
 49
0.0
140
0.0
141
0.0
142
1.0
143
1.0
 70
  1712
 72
     0
 73
     0
 74
     0
  7

 75
     0
147
1.0
148
0.0
149
0.0
100
AcDbLayout
  1
Model
 70
     1
 71
     0
 10
0.0
 20
0.0
 11
12.0
 21
9.0
 12
0.0
 22
0.0
 32
0.0
 14
0.0
 24
0.0
 34
0.0
 15
0.0
 25
0.0
 35
0.0
146
0.0
 13
0.0
 23
0.0
 33
0.0
 16
1.0
 26
0.0
 36
0.0
 17
0.0
 27
1.0
 37
0.0
 76
     0
330
71
331
57
  0
MATERIAL
  5
19
102
{ACAD_XDICTIONARY
360
1A
102
}
102
{ACAD_REACTORS
330
10
102
}
330
10
100
AcDbMaterial
  1
ByBlock
 72
     0
 43
0.0208333333333333
 43
0.0
 43
0.0
 43
0.0
 43
0.0
 43
0.0208333333333333
 43
0.0
 43
0.0
 43
0.0
 43
0.0
 43
1.0
 43
0.0
 43
0.0
 43
0.0
 43
0.0
 43
1.0
 77
     0
 47
0.0208333333333333
 47
0.0
 47
0.0
 47
0.0
 47
0.0
 47
0.0208333333333333
 47
0.0
 47
0.0
 47
0.0
 47
0.0
 47
1.0
 47
0.0
 47
0.0
 47
0.0
 47
0.0
 47
1.0
171
     0
 49
0.0208333333333333
 49
0.0
 49
0.0
 49
0.0
 49
0.0
 49
0.0208333333333333
 49
0.0
 49
0.0
 49
0.0
 49
0.0
 49
1.0
 49
0.0
 49
0.0
 49
0.0
 49
0.0
 49
1.0
175
     0
142
0.0208333333333333
142
0.0
142
0.0
142
0.0
142
0.0
142
0.0208333333333333
142
0.0
142
0.0
142
0.0
142
0.0
142
1.0
142
0.0
142
0.0
142
0.0
142
0.0
142
1.0
179
     0
144
0.0208333333333333
144
0.0
144
0.0
144
0.0
144
0.0
144
0.0208333333333333
144
0.0
144
0.0
144
0.0
144
0.0
144
1.0
144
0.0
144
0.0
144
0.0
144
0.0
144
1.0
147
0.0208333333333333
147
0.0
147
0.0
147
0.0
147
0.0
147
0.0208333333333333
147
0.0
147
0.0
147
0.0
147
0.0
147
1.0
147
0.0
147
0.0
147
0.0
147
0.0
147
1.0
  0
MATERIAL
  5
11
102
{ACAD_XDICTIONARY
360
12
102
}
102
{ACAD_REACTORS
330
10
102
}
330
10
100
AcDbMaterial
  1
ByLayer
 72
     0
 43
0.0208333333333333
 43
0.0
 43
0.0
 43
0.0
 43
0.0
 43
0.0208333333333333
 43
0.0
 43
0.0
 43
0.0
 43
0.0
 43
1.0
 43
0.0
 43
0.0
 43
0.0
 43
0.0
 43
1.0
 77
     0
 47
0.0208333333333333
 47
0.0
 47
0.0
 47
0.0
 47
0.0
 47
0.0208333333333333
 47
0.0
 47
0.0
 47
0.0
 47
0.0
 47
1.0
 47
0.0
 47
0.0
 47
0.0
 47
0.0
 47
1.0
171
     0
 49
0.0208333333333333
 49
0.0
 49
0.0
 49
0.0
 49
0.0
 49
0.0208333333333333
 49
0.0
 49
0.0
 49
0.0
 49
0.0
 49
1.0
 49
0.0
 49
0.0
 49
0.0
 49
0.0
 49
1.0
175
     0
142
0.0208333333333333
142
0.0
142
0.0
142
0.0
142
0.0
142
0.0208333333333333
142
0.0
142
0.0
142
0.0
142
0.0
142
1.0
142
0.0
142
0.0
142
0.0
142
0.0
142
1.0
179
     0
144
0.0208333333333333
144
0.0
144
0.0
144
0.0
144
0.0
144
0.0208333333333333
144
0.0
144
0.0
144
0.0
144
0.0
144
1.0
144
0.0
144
0.0
144
0.0
144
0.0
144
1.0
147
0.0208333333333333
147
0.0
147
0.0
147
0.0
147
0.0
147
0.0208333333333333
147
0.0
147
0.0
147
0.0
147
0.0
147
1.0
147
0.0
147
0.0
147
0.0
147
0.0
147
1.0
  0
MATERIAL
  5
21
102
{ACAD_XDICTIONARY
360
22
102
}
102
{ACAD_REACTORS
330
10
102
}
330
10
100
AcDbMaterial
  1
Global
 72
     0
 43
0.0208333333333333
 43
0.0
 43
0.0
 43
0.0
 43
0.0
 43
0.0208333333333333
 43
0.0
 43
0.0
 43
0.0
 43
0.0
 43
1.0
 43
0.0
 43
0.0
 43
0.0
 43
0.0
 43
1.0
 77
     0
 47
0.0208333333333333
 47
0.0
 47
0.0
 47
0.0
 47
0.0
 47
0.0208333333333333
 47
0.0
 47
0.0
 47
0.0
 47
0.0
 47
1.0
 47
0.0
 47
0.0
 47
0.0
 47
0.0
 47
1.0
171
     0
 49
0.0208333333333333
 49
0.0
 49
0.0
 49
0.0
 49
0.0
 49
0.0208333333333333
 49
0.0
 49
0.0
 49
0.0
 49
0.0
 49
1.0
 49
0.0
 49
0.0
 49
0.0
 49
0.0
 49
1.0
175
     0
142
0.0208333333333333
142
0.0
142
0.0
142
0.0
142
0.0
142
0.0208333333333333
142
0.0
142
0.0
142
0.0
142
0.0
142
1.0
142
0.0
142
0.0
142
0.0
142
0.0
142
1.0
179
     0
144
0.0208333333333333
144
0.0
144
0.0
144
0.0
144
0.0
144
0.0208333333333333
144
0.0
144
0.0
144
0.0
144
0.0
144
1.0
144
0.0
144
0.0
144
0.0
144
0.0
144
1.0
147
0.0208333333333333
147
0.0
147
0.0
147
0.0
147
0.0
147
0.0208333333333333
147
0.0
147
0.0
147
0.0
147
0.0
147
1.0
147
0.0
147
0.0
147
0.0
147
0.0
147
1.0
  0
MLEADERSTYLE
  5
67
102
{ACAD_XDICTIONARY
360
9D1
102
}
102
{ACAD_REACTORS
330
66
102
}
330
66
100
AcDbMLeaderStyle
170
     2
171
     1
172
     0
 90
        2
 40
0.0
 41
0.0
173
     1
 91
-1056964608
340
5B
 92
       -2
290
     1
 42
0.09
291
     1
 43
0.36
  3
Standard
 44
0.18
300

342
55
174
     1
178
     6
175
     1
176
     0
 93
-1056964608
 45
0.18
292
     0
297
     0
 46
0.18
 94
-1056964608
 47
1.0
 49
1.0
140
1.0
293
     1
141
0.0
294
     1
177
     0
142
1.0
295
     0
296
     0
143
0.125
1001
ACAD_MLEADERVER
1070
     2
  0
MLINESTYLE
  5
60
102
{ACAD_REACTORS
330
5F
102
}
330
5F
100
AcDbMlineStyle
  2
STANDARD
 70
     0
  3

 62
   256
 51
90.0
 52
90.0
 71
     2
 49
0.5
 62
   256
  6
BYLAYER
 49
-0.5
 62
   256
  6
BYLAYER
  0
ACDBPLACEHOLDER
  5
F
102
{ACAD_REACTORS
330
E
102
}
330
E
  0
SCALE
  5
43
102
{ACAD_REACTORS
330
42
102
}
330
42
100
AcDbScale
 70
     0
300
1:1
140
1.0
141
1.0
290
     1
  0
SCALE
  5
44
102
{ACAD_REACTORS
330
42
102
}
330
42
100
AcDbScale
 70
     0
300
1/128" = 1'-0"
140
0.0078125
141
12.0
290
     0
  0
SCALE
  5
45
102
{ACAD_REACTORS
330
42
102
}
330
42
100
AcDbScale
 70
     0
300
1/64" = 1'-0"
140
0.015625
141
12.0
290
     0
  0
SCALE
  5
46
102
{ACAD_REACTORS
330
42
102
}
330
42
100
AcDbScale
 70
     0
300
1/32" = 1'-0"
140
0.03125
141
12.0
290
     0
  0
SCALE
  5
47
102
{ACAD_REACTORS
330
42
102
}
330
42
100
AcDbScale
 70
     0
300
1/16" = 1'-0"
140
0.0625
141
12.0
290
     0
  0
SCALE
  5
48
102
{ACAD_REACTORS
330
42
102
}
330
42
100
AcDbScale
 70
     0
300
3/32" = 1'-0"
140
0.09375
141
12.0
290
     0
  0
SCALE
  5
49
102
{ACAD_REACTORS
330
42
102
}
330
42
100
AcDbScale
 70
     0
300
1/8" = 1'-0"
140
0.125
141
12.0
290
     0
  0
SCALE
  5
4A
102
{ACAD_REACTORS
330
42
102
}
330
42
100
AcDbScale
 70
     0
300
3/16" = 1'-0"
140
0.1875
141
12.0
290
     0
  0
SCALE
  5
4B
102
{ACAD_REACTORS
330
42
102
}
330
42
100
AcDbScale
 70
     0
300
1/4" = 1'-0"
140
0.25
141
12.0
290
     0
  0
SCALE
  5
4C
102
{ACAD_REACTORS
330
42
102
}
330
42
100
AcDbScale
 70
     0
300
3/8" = 1'-0"
140
0.375
141
12.0
290
     0
  0
SCALE
  5
4D
102
{ACAD_REACTORS
330
42
102
}
330
42
100
AcDbScale
 70
     0
300
1/2" = 1'-0"
140
0.5
141
12.0
290
     0
  0
SCALE
  5
4E
102
{ACAD_REACTORS
330
42
102
}
330
42
100
AcDbScale
 70
     0
300
3/4" = 1'-0"
140
0.75
141
12.0
290
     0
  0
SCALE
  5
4F
102
{ACAD_REACTORS
330
42
102
}
330
42
100
AcDbScale
 70
     0
300
1" = 1'-0"
140
1.0
141
12.0
290
     0
  0
SCALE
  5
50
102
{ACAD_REACTORS
330
42
102
}
330
42
100
AcDbScale
 70
     0
300
1-1/2" = 1'-0"
140
1.5
141
12.0
290
     0
  0
SCALE
  5
51
102
{ACAD_REACTORS
330
42
102
}
330
42
100
AcDbScale
 70
     0
300
3" = 1'-0"
140
3.0
141
12.0
290
     0
  0
SCALE
  5
52
102
{ACAD_REACTORS
330
42
102
}
330
42
100
AcDbScale
 70
     0
300
6" = 1'-0"
140
6.0
141
12.0
290
     0
  0
SCALE
  5
53
102
{ACAD_REACTORS
330
42
102
}
330
42
100
AcDbScale
 70
     0
300
1'-0" = 1'-0"
140
12.0
141
12.0
290
     0
  0
ACDBSECTIONVIEWSTYLE
  5
6A
102
{ACAD_REACTORS
330
68
102
}
330
68
100
AcDbModelDocViewStyle
 70
     0
  3
Imperial24
290
     0
100
AcDbSectionViewStyle
 70
     0
 71
     0
 90
       78
 71
     1
340
55
 40
0.24
340
0
340
0
 40
0.24
300
I, O, Q, S, X, Z
 40
0.48
 90
        3
 40
0.18
 90
        1
 71
     2
340
69
 90
       25
340
5D
 90
       50
 40
0.24
 40
0.0
 40
0.24
 71
     3
340
55
 40
0.24
 90
        1
 40
0.75
 90
        1
300
%<\AcVar ViewType \f "%tc1">% %<\AcVar ViewSectionStartId>%-%<\AcVar ViewSectionEndId>%\PSCALE %<\AcVar ViewScale \f "%sn">%
 71
     4
300
ANSI31
 40
1.0
 90
        0
290
     0
290
     0
 90
        6
 40
0.0
 40
1.570796326794896
 40
0.2617993877991494
 40
1.308996938995747
 40
-0.2617993877991494
 40
1.832595714594044
  0
TABLESTYLE
  5
65
102
{ACAD_XDICTIONARY
360
3CE
102
}
102
{ACAD_REACTORS
330
64
102
}
330
64
100
AcDbTableStyle
  3
Standard
 70
     0
 71
     0
 40
0.06
 41
0.06
280
     0
281
     0
  7
Standard
140
0.18
170
     2
 62
     0
 63
     7
283
     0
274
    -2
284
     1
 64
     0
275
    -2
285
     1
 65
     0
276
    -2
286
     1
 66
     0
277
    -2
287
     1
 67
     0
278
    -2
288
     1
 68
     0
279
    -2
289
     1
 69
     0
  7
Standard
140
0.25
170
     5
 62
     0
 63
     7
283
     0
274
    -2
284
     1
 64
     0
275
    -2
285
     1
 65
     0
276
    -2
286
     1
 66
     0
277
    -2
287
     1
 67
     0
278
    -2
288
     1
 68
     0
279
    -2
289
     1
 69
     0
  7
Standard
140
0.18
170
     5
 62
     0
 63
     7
283
     0
274
    -2
284
     1
 64
     0
275
    -2
285
     1
 65
     0
276
    -2
286
     1
 66
     0
277
    -2
287
     1
 67
     0
278
    -2
288
     1
 68
     0
279
    -2
289
     1
 69
     0
  0
VISUALSTYLE
  5
2F
102
{ACAD_XDICTIONARY
360
9AA
102
}
102
{ACAD_REACTORS
330
29
102
}
330
29
100
AcDbVisualStyle
  2

 70
     4
 71
     0
 72
     2
 73
     0
 90
        0
 40
-0.6
 41
-30.0
 62
     5
 63
     7
 74
     1
 91
        4
 64
     7
 65
   257
 75
     1
175
     1
 42
1.0
 92
        0
 66
   257
 43
1.0
 76
     1
 77
     6
 78
     2
 67
     7
 79
     5
170
     0
171
     0
290
     0
174
     0
 93
        1
 44
0.0
173
     0
291
     0
 45
0.0
1001
ACAD
1000
AcDbSavedByObjectVersion
1070
     0
  0
VISUALSTYLE
  5
2E
102
{ACAD_XDICTIONARY
360
9A8
102
}
102
{ACAD_REACTORS
330
29
102
}
330
29
100
AcDbVisualStyle
  2

 70
     7
 71
     1
 72
     0
 73
     1
 90
        0
 40
-0.6
 41
-30.0
 62
     5
 63
     7
 74
     0
 91
        4
 64
     7
 65
   257
 75
     1
175
     1
 42
1.0
 92
        8
 66
     7
 43
1.0
 76
     1
 77
     6
 78
     2
 67
     7
 79
     5
170
     0
171
     0
290
     0
174
     0
 93
        1
 44
0.0
173
     0
291
     1
 45
0.0
1001
ACAD
1000
AcDbSavedByObjectVersion
1070
     0
  0
VISUALSTYLE
  5
35
102
{ACAD_XDICTIONARY
360
9B6
102
}
102
{ACAD_REACTORS
330
29
102
}
330
29
100
AcDbVisualStyle
  2

 70
    12
 71
     2
 72
     2
 73
     0
 90
        0
 40
-0.6
 41
-30.0
 62
     5
 63
     7
 74
     1
 91
        4
 64
     7
 65
   257
 75
     1
175
     1
 42
1.0
 92
        8
 66
     7
 43
1.0
 76
     1
 77
     6
 78
     2
 67
     7
 79
     5
170
     0
171
     0
290
     0
174
     0
 93
        1
 44
50.0
173
     0
291
     1
 45
0.0
1001
ACAD
1000
AcDbSavedByObjectVersion
1070
     0
  0
VISUALSTYLE
  5
39
102
{ACAD_XDICTIONARY
360
9BE
102
}
102
{ACAD_REACTORS
330
29
102
}
330
29
100
AcDbVisualStyle
  2

 70
    16
 71
     2
 72
     2
 73
     3
 90
        0
 40
-0.6
 41
-30.0
 62
     5
 63
     8
 74
     1
 91
        4
 64
     7
 65
   257
 75
     1
175
     1
 42
1.0
 92
        8
 66
     8
 43
1.0
 76
     1
 77
     6
 78
     2
 67
     7
 79
     5
170
     0
171
     0
290
     0
174
     0
 93
        1
 44
0.0
173
     0
291
     1
 45
0.0
1001
ACAD
1000
AcDbSavedByObjectVersion
1070
     0
  0
VISUALSTYLE
  5
32
102
{ACAD_XDICTIONARY
360
9B0
102
}
102
{ACAD_REACTORS
330
29
102
}
330
29
100
AcDbVisualStyle
  2

 70
     9
 71
     3
 72
     2
 73
     0
 90
        0
 40
-0.6
 41
-30.0
 62
     5
 63
     7
 74
     2
 91
        2
 64
     7
 65
   257
 75
     1
175
     1
 42
179.0
 92
        8
 66
     7
 43
1.0
 76
     1
 77
     6
 78
     2
 67
     7
 79
     3
170
     0
171
     0
290
     0
174
     0
 93
        1
 44
0.0
173
     0
291
     0
 45
0.0
1001
ACAD
1000
AcDbSavedByObjectVersion
1070
     0
  0
VISUALSTYLE
  5
34
102
{ACAD_XDICTIONARY
360
9B4
102
}
102
{ACAD_REACTORS
330
29
102
}
330
29
100
AcDbVisualStyle
  2

 70
    11
 71
     2
 72
     2
 73
     0
 90
        0
 40
-0.6
 41
-30.0
 62
     5
 63
     7
 74
     1
 91
        4
 64
     7
 65
   257
 75
     1
175
     1
 42
1.0
 92
        8
 66
     7
 43
1.0
 76
     1
 77
     6
 78
     2
 67
     7
 79
     5
170
     0
171
     0
290
     0
174
     0
 93
        1
 44
-50.0
173
     0
291
     1
 45
0.0
1001
ACAD
1000
AcDbSavedByObjectVersion
1070
     0
  0
VISUALSTYLE
  5
41
102
{ACAD_XDICTIONARY
360
9CE
102
}
102
{ACAD_REACTORS
330
29
102
}
330
29
100
AcDbVisualStyle
  2

 70
    22
 71
     2
 72
     2
 73
     0
 90
        0
 40
-0.6
 41
-30.0
 62
     5
 63
     7
 74
     1
 91
        4
 64
     7
 65
   257
 75
     1
175
     1
 42
1.0
 92
        8
 66
     7
 43
1.0
 76
     1
 77
     6
 78
     2
 67
     7
 79
     5
170
     0
171
     0
290
     0
174
     0
 93
        1
 44
0.0
173
     0
291
     1
 45
0.0
1001
ACAD
1000
AcDbSavedByObjectVersion
1070
     0
  0
VISUALSTYLE
  5
38
102
{ACAD_XDICTIONARY
360
9BC
102
}
102
{ACAD_REACTORS
330
29
102
}
330
29
100
AcDbVisualStyle
  2

 70
    15
 71
     2
 72
     2
 73
     0
 90
        0
 40
-0.6
 41
-30.0
 62
     5
 63
     7
 74
     1
 91
        4
 64
     7
 65
   257
 75
     1
175
     1
 42
1.0
 92
        8
 66
     7
 43
1.0
 76
     1
 77
     6
 78
     2
 67
     7
 79
     5
170
     0
171
     0
290
     0
174
     0
 93
        1
 44
0.0
173
     0
291
     1
 45
0.0
1001
ACAD
1000
AcDbSavedByObjectVersion
1070
     0
  0
VISUALSTYLE
  5
2A
102
{ACAD_XDICTIONARY
360
9A0
102
}
102
{ACAD_REACTORS
330
29
102
}
330
29
100
AcDbVisualStyle
  2

 70
     0
 71
     2
 72
     1
 73
     1
 90
        2
 40
-0.6
 41
30.0
 62
     5
 63
     7
 74
     0
 91
        0
 64
     7
 65
   257
 75
     1
175
     1
 42
1.0
 92
        8
 66
     7
 43
1.0
 76
     1
 77
     6
 78
     2
 67
     7
 79
     5
170
     0
171
     0
290
     0
174
     0
 93
       13
 44
0.0
173
     0
291
     1
 45
0.0
1001
ACAD
1000
AcDbSavedByObjectVersion
1070
     0
  0
VISUALSTYLE
  5
2B
102
{ACAD_XDICTIONARY
360
9A2
102
}
102
{ACAD_REACTORS
330
29
102
}
330
29
100
AcDbVisualStyle
  2

 70
     1
 71
     2
 72
     1
 73
     1
 90
        2
 40
-0.6
 41
30.0
 62
     5
 63
     7
 74
     1
 91
        0
 64
     7
 65
   257
 75
     1
175
     1
 42
1.0
 92
        0
 66
   257
 43
1.0
 76
     1
 77
     6
 78
     2
 67
     7
 79
     5
170
     0
171
     0
290
     0
174
     0
 93
       13
 44
0.0
173
     0
291
     1
 45
0.0
1001
ACAD
1000
AcDbSavedByObjectVersion
1070
     0
  0
VISUALSTYLE
  5
2C
102
{ACAD_XDICTIONARY
360
9A4
102
}
102
{ACAD_REACTORS
330
29
102
}
330
29
100
AcDbVisualStyle
  2

 70
     2
 71
     2
 72
     2
 73
     1
 90
        2
 40
-0.6
 41
30.0
 62
     5
 63
     7
 74
     0
 91
        0
 64
     7
 65
   257
 75
     1
175
     1
 42
1.0
 92
        0
 66
     7
 43
1.0
 76
     1
 77
     6
 78
     2
 67
     7
 79
     5
170
     0
171
     0
290
     0
174
     0
 93
       13
 44
0.0
173
     0
291
     1
 45
0.0
1001
ACAD
1000
AcDbSavedByObjectVersion
1070
     0
  0
VISUALSTYLE
  5
2D
102
{ACAD_XDICTIONARY
360
9A6
102
}
102
{ACAD_REACTORS
330
29
102
}
330
29
100
AcDbVisualStyle
  2

 70
     3
 71
     2
 72
     2
 73
     1
 90
        2
 40
-0.6
 41
30.0
 62
     5
 63
     7
 74
     1
 91
        0
 64
     7
 65
   257
 75
     1
175
     1
 42
1.0
 92
        0
 66
   257
 43
1.0
 76
     1
 77
     6
 78
     2
 67
     7
 79
     5
170
     0
171
     0
290
     0
174
     0
 93
       13
 44
0.0
173
     0
291
     1
 45
0.0
1001
ACAD
1000
AcDbSavedByObjectVersion
1070
     0
  0
VISUALSTYLE
  5
31
102
{ACAD_XDICTIONARY
360
9AE
102
}
102
{ACAD_REACTORS
330
29
102
}
330
29
100
AcDbVisualStyle
  2

 70
     6
 71
     1
 72
     2
 73
     2
 90
        0
 40
-0.6
 41
-30.0
 62
     5
 63
     7
 74
     2
 91
        2
 64
     7
 65
   257
 75
     2
175
     1
 42
40.0
 92
        0
 66
   257
 43
1.0
 76
     1
 77
     6
 78
     2
 67
     7
 79
     3
170
     0
171
     0
290
     0
174
     0
 93
        1
 44
0.0
173
     0
291
     0
 45
0.0
1001
ACAD
1000
AcDbSavedByObjectVersion
1070
     0
  0
VISUALSTYLE
  5
3F
102
{ACAD_XDICTIONARY
360
9CA
102
}
102
{ACAD_REACTORS
330
29
102
}
330
29
100
AcDbVisualStyle
  2

 70
    20
 71
     2
 72
     2
 73
     0
 90
        0
 40
-0.6
 41
-30.0
 62
     5
 63
     7
 74
     1
 91
        4
 64
     7
 65
   257
 75
     1
175
     1
 42
1.0
 92
       10
 66
     7
 43
1.0
 76
     1
 77
     6
 78
     2
 67
     7
 79
     5
170
     0
171
     0
290
     0
174
     0
 93
        1
 44
0.0
173
     0
291
     1
 45
0.0
1001
ACAD
1000
AcDbSavedByObjectVersion
1070
     0
  0
VISUALSTYLE
  5
37
102
{ACAD_XDICTIONARY
360
9BA
102
}
102
{ACAD_REACTORS
330
29
102
}
330
29
100
AcDbVisualStyle
  2

 70
    14
 71
     2
 72
     2
 73
     0
 90
        0
 40
-0.6
 41
-30.0
 62
     5
 63
     7
 74
     1
 91
        4
 64
     7
 65
   257
 75
     7
175
     7
 42
1.0
 92
        8
 66
     7
 43
1.0
 76
     1
 77
     6
 78
     2
 67
     7
 79
     5
170
     0
171
     0
290
     0
174
     0
 93
        1
 44
0.0
173
     0
291
     1
 45
0.0
1001
ACAD
1000
AcDbSavedByObjectVersion
1070
     0
  0
VISUALSTYLE
  5
40
102
{ACAD_XDICTIONARY
360
9CC
102
}
102
{ACAD_REACTORS
330
29
102
}
330
29
100
AcDbVisualStyle
  2

 70
    21
 71
     2
 72
     2
 73
     0
 90
        0
 40
-0.6
 41
-30.0
 62
     5
 63
     7
 74
     1
 91
        4
 64
     7
 65
   257
 75
     1
175
     1
 42
1.0
 92
        9
 66
     7
 43
1.0
 76
     1
 77
     6
 78
     2
 67
     7
 79
     5
170
     0
171
     0
290
     0
174
     0
 93
        1
 44
0.0
173
     0
291
     1
 45
0.0
1001
ACAD
1000
AcDbSavedByObjectVersion
1070
     0
  0
VISUALSTYLE
  5
33
102
{ACAD_XDICTIONARY
360
9B2
102
}
102
{ACAD_REACTORS
330
29
102
}
330
29
100
AcDbVisualStyle
  2

 70
     8
 71
     2
 72
     3
 73
     0
 90
        2
 40
-0.6
 41
30.0
 62
     5
 63
     7
 74
     0
 91
        0
 64
     7
 65
   257
 75
     1
175
     1
 42
1.0
 92
        8
 66
   257
 43
1.0
 76
     1
 77
     6
 78
     2
 67
     7
 79
     3
170
     0
171
     0
290
     0
174
     0
 93
       13
 44
0.0
173
     0
291
     0
 45
0.0
1001
ACAD
1000
AcDbSavedByObjectVersion
1070
     0
  0
VISUALSTYLE
  5
3E
102
{ACAD_XDICTIONARY
360
9C8
102
}
102
{ACAD_REACTORS
330
29
102
}
330
29
100
AcDbVisualStyle
  2

 70
    27
 71
     2
 72
     2
 73
     1
 90
        2
 40
-0.6
 41
30.0
 62
     5
 63
     7
 74
     0
 91
        4
 64
     7
 65
   257
 75
     1
175
     1
 42
1.0
 92
        8
 66
   257
 43
1.0
 76
     1
 77
     6
 78
     2
 67
     8
 79
     3
170
     0
171
     0
290
     0
174
     0
 93
        5
 44
0.0
173
     0
291
     0
 45
0.0
1001
ACAD
1000
AcDbSavedByObjectVersion
1070
     0
  0
VISUALSTYLE
  5
3D
102
{ACAD_XDICTIONARY
360
9C6
102
}
102
{ACAD_REACTORS
330
29
102
}
330
29
100
AcDbVisualStyle
  2

 70
    26
 71
     2
 72
     2
 73
     1
 90
        2
 40
-0.6
 41
30.0
 62
     5
 63
     7
 74
     1
 91
       10
 64
     7
 65
   257
 75
     2
175
     1
 42
1.0
 92
        8
 66
   257
 43
1.0
 76
     1
 77
     6
 78
     2
 67
     7
 79
     3
170
     0
171
     0
290
     0
174
     0
 93
        5
 44
0.0
173
     0
291
     0
 45
0.0
1001
ACAD
1000
AcDbSavedByObjectVersion
1070
     0
  0
VISUALSTYLE
  5
3A
102
{ACAD_XDICTIONARY
360
9C0
102
}
102
{ACAD_REACTORS
330
29
102
}
330
29
100
AcDbVisualStyle
  2

 70
    23
 71
     2
 72
     2
 73
     3
 90
        0
 40
-0.6
 41
-30.0
 62
     5
 63
     7
 74
     2
 91
        2
 64
     7
 65
     7
 75
     1
175
     1
 42
40.0
 92
        8
 66
     7
 43
1.0
 76
     1
 77
     6
 78
     2
 67
     7
 79
     3
170
     0
171
     0
290
     0
174
     0
 93
        1
 44
0.0
173
     0
291
     0
 45
0.0
1001
ACAD
1000
AcDbSavedByObjectVersion
1070
     0
  0
VISUALSTYLE
  5
3B
102
{ACAD_XDICTIONARY
360
9C2
102
}
102
{ACAD_REACTORS
330
29
102
}
330
29
100
AcDbVisualStyle
  2

 70
    24
 71
     1
 72
     2
 73
     2
 90
        0
 40
-0.6
 41
-30.0
 62
     5
 63
     7
 74
     2
 91
        2
 64
     7
 65
     7
 75
     1
175
     1
 42
40.0
 92
       11
 66
     7
 43
1.0
 76
     1
 77
     6
 78
     2
 67
     7
 79
     6
170
     0
171
     0
290
     0
174
     0
 93
        1
 44
0.0
173
     0
291
     0
 45
0.0
1001
ACAD
1000
AcDbSavedByObjectVersion
1070
     0
  0
VISUALSTYLE
  5
36
102
{ACAD_XDICTIONARY
360
9B8
102
}
102
{ACAD_REACTORS
330
29
102
}
330
29
100
AcDbVisualStyle
  2

 70
    13
 71
     2
 72
     2
 73
     0
 90
        0
 40
-0.6
 41
-30.0
 62
     5
 63
     7
 74
     1
 91
        4
 64
     7
 65
   257
 75
     1
175
     1
 42
1.0
 92
       12
 66
     7
 43
1.0
 76
     1
 77
     6
 78
     2
 67
     7
 79
     5
170
     0
171
     0
290
     0
174
     0
 93
        1
 44
0.0
173
     0
291
     1
 45
0.0
1001
ACAD
1000
AcDbSavedByObjectVersion
1070
     0
  0
VISUALSTYLE
  5
30
102
{ACAD_XDICTIONARY
360
9AC
102
}
102
{ACAD_REACTORS
330
29
102
}
330
29
100
AcDbVisualStyle
  2

 70
     5
 71
     0
 72
     2
 73
     0
 90
        0
 40
-0.6
 41
-30.0
 62
     5
 63
     7
 74
     1
 91
        4
 64
     7
 65
   257
 75
     1
175
     1
 42
1.0
 92
        0
 66
   257
 43
1.0
 76
     1
 77
     6
 78
     2
 67
     7
 79
     3
170
     0
171
     0
290
     0
174
     0
 93
        1
 44
0.0
173
     0
291
     0
 45
0.0
1001
ACAD
1000
AcDbSavedByObjectVersion
1070
     0
  0
VISUALSTYLE
  5
3C
102
{ACAD_XDICTIONARY
360
9C4
102
}
102
{ACAD_REACTORS
330
29
102
}
330
29
100
AcDbVisualStyle
  2

 70
    25
 71
     2
 72
     2
 73
     1
 90
        1
 40
0.5
 41
-30.0
 62
     5
 63
     7
 74
     1
 91
        0
 64
     7
 65
   257
 75
     1
175
     1
 42
1.0
 92
        8
 66
     7
 43
1.0
 76
     1
 77
     6
 78
     2
 67
     7
 79
     3
170
     0
171
     0
290
     0
174
     0
 93
       13
 44
0.0
173
     0
291
     0
 45
0.0
1001
ACAD
1000
AcDbSavedByObjectVersion
1070
     0
  0
DICTIONARYVAR
  5
81
102
{ACAD_REACTORS
330
7C
102
}
330
7C
100
DictionaryVariables
280
     0
  1
1:1
  0
DICTIONARYVAR
  5
7E
102
{ACAD_REACTORS
330
7C
102
}
330
7C
100
DictionaryVariables
280
     0
  1
STANDARD
  0
DICTIONARYVAR
  5
7D
102
{ACAD_REACTORS
330
7C
102
}
330
7C
100
DictionaryVariables
280
     0
  1
STANDARD
  0
DICTIONARYVAR
  5
7F
102
{ACAD_REACTORS
330
7C
102
}
330
7C
100
DictionaryVariables
280
     0
  1
Imperial24
  0
DICTIONARYVAR
  5
80
102
{ACAD_REACTORS
330
7C
102
}
330
7C
100
DictionaryVariables
280
     0
  1
Imperial24
  0
DICTIONARYVAR
  5
6FC
102
{ACAD_REACTORS
330
7C
102
}
330
7C
100
DictionaryVariables
280
     0
  1
2
  0
DICTIONARYVAR
  5
6FB
102
{ACAD_REACTORS
330
7C
102
}
330
7C
100
DictionaryVariables
280
     0
  1
1
  0
DICTIONARYVAR
  5
6FA
102
{ACAD_REACTORS
330
7C
102
}
330
7C
100
DictionaryVariables
280
     0
  1
0
  0
DICTIONARYVAR
  5
999
102
{ACAD_REACTORS
330
7C
102
}
330
7C
100
DictionaryVariables
280
     0
  1
0.000000
  0
DICTIONARYVAR
  5
6F7
102
{ACAD_REACTORS
330
7C
102
}
330
7C
100
DictionaryVariables
280
     0
  1
0
  0
DICTIONARYVAR
  5
6F8
102
{ACAD_REACTORS
330
7C
102
}
330
7C
100
DictionaryVariables
280
     0
  1
0
  0
DICTIONARYVAR
  5
6F6
102
{ACAD_REACTORS
330
7C
102
}
330
7C
100
DictionaryVariables
280
     0
  1
2
  0
DICTIONARYVAR
  5
997
102
{ACAD_REACTORS
330
7C
102
}
330
7C
100
DictionaryVariables
280
     0
  1
1.570796
  0
DICTIONARYVAR
  5
998
102
{ACAD_REACTORS
330
7C
102
}
330
7C
100
DictionaryVariables
280
     0
  1
1.570796
  0
DICTIONARYVAR
  5
99A
102
{ACAD_REACTORS
330
7C
102
}
330
7C
100
DictionaryVariables
280
     0
  1
0.000000
  0
DICTIONARYVAR
  5
6F5
102
{ACAD_REACTORS
330
7C
102
}
330
7C
100
DictionaryVariables
280
     0
  1
1
  0
DICTIONARYVAR
  5
6F9
102
{ACAD_REACTORS
330
7C
102
}
330
7C
100
DictionaryVariables
280
     0
  1
127
  0
DICTIONARYVAR
  5
99B
102
{ACAD_REACTORS
330
7C
102
}
330
7C
100
DictionaryVariables
280
     0
  1
0
  0
DICTIONARYVAR
  5
99C
102
{ACAD_REACTORS
330
7C
102
}
330
7C
100
DictionaryVariables
280
     0
  1
2
  0
XRECORD
  5
3C9
102
{ACAD_REACTORS
330
3C7
102
}
330
3C7
100
AcDbXrecord
280
     1
  1
-2000051
  1
Lines
  1
-2000240
  1
Levels
  1
-2000260
  1
Dimensions
  1
-2000510
  1
Viewports
  1
-2000515
  1
View Titles
  1
-2000535
  1
Elevations
  1
-2001140
  1
Mechanical Equipment
  1
-2006020
  1
Level Heads
  0
XRECORD
  5
3CA
102
{ACAD_REACTORS
330
3C7
102
}
330
3C7
100
AcDbXrecord
280
     1
  1
161512
  1
MEP Hidden
  0
XRECORD
  5
3C8
102
{ACAD_REACTORS
330
3C7
102
}
330
3C7
100
AcDbXrecord
280
     1
  1
16
  1
Linear Dimension Style : Linear - 3/32" Arial
  1
27
  1
Level : 1/4" Head
  1
660993
  1
CCCT_-_BAC_-_PFI_-_1_Cell_-_S-Double_Connection_-_RH : PFI-1012N-2D2DS-J1
  1
75910
  1
Elevation : Building Elevation
  1
9835
  1
Viewport : Viewport 1
  0
DICTIONARY
  5
9D3
330
70
100
AcDbDictionary
280
     1
281
     1
  3
ACAD_XREC_ROUNDTRIP
360
9D4
  0
DICTIONARY
  5
9D5
330
74
100
AcDbDictionary
280
     1
281
     1
  3
ACAD_XREC_ROUNDTRIP
360
9D6
  0
DICTIONARY
  5
1A
330
19
100
AcDbDictionary
280
     1
281
     1
  3
ACAD_XREC_ROUNDTRIP
360
949
  3
BUMPTILE
360
1C
  3
DIFFUSETILE
360
1B
  3
OPACITYTILE
360
1F
  3
REFLECTIONTILE
360
1E
  3
REFRACTIONTILE
360
20
  3
SPECULARTILE
360
1D
  0
DICTIONARY
  5
12
330
11
100
AcDbDictionary
280
     1
281
     1
  3
ACAD_XREC_ROUNDTRIP
360
948
  3
BUMPTILE
360
14
  3
DIFFUSETILE
360
13
  3
OPACITYTILE
360
17
  3
REFLECTIONTILE
360
16
  3
REFRACTIONTILE
360
18
  3
SPECULARTILE
360
15
  0
DICTIONARY
  5
22
330
21
100
AcDbDictionary
280
     1
281
     1
  3
ACAD_XREC_ROUNDTRIP
360
94A
  3
BUMPTILE
360
24
  3
DIFFUSETILE
360
23
  3
OPACITYTILE
360
27
  3
REFLECTIONTILE
360
26
  3
REFRACTIONTILE
360
28
  3
SPECULARTILE
360
25
  0
DICTIONARY
  5
9D1
330
67
100
AcDbDictionary
280
     1
281
     1
  3
ACAD_XREC_ROUNDTRIP
360
9D2
  0
DICTIONARY
  5
3CE
330
65
100
AcDbDictionary
280
     1
281
     1
  3
ACAD_ROUNDTRIP_2008_TABLESTYLE_CELLSTYLEMAP
360
99D
  3
ACAD_XREC_ROUNDTRIP
360
9D0
  0
DICTIONARY
  5
9AA
330
2F
100
AcDbDictionary
280
     1
281
     1
  3
ACAD_XREC_ROUNDTRIP
360
9AB
  0
DICTIONARY
  5
9A8
330
2E
100
AcDbDictionary
280
     1
281
     1
  3
ACAD_XREC_ROUNDTRIP
360
9A9
  0
DICTIONARY
  5
9B6
330
35
100
AcDbDictionary
280
     1
281
     1
  3
ACAD_XREC_ROUNDTRIP
360
9B7
  0
DICTIONARY
  5
9BE
330
39
100
AcDbDictionary
280
     1
281
     1
  3
ACAD_XREC_ROUNDTRIP
360
9BF
  0
DICTIONARY
  5
9B0
330
32
100
AcDbDictionary
280
     1
281
     1
  3
ACAD_XREC_ROUNDTRIP
360
9B1
  0
DICTIONARY
  5
9B4
330
34
100
AcDbDictionary
280
     1
281
     1
  3
ACAD_XREC_ROUNDTRIP
360
9B5
  0
DICTIONARY
  5
9CE
330
41
100
AcDbDictionary
280
     1
281
     1
  3
ACAD_XREC_ROUNDTRIP
360
9CF
  0
DICTIONARY
  5
9BC
330
38
100
AcDbDictionary
280
     1
281
     1
  3
ACAD_XREC_ROUNDTRIP
360
9BD
  0
DICTIONARY
  5
9A0
330
2A
100
AcDbDictionary
280
     1
281
     1
  3
ACAD_XREC_ROUNDTRIP
360
9A1
  0
DICTIONARY
  5
9A2
330
2B
100
AcDbDictionary
280
     1
281
     1
  3
ACAD_XREC_ROUNDTRIP
360
9A3
  0
DICTIONARY
  5
9A4
330
2C
100
AcDbDictionary
280
     1
281
     1
  3
ACAD_XREC_ROUNDTRIP
360
9A5
  0
DICTIONARY
  5
9A6
330
2D
100
AcDbDictionary
280
     1
281
     1
  3
ACAD_XREC_ROUNDTRIP
360
9A7
  0
DICTIONARY
  5
9AE
330
31
100
AcDbDictionary
280
     1
281
     1
  3
ACAD_XREC_ROUNDTRIP
360
9AF
  0
DICTIONARY
  5
9CA
330
3F
100
AcDbDictionary
280
     1
281
     1
  3
ACAD_XREC_ROUNDTRIP
360
9CB
  0
DICTIONARY
  5
9BA
330
37
100
AcDbDictionary
280
     1
281
     1
  3
ACAD_XREC_ROUNDTRIP
360
9BB
  0
DICTIONARY
  5
9CC
330
40
100
AcDbDictionary
280
     1
281
     1
  3
ACAD_XREC_ROUNDTRIP
360
9CD
  0
DICTIONARY
  5
9B2
330
33
100
AcDbDictionary
280
     1
281
     1
  3
ACAD_XREC_ROUNDTRIP
360
9B3
  0
DICTIONARY
  5
9C8
330
3E
100
AcDbDictionary
280
     1
281
     1
  3
ACAD_XREC_ROUNDTRIP
360
9C9
  0
DICTIONARY
  5
9C6
330
3D
100
AcDbDictionary
280
     1
281
     1
  3
ACAD_XREC_ROUNDTRIP
360
9C7
  0
DICTIONARY
  5
9C0
330
3A
100
AcDbDictionary
280
     1
281
     1
  3
ACAD_XREC_ROUNDTRIP
360
9C1
  0
DICTIONARY
  5
9C2
330
3B
100
AcDbDictionary
280
     1
281
     1
  3
ACAD_XREC_ROUNDTRIP
360
9C3
  0
DICTIONARY
  5
9B8
330
36
100
AcDbDictionary
280
     1
281
     1
  3
ACAD_XREC_ROUNDTRIP
360
9B9
  0
DICTIONARY
  5
9AC
330
30
100
AcDbDictionary
280
     1
281
     1
  3
ACAD_XREC_ROUNDTRIP
360
9AD
  0
DICTIONARY
  5
9C4
330
3C
100
AcDbDictionary
280
     1
281
     1
  3
ACAD_XREC_ROUNDTRIP
360
9C5
  0
XRECORD
  5
9D4
102
{ACAD_REACTORS
330
9D3
102
}
330
9D3
100
AcDbXrecord
280
     1
102
SHADEPLOT
 70
     0
102
SHADEPLOTRESLEVEL
 70
     2
102
SHADEPLOTCUSTOMDPI
 70
   300
  0
XRECORD
  5
9D6
102
{ACAD_REACTORS
330
9D5
102
}
330
9D5
100
AcDbXrecord
280
     1
102
SHADEPLOT
 70
     0
102
SHADEPLOTRESLEVEL
 70
     2
102
SHADEPLOTCUSTOMDPI
 70
   300
  0
XRECORD
  5
949
102
{ACAD_REACTORS
330
1A
102
}
330
1A
100
AcDbXrecord
280
     1
102
MATERIAL
148
0.0
149
0.0
149
0.0
 93
        0
 94
      127
282
     0
 72
     0
 77
     0
171
     0
175
     0
179
     0
273
     0
  0
XRECORD
  5
1C
102
{ACAD_REACTORS
330
1A
102
}
330
1A
100
AcDbXrecord
280
     1
270
     1
271
     1
  0
XRECORD
  5
1B
102
{ACAD_REACTORS
330
1A
102
}
330
1A
100
AcDbXrecord
280
     1
270
     1
271
     1
  0
XRECORD
  5
1F
102
{ACAD_REACTORS
330
1A
102
}
330
1A
100
AcDbXrecord
280
     1
270
     1
271
     1
  0
XRECORD
  5
1E
102
{ACAD_REACTORS
330
1A
102
}
330
1A
100
AcDbXrecord
280
     1
270
     1
271
     1
  0
XRECORD
  5
20
102
{ACAD_REACTORS
330
1A
102
}
330
1A
100
AcDbXrecord
280
     1
270
     1
271
     1
  0
XRECORD
  5
1D
102
{ACAD_REACTORS
330
1A
102
}
330
1A
100
AcDbXrecord
280
     1
270
     1
271
     1
  0
XRECORD
  5
948
102
{ACAD_REACTORS
330
12
102
}
330
12
100
AcDbXrecord
280
     1
102
MATERIAL
148
0.0
149
0.0
149
0.0
 93
        0
 94
      127
282
     0
 72
     0
 77
     0
171
     0
175
     0
179
     0
273
     0
  0
XRECORD
  5
14
102
{ACAD_REACTORS
330
12
102
}
330
12
100
AcDbXrecord
280
     1
270
     1
271
     1
  0
XRECORD
  5
13
102
{ACAD_REACTORS
330
12
102
}
330
12
100
AcDbXrecord
280
     1
270
     1
271
     1
  0
XRECORD
  5
17
102
{ACAD_REACTORS
330
12
102
}
330
12
100
AcDbXrecord
280
     1
270
     1
271
     1
  0
XRECORD
  5
16
102
{ACAD_REACTORS
330
12
102
}
330
12
100
AcDbXrecord
280
     1
270
     1
271
     1
  0
XRECORD
  5
18
102
{ACAD_REACTORS
330
12
102
}
330
12
100
AcDbXrecord
280
     1
270
     1
271
     1
  0
XRECORD
  5
15
102
{ACAD_REACTORS
330
12
102
}
330
12
100
AcDbXrecord
280
     1
270
     1
271
     1
  0
XRECORD
  5
94A
102
{ACAD_REACTORS
330
22
102
}
330
22
100
AcDbXrecord
280
     1
102
MATERIAL
148
0.0
149
0.0
149
0.0
 93
        0
 94
      127
282
     0
 72
     0
 77
     0
171
     0
175
     0
179
     0
273
     0
  0
XRECORD
  5
24
102
{ACAD_REACTORS
330
22
102
}
330
22
100
AcDbXrecord
280
     1
270
     1
271
     1
  0
XRECORD
  5
23
102
{ACAD_REACTORS
330
22
102
}
330
22
100
AcDbXrecord
280
     1
270
     1
271
     1
  0
XRECORD
  5
27
102
{ACAD_REACTORS
330
22
102
}
330
22
100
AcDbXrecord
280
     1
270
     1
271
     1
  0
XRECORD
  5
26
102
{ACAD_REACTORS
330
22
102
}
330
22
100
AcDbXrecord
280
     1
270
     1
271
     1
  0
XRECORD
  5
28
102
{ACAD_REACTORS
330
22
102
}
330
22
100
AcDbXrecord
280
     1
270
     1
271
     1
  0
XRECORD
  5
25
102
{ACAD_REACTORS
330
22
102
}
330
22
100
AcDbXrecord
280
     1
270
     1
271
     1
  0
XRECORD
  5
9D2
102
{ACAD_REACTORS
330
9D1
102
}
330
9D1
100
AcDbXrecord
280
     1
102
ACAD_ROUNDTRIP_2012_MLEADER_STYLE
298
     1
  0
CELLSTYLEMAP
  5
99D
102
{ACAD_REACTORS
330
3CE
102
}
330
3CE
100
AcDbCellStyleMap
 90
        3
300
CELLSTYLE
  1
TABLEFORMAT_BEGIN
 90
        5
170
     1
 91
        0
 92
    32768
 62
   257
 93
        1
300
CONTENTFORMAT
  1
CONTENTFORMAT_BEGIN
 90
        0
 91
        0
 92
      512
 93
        0
300

 40
0.0
140
1.0
 94
        5
 62
     0
340
55
144
0.25
309
CONTENTFORMAT_END
171
     1
301
MARGIN
  1
CELLMARGIN_BEGIN
 40
0.06
 40
0.06
 40
0.06
 40
0.06
 40
0.18
 40
0.18
309
CELLMARGIN_END
 94
        6
 95
        1
302
GRIDFORMAT
  1
GRIDFORMAT_BEGIN
 90
        0
 91
        1
 62
     0
 92
       -2
340
0
 93
        0
 40
0.045
309
GRIDFORMAT_END
 95
        2
302
GRIDFORMAT
  1
GRIDFORMAT_BEGIN
 90
        0
 91
        1
 62
     0
 92
       -2
340
0
 93
        0
 40
0.045
309
GRIDFORMAT_END
 95
        4
302
GRIDFORMAT
  1
GRIDFORMAT_BEGIN
 90
        0
 91
        1
 62
     0
 92
       -2
340
0
 93
        0
 40
0.045
309
GRIDFORMAT_END
 95
        8
302
GRIDFORMAT
  1
GRIDFORMAT_BEGIN
 90
        0
 91
        1
 62
     0
 92
       -2
340
0
 93
        0
 40
0.045
309
GRIDFORMAT_END
 95
       16
302
GRIDFORMAT
  1
GRIDFORMAT_BEGIN
 90
        0
 91
        1
 62
     0
 92
       -2
340
0
 93
        0
 40
0.045
309
GRIDFORMAT_END
 95
       32
302
GRIDFORMAT
  1
GRIDFORMAT_BEGIN
 90
        0
 91
        1
 62
     0
 92
       -2
340
0
 93
        0
 40
0.045
309
GRIDFORMAT_END
309
TABLEFORMAT_END
  1
CELLSTYLE_BEGIN
 90
        1
 91
        1
300
_TITLE
309
CELLSTYLE_END
300
CELLSTYLE
  1
TABLEFORMAT_BEGIN
 90
        5
170
     1
 91
        0
 92
        0
 62
   257
 93
        1
300
CONTENTFORMAT
  1
CONTENTFORMAT_BEGIN
 90
        0
 91
        0
 92
      512
 93
        0
300

 40
0.0
140
1.0
 94
        5
 62
     0
340
55
144
0.18
309
CONTENTFORMAT_END
171
     1
301
MARGIN
  1
CELLMARGIN_BEGIN
 40
0.06
 40
0.06
 40
0.06
 40
0.06
 40
0.18
 40
0.18
309
CELLMARGIN_END
 94
        6
 95
        1
302
GRIDFORMAT
  1
GRIDFORMAT_BEGIN
 90
        0
 91
        1
 62
     0
 92
       -2
340
0
 93
        0
 40
0.045
309
GRIDFORMAT_END
 95
        2
302
GRIDFORMAT
  1
GRIDFORMAT_BEGIN
 90
        0
 91
        1
 62
     0
 92
       -2
340
0
 93
        0
 40
0.045
309
GRIDFORMAT_END
 95
        4
302
GRIDFORMAT
  1
GRIDFORMAT_BEGIN
 90
        0
 91
        1
 62
     0
 92
       -2
340
0
 93
        0
 40
0.045
309
GRIDFORMAT_END
 95
        8
302
GRIDFORMAT
  1
GRIDFORMAT_BEGIN
 90
        0
 91
        1
 62
     0
 92
       -2
340
0
 93
        0
 40
0.045
309
GRIDFORMAT_END
 95
       16
302
GRIDFORMAT
  1
GRIDFORMAT_BEGIN
 90
        0
 91
        1
 62
     0
 92
       -2
340
0
 93
        0
 40
0.045
309
GRIDFORMAT_END
 95
       32
302
GRIDFORMAT
  1
GRIDFORMAT_BEGIN
 90
        0
 91
        1
 62
     0
 92
       -2
340
0
 93
        0
 40
0.045
309
GRIDFORMAT_END
309
TABLEFORMAT_END
  1
CELLSTYLE_BEGIN
 90
        2
 91
        1
300
_HEADER
309
CELLSTYLE_END
300
CELLSTYLE
  1
TABLEFORMAT_BEGIN
 90
        5
170
     1
 91
        0
 92
        0
 62
   257
 93
        1
300
CONTENTFORMAT
  1
CONTENTFORMAT_BEGIN
 90
        0
 91
        0
 92
      512
 93
        0
300

 40
0.0
140
1.0
 94
        2
 62
     0
340
55
144
0.18
309
CONTENTFORMAT_END
171
     1
301
MARGIN
  1
CELLMARGIN_BEGIN
 40
0.06
 40
0.06
 40
0.06
 40
0.06
 40
0.18
 40
0.18
309
CELLMARGIN_END
 94
        6
 95
        1
302
GRIDFORMAT
  1
GRIDFORMAT_BEGIN
 90
        0
 91
        1
 62
     0
 92
       -2
340
0
 93
        0
 40
0.045
309
GRIDFORMAT_END
 95
        2
302
GRIDFORMAT
  1
GRIDFORMAT_BEGIN
 90
        0
 91
        1
 62
     0
 92
       -2
340
0
 93
        0
 40
0.045
309
GRIDFORMAT_END
 95
        4
302
GRIDFORMAT
  1
GRIDFORMAT_BEGIN
 90
        0
 91
        1
 62
     0
 92
       -2
340
0
 93
        0
 40
0.045
309
GRIDFORMAT_END
 95
        8
302
GRIDFORMAT
  1
GRIDFORMAT_BEGIN
 90
        0
 91
        1
 62
     0
 92
       -2
340
0
 93
        0
 40
0.045
309
GRIDFORMAT_END
 95
       16
302
GRIDFORMAT
  1
GRIDFORMAT_BEGIN
 90
        0
 91
        1
 62
     0
 92
       -2
340
0
 93
        0
 40
0.045
309
GRIDFORMAT_END
 95
       32
302
GRIDFORMAT
  1
GRIDFORMAT_BEGIN
 90
        0
 91
        1
 62
     0
 92
       -2
340
0
 93
        0
 40
0.045
309
GRIDFORMAT_END
309
TABLEFORMAT_END
  1
CELLSTYLE_BEGIN
 90
        3
 91
        2
300
_DATA
309
CELLSTYLE_END
  0
XRECORD
  5
9D0
102
{ACAD_REACTORS
330
3CE
102
}
330
3CE
100
AcDbXrecord
280
     1
102
ACAD_ROUNDTRIP_PRE2007_TABLESTYLE
 90
      512
 91
        0
  1

 92
      512
 93
        0
  2

 94
      512
 95
        0
  3

  0
XRECORD
  5
9AB
102
{ACAD_REACTORS
330
9AA
102
}
330
9AA
100
AcDbXrecord
280
     1
102
RTVSPost2010Prop28
280
     1
102
RTVSPost2010PropOp28
 70
     1
102
RTVSPost2010Prop29
280
     1
102
RTVSPost2010PropOp29
 70
     1
102
RTVSPost2010Prop30
280
     0
102
RTVSPost2010PropOp30
 70
     1
102
RTVSPost2010Prop31
280
     0
102
RTVSPost2010PropOp31
 70
     1
102
RTVSPost2010Prop32
280
     0
102
RTVSPost2010PropOp32
 70
     1
102
RTVSPost2010Prop33
280
     0
102
RTVSPost2010PropOp33
 70
     1
102
RTVSPost2010Prop34
280
     0
102
RTVSPost2010PropOp34
 70
     1
102
RTVSPost2010Prop35
280
     0
102
RTVSPost2010PropOp35
 70
     1
102
RTVSPost2010Prop36
280
     0
102
RTVSPost2010PropOp36
 70
     1
102
RTVSPost2010Prop37
 90
       50
102
RTVSPost2010PropOp37
 70
     1
102
RTVSPost2010Prop38
140
0.0
102
RTVSPost2010PropOp38
 70
     1
102
RTVSPost2010Prop39
140
1.0
102
RTVSPost2010PropOp39
 70
     1
102
RTVSPost2010Prop40
 90
        0
102
RTVSPost2010PropOp40
 70
     1
102
RTVSPost2010Prop41ColorIndex
 90
       18
102
RTVSPost2010Prop41ColorRGB
 90
-16777216
102
RTVSPost2010PropOp41
 70
     1
102
RTVSPost2010Prop42
 90
       50
102
RTVSPost2010PropOp42
 70
     1
102
RTVSPost2010Prop43
 90
        3
102
RTVSPost2010PropOp43
 70
     1
102
RTVSPost2010Prop44ColorIndex
 90
        5
102
RTVSPost2010Prop44ColorRGB
 90
      255
102
RTVSPost2010PropOp44
 70
     1
102
RTVSPost2010Prop45
280
     0
102
RTVSPost2010PropOp45
 70
     1
102
RTVSPost2010Prop46
 90
       50
102
RTVSPost2010PropOp46
 70
     1
102
RTVSPost2010Prop47
 90
       50
102
RTVSPost2010PropOp47
 70
     1
102
RTVSPost2010Prop48
 90
       50
102
RTVSPost2010PropOp48
 70
     1
102
RTVSPost2010Prop49
280
     0
102
RTVSPost2010PropOp49
 70
     1
102
RTVSPost2010Prop50
 90
       50
102
RTVSPost2010PropOp50
 70
     1
102
RTVSPost2010Prop51ColorIndex
 90
      256
102
RTVSPost2010Prop51ColorRGB
 90
-16777216
102
RTVSPost2010PropOp51
 70
     0
102
RTVSPost2010Prop52
140
1.0
102
RTVSPost2010PropOp52
 70
     0
102
RTVSPost2010Prop53
 90
        2
102
RTVSPost2010PropOp53
 70
     1
102
RTVSPost2010Prop54
  1
strokes_ogs.tif
102
RTVSPost2010PropOp54
 70
     1
102
RTVSPost2010Prop55
280
     0
102
RTVSPost2010PropOp55
 70
     1
102
RTVSPost2010Prop56
140
1.0
102
RTVSPost2010PropOp56
 70
     1
102
RTVSPost2010Prop57
140
1.0
102
RTVSPost2010PropOp57
 70
     1
102
RTVSPropertyOp0
 70
     1
102
RTVSPropertyOp1
 70
     1
102
RTVSPropertyOp2
 70
     1
102
RTVSPropertyOp3
 70
     1
102
RTVSPropertyOp4
 70
     1
102
RTVSPropertyOp5
 70
     1
102
RTVSPropertyOp6
 70
     1
102
RTVSPropertyOp7
 70
     1
102
RTVSPropertyOp8
 70
     1
102
RTVSPropertyOp9
 70
     1
102
RTVSPropertyOp10
 70
     1
102
RTVSPropertyOp11
 70
     1
102
RTVSPropertyOp12
 70
     1
102
RTVSPropertyOp13
 70
     1
102
RTVSPropertyOp14
 70
     1
102
RTVSPropertyOp15
 70
     1
102
RTVSPropertyOp16
 70
     1
102
RTVSPropertyOp17
 70
     1
102
RTVSPropertyOp18
 70
     1
102
RTVSPropertyOp19
 70
     1
102
RTVSPropertyOp20
 70
     1
102
RTVSPropertyOp21
 70
     1
102
RTVSPropertyOp22
 70
     1
102
RTVSPropertyOp23
 70
     1
102
RTVSPropertyOp24
 70
     1
102
RTVSPropertyOp25
 70
     1
102
RTVSPropertyOp26
 70
     1
102
RTVSPropertyOp27
 70
     1
102
RTVSPropertyOp28
 70
     1
102
RTVSPropertyOp29
 70
     1
102
RTVSPropertyOp30
 70
     1
102
RTVSPropertyOp31
 70
     1
102
RTVSPropertyOp32
 70
     1
102
RTVSPropertyOp33
 70
     1
102
RTVSPropertyOp34
 70
     1
102
RTVSPropertyOp35
 70
     1
102
RTVSPropertyOp36
 70
     1
102
RTVSPropertyOp37
 70
     1
102
RTVSPropertyOp38
 70
     1
102
RTVSPropertyOp39
 70
     1
102
RTVSPropertyOp40
 70
     1
102
RTVSPropertyOp41
 70
     1
102
RTVSPropertyOp42
 70
     1
102
RTVSPropertyOp43
 70
     1
102
RTVSPropertyOp44
 70
     1
102
RTVSPropertyOp45
 70
     1
102
RTVSPropertyOp46
 70
     1
102
RTVSPropertyOp47
 70
     1
102
RTVSPropertyOp48
 70
     1
102
RTVSPropertyOp49
 70
     1
102
RTVSPropertyOp50
 70
     1
102
RTVSPropertyOp51
 70
     0
102
RTVSPropertyOp52
 70
     0
102
RTVSPropertyOp53
 70
     1
102
RTVSPropertyOp54
 70
     1
102
RTVSPropertyOp55
 70
     1
102
RTVSPropertyOp56
 70
     1
102
RTVSPropertyOp57
 70
     1
102
RTVSPropertyOp58
 70
     1
102
RTVSPropertyOp59
 70
     1
102
RTVSPropertyOp60
 70
     1
102
RTVSPropertyOp61
 70
     1
102
RTVSPropertyOp62
 70
     1
  0
XRECORD
  5
9A9
102
{ACAD_REACTORS
330
9A8
102
}
330
9A8
100
AcDbXrecord
280
     1
102
RTVSPost2010Prop28
280
     0
102
RTVSPost2010PropOp28
 70
     1
102
RTVSPost2010Prop29
280
     1
102
RTVSPost2010PropOp29
 70
     1
102
RTVSPost2010Prop30
280
     1
102
RTVSPost2010PropOp30
 70
     1
102
RTVSPost2010Prop31
280
     0
102
RTVSPost2010PropOp31
 70
     1
102
RTVSPost2010Prop32
280
     0
102
RTVSPost2010PropOp32
 70
     1
102
RTVSPost2010Prop33
280
     0
102
RTVSPost2010PropOp33
 70
     1
102
RTVSPost2010Prop34
280
     0
102
RTVSPost2010PropOp34
 70
     1
102
RTVSPost2010Prop35
280
     0
102
RTVSPost2010PropOp35
 70
     1
102
RTVSPost2010Prop36
280
     0
102
RTVSPost2010PropOp36
 70
     1
102
RTVSPost2010Prop37
 90
       50
102
RTVSPost2010PropOp37
 70
     1
102
RTVSPost2010Prop38
140
0.0
102
RTVSPost2010PropOp38
 70
     1
102
RTVSPost2010Prop39
140
1.0
102
RTVSPost2010PropOp39
 70
     1
102
RTVSPost2010Prop40
 90
        0
102
RTVSPost2010PropOp40
 70
     1
102
RTVSPost2010Prop41ColorIndex
 90
       18
102
RTVSPost2010Prop41ColorRGB
 90
-16777216
102
RTVSPost2010PropOp41
 70
     1
102
RTVSPost2010Prop42
 90
       50
102
RTVSPost2010PropOp42
 70
     1
102
RTVSPost2010Prop43
 90
        3
102
RTVSPost2010PropOp43
 70
     1
102
RTVSPost2010Prop44ColorIndex
 90
        5
102
RTVSPost2010Prop44ColorRGB
 90
      255
102
RTVSPost2010PropOp44
 70
     1
102
RTVSPost2010Prop45
280
     0
102
RTVSPost2010PropOp45
 70
     1
102
RTVSPost2010Prop46
 90
       50
102
RTVSPost2010PropOp46
 70
     1
102
RTVSPost2010Prop47
 90
       50
102
RTVSPost2010PropOp47
 70
     1
102
RTVSPost2010Prop48
 90
       50
102
RTVSPost2010PropOp48
 70
     1
102
RTVSPost2010Prop49
280
     0
102
RTVSPost2010PropOp49
 70
     1
102
RTVSPost2010Prop50
 90
       50
102
RTVSPost2010PropOp50
 70
     1
102
RTVSPost2010Prop51ColorIndex
 90
      256
102
RTVSPost2010Prop51ColorRGB
 90
-16777216
102
RTVSPost2010PropOp51
 70
     0
102
RTVSPost2010Prop52
140
1.0
102
RTVSPost2010PropOp52
 70
     0
102
RTVSPost2010Prop53
 90
        2
102
RTVSPost2010PropOp53
 70
     1
102
RTVSPost2010Prop54
  1
strokes_ogs.tif
102
RTVSPost2010PropOp54
 70
     1
102
RTVSPost2010Prop55
280
     0
102
RTVSPost2010PropOp55
 70
     1
102
RTVSPost2010Prop56
140
1.0
102
RTVSPost2010PropOp56
 70
     1
102
RTVSPost2010Prop57
140
1.0
102
RTVSPost2010PropOp57
 70
     1
102
RTVSPropertyOp0
 70
     1
102
RTVSPropertyOp1
 70
     1
102
RTVSPropertyOp2
 70
     1
102
RTVSPropertyOp3
 70
     1
102
RTVSPropertyOp4
 70
     1
102
RTVSPropertyOp5
 70
     1
102
RTVSPropertyOp6
 70
     1
102
RTVSPropertyOp7
 70
     1
102
RTVSPropertyOp8
 70
     1
102
RTVSPropertyOp9
 70
     1
102
RTVSPropertyOp10
 70
     1
102
RTVSPropertyOp11
 70
     1
102
RTVSPropertyOp12
 70
     1
102
RTVSPropertyOp13
 70
     1
102
RTVSPropertyOp14
 70
     1
102
RTVSPropertyOp15
 70
     1
102
RTVSPropertyOp16
 70
     1
102
RTVSPropertyOp17
 70
     1
102
RTVSPropertyOp18
 70
     1
102
RTVSPropertyOp19
 70
     1
102
RTVSPropertyOp20
 70
     1
102
RTVSPropertyOp21
 70
     1
102
RTVSPropertyOp22
 70
     1
102
RTVSPropertyOp23
 70
     1
102
RTVSPropertyOp24
 70
     1
102
RTVSPropertyOp25
 70
     1
102
RTVSPropertyOp26
 70
     1
102
RTVSPropertyOp27
 70
     1
102
RTVSPropertyOp28
 70
     1
102
RTVSPropertyOp29
 70
     1
102
RTVSPropertyOp30
 70
     1
102
RTVSPropertyOp31
 70
     1
102
RTVSPropertyOp32
 70
     1
102
RTVSPropertyOp33
 70
     1
102
RTVSPropertyOp34
 70
     1
102
RTVSPropertyOp35
 70
     1
102
RTVSPropertyOp36
 70
     1
102
RTVSPropertyOp37
 70
     1
102
RTVSPropertyOp38
 70
     1
102
RTVSPropertyOp39
 70
     1
102
RTVSPropertyOp40
 70
     1
102
RTVSPropertyOp41
 70
     1
102
RTVSPropertyOp42
 70
     1
102
RTVSPropertyOp43
 70
     1
102
RTVSPropertyOp44
 70
     1
102
RTVSPropertyOp45
 70
     1
102
RTVSPropertyOp46
 70
     1
102
RTVSPropertyOp47
 70
     1
102
RTVSPropertyOp48
 70
     1
102
RTVSPropertyOp49
 70
     1
102
RTVSPropertyOp50
 70
     1
102
RTVSPropertyOp51
 70
     0
102
RTVSPropertyOp52
 70
     0
102
RTVSPropertyOp53
 70
     1
102
RTVSPropertyOp54
 70
     1
102
RTVSPropertyOp55
 70
     1
102
RTVSPropertyOp56
 70
     1
102
RTVSPropertyOp57
 70
     1
102
RTVSPropertyOp58
 70
     1
102
RTVSPropertyOp59
 70
     1
102
RTVSPropertyOp60
 70
     1
102
RTVSPropertyOp61
 70
     1
102
RTVSPropertyOp62
 70
     1
  0
XRECORD
  5
9B7
102
{ACAD_REACTORS
330
9B6
102
}
330
9B6
100
AcDbXrecord
280
     1
102
RTVSPost2010Prop28
280
     0
102
RTVSPost2010PropOp28
 70
     1
102
RTVSPost2010Prop29
280
     1
102
RTVSPost2010PropOp29
 70
     1
102
RTVSPost2010Prop30
280
     1
102
RTVSPost2010PropOp30
 70
     1
102
RTVSPost2010Prop31
280
     0
102
RTVSPost2010PropOp31
 70
     1
102
RTVSPost2010Prop32
280
     0
102
RTVSPost2010PropOp32
 70
     1
102
RTVSPost2010Prop33
280
     0
102
RTVSPost2010PropOp33
 70
     1
102
RTVSPost2010Prop34
280
     0
102
RTVSPost2010PropOp34
 70
     1
102
RTVSPost2010Prop35
280
     0
102
RTVSPost2010PropOp35
 70
     1
102
RTVSPost2010Prop36
280
     0
102
RTVSPost2010PropOp36
 70
     1
102
RTVSPost2010Prop37
 90
       50
102
RTVSPost2010PropOp37
 70
     1
102
RTVSPost2010Prop38
140
0.0
102
RTVSPost2010PropOp38
 70
     1
102
RTVSPost2010Prop39
140
1.0
102
RTVSPost2010PropOp39
 70
     1
102
RTVSPost2010Prop40
 90
        0
102
RTVSPost2010PropOp40
 70
     1
102
RTVSPost2010Prop41ColorIndex
 90
       18
102
RTVSPost2010Prop41ColorRGB
 90
-16777216
102
RTVSPost2010PropOp41
 70
     1
102
RTVSPost2010Prop42
 90
       50
102
RTVSPost2010PropOp42
 70
     1
102
RTVSPost2010Prop43
 90
        3
102
RTVSPost2010PropOp43
 70
     1
102
RTVSPost2010Prop44ColorIndex
 90
        5
102
RTVSPost2010Prop44ColorRGB
 90
      255
102
RTVSPost2010PropOp44
 70
     1
102
RTVSPost2010Prop45
280
     0
102
RTVSPost2010PropOp45
 70
     1
102
RTVSPost2010Prop46
 90
       50
102
RTVSPost2010PropOp46
 70
     1
102
RTVSPost2010Prop47
 90
       50
102
RTVSPost2010PropOp47
 70
     1
102
RTVSPost2010Prop48
 90
       50
102
RTVSPost2010PropOp48
 70
     1
102
RTVSPost2010Prop49
280
     0
102
RTVSPost2010PropOp49
 70
     1
102
RTVSPost2010Prop50
 90
       50
102
RTVSPost2010PropOp50
 70
     1
102
RTVSPost2010Prop51ColorIndex
 90
      256
102
RTVSPost2010Prop51ColorRGB
 90
-16777216
102
RTVSPost2010PropOp51
 70
     0
102
RTVSPost2010Prop52
140
1.0
102
RTVSPost2010PropOp52
 70
     0
102
RTVSPost2010Prop53
 90
        2
102
RTVSPost2010PropOp53
 70
     1
102
RTVSPost2010Prop54
  1
strokes_ogs.tif
102
RTVSPost2010PropOp54
 70
     1
102
RTVSPost2010Prop55
280
     0
102
RTVSPost2010PropOp55
 70
     1
102
RTVSPost2010Prop56
140
1.0
102
RTVSPost2010PropOp56
 70
     1
102
RTVSPost2010Prop57
140
1.0
102
RTVSPost2010PropOp57
 70
     1
102
RTVSPropertyOp0
 70
     1
102
RTVSPropertyOp1
 70
     1
102
RTVSPropertyOp2
 70
     1
102
RTVSPropertyOp3
 70
     1
102
RTVSPropertyOp4
 70
     1
102
RTVSPropertyOp5
 70
     1
102
RTVSPropertyOp6
 70
     1
102
RTVSPropertyOp7
 70
     1
102
RTVSPropertyOp8
 70
     1
102
RTVSPropertyOp9
 70
     1
102
RTVSPropertyOp10
 70
     1
102
RTVSPropertyOp11
 70
     1
102
RTVSPropertyOp12
 70
     1
102
RTVSPropertyOp13
 70
     1
102
RTVSPropertyOp14
 70
     1
102
RTVSPropertyOp15
 70
     1
102
RTVSPropertyOp16
 70
     1
102
RTVSPropertyOp17
 70
     1
102
RTVSPropertyOp18
 70
     1
102
RTVSPropertyOp19
 70
     1
102
RTVSPropertyOp20
 70
     1
102
RTVSPropertyOp21
 70
     1
102
RTVSPropertyOp22
 70
     1
102
RTVSPropertyOp23
 70
     1
102
RTVSPropertyOp24
 70
     1
102
RTVSPropertyOp25
 70
     1
102
RTVSPropertyOp26
 70
     1
102
RTVSPropertyOp27
 70
     1
102
RTVSPropertyOp28
 70
     1
102
RTVSPropertyOp29
 70
     1
102
RTVSPropertyOp30
 70
     1
102
RTVSPropertyOp31
 70
     1
102
RTVSPropertyOp32
 70
     1
102
RTVSPropertyOp33
 70
     1
102
RTVSPropertyOp34
 70
     1
102
RTVSPropertyOp35
 70
     1
102
RTVSPropertyOp36
 70
     1
102
RTVSPropertyOp37
 70
     1
102
RTVSPropertyOp38
 70
     1
102
RTVSPropertyOp39
 70
     1
102
RTVSPropertyOp40
 70
     1
102
RTVSPropertyOp41
 70
     1
102
RTVSPropertyOp42
 70
     1
102
RTVSPropertyOp43
 70
     1
102
RTVSPropertyOp44
 70
     1
102
RTVSPropertyOp45
 70
     1
102
RTVSPropertyOp46
 70
     1
102
RTVSPropertyOp47
 70
     1
102
RTVSPropertyOp48
 70
     1
102
RTVSPropertyOp49
 70
     1
102
RTVSPropertyOp50
 70
     1
102
RTVSPropertyOp51
 70
     0
102
RTVSPropertyOp52
 70
     0
102
RTVSPropertyOp53
 70
     1
102
RTVSPropertyOp54
 70
     1
102
RTVSPropertyOp55
 70
     1
102
RTVSPropertyOp56
 70
     1
102
RTVSPropertyOp57
 70
     1
102
RTVSPropertyOp58
 70
     1
102
RTVSPropertyOp59
 70
     1
102
RTVSPropertyOp60
 70
     1
102
RTVSPropertyOp61
 70
     1
102
RTVSPropertyOp62
 70
     1
  0
XRECORD
  5
9BF
102
{ACAD_REACTORS
330
9BE
102
}
330
9BE
100
AcDbXrecord
280
     1
102
RTVSPost2010Prop28
280
     0
102
RTVSPost2010PropOp28
 70
     1
102
RTVSPost2010Prop29
280
     1
102
RTVSPost2010PropOp29
 70
     1
102
RTVSPost2010Prop30
280
     1
102
RTVSPost2010PropOp30
 70
     1
102
RTVSPost2010Prop31
280
     0
102
RTVSPost2010PropOp31
 70
     1
102
RTVSPost2010Prop32
280
     0
102
RTVSPost2010PropOp32
 70
     1
102
RTVSPost2010Prop33
280
     0
102
RTVSPost2010PropOp33
 70
     1
102
RTVSPost2010Prop34
280
     0
102
RTVSPost2010PropOp34
 70
     1
102
RTVSPost2010Prop35
280
     0
102
RTVSPost2010PropOp35
 70
     1
102
RTVSPost2010Prop36
280
     0
102
RTVSPost2010PropOp36
 70
     1
102
RTVSPost2010Prop37
 90
       50
102
RTVSPost2010PropOp37
 70
     1
102
RTVSPost2010Prop38
140
0.0
102
RTVSPost2010PropOp38
 70
     1
102
RTVSPost2010Prop39
140
1.0
102
RTVSPost2010PropOp39
 70
     1
102
RTVSPost2010Prop40
 90
        0
102
RTVSPost2010PropOp40
 70
     1
102
RTVSPost2010Prop41ColorIndex
 90
       18
102
RTVSPost2010Prop41ColorRGB
 90
-16777216
102
RTVSPost2010PropOp41
 70
     1
102
RTVSPost2010Prop42
 90
       50
102
RTVSPost2010PropOp42
 70
     1
102
RTVSPost2010Prop43
 90
        3
102
RTVSPost2010PropOp43
 70
     1
102
RTVSPost2010Prop44ColorIndex
 90
        5
102
RTVSPost2010Prop44ColorRGB
 90
      255
102
RTVSPost2010PropOp44
 70
     1
102
RTVSPost2010Prop45
280
     0
102
RTVSPost2010PropOp45
 70
     1
102
RTVSPost2010Prop46
 90
       50
102
RTVSPost2010PropOp46
 70
     1
102
RTVSPost2010Prop47
 90
       50
102
RTVSPost2010PropOp47
 70
     1
102
RTVSPost2010Prop48
 90
       50
102
RTVSPost2010PropOp48
 70
     1
102
RTVSPost2010Prop49
280
     0
102
RTVSPost2010PropOp49
 70
     1
102
RTVSPost2010Prop50
 90
       50
102
RTVSPost2010PropOp50
 70
     1
102
RTVSPost2010Prop51ColorIndex
 90
      256
102
RTVSPost2010Prop51ColorRGB
 90
-16777216
102
RTVSPost2010PropOp51
 70
     0
102
RTVSPost2010Prop52
140
1.0
102
RTVSPost2010PropOp52
 70
     0
102
RTVSPost2010Prop53
 90
        2
102
RTVSPost2010PropOp53
 70
     1
102
RTVSPost2010Prop54
  1
strokes_ogs.tif
102
RTVSPost2010PropOp54
 70
     1
102
RTVSPost2010Prop55
280
     0
102
RTVSPost2010PropOp55
 70
     1
102
RTVSPost2010Prop56
140
1.0
102
RTVSPost2010PropOp56
 70
     1
102
RTVSPost2010Prop57
140
1.0
102
RTVSPost2010PropOp57
 70
     1
102
RTVSPropertyOp0
 70
     1
102
RTVSPropertyOp1
 70
     1
102
RTVSPropertyOp2
 70
     1
102
RTVSPropertyOp3
 70
     1
102
RTVSPropertyOp4
 70
     1
102
RTVSPropertyOp5
 70
     1
102
RTVSPropertyOp6
 70
     1
102
RTVSPropertyOp7
 70
     1
102
RTVSPropertyOp8
 70
     1
102
RTVSPropertyOp9
 70
     1
102
RTVSPropertyOp10
 70
     1
102
RTVSPropertyOp11
 70
     1
102
RTVSPropertyOp12
 70
     1
102
RTVSPropertyOp13
 70
     1
102
RTVSPropertyOp14
 70
     1
102
RTVSPropertyOp15
 70
     1
102
RTVSPropertyOp16
 70
     1
102
RTVSPropertyOp17
 70
     1
102
RTVSPropertyOp18
 70
     1
102
RTVSPropertyOp19
 70
     1
102
RTVSPropertyOp20
 70
     1
102
RTVSPropertyOp21
 70
     1
102
RTVSPropertyOp22
 70
     1
102
RTVSPropertyOp23
 70
     1
102
RTVSPropertyOp24
 70
     1
102
RTVSPropertyOp25
 70
     1
102
RTVSPropertyOp26
 70
     1
102
RTVSPropertyOp27
 70
     1
102
RTVSPropertyOp28
 70
     1
102
RTVSPropertyOp29
 70
     1
102
RTVSPropertyOp30
 70
     1
102
RTVSPropertyOp31
 70
     1
102
RTVSPropertyOp32
 70
     1
102
RTVSPropertyOp33
 70
     1
102
RTVSPropertyOp34
 70
     1
102
RTVSPropertyOp35
 70
     1
102
RTVSPropertyOp36
 70
     1
102
RTVSPropertyOp37
 70
     1
102
RTVSPropertyOp38
 70
     1
102
RTVSPropertyOp39
 70
     1
102
RTVSPropertyOp40
 70
     1
102
RTVSPropertyOp41
 70
     1
102
RTVSPropertyOp42
 70
     1
102
RTVSPropertyOp43
 70
     1
102
RTVSPropertyOp44
 70
     1
102
RTVSPropertyOp45
 70
     1
102
RTVSPropertyOp46
 70
     1
102
RTVSPropertyOp47
 70
     1
102
RTVSPropertyOp48
 70
     1
102
RTVSPropertyOp49
 70
     1
102
RTVSPropertyOp50
 70
     1
102
RTVSPropertyOp51
 70
     0
102
RTVSPropertyOp52
 70
     0
102
RTVSPropertyOp53
 70
     1
102
RTVSPropertyOp54
 70
     1
102
RTVSPropertyOp55
 70
     1
102
RTVSPropertyOp56
 70
     1
102
RTVSPropertyOp57
 70
     1
102
RTVSPropertyOp58
 70
     1
102
RTVSPropertyOp59
 70
     1
102
RTVSPropertyOp60
 70
     1
102
RTVSPropertyOp61
 70
     1
102
RTVSPropertyOp62
 70
     1
  0
XRECORD
  5
9B1
102
{ACAD_REACTORS
330
9B0
102
}
330
9B0
100
AcDbXrecord
280
     1
102
RTVSPost2010Prop28
280
     0
102
RTVSPost2010PropOp28
 70
     1
102
RTVSPost2010Prop29
280
     1
102
RTVSPost2010PropOp29
 70
     1
102
RTVSPost2010Prop30
280
     1
102
RTVSPost2010PropOp30
 70
     1
102
RTVSPost2010Prop31
280
     0
102
RTVSPost2010PropOp31
 70
     1
102
RTVSPost2010Prop32
280
     0
102
RTVSPost2010PropOp32
 70
     1
102
RTVSPost2010Prop33
280
     0
102
RTVSPost2010PropOp33
 70
     1
102
RTVSPost2010Prop34
280
     0
102
RTVSPost2010PropOp34
 70
     1
102
RTVSPost2010Prop35
280
     0
102
RTVSPost2010PropOp35
 70
     1
102
RTVSPost2010Prop36
280
     0
102
RTVSPost2010PropOp36
 70
     1
102
RTVSPost2010Prop37
 90
       50
102
RTVSPost2010PropOp37
 70
     1
102
RTVSPost2010Prop38
140
0.0
102
RTVSPost2010PropOp38
 70
     1
102
RTVSPost2010Prop39
140
1.0
102
RTVSPost2010PropOp39
 70
     1
102
RTVSPost2010Prop40
 90
        0
102
RTVSPost2010PropOp40
 70
     1
102
RTVSPost2010Prop41ColorIndex
 90
       18
102
RTVSPost2010Prop41ColorRGB
 90
-16777216
102
RTVSPost2010PropOp41
 70
     1
102
RTVSPost2010Prop42
 90
       50
102
RTVSPost2010PropOp42
 70
     1
102
RTVSPost2010Prop43
 90
        3
102
RTVSPost2010PropOp43
 70
     1
102
RTVSPost2010Prop44ColorIndex
 90
        5
102
RTVSPost2010Prop44ColorRGB
 90
      255
102
RTVSPost2010PropOp44
 70
     1
102
RTVSPost2010Prop45
280
     0
102
RTVSPost2010PropOp45
 70
     1
102
RTVSPost2010Prop46
 90
       50
102
RTVSPost2010PropOp46
 70
     1
102
RTVSPost2010Prop47
 90
       50
102
RTVSPost2010PropOp47
 70
     1
102
RTVSPost2010Prop48
 90
       50
102
RTVSPost2010PropOp48
 70
     1
102
RTVSPost2010Prop49
280
     0
102
RTVSPost2010PropOp49
 70
     1
102
RTVSPost2010Prop50
 90
       50
102
RTVSPost2010PropOp50
 70
     1
102
RTVSPost2010Prop51ColorIndex
 90
      256
102
RTVSPost2010Prop51ColorRGB
 90
-16777216
102
RTVSPost2010PropOp51
 70
     0
102
RTVSPost2010Prop52
140
1.0
102
RTVSPost2010PropOp52
 70
     0
102
RTVSPost2010Prop53
 90
        2
102
RTVSPost2010PropOp53
 70
     1
102
RTVSPost2010Prop54
  1
strokes_ogs.tif
102
RTVSPost2010PropOp54
 70
     1
102
RTVSPost2010Prop55
280
     0
102
RTVSPost2010PropOp55
 70
     1
102
RTVSPost2010Prop56
140
1.0
102
RTVSPost2010PropOp56
 70
     1
102
RTVSPost2010Prop57
140
1.0
102
RTVSPost2010PropOp57
 70
     1
102
RTVSPropertyOp0
 70
     1
102
RTVSPropertyOp1
 70
     1
102
RTVSPropertyOp2
 70
     1
102
RTVSPropertyOp3
 70
     1
102
RTVSPropertyOp4
 70
     1
102
RTVSPropertyOp5
 70
     1
102
RTVSPropertyOp6
 70
     1
102
RTVSPropertyOp7
 70
     1
102
RTVSPropertyOp8
 70
     1
102
RTVSPropertyOp9
 70
     1
102
RTVSPropertyOp10
 70
     1
102
RTVSPropertyOp11
 70
     1
102
RTVSPropertyOp12
 70
     1
102
RTVSPropertyOp13
 70
     1
102
RTVSPropertyOp14
 70
     1
102
RTVSPropertyOp15
 70
     1
102
RTVSPropertyOp16
 70
     1
102
RTVSPropertyOp17
 70
     1
102
RTVSPropertyOp18
 70
     1
102
RTVSPropertyOp19
 70
     1
102
RTVSPropertyOp20
 70
     1
102
RTVSPropertyOp21
 70
     1
102
RTVSPropertyOp22
 70
     1
102
RTVSPropertyOp23
 70
     1
102
RTVSPropertyOp24
 70
     1
102
RTVSPropertyOp25
 70
     1
102
RTVSPropertyOp26
 70
     1
102
RTVSPropertyOp27
 70
     1
102
RTVSPropertyOp28
 70
     1
102
RTVSPropertyOp29
 70
     1
102
RTVSPropertyOp30
 70
     1
102
RTVSPropertyOp31
 70
     1
102
RTVSPropertyOp32
 70
     1
102
RTVSPropertyOp33
 70
     1
102
RTVSPropertyOp34
 70
     1
102
RTVSPropertyOp35
 70
     1
102
RTVSPropertyOp36
 70
     1
102
RTVSPropertyOp37
 70
     1
102
RTVSPropertyOp38
 70
     1
102
RTVSPropertyOp39
 70
     1
102
RTVSPropertyOp40
 70
     1
102
RTVSPropertyOp41
 70
     1
102
RTVSPropertyOp42
 70
     1
102
RTVSPropertyOp43
 70
     1
102
RTVSPropertyOp44
 70
     1
102
RTVSPropertyOp45
 70
     1
102
RTVSPropertyOp46
 70
     1
102
RTVSPropertyOp47
 70
     1
102
RTVSPropertyOp48
 70
     1
102
RTVSPropertyOp49
 70
     1
102
RTVSPropertyOp50
 70
     1
102
RTVSPropertyOp51
 70
     0
102
RTVSPropertyOp52
 70
     0
102
RTVSPropertyOp53
 70
     1
102
RTVSPropertyOp54
 70
     1
102
RTVSPropertyOp55
 70
     1
102
RTVSPropertyOp56
 70
     1
102
RTVSPropertyOp57
 70
     1
102
RTVSPropertyOp58
 70
     1
102
RTVSPropertyOp59
 70
     1
102
RTVSPropertyOp60
 70
     1
102
RTVSPropertyOp61
 70
     1
102
RTVSPropertyOp62
 70
     1
  0
XRECORD
  5
9B5
102
{ACAD_REACTORS
330
9B4
102
}
330
9B4
100
AcDbXrecord
280
     1
102
RTVSPost2010Prop28
280
     0
102
RTVSPost2010PropOp28
 70
     1
102
RTVSPost2010Prop29
280
     1
102
RTVSPost2010PropOp29
 70
     1
102
RTVSPost2010Prop30
280
     1
102
RTVSPost2010PropOp30
 70
     1
102
RTVSPost2010Prop31
280
     0
102
RTVSPost2010PropOp31
 70
     1
102
RTVSPost2010Prop32
280
     0
102
RTVSPost2010PropOp32
 70
     1
102
RTVSPost2010Prop33
280
     0
102
RTVSPost2010PropOp33
 70
     1
102
RTVSPost2010Prop34
280
     0
102
RTVSPost2010PropOp34
 70
     1
102
RTVSPost2010Prop35
280
     0
102
RTVSPost2010PropOp35
 70
     1
102
RTVSPost2010Prop36
280
     0
102
RTVSPost2010PropOp36
 70
     1
102
RTVSPost2010Prop37
 90
       50
102
RTVSPost2010PropOp37
 70
     1
102
RTVSPost2010Prop38
140
0.0
102
RTVSPost2010PropOp38
 70
     1
102
RTVSPost2010Prop39
140
1.0
102
RTVSPost2010PropOp39
 70
     1
102
RTVSPost2010Prop40
 90
        0
102
RTVSPost2010PropOp40
 70
     1
102
RTVSPost2010Prop41ColorIndex
 90
       18
102
RTVSPost2010Prop41ColorRGB
 90
-16777216
102
RTVSPost2010PropOp41
 70
     1
102
RTVSPost2010Prop42
 90
       50
102
RTVSPost2010PropOp42
 70
     1
102
RTVSPost2010Prop43
 90
        3
102
RTVSPost2010PropOp43
 70
     1
102
RTVSPost2010Prop44ColorIndex
 90
        5
102
RTVSPost2010Prop44ColorRGB
 90
      255
102
RTVSPost2010PropOp44
 70
     1
102
RTVSPost2010Prop45
280
     0
102
RTVSPost2010PropOp45
 70
     1
102
RTVSPost2010Prop46
 90
       50
102
RTVSPost2010PropOp46
 70
     1
102
RTVSPost2010Prop47
 90
       50
102
RTVSPost2010PropOp47
 70
     1
102
RTVSPost2010Prop48
 90
       50
102
RTVSPost2010PropOp48
 70
     1
102
RTVSPost2010Prop49
280
     0
102
RTVSPost2010PropOp49
 70
     1
102
RTVSPost2010Prop50
 90
       50
102
RTVSPost2010PropOp50
 70
     1
102
RTVSPost2010Prop51ColorIndex
 90
      256
102
RTVSPost2010Prop51ColorRGB
 90
-16777216
102
RTVSPost2010PropOp51
 70
     0
102
RTVSPost2010Prop52
140
1.0
102
RTVSPost2010PropOp52
 70
     0
102
RTVSPost2010Prop53
 90
        2
102
RTVSPost2010PropOp53
 70
     1
102
RTVSPost2010Prop54
  1
strokes_ogs.tif
102
RTVSPost2010PropOp54
 70
     1
102
RTVSPost2010Prop55
280
     0
102
RTVSPost2010PropOp55
 70
     1
102
RTVSPost2010Prop56
140
1.0
102
RTVSPost2010PropOp56
 70
     1
102
RTVSPost2010Prop57
140
1.0
102
RTVSPost2010PropOp57
 70
     1
102
RTVSPropertyOp0
 70
     1
102
RTVSPropertyOp1
 70
     1
102
RTVSPropertyOp2
 70
     1
102
RTVSPropertyOp3
 70
     1
102
RTVSPropertyOp4
 70
     1
102
RTVSPropertyOp5
 70
     1
102
RTVSPropertyOp6
 70
     1
102
RTVSPropertyOp7
 70
     1
102
RTVSPropertyOp8
 70
     1
102
RTVSPropertyOp9
 70
     1
102
RTVSPropertyOp10
 70
     1
102
RTVSPropertyOp11
 70
     1
102
RTVSPropertyOp12
 70
     1
102
RTVSPropertyOp13
 70
     1
102
RTVSPropertyOp14
 70
     1
102
RTVSPropertyOp15
 70
     1
102
RTVSPropertyOp16
 70
     1
102
RTVSPropertyOp17
 70
     1
102
RTVSPropertyOp18
 70
     1
102
RTVSPropertyOp19
 70
     1
102
RTVSPropertyOp20
 70
     1
102
RTVSPropertyOp21
 70
     1
102
RTVSPropertyOp22
 70
     1
102
RTVSPropertyOp23
 70
     1
102
RTVSPropertyOp24
 70
     1
102
RTVSPropertyOp25
 70
     1
102
RTVSPropertyOp26
 70
     1
102
RTVSPropertyOp27
 70
     1
102
RTVSPropertyOp28
 70
     1
102
RTVSPropertyOp29
 70
     1
102
RTVSPropertyOp30
 70
     1
102
RTVSPropertyOp31
 70
     1
102
RTVSPropertyOp32
 70
     1
102
RTVSPropertyOp33
 70
     1
102
RTVSPropertyOp34
 70
     1
102
RTVSPropertyOp35
 70
     1
102
RTVSPropertyOp36
 70
     1
102
RTVSPropertyOp37
 70
     1
102
RTVSPropertyOp38
 70
     1
102
RTVSPropertyOp39
 70
     1
102
RTVSPropertyOp40
 70
     1
102
RTVSPropertyOp41
 70
     1
102
RTVSPropertyOp42
 70
     1
102
RTVSPropertyOp43
 70
     1
102
RTVSPropertyOp44
 70
     1
102
RTVSPropertyOp45
 70
     1
102
RTVSPropertyOp46
 70
     1
102
RTVSPropertyOp47
 70
     1
102
RTVSPropertyOp48
 70
     1
102
RTVSPropertyOp49
 70
     1
102
RTVSPropertyOp50
 70
     1
102
RTVSPropertyOp51
 70
     0
102
RTVSPropertyOp52
 70
     0
102
RTVSPropertyOp53
 70
     1
102
RTVSPropertyOp54
 70
     1
102
RTVSPropertyOp55
 70
     1
102
RTVSPropertyOp56
 70
     1
102
RTVSPropertyOp57
 70
     1
102
RTVSPropertyOp58
 70
     1
102
RTVSPropertyOp59
 70
     1
102
RTVSPropertyOp60
 70
     1
102
RTVSPropertyOp61
 70
     1
102
RTVSPropertyOp62
 70
     1
  0
XRECORD
  5
9CF
102
{ACAD_REACTORS
330
9CE
102
}
330
9CE
100
AcDbXrecord
280
     1
102
RTVSPost2010Prop28
280
     0
102
RTVSPost2010PropOp28
 70
     0
102
RTVSPost2010Prop29
280
     1
102
RTVSPost2010PropOp29
 70
     0
102
RTVSPost2010Prop30
280
     1
102
RTVSPost2010PropOp30
 70
     0
102
RTVSPost2010Prop31
280
     0
102
RTVSPost2010PropOp31
 70
     0
102
RTVSPost2010Prop32
280
     0
102
RTVSPost2010PropOp32
 70
     0
102
RTVSPost2010Prop33
280
     0
102
RTVSPost2010PropOp33
 70
     0
102
RTVSPost2010Prop34
280
     0
102
RTVSPost2010PropOp34
 70
     0
102
RTVSPost2010Prop35
280
     0
102
RTVSPost2010PropOp35
 70
     0
102
RTVSPost2010Prop36
280
     0
102
RTVSPost2010PropOp36
 70
     0
102
RTVSPost2010Prop37
 90
       50
102
RTVSPost2010PropOp37
 70
     0
102
RTVSPost2010Prop38
140
0.0
102
RTVSPost2010PropOp38
 70
     0
102
RTVSPost2010Prop39
140
1.0
102
RTVSPost2010PropOp39
 70
     0
102
RTVSPost2010Prop40
 90
        0
102
RTVSPost2010PropOp40
 70
     0
102
RTVSPost2010Prop41ColorIndex
 90
       18
102
RTVSPost2010Prop41ColorRGB
 90
-16777216
102
RTVSPost2010PropOp41
 70
     0
102
RTVSPost2010Prop42
 90
       50
102
RTVSPost2010PropOp42
 70
     0
102
RTVSPost2010Prop43
 90
        3
102
RTVSPost2010PropOp43
 70
     0
102
RTVSPost2010Prop44ColorIndex
 90
        5
102
RTVSPost2010Prop44ColorRGB
 90
      255
102
RTVSPost2010PropOp44
 70
     0
102
RTVSPost2010Prop45
280
     0
102
RTVSPost2010PropOp45
 70
     0
102
RTVSPost2010Prop46
 90
       50
102
RTVSPost2010PropOp46
 70
     0
102
RTVSPost2010Prop47
 90
       50
102
RTVSPost2010PropOp47
 70
     0
102
RTVSPost2010Prop48
 90
       50
102
RTVSPost2010PropOp48
 70
     0
102
RTVSPost2010Prop49
280
     0
102
RTVSPost2010PropOp49
 70
     0
102
RTVSPost2010Prop50
 90
       50
102
RTVSPost2010PropOp50
 70
     0
102
RTVSPost2010Prop51ColorIndex
 90
      256
102
RTVSPost2010Prop51ColorRGB
 90
-16777216
102
RTVSPost2010PropOp51
 70
     0
102
RTVSPost2010Prop52
140
1.0
102
RTVSPost2010PropOp52
 70
     0
102
RTVSPost2010Prop53
 90
        2
102
RTVSPost2010PropOp53
 70
     0
102
RTVSPost2010Prop54
  1
strokes_ogs.tif
102
RTVSPost2010PropOp54
 70
     0
102
RTVSPost2010Prop55
280
     0
102
RTVSPost2010PropOp55
 70
     0
102
RTVSPost2010Prop56
140
1.0
102
RTVSPost2010PropOp56
 70
     0
102
RTVSPost2010Prop57
140
1.0
102
RTVSPost2010PropOp57
 70
     0
102
RTVSPropertyOp0
 70
     0
102
RTVSPropertyOp1
 70
     0
102
RTVSPropertyOp2
 70
     0
102
RTVSPropertyOp3
 70
     0
102
RTVSPropertyOp4
 70
     0
102
RTVSPropertyOp5
 70
     0
102
RTVSPropertyOp6
 70
     0
102
RTVSPropertyOp7
 70
     0
102
RTVSPropertyOp8
 70
     0
102
RTVSPropertyOp9
 70
     0
102
RTVSPropertyOp10
 70
     0
102
RTVSPropertyOp11
 70
     0
102
RTVSPropertyOp12
 70
     0
102
RTVSPropertyOp13
 70
     0
102
RTVSPropertyOp14
 70
     2
102
RTVSPropertyOp15
 70
     0
102
RTVSPropertyOp16
 70
     0
102
RTVSPropertyOp17
 70
     0
102
RTVSPropertyOp18
 70
     0
102
RTVSPropertyOp19
 70
     0
102
RTVSPropertyOp20
 70
     0
102
RTVSPropertyOp21
 70
     0
102
RTVSPropertyOp22
 70
     0
102
RTVSPropertyOp23
 70
     0
102
RTVSPropertyOp24
 70
     0
102
RTVSPropertyOp25
 70
     0
102
RTVSPropertyOp26
 70
     0
102
RTVSPropertyOp27
 70
     0
102
RTVSPropertyOp28
 70
     0
102
RTVSPropertyOp29
 70
     0
102
RTVSPropertyOp30
 70
     0
102
RTVSPropertyOp31
 70
     0
102
RTVSPropertyOp32
 70
     0
102
RTVSPropertyOp33
 70
     0
102
RTVSPropertyOp34
 70
     0
102
RTVSPropertyOp35
 70
     0
102
RTVSPropertyOp36
 70
     0
102
RTVSPropertyOp37
 70
     0
102
RTVSPropertyOp38
 70
     0
102
RTVSPropertyOp39
 70
     0
102
RTVSPropertyOp40
 70
     0
102
RTVSPropertyOp41
 70
     0
102
RTVSPropertyOp42
 70
     0
102
RTVSPropertyOp43
 70
     0
102
RTVSPropertyOp44
 70
     0
102
RTVSPropertyOp45
 70
     0
102
RTVSPropertyOp46
 70
     0
102
RTVSPropertyOp47
 70
     0
102
RTVSPropertyOp48
 70
     0
102
RTVSPropertyOp49
 70
     0
102
RTVSPropertyOp50
 70
     0
102
RTVSPropertyOp51
 70
     0
102
RTVSPropertyOp52
 70
     0
102
RTVSPropertyOp53
 70
     0
102
RTVSPropertyOp54
 70
     0
102
RTVSPropertyOp55
 70
     0
102
RTVSPropertyOp56
 70
     0
102
RTVSPropertyOp57
 70
     0
102
RTVSPropertyOp58
 70
     1
102
RTVSPropertyOp59
 70
     1
102
RTVSPropertyOp60
 70
     1
102
RTVSPropertyOp61
 70
     1
102
RTVSPropertyOp62
 70
     1
  0
XRECORD
  5
9BD
102
{ACAD_REACTORS
330
9BC
102
}
330
9BC
100
AcDbXrecord
280
     1
102
RTVSPost2010Prop28
280
     0
102
RTVSPost2010PropOp28
 70
     1
102
RTVSPost2010Prop29
280
     1
102
RTVSPost2010PropOp29
 70
     1
102
RTVSPost2010Prop30
280
     1
102
RTVSPost2010PropOp30
 70
     1
102
RTVSPost2010Prop31
280
     0
102
RTVSPost2010PropOp31
 70
     1
102
RTVSPost2010Prop32
280
     0
102
RTVSPost2010PropOp32
 70
     1
102
RTVSPost2010Prop33
280
     0
102
RTVSPost2010PropOp33
 70
     1
102
RTVSPost2010Prop34
280
     0
102
RTVSPost2010PropOp34
 70
     1
102
RTVSPost2010Prop35
280
     0
102
RTVSPost2010PropOp35
 70
     1
102
RTVSPost2010Prop36
280
     0
102
RTVSPost2010PropOp36
 70
     1
102
RTVSPost2010Prop37
 90
       50
102
RTVSPost2010PropOp37
 70
     1
102
RTVSPost2010Prop38
140
0.0
102
RTVSPost2010PropOp38
 70
     1
102
RTVSPost2010Prop39
140
1.0
102
RTVSPost2010PropOp39
 70
     1
102
RTVSPost2010Prop40
 90
        0
102
RTVSPost2010PropOp40
 70
     1
102
RTVSPost2010Prop41ColorIndex
 90
       18
102
RTVSPost2010Prop41ColorRGB
 90
-16777216
102
RTVSPost2010PropOp41
 70
     1
102
RTVSPost2010Prop42
 90
       50
102
RTVSPost2010PropOp42
 70
     1
102
RTVSPost2010Prop43
 90
        3
102
RTVSPost2010PropOp43
 70
     1
102
RTVSPost2010Prop44ColorIndex
 90
        5
102
RTVSPost2010Prop44ColorRGB
 90
      255
102
RTVSPost2010PropOp44
 70
     1
102
RTVSPost2010Prop45
280
     0
102
RTVSPost2010PropOp45
 70
     1
102
RTVSPost2010Prop46
 90
       50
102
RTVSPost2010PropOp46
 70
     1
102
RTVSPost2010Prop47
 90
       50
102
RTVSPost2010PropOp47
 70
     1
102
RTVSPost2010Prop48
 90
       50
102
RTVSPost2010PropOp48
 70
     1
102
RTVSPost2010Prop49
280
     0
102
RTVSPost2010PropOp49
 70
     1
102
RTVSPost2010Prop50
 90
       50
102
RTVSPost2010PropOp50
 70
     1
102
RTVSPost2010Prop51ColorIndex
 90
      256
102
RTVSPost2010Prop51ColorRGB
 90
-16777216
102
RTVSPost2010PropOp51
 70
     0
102
RTVSPost2010Prop52
140
1.0
102
RTVSPost2010PropOp52
 70
     0
102
RTVSPost2010Prop53
 90
        2
102
RTVSPost2010PropOp53
 70
     1
102
RTVSPost2010Prop54
  1
strokes_ogs.tif
102
RTVSPost2010PropOp54
 70
     1
102
RTVSPost2010Prop55
280
     0
102
RTVSPost2010PropOp55
 70
     1
102
RTVSPost2010Prop56
140
1.0
102
RTVSPost2010PropOp56
 70
     1
102
RTVSPost2010Prop57
140
1.0
102
RTVSPost2010PropOp57
 70
     1
102
RTVSPropertyOp0
 70
     1
102
RTVSPropertyOp1
 70
     1
102
RTVSPropertyOp2
 70
     1
102
RTVSPropertyOp3
 70
     1
102
RTVSPropertyOp4
 70
     1
102
RTVSPropertyOp5
 70
     1
102
RTVSPropertyOp6
 70
     1
102
RTVSPropertyOp7
 70
     1
102
RTVSPropertyOp8
 70
     1
102
RTVSPropertyOp9
 70
     1
102
RTVSPropertyOp10
 70
     1
102
RTVSPropertyOp11
 70
     1
102
RTVSPropertyOp12
 70
     1
102
RTVSPropertyOp13
 70
     1
102
RTVSPropertyOp14
 70
     1
102
RTVSPropertyOp15
 70
     1
102
RTVSPropertyOp16
 70
     1
102
RTVSPropertyOp17
 70
     1
102
RTVSPropertyOp18
 70
     1
102
RTVSPropertyOp19
 70
     1
102
RTVSPropertyOp20
 70
     1
102
RTVSPropertyOp21
 70
     1
102
RTVSPropertyOp22
 70
     1
102
RTVSPropertyOp23
 70
     1
102
RTVSPropertyOp24
 70
     1
102
RTVSPropertyOp25
 70
     1
102
RTVSPropertyOp26
 70
     1
102
RTVSPropertyOp27
 70
     1
102
RTVSPropertyOp28
 70
     1
102
RTVSPropertyOp29
 70
     1
102
RTVSPropertyOp30
 70
     1
102
RTVSPropertyOp31
 70
     1
102
RTVSPropertyOp32
 70
     1
102
RTVSPropertyOp33
 70
     1
102
RTVSPropertyOp34
 70
     1
102
RTVSPropertyOp35
 70
     1
102
RTVSPropertyOp36
 70
     1
102
RTVSPropertyOp37
 70
     1
102
RTVSPropertyOp38
 70
     1
102
RTVSPropertyOp39
 70
     1
102
RTVSPropertyOp40
 70
     1
102
RTVSPropertyOp41
 70
     1
102
RTVSPropertyOp42
 70
     1
102
RTVSPropertyOp43
 70
     1
102
RTVSPropertyOp44
 70
     1
102
RTVSPropertyOp45
 70
     1
102
RTVSPropertyOp46
 70
     1
102
RTVSPropertyOp47
 70
     1
102
RTVSPropertyOp48
 70
     1
102
RTVSPropertyOp49
 70
     1
102
RTVSPropertyOp50
 70
     1
102
RTVSPropertyOp51
 70
     0
102
RTVSPropertyOp52
 70
     0
102
RTVSPropertyOp53
 70
     1
102
RTVSPropertyOp54
 70
     1
102
RTVSPropertyOp55
 70
     1
102
RTVSPropertyOp56
 70
     1
102
RTVSPropertyOp57
 70
     1
102
RTVSPropertyOp58
 70
     1
102
RTVSPropertyOp59
 70
     1
102
RTVSPropertyOp60
 70
     1
102
RTVSPropertyOp61
 70
     1
102
RTVSPropertyOp62
 70
     1
  0
XRECORD
  5
9A1
102
{ACAD_REACTORS
330
9A0
102
}
330
9A0
100
AcDbXrecord
280
     1
102
RTVSPost2010Prop28
280
     0
102
RTVSPost2010PropOp28
 70
     1
102
RTVSPost2010Prop29
280
     1
102
RTVSPost2010PropOp29
 70
     1
102
RTVSPost2010Prop30
280
     1
102
RTVSPost2010PropOp30
 70
     1
102
RTVSPost2010Prop31
280
     0
102
RTVSPost2010PropOp31
 70
     1
102
RTVSPost2010Prop32
280
     0
102
RTVSPost2010PropOp32
 70
     1
102
RTVSPost2010Prop33
280
     0
102
RTVSPost2010PropOp33
 70
     1
102
RTVSPost2010Prop34
280
     0
102
RTVSPost2010PropOp34
 70
     1
102
RTVSPost2010Prop35
280
     0
102
RTVSPost2010PropOp35
 70
     1
102
RTVSPost2010Prop36
280
     0
102
RTVSPost2010PropOp36
 70
     1
102
RTVSPost2010Prop37
 90
       50
102
RTVSPost2010PropOp37
 70
     1
102
RTVSPost2010Prop38
140
0.0
102
RTVSPost2010PropOp38
 70
     1
102
RTVSPost2010Prop39
140
1.0
102
RTVSPost2010PropOp39
 70
     1
102
RTVSPost2010Prop40
 90
        0
102
RTVSPost2010PropOp40
 70
     1
102
RTVSPost2010Prop41ColorIndex
 90
       18
102
RTVSPost2010Prop41ColorRGB
 90
-16777216
102
RTVSPost2010PropOp41
 70
     1
102
RTVSPost2010Prop42
 90
       50
102
RTVSPost2010PropOp42
 70
     1
102
RTVSPost2010Prop43
 90
        3
102
RTVSPost2010PropOp43
 70
     1
102
RTVSPost2010Prop44ColorIndex
 90
        5
102
RTVSPost2010Prop44ColorRGB
 90
      255
102
RTVSPost2010PropOp44
 70
     1
102
RTVSPost2010Prop45
280
     0
102
RTVSPost2010PropOp45
 70
     1
102
RTVSPost2010Prop46
 90
       50
102
RTVSPost2010PropOp46
 70
     1
102
RTVSPost2010Prop47
 90
       50
102
RTVSPost2010PropOp47
 70
     1
102
RTVSPost2010Prop48
 90
       50
102
RTVSPost2010PropOp48
 70
     1
102
RTVSPost2010Prop49
280
     0
102
RTVSPost2010PropOp49
 70
     1
102
RTVSPost2010Prop50
 90
       50
102
RTVSPost2010PropOp50
 70
     1
102
RTVSPost2010Prop51ColorIndex
 90
      256
102
RTVSPost2010Prop51ColorRGB
 90
-16777216
102
RTVSPost2010PropOp51
 70
     0
102
RTVSPost2010Prop52
140
1.0
102
RTVSPost2010PropOp52
 70
     0
102
RTVSPost2010Prop53
 90
        2
102
RTVSPost2010PropOp53
 70
     1
102
RTVSPost2010Prop54
  1
strokes_ogs.tif
102
RTVSPost2010PropOp54
 70
     1
102
RTVSPost2010Prop55
280
     0
102
RTVSPost2010PropOp55
 70
     1
102
RTVSPost2010Prop56
140
1.0
102
RTVSPost2010PropOp56
 70
     1
102
RTVSPost2010Prop57
140
1.0
102
RTVSPost2010PropOp57
 70
     1
102
RTVSPropertyOp0
 70
     1
102
RTVSPropertyOp1
 70
     1
102
RTVSPropertyOp2
 70
     1
102
RTVSPropertyOp3
 70
     1
102
RTVSPropertyOp4
 70
     1
102
RTVSPropertyOp5
 70
     1
102
RTVSPropertyOp6
 70
     1
102
RTVSPropertyOp7
 70
     1
102
RTVSPropertyOp8
 70
     1
102
RTVSPropertyOp9
 70
     1
102
RTVSPropertyOp10
 70
     1
102
RTVSPropertyOp11
 70
     1
102
RTVSPropertyOp12
 70
     1
102
RTVSPropertyOp13
 70
     1
102
RTVSPropertyOp14
 70
     1
102
RTVSPropertyOp15
 70
     1
102
RTVSPropertyOp16
 70
     1
102
RTVSPropertyOp17
 70
     1
102
RTVSPropertyOp18
 70
     1
102
RTVSPropertyOp19
 70
     1
102
RTVSPropertyOp20
 70
     1
102
RTVSPropertyOp21
 70
     1
102
RTVSPropertyOp22
 70
     1
102
RTVSPropertyOp23
 70
     1
102
RTVSPropertyOp24
 70
     1
102
RTVSPropertyOp25
 70
     1
102
RTVSPropertyOp26
 70
     1
102
RTVSPropertyOp27
 70
     1
102
RTVSPropertyOp28
 70
     1
102
RTVSPropertyOp29
 70
     1
102
RTVSPropertyOp30
 70
     1
102
RTVSPropertyOp31
 70
     1
102
RTVSPropertyOp32
 70
     1
102
RTVSPropertyOp33
 70
     1
102
RTVSPropertyOp34
 70
     1
102
RTVSPropertyOp35
 70
     1
102
RTVSPropertyOp36
 70
     1
102
RTVSPropertyOp37
 70
     1
102
RTVSPropertyOp38
 70
     1
102
RTVSPropertyOp39
 70
     1
102
RTVSPropertyOp40
 70
     1
102
RTVSPropertyOp41
 70
     1
102
RTVSPropertyOp42
 70
     1
102
RTVSPropertyOp43
 70
     1
102
RTVSPropertyOp44
 70
     1
102
RTVSPropertyOp45
 70
     1
102
RTVSPropertyOp46
 70
     1
102
RTVSPropertyOp47
 70
     1
102
RTVSPropertyOp48
 70
     1
102
RTVSPropertyOp49
 70
     1
102
RTVSPropertyOp50
 70
     1
102
RTVSPropertyOp51
 70
     0
102
RTVSPropertyOp52
 70
     0
102
RTVSPropertyOp53
 70
     1
102
RTVSPropertyOp54
 70
     1
102
RTVSPropertyOp55
 70
     1
102
RTVSPropertyOp56
 70
     1
102
RTVSPropertyOp57
 70
     1
102
RTVSPropertyOp58
 70
     1
102
RTVSPropertyOp59
 70
     1
102
RTVSPropertyOp60
 70
     1
102
RTVSPropertyOp61
 70
     1
102
RTVSPropertyOp62
 70
     1
  0
XRECORD
  5
9A3
102
{ACAD_REACTORS
330
9A2
102
}
330
9A2
100
AcDbXrecord
280
     1
102
RTVSPost2010Prop28
280
     0
102
RTVSPost2010PropOp28
 70
     1
102
RTVSPost2010Prop29
280
     1
102
RTVSPost2010PropOp29
 70
     1
102
RTVSPost2010Prop30
280
     1
102
RTVSPost2010PropOp30
 70
     1
102
RTVSPost2010Prop31
280
     0
102
RTVSPost2010PropOp31
 70
     1
102
RTVSPost2010Prop32
280
     0
102
RTVSPost2010PropOp32
 70
     1
102
RTVSPost2010Prop33
280
     0
102
RTVSPost2010PropOp33
 70
     1
102
RTVSPost2010Prop34
280
     0
102
RTVSPost2010PropOp34
 70
     1
102
RTVSPost2010Prop35
280
     0
102
RTVSPost2010PropOp35
 70
     1
102
RTVSPost2010Prop36
280
     0
102
RTVSPost2010PropOp36
 70
     1
102
RTVSPost2010Prop37
 90
       50
102
RTVSPost2010PropOp37
 70
     1
102
RTVSPost2010Prop38
140
0.0
102
RTVSPost2010PropOp38
 70
     1
102
RTVSPost2010Prop39
140
1.0
102
RTVSPost2010PropOp39
 70
     1
102
RTVSPost2010Prop40
 90
        0
102
RTVSPost2010PropOp40
 70
     1
102
RTVSPost2010Prop41ColorIndex
 90
       18
102
RTVSPost2010Prop41ColorRGB
 90
-16777216
102
RTVSPost2010PropOp41
 70
     1
102
RTVSPost2010Prop42
 90
       50
102
RTVSPost2010PropOp42
 70
     1
102
RTVSPost2010Prop43
 90
        3
102
RTVSPost2010PropOp43
 70
     1
102
RTVSPost2010Prop44ColorIndex
 90
        5
102
RTVSPost2010Prop44ColorRGB
 90
      255
102
RTVSPost2010PropOp44
 70
     1
102
RTVSPost2010Prop45
280
     0
102
RTVSPost2010PropOp45
 70
     1
102
RTVSPost2010Prop46
 90
       50
102
RTVSPost2010PropOp46
 70
     1
102
RTVSPost2010Prop47
 90
       50
102
RTVSPost2010PropOp47
 70
     1
102
RTVSPost2010Prop48
 90
       50
102
RTVSPost2010PropOp48
 70
     1
102
RTVSPost2010Prop49
280
     0
102
RTVSPost2010PropOp49
 70
     1
102
RTVSPost2010Prop50
 90
       50
102
RTVSPost2010PropOp50
 70
     1
102
RTVSPost2010Prop51ColorIndex
 90
      256
102
RTVSPost2010Prop51ColorRGB
 90
-16777216
102
RTVSPost2010PropOp51
 70
     0
102
RTVSPost2010Prop52
140
1.0
102
RTVSPost2010PropOp52
 70
     0
102
RTVSPost2010Prop53
 90
        2
102
RTVSPost2010PropOp53
 70
     1
102
RTVSPost2010Prop54
  1
strokes_ogs.tif
102
RTVSPost2010PropOp54
 70
     1
102
RTVSPost2010Prop55
280
     0
102
RTVSPost2010PropOp55
 70
     1
102
RTVSPost2010Prop56
140
1.0
102
RTVSPost2010PropOp56
 70
     1
102
RTVSPost2010Prop57
140
1.0
102
RTVSPost2010PropOp57
 70
     1
102
RTVSPropertyOp0
 70
     1
102
RTVSPropertyOp1
 70
     1
102
RTVSPropertyOp2
 70
     1
102
RTVSPropertyOp3
 70
     1
102
RTVSPropertyOp4
 70
     1
102
RTVSPropertyOp5
 70
     1
102
RTVSPropertyOp6
 70
     1
102
RTVSPropertyOp7
 70
     1
102
RTVSPropertyOp8
 70
     1
102
RTVSPropertyOp9
 70
     1
102
RTVSPropertyOp10
 70
     1
102
RTVSPropertyOp11
 70
     1
102
RTVSPropertyOp12
 70
     1
102
RTVSPropertyOp13
 70
     1
102
RTVSPropertyOp14
 70
     1
102
RTVSPropertyOp15
 70
     1
102
RTVSPropertyOp16
 70
     1
102
RTVSPropertyOp17
 70
     1
102
RTVSPropertyOp18
 70
     1
102
RTVSPropertyOp19
 70
     1
102
RTVSPropertyOp20
 70
     1
102
RTVSPropertyOp21
 70
     1
102
RTVSPropertyOp22
 70
     1
102
RTVSPropertyOp23
 70
     1
102
RTVSPropertyOp24
 70
     1
102
RTVSPropertyOp25
 70
     1
102
RTVSPropertyOp26
 70
     1
102
RTVSPropertyOp27
 70
     1
102
RTVSPropertyOp28
 70
     1
102
RTVSPropertyOp29
 70
     1
102
RTVSPropertyOp30
 70
     1
102
RTVSPropertyOp31
 70
     1
102
RTVSPropertyOp32
 70
     1
102
RTVSPropertyOp33
 70
     1
102
RTVSPropertyOp34
 70
     1
102
RTVSPropertyOp35
 70
     1
102
RTVSPropertyOp36
 70
     1
102
RTVSPropertyOp37
 70
     1
102
RTVSPropertyOp38
 70
     1
102
RTVSPropertyOp39
 70
     1
102
RTVSPropertyOp40
 70
     1
102
RTVSPropertyOp41
 70
     1
102
RTVSPropertyOp42
 70
     1
102
RTVSPropertyOp43
 70
     1
102
RTVSPropertyOp44
 70
     1
102
RTVSPropertyOp45
 70
     1
102
RTVSPropertyOp46
 70
     1
102
RTVSPropertyOp47
 70
     1
102
RTVSPropertyOp48
 70
     1
102
RTVSPropertyOp49
 70
     1
102
RTVSPropertyOp50
 70
     1
102
RTVSPropertyOp51
 70
     0
102
RTVSPropertyOp52
 70
     0
102
RTVSPropertyOp53
 70
     1
102
RTVSPropertyOp54
 70
     1
102
RTVSPropertyOp55
 70
     1
102
RTVSPropertyOp56
 70
     1
102
RTVSPropertyOp57
 70
     1
102
RTVSPropertyOp58
 70
     1
102
RTVSPropertyOp59
 70
     1
102
RTVSPropertyOp60
 70
     1
102
RTVSPropertyOp61
 70
     1
102
RTVSPropertyOp62
 70
     1
  0
XRECORD
  5
9A5
102
{ACAD_REACTORS
330
9A4
102
}
330
9A4
100
AcDbXrecord
280
     1
102
RTVSPost2010Prop28
280
     0
102
RTVSPost2010PropOp28
 70
     1
102
RTVSPost2010Prop29
280
     1
102
RTVSPost2010PropOp29
 70
     1
102
RTVSPost2010Prop30
280
     1
102
RTVSPost2010PropOp30
 70
     1
102
RTVSPost2010Prop31
280
     0
102
RTVSPost2010PropOp31
 70
     1
102
RTVSPost2010Prop32
280
     0
102
RTVSPost2010PropOp32
 70
     1
102
RTVSPost2010Prop33
280
     0
102
RTVSPost2010PropOp33
 70
     1
102
RTVSPost2010Prop34
280
     0
102
RTVSPost2010PropOp34
 70
     1
102
RTVSPost2010Prop35
280
     0
102
RTVSPost2010PropOp35
 70
     1
102
RTVSPost2010Prop36
280
     0
102
RTVSPost2010PropOp36
 70
     1
102
RTVSPost2010Prop37
 90
       50
102
RTVSPost2010PropOp37
 70
     1
102
RTVSPost2010Prop38
140
0.0
102
RTVSPost2010PropOp38
 70
     1
102
RTVSPost2010Prop39
140
1.0
102
RTVSPost2010PropOp39
 70
     1
102
RTVSPost2010Prop40
 90
        0
102
RTVSPost2010PropOp40
 70
     1
102
RTVSPost2010Prop41ColorIndex
 90
       18
102
RTVSPost2010Prop41ColorRGB
 90
-16777216
102
RTVSPost2010PropOp41
 70
     1
102
RTVSPost2010Prop42
 90
       50
102
RTVSPost2010PropOp42
 70
     1
102
RTVSPost2010Prop43
 90
        3
102
RTVSPost2010PropOp43
 70
     1
102
RTVSPost2010Prop44ColorIndex
 90
        5
102
RTVSPost2010Prop44ColorRGB
 90
      255
102
RTVSPost2010PropOp44
 70
     1
102
RTVSPost2010Prop45
280
     0
102
RTVSPost2010PropOp45
 70
     1
102
RTVSPost2010Prop46
 90
       50
102
RTVSPost2010PropOp46
 70
     1
102
RTVSPost2010Prop47
 90
       50
102
RTVSPost2010PropOp47
 70
     1
102
RTVSPost2010Prop48
 90
       50
102
RTVSPost2010PropOp48
 70
     1
102
RTVSPost2010Prop49
280
     0
102
RTVSPost2010PropOp49
 70
     1
102
RTVSPost2010Prop50
 90
       50
102
RTVSPost2010PropOp50
 70
     1
102
RTVSPost2010Prop51ColorIndex
 90
      256
102
RTVSPost2010Prop51ColorRGB
 90
-16777216
102
RTVSPost2010PropOp51
 70
     0
102
RTVSPost2010Prop52
140
1.0
102
RTVSPost2010PropOp52
 70
     0
102
RTVSPost2010Prop53
 90
        2
102
RTVSPost2010PropOp53
 70
     1
102
RTVSPost2010Prop54
  1
strokes_ogs.tif
102
RTVSPost2010PropOp54
 70
     1
102
RTVSPost2010Prop55
280
     0
102
RTVSPost2010PropOp55
 70
     1
102
RTVSPost2010Prop56
140
1.0
102
RTVSPost2010PropOp56
 70
     1
102
RTVSPost2010Prop57
140
1.0
102
RTVSPost2010PropOp57
 70
     1
102
RTVSPropertyOp0
 70
     1
102
RTVSPropertyOp1
 70
     1
102
RTVSPropertyOp2
 70
     1
102
RTVSPropertyOp3
 70
     1
102
RTVSPropertyOp4
 70
     1
102
RTVSPropertyOp5
 70
     1
102
RTVSPropertyOp6
 70
     1
102
RTVSPropertyOp7
 70
     1
102
RTVSPropertyOp8
 70
     1
102
RTVSPropertyOp9
 70
     1
102
RTVSPropertyOp10
 70
     1
102
RTVSPropertyOp11
 70
     1
102
RTVSPropertyOp12
 70
     1
102
RTVSPropertyOp13
 70
     1
102
RTVSPropertyOp14
 70
     1
102
RTVSPropertyOp15
 70
     1
102
RTVSPropertyOp16
 70
     1
102
RTVSPropertyOp17
 70
     1
102
RTVSPropertyOp18
 70
     1
102
RTVSPropertyOp19
 70
     1
102
RTVSPropertyOp20
 70
     1
102
RTVSPropertyOp21
 70
     1
102
RTVSPropertyOp22
 70
     1
102
RTVSPropertyOp23
 70
     1
102
RTVSPropertyOp24
 70
     1
102
RTVSPropertyOp25
 70
     1
102
RTVSPropertyOp26
 70
     1
102
RTVSPropertyOp27
 70
     1
102
RTVSPropertyOp28
 70
     1
102
RTVSPropertyOp29
 70
     1
102
RTVSPropertyOp30
 70
     1
102
RTVSPropertyOp31
 70
     1
102
RTVSPropertyOp32
 70
     1
102
RTVSPropertyOp33
 70
     1
102
RTVSPropertyOp34
 70
     1
102
RTVSPropertyOp35
 70
     1
102
RTVSPropertyOp36
 70
     1
102
RTVSPropertyOp37
 70
     1
102
RTVSPropertyOp38
 70
     1
102
RTVSPropertyOp39
 70
     1
102
RTVSPropertyOp40
 70
     1
102
RTVSPropertyOp41
 70
     1
102
RTVSPropertyOp42
 70
     1
102
RTVSPropertyOp43
 70
     1
102
RTVSPropertyOp44
 70
     1
102
RTVSPropertyOp45
 70
     1
102
RTVSPropertyOp46
 70
     1
102
RTVSPropertyOp47
 70
     1
102
RTVSPropertyOp48
 70
     1
102
RTVSPropertyOp49
 70
     1
102
RTVSPropertyOp50
 70
     1
102
RTVSPropertyOp51
 70
     0
102
RTVSPropertyOp52
 70
     0
102
RTVSPropertyOp53
 70
     1
102
RTVSPropertyOp54
 70
     1
102
RTVSPropertyOp55
 70
     1
102
RTVSPropertyOp56
 70
     1
102
RTVSPropertyOp57
 70
     1
102
RTVSPropertyOp58
 70
     1
102
RTVSPropertyOp59
 70
     1
102
RTVSPropertyOp60
 70
     1
102
RTVSPropertyOp61
 70
     1
102
RTVSPropertyOp62
 70
     1
  0
XRECORD
  5
9A7
102
{ACAD_REACTORS
330
9A6
102
}
330
9A6
100
AcDbXrecord
280
     1
102
RTVSPost2010Prop28
280
     0
102
RTVSPost2010PropOp28
 70
     1
102
RTVSPost2010Prop29
280
     1
102
RTVSPost2010PropOp29
 70
     1
102
RTVSPost2010Prop30
280
     1
102
RTVSPost2010PropOp30
 70
     1
102
RTVSPost2010Prop31
280
     0
102
RTVSPost2010PropOp31
 70
     1
102
RTVSPost2010Prop32
280
     0
102
RTVSPost2010PropOp32
 70
     1
102
RTVSPost2010Prop33
280
     0
102
RTVSPost2010PropOp33
 70
     1
102
RTVSPost2010Prop34
280
     0
102
RTVSPost2010PropOp34
 70
     1
102
RTVSPost2010Prop35
280
     0
102
RTVSPost2010PropOp35
 70
     1
102
RTVSPost2010Prop36
280
     0
102
RTVSPost2010PropOp36
 70
     1
102
RTVSPost2010Prop37
 90
       50
102
RTVSPost2010PropOp37
 70
     1
102
RTVSPost2010Prop38
140
0.0
102
RTVSPost2010PropOp38
 70
     1
102
RTVSPost2010Prop39
140
1.0
102
RTVSPost2010PropOp39
 70
     1
102
RTVSPost2010Prop40
 90
        0
102
RTVSPost2010PropOp40
 70
     1
102
RTVSPost2010Prop41ColorIndex
 90
       18
102
RTVSPost2010Prop41ColorRGB
 90
-16777216
102
RTVSPost2010PropOp41
 70
     1
102
RTVSPost2010Prop42
 90
       50
102
RTVSPost2010PropOp42
 70
     1
102
RTVSPost2010Prop43
 90
        3
102
RTVSPost2010PropOp43
 70
     1
102
RTVSPost2010Prop44ColorIndex
 90
        5
102
RTVSPost2010Prop44ColorRGB
 90
      255
102
RTVSPost2010PropOp44
 70
     1
102
RTVSPost2010Prop45
280
     0
102
RTVSPost2010PropOp45
 70
     1
102
RTVSPost2010Prop46
 90
       50
102
RTVSPost2010PropOp46
 70
     1
102
RTVSPost2010Prop47
 90
       50
102
RTVSPost2010PropOp47
 70
     1
102
RTVSPost2010Prop48
 90
       50
102
RTVSPost2010PropOp48
 70
     1
102
RTVSPost2010Prop49
280
     0
102
RTVSPost2010PropOp49
 70
     1
102
RTVSPost2010Prop50
 90
       50
102
RTVSPost2010PropOp50
 70
     1
102
RTVSPost2010Prop51ColorIndex
 90
      256
102
RTVSPost2010Prop51ColorRGB
 90
-16777216
102
RTVSPost2010PropOp51
 70
     0
102
RTVSPost2010Prop52
140
1.0
102
RTVSPost2010PropOp52
 70
     0
102
RTVSPost2010Prop53
 90
        2
102
RTVSPost2010PropOp53
 70
     1
102
RTVSPost2010Prop54
  1
strokes_ogs.tif
102
RTVSPost2010PropOp54
 70
     1
102
RTVSPost2010Prop55
280
     0
102
RTVSPost2010PropOp55
 70
     1
102
RTVSPost2010Prop56
140
1.0
102
RTVSPost2010PropOp56
 70
     1
102
RTVSPost2010Prop57
140
1.0
102
RTVSPost2010PropOp57
 70
     1
102
RTVSPropertyOp0
 70
     1
102
RTVSPropertyOp1
 70
     1
102
RTVSPropertyOp2
 70
     1
102
RTVSPropertyOp3
 70
     1
102
RTVSPropertyOp4
 70
     1
102
RTVSPropertyOp5
 70
     1
102
RTVSPropertyOp6
 70
     1
102
RTVSPropertyOp7
 70
     1
102
RTVSPropertyOp8
 70
     1
102
RTVSPropertyOp9
 70
     1
102
RTVSPropertyOp10
 70
     1
102
RTVSPropertyOp11
 70
     1
102
RTVSPropertyOp12
 70
     1
102
RTVSPropertyOp13
 70
     1
102
RTVSPropertyOp14
 70
     1
102
RTVSPropertyOp15
 70
     1
102
RTVSPropertyOp16
 70
     1
102
RTVSPropertyOp17
 70
     1
102
RTVSPropertyOp18
 70
     1
102
RTVSPropertyOp19
 70
     1
102
RTVSPropertyOp20
 70
     1
102
RTVSPropertyOp21
 70
     1
102
RTVSPropertyOp22
 70
     1
102
RTVSPropertyOp23
 70
     1
102
RTVSPropertyOp24
 70
     1
102
RTVSPropertyOp25
 70
     1
102
RTVSPropertyOp26
 70
     1
102
RTVSPropertyOp27
 70
     1
102
RTVSPropertyOp28
 70
     1
102
RTVSPropertyOp29
 70
     1
102
RTVSPropertyOp30
 70
     1
102
RTVSPropertyOp31
 70
     1
102
RTVSPropertyOp32
 70
     1
102
RTVSPropertyOp33
 70
     1
102
RTVSPropertyOp34
 70
     1
102
RTVSPropertyOp35
 70
     1
102
RTVSPropertyOp36
 70
     1
102
RTVSPropertyOp37
 70
     1
102
RTVSPropertyOp38
 70
     1
102
RTVSPropertyOp39
 70
     1
102
RTVSPropertyOp40
 70
     1
102
RTVSPropertyOp41
 70
     1
102
RTVSPropertyOp42
 70
     1
102
RTVSPropertyOp43
 70
     1
102
RTVSPropertyOp44
 70
     1
102
RTVSPropertyOp45
 70
     1
102
RTVSPropertyOp46
 70
     1
102
RTVSPropertyOp47
 70
     1
102
RTVSPropertyOp48
 70
     1
102
RTVSPropertyOp49
 70
     1
102
RTVSPropertyOp50
 70
     1
102
RTVSPropertyOp51
 70
     0
102
RTVSPropertyOp52
 70
     0
102
RTVSPropertyOp53
 70
     1
102
RTVSPropertyOp54
 70
     1
102
RTVSPropertyOp55
 70
     1
102
RTVSPropertyOp56
 70
     1
102
RTVSPropertyOp57
 70
     1
102
RTVSPropertyOp58
 70
     1
102
RTVSPropertyOp59
 70
     1
102
RTVSPropertyOp60
 70
     1
102
RTVSPropertyOp61
 70
     1
102
RTVSPropertyOp62
 70
     1
  0
XRECORD
  5
9AF
102
{ACAD_REACTORS
330
9AE
102
}
330
9AE
100
AcDbXrecord
280
     1
102
RTVSPost2010Prop28
280
     0
102
RTVSPost2010PropOp28
 70
     1
102
RTVSPost2010Prop29
280
     1
102
RTVSPost2010PropOp29
 70
     1
102
RTVSPost2010Prop30
280
     1
102
RTVSPost2010PropOp30
 70
     1
102
RTVSPost2010Prop31
280
     0
102
RTVSPost2010PropOp31
 70
     1
102
RTVSPost2010Prop32
280
     0
102
RTVSPost2010PropOp32
 70
     1
102
RTVSPost2010Prop33
280
     0
102
RTVSPost2010PropOp33
 70
     1
102
RTVSPost2010Prop34
280
     0
102
RTVSPost2010PropOp34
 70
     1
102
RTVSPost2010Prop35
280
     0
102
RTVSPost2010PropOp35
 70
     1
102
RTVSPost2010Prop36
280
     0
102
RTVSPost2010PropOp36
 70
     1
102
RTVSPost2010Prop37
 90
       50
102
RTVSPost2010PropOp37
 70
     1
102
RTVSPost2010Prop38
140
0.0
102
RTVSPost2010PropOp38
 70
     1
102
RTVSPost2010Prop39
140
1.0
102
RTVSPost2010PropOp39
 70
     1
102
RTVSPost2010Prop40
 90
        0
102
RTVSPost2010PropOp40
 70
     1
102
RTVSPost2010Prop41ColorIndex
 90
       18
102
RTVSPost2010Prop41ColorRGB
 90
-16777216
102
RTVSPost2010PropOp41
 70
     1
102
RTVSPost2010Prop42
 90
       50
102
RTVSPost2010PropOp42
 70
     1
102
RTVSPost2010Prop43
 90
        3
102
RTVSPost2010PropOp43
 70
     1
102
RTVSPost2010Prop44ColorIndex
 90
        5
102
RTVSPost2010Prop44ColorRGB
 90
      255
102
RTVSPost2010PropOp44
 70
     1
102
RTVSPost2010Prop45
280
     0
102
RTVSPost2010PropOp45
 70
     1
102
RTVSPost2010Prop46
 90
       50
102
RTVSPost2010PropOp46
 70
     1
102
RTVSPost2010Prop47
 90
       50
102
RTVSPost2010PropOp47
 70
     1
102
RTVSPost2010Prop48
 90
       50
102
RTVSPost2010PropOp48
 70
     1
102
RTVSPost2010Prop49
280
     0
102
RTVSPost2010PropOp49
 70
     1
102
RTVSPost2010Prop50
 90
       50
102
RTVSPost2010PropOp50
 70
     1
102
RTVSPost2010Prop51ColorIndex
 90
      256
102
RTVSPost2010Prop51ColorRGB
 90
-16777216
102
RTVSPost2010PropOp51
 70
     0
102
RTVSPost2010Prop52
140
1.0
102
RTVSPost2010PropOp52
 70
     0
102
RTVSPost2010Prop53
 90
        2
102
RTVSPost2010PropOp53
 70
     1
102
RTVSPost2010Prop54
  1
strokes_ogs.tif
102
RTVSPost2010PropOp54
 70
     1
102
RTVSPost2010Prop55
280
     0
102
RTVSPost2010PropOp55
 70
     1
102
RTVSPost2010Prop56
140
1.0
102
RTVSPost2010PropOp56
 70
     1
102
RTVSPost2010Prop57
140
1.0
102
RTVSPost2010PropOp57
 70
     1
102
RTVSPropertyOp0
 70
     1
102
RTVSPropertyOp1
 70
     1
102
RTVSPropertyOp2
 70
     1
102
RTVSPropertyOp3
 70
     1
102
RTVSPropertyOp4
 70
     1
102
RTVSPropertyOp5
 70
     1
102
RTVSPropertyOp6
 70
     1
102
RTVSPropertyOp7
 70
     1
102
RTVSPropertyOp8
 70
     1
102
RTVSPropertyOp9
 70
     1
102
RTVSPropertyOp10
 70
     1
102
RTVSPropertyOp11
 70
     1
102
RTVSPropertyOp12
 70
     1
102
RTVSPropertyOp13
 70
     1
102
RTVSPropertyOp14
 70
     1
102
RTVSPropertyOp15
 70
     1
102
RTVSPropertyOp16
 70
     1
102
RTVSPropertyOp17
 70
     1
102
RTVSPropertyOp18
 70
     1
102
RTVSPropertyOp19
 70
     1
102
RTVSPropertyOp20
 70
     1
102
RTVSPropertyOp21
 70
     1
102
RTVSPropertyOp22
 70
     1
102
RTVSPropertyOp23
 70
     1
102
RTVSPropertyOp24
 70
     1
102
RTVSPropertyOp25
 70
     1
102
RTVSPropertyOp26
 70
     1
102
RTVSPropertyOp27
 70
     1
102
RTVSPropertyOp28
 70
     1
102
RTVSPropertyOp29
 70
     1
102
RTVSPropertyOp30
 70
     1
102
RTVSPropertyOp31
 70
     1
102
RTVSPropertyOp32
 70
     1
102
RTVSPropertyOp33
 70
     1
102
RTVSPropertyOp34
 70
     1
102
RTVSPropertyOp35
 70
     1
102
RTVSPropertyOp36
 70
     1
102
RTVSPropertyOp37
 70
     1
102
RTVSPropertyOp38
 70
     1
102
RTVSPropertyOp39
 70
     1
102
RTVSPropertyOp40
 70
     1
102
RTVSPropertyOp41
 70
     1
102
RTVSPropertyOp42
 70
     1
102
RTVSPropertyOp43
 70
     1
102
RTVSPropertyOp44
 70
     1
102
RTVSPropertyOp45
 70
     1
102
RTVSPropertyOp46
 70
     1
102
RTVSPropertyOp47
 70
     1
102
RTVSPropertyOp48
 70
     1
102
RTVSPropertyOp49
 70
     1
102
RTVSPropertyOp50
 70
     1
102
RTVSPropertyOp51
 70
     0
102
RTVSPropertyOp52
 70
     0
102
RTVSPropertyOp53
 70
     1
102
RTVSPropertyOp54
 70
     1
102
RTVSPropertyOp55
 70
     1
102
RTVSPropertyOp56
 70
     1
102
RTVSPropertyOp57
 70
     1
102
RTVSPropertyOp58
 70
     1
102
RTVSPropertyOp59
 70
     1
102
RTVSPropertyOp60
 70
     1
102
RTVSPropertyOp61
 70
     1
102
RTVSPropertyOp62
 70
     1
  0
XRECORD
  5
9CB
102
{ACAD_REACTORS
330
9CA
102
}
330
9CA
100
AcDbXrecord
280
     1
102
RTVSPost2010Prop28
280
     0
102
RTVSPost2010PropOp28
 70
     0
102
RTVSPost2010Prop29
280
     1
102
RTVSPost2010PropOp29
 70
     0
102
RTVSPost2010Prop30
280
     1
102
RTVSPost2010PropOp30
 70
     0
102
RTVSPost2010Prop31
280
     0
102
RTVSPost2010PropOp31
 70
     0
102
RTVSPost2010Prop32
280
     0
102
RTVSPost2010PropOp32
 70
     0
102
RTVSPost2010Prop33
280
     0
102
RTVSPost2010PropOp33
 70
     0
102
RTVSPost2010Prop34
280
     0
102
RTVSPost2010PropOp34
 70
     0
102
RTVSPost2010Prop35
280
     0
102
RTVSPost2010PropOp35
 70
     0
102
RTVSPost2010Prop36
280
     0
102
RTVSPost2010PropOp36
 70
     0
102
RTVSPost2010Prop37
 90
       50
102
RTVSPost2010PropOp37
 70
     0
102
RTVSPost2010Prop38
140
0.0
102
RTVSPost2010PropOp38
 70
     0
102
RTVSPost2010Prop39
140
1.0
102
RTVSPost2010PropOp39
 70
     0
102
RTVSPost2010Prop40
 90
        0
102
RTVSPost2010PropOp40
 70
     0
102
RTVSPost2010Prop41ColorIndex
 90
       18
102
RTVSPost2010Prop41ColorRGB
 90
-16777216
102
RTVSPost2010PropOp41
 70
     0
102
RTVSPost2010Prop42
 90
       50
102
RTVSPost2010PropOp42
 70
     0
102
RTVSPost2010Prop43
 90
        3
102
RTVSPost2010PropOp43
 70
     0
102
RTVSPost2010Prop44ColorIndex
 90
        5
102
RTVSPost2010Prop44ColorRGB
 90
      255
102
RTVSPost2010PropOp44
 70
     0
102
RTVSPost2010Prop45
280
     0
102
RTVSPost2010PropOp45
 70
     0
102
RTVSPost2010Prop46
 90
       50
102
RTVSPost2010PropOp46
 70
     0
102
RTVSPost2010Prop47
 90
       50
102
RTVSPost2010PropOp47
 70
     0
102
RTVSPost2010Prop48
 90
       50
102
RTVSPost2010PropOp48
 70
     0
102
RTVSPost2010Prop49
280
     0
102
RTVSPost2010PropOp49
 70
     0
102
RTVSPost2010Prop50
 90
       50
102
RTVSPost2010PropOp50
 70
     0
102
RTVSPost2010Prop51ColorIndex
 90
      256
102
RTVSPost2010Prop51ColorRGB
 90
-16777216
102
RTVSPost2010PropOp51
 70
     0
102
RTVSPost2010Prop52
140
1.0
102
RTVSPost2010PropOp52
 70
     0
102
RTVSPost2010Prop53
 90
        2
102
RTVSPost2010PropOp53
 70
     0
102
RTVSPost2010Prop54
  1
strokes_ogs.tif
102
RTVSPost2010PropOp54
 70
     0
102
RTVSPost2010Prop55
280
     0
102
RTVSPost2010PropOp55
 70
     0
102
RTVSPost2010Prop56
140
1.0
102
RTVSPost2010PropOp56
 70
     0
102
RTVSPost2010Prop57
140
1.0
102
RTVSPost2010PropOp57
 70
     0
102
RTVSPropertyOp0
 70
     0
102
RTVSPropertyOp1
 70
     0
102
RTVSPropertyOp2
 70
     0
102
RTVSPropertyOp3
 70
     0
102
RTVSPropertyOp4
 70
     0
102
RTVSPropertyOp5
 70
     0
102
RTVSPropertyOp6
 70
     0
102
RTVSPropertyOp7
 70
     0
102
RTVSPropertyOp8
 70
     0
102
RTVSPropertyOp9
 70
     0
102
RTVSPropertyOp10
 70
     0
102
RTVSPropertyOp11
 70
     0
102
RTVSPropertyOp12
 70
     0
102
RTVSPropertyOp13
 70
     0
102
RTVSPropertyOp14
 70
     2
102
RTVSPropertyOp15
 70
     0
102
RTVSPropertyOp16
 70
     0
102
RTVSPropertyOp17
 70
     0
102
RTVSPropertyOp18
 70
     0
102
RTVSPropertyOp19
 70
     0
102
RTVSPropertyOp20
 70
     0
102
RTVSPropertyOp21
 70
     0
102
RTVSPropertyOp22
 70
     0
102
RTVSPropertyOp23
 70
     0
102
RTVSPropertyOp24
 70
     0
102
RTVSPropertyOp25
 70
     0
102
RTVSPropertyOp26
 70
     0
102
RTVSPropertyOp27
 70
     0
102
RTVSPropertyOp28
 70
     0
102
RTVSPropertyOp29
 70
     0
102
RTVSPropertyOp30
 70
     0
102
RTVSPropertyOp31
 70
     0
102
RTVSPropertyOp32
 70
     0
102
RTVSPropertyOp33
 70
     0
102
RTVSPropertyOp34
 70
     0
102
RTVSPropertyOp35
 70
     0
102
RTVSPropertyOp36
 70
     0
102
RTVSPropertyOp37
 70
     0
102
RTVSPropertyOp38
 70
     0
102
RTVSPropertyOp39
 70
     0
102
RTVSPropertyOp40
 70
     0
102
RTVSPropertyOp41
 70
     0
102
RTVSPropertyOp42
 70
     0
102
RTVSPropertyOp43
 70
     0
102
RTVSPropertyOp44
 70
     0
102
RTVSPropertyOp45
 70
     0
102
RTVSPropertyOp46
 70
     0
102
RTVSPropertyOp47
 70
     0
102
RTVSPropertyOp48
 70
     0
102
RTVSPropertyOp49
 70
     0
102
RTVSPropertyOp50
 70
     0
102
RTVSPropertyOp51
 70
     0
102
RTVSPropertyOp52
 70
     0
102
RTVSPropertyOp53
 70
     0
102
RTVSPropertyOp54
 70
     0
102
RTVSPropertyOp55
 70
     0
102
RTVSPropertyOp56
 70
     0
102
RTVSPropertyOp57
 70
     0
102
RTVSPropertyOp58
 70
     1
102
RTVSPropertyOp59
 70
     1
102
RTVSPropertyOp60
 70
     1
102
RTVSPropertyOp61
 70
     1
102
RTVSPropertyOp62
 70
     1
  0
XRECORD
  5
9BB
102
{ACAD_REACTORS
330
9BA
102
}
330
9BA
100
AcDbXrecord
280
     1
102
RTVSPost2010Prop28
280
     0
102
RTVSPost2010PropOp28
 70
     1
102
RTVSPost2010Prop29
280
     1
102
RTVSPost2010PropOp29
 70
     1
102
RTVSPost2010Prop30
280
     1
102
RTVSPost2010PropOp30
 70
     1
102
RTVSPost2010Prop31
280
     0
102
RTVSPost2010PropOp31
 70
     1
102
RTVSPost2010Prop32
280
     0
102
RTVSPost2010PropOp32
 70
     1
102
RTVSPost2010Prop33
280
     0
102
RTVSPost2010PropOp33
 70
     1
102
RTVSPost2010Prop34
280
     0
102
RTVSPost2010PropOp34
 70
     1
102
RTVSPost2010Prop35
280
     0
102
RTVSPost2010PropOp35
 70
     1
102
RTVSPost2010Prop36
280
     0
102
RTVSPost2010PropOp36
 70
     1
102
RTVSPost2010Prop37
 90
       50
102
RTVSPost2010PropOp37
 70
     1
102
RTVSPost2010Prop38
140
0.0
102
RTVSPost2010PropOp38
 70
     1
102
RTVSPost2010Prop39
140
1.0
102
RTVSPost2010PropOp39
 70
     1
102
RTVSPost2010Prop40
 90
        0
102
RTVSPost2010PropOp40
 70
     1
102
RTVSPost2010Prop41ColorIndex
 90
       18
102
RTVSPost2010Prop41ColorRGB
 90
-16777216
102
RTVSPost2010PropOp41
 70
     1
102
RTVSPost2010Prop42
 90
       50
102
RTVSPost2010PropOp42
 70
     1
102
RTVSPost2010Prop43
 90
        3
102
RTVSPost2010PropOp43
 70
     1
102
RTVSPost2010Prop44ColorIndex
 90
        5
102
RTVSPost2010Prop44ColorRGB
 90
      255
102
RTVSPost2010PropOp44
 70
     1
102
RTVSPost2010Prop45
280
     0
102
RTVSPost2010PropOp45
 70
     1
102
RTVSPost2010Prop46
 90
       50
102
RTVSPost2010PropOp46
 70
     1
102
RTVSPost2010Prop47
 90
       50
102
RTVSPost2010PropOp47
 70
     1
102
RTVSPost2010Prop48
 90
       50
102
RTVSPost2010PropOp48
 70
     1
102
RTVSPost2010Prop49
280
     0
102
RTVSPost2010PropOp49
 70
     1
102
RTVSPost2010Prop50
 90
       50
102
RTVSPost2010PropOp50
 70
     1
102
RTVSPost2010Prop51ColorIndex
 90
      256
102
RTVSPost2010Prop51ColorRGB
 90
-16777216
102
RTVSPost2010PropOp51
 70
     0
102
RTVSPost2010Prop52
140
1.0
102
RTVSPost2010PropOp52
 70
     0
102
RTVSPost2010Prop53
 90
        2
102
RTVSPost2010PropOp53
 70
     1
102
RTVSPost2010Prop54
  1
strokes_ogs.tif
102
RTVSPost2010PropOp54
 70
     1
102
RTVSPost2010Prop55
280
     0
102
RTVSPost2010PropOp55
 70
     1
102
RTVSPost2010Prop56
140
1.0
102
RTVSPost2010PropOp56
 70
     1
102
RTVSPost2010Prop57
140
1.0
102
RTVSPost2010PropOp57
 70
     1
102
RTVSPropertyOp0
 70
     1
102
RTVSPropertyOp1
 70
     1
102
RTVSPropertyOp2
 70
     1
102
RTVSPropertyOp3
 70
     1
102
RTVSPropertyOp4
 70
     1
102
RTVSPropertyOp5
 70
     1
102
RTVSPropertyOp6
 70
     1
102
RTVSPropertyOp7
 70
     1
102
RTVSPropertyOp8
 70
     1
102
RTVSPropertyOp9
 70
     1
102
RTVSPropertyOp10
 70
     1
102
RTVSPropertyOp11
 70
     1
102
RTVSPropertyOp12
 70
     1
102
RTVSPropertyOp13
 70
     1
102
RTVSPropertyOp14
 70
     1
102
RTVSPropertyOp15
 70
     1
102
RTVSPropertyOp16
 70
     1
102
RTVSPropertyOp17
 70
     1
102
RTVSPropertyOp18
 70
     1
102
RTVSPropertyOp19
 70
     1
102
RTVSPropertyOp20
 70
     1
102
RTVSPropertyOp21
 70
     1
102
RTVSPropertyOp22
 70
     1
102
RTVSPropertyOp23
 70
     1
102
RTVSPropertyOp24
 70
     1
102
RTVSPropertyOp25
 70
     1
102
RTVSPropertyOp26
 70
     1
102
RTVSPropertyOp27
 70
     1
102
RTVSPropertyOp28
 70
     1
102
RTVSPropertyOp29
 70
     1
102
RTVSPropertyOp30
 70
     1
102
RTVSPropertyOp31
 70
     1
102
RTVSPropertyOp32
 70
     1
102
RTVSPropertyOp33
 70
     1
102
RTVSPropertyOp34
 70
     1
102
RTVSPropertyOp35
 70
     1
102
RTVSPropertyOp36
 70
     1
102
RTVSPropertyOp37
 70
     1
102
RTVSPropertyOp38
 70
     1
102
RTVSPropertyOp39
 70
     1
102
RTVSPropertyOp40
 70
     1
102
RTVSPropertyOp41
 70
     1
102
RTVSPropertyOp42
 70
     1
102
RTVSPropertyOp43
 70
     1
102
RTVSPropertyOp44
 70
     1
102
RTVSPropertyOp45
 70
     1
102
RTVSPropertyOp46
 70
     1
102
RTVSPropertyOp47
 70
     1
102
RTVSPropertyOp48
 70
     1
102
RTVSPropertyOp49
 70
     1
102
RTVSPropertyOp50
 70
     1
102
RTVSPropertyOp51
 70
     0
102
RTVSPropertyOp52
 70
     0
102
RTVSPropertyOp53
 70
     1
102
RTVSPropertyOp54
 70
     1
102
RTVSPropertyOp55
 70
     1
102
RTVSPropertyOp56
 70
     1
102
RTVSPropertyOp57
 70
     1
102
RTVSPropertyOp58
 70
     1
102
RTVSPropertyOp59
 70
     1
102
RTVSPropertyOp60
 70
     1
102
RTVSPropertyOp61
 70
     1
102
RTVSPropertyOp62
 70
     1
  0
XRECORD
  5
9CD
102
{ACAD_REACTORS
330
9CC
102
}
330
9CC
100
AcDbXrecord
280
     1
102
RTVSPost2010Prop28
280
     0
102
RTVSPost2010PropOp28
 70
     0
102
RTVSPost2010Prop29
280
     1
102
RTVSPost2010PropOp29
 70
     0
102
RTVSPost2010Prop30
280
     1
102
RTVSPost2010PropOp30
 70
     0
102
RTVSPost2010Prop31
280
     0
102
RTVSPost2010PropOp31
 70
     0
102
RTVSPost2010Prop32
280
     0
102
RTVSPost2010PropOp32
 70
     0
102
RTVSPost2010Prop33
280
     0
102
RTVSPost2010PropOp33
 70
     0
102
RTVSPost2010Prop34
280
     0
102
RTVSPost2010PropOp34
 70
     0
102
RTVSPost2010Prop35
280
     0
102
RTVSPost2010PropOp35
 70
     0
102
RTVSPost2010Prop36
280
     0
102
RTVSPost2010PropOp36
 70
     0
102
RTVSPost2010Prop37
 90
       50
102
RTVSPost2010PropOp37
 70
     0
102
RTVSPost2010Prop38
140
0.0
102
RTVSPost2010PropOp38
 70
     0
102
RTVSPost2010Prop39
140
1.0
102
RTVSPost2010PropOp39
 70
     0
102
RTVSPost2010Prop40
 90
        0
102
RTVSPost2010PropOp40
 70
     0
102
RTVSPost2010Prop41ColorIndex
 90
       18
102
RTVSPost2010Prop41ColorRGB
 90
-16777216
102
RTVSPost2010PropOp41
 70
     0
102
RTVSPost2010Prop42
 90
       50
102
RTVSPost2010PropOp42
 70
     0
102
RTVSPost2010Prop43
 90
        3
102
RTVSPost2010PropOp43
 70
     0
102
RTVSPost2010Prop44ColorIndex
 90
        5
102
RTVSPost2010Prop44ColorRGB
 90
      255
102
RTVSPost2010PropOp44
 70
     0
102
RTVSPost2010Prop45
280
     0
102
RTVSPost2010PropOp45
 70
     0
102
RTVSPost2010Prop46
 90
       50
102
RTVSPost2010PropOp46
 70
     0
102
RTVSPost2010Prop47
 90
       50
102
RTVSPost2010PropOp47
 70
     0
102
RTVSPost2010Prop48
 90
       50
102
RTVSPost2010PropOp48
 70
     0
102
RTVSPost2010Prop49
280
     0
102
RTVSPost2010PropOp49
 70
     0
102
RTVSPost2010Prop50
 90
       50
102
RTVSPost2010PropOp50
 70
     0
102
RTVSPost2010Prop51ColorIndex
 90
      256
102
RTVSPost2010Prop51ColorRGB
 90
-16777216
102
RTVSPost2010PropOp51
 70
     0
102
RTVSPost2010Prop52
140
1.0
102
RTVSPost2010PropOp52
 70
     0
102
RTVSPost2010Prop53
 90
        2
102
RTVSPost2010PropOp53
 70
     0
102
RTVSPost2010Prop54
  1
strokes_ogs.tif
102
RTVSPost2010PropOp54
 70
     0
102
RTVSPost2010Prop55
280
     0
102
RTVSPost2010PropOp55
 70
     0
102
RTVSPost2010Prop56
140
1.0
102
RTVSPost2010PropOp56
 70
     0
102
RTVSPost2010Prop57
140
1.0
102
RTVSPost2010PropOp57
 70
     0
102
RTVSPropertyOp0
 70
     0
102
RTVSPropertyOp1
 70
     0
102
RTVSPropertyOp2
 70
     0
102
RTVSPropertyOp3
 70
     0
102
RTVSPropertyOp4
 70
     0
102
RTVSPropertyOp5
 70
     0
102
RTVSPropertyOp6
 70
     0
102
RTVSPropertyOp7
 70
     0
102
RTVSPropertyOp8
 70
     0
102
RTVSPropertyOp9
 70
     0
102
RTVSPropertyOp10
 70
     0
102
RTVSPropertyOp11
 70
     0
102
RTVSPropertyOp12
 70
     0
102
RTVSPropertyOp13
 70
     0
102
RTVSPropertyOp14
 70
     2
102
RTVSPropertyOp15
 70
     0
102
RTVSPropertyOp16
 70
     0
102
RTVSPropertyOp17
 70
     0
102
RTVSPropertyOp18
 70
     0
102
RTVSPropertyOp19
 70
     0
102
RTVSPropertyOp20
 70
     0
102
RTVSPropertyOp21
 70
     0
102
RTVSPropertyOp22
 70
     0
102
RTVSPropertyOp23
 70
     0
102
RTVSPropertyOp24
 70
     0
102
RTVSPropertyOp25
 70
     0
102
RTVSPropertyOp26
 70
     0
102
RTVSPropertyOp27
 70
     0
102
RTVSPropertyOp28
 70
     0
102
RTVSPropertyOp29
 70
     0
102
RTVSPropertyOp30
 70
     0
102
RTVSPropertyOp31
 70
     0
102
RTVSPropertyOp32
 70
     0
102
RTVSPropertyOp33
 70
     0
102
RTVSPropertyOp34
 70
     0
102
RTVSPropertyOp35
 70
     0
102
RTVSPropertyOp36
 70
     0
102
RTVSPropertyOp37
 70
     0
102
RTVSPropertyOp38
 70
     0
102
RTVSPropertyOp39
 70
     0
102
RTVSPropertyOp40
 70
     0
102
RTVSPropertyOp41
 70
     0
102
RTVSPropertyOp42
 70
     0
102
RTVSPropertyOp43
 70
     0
102
RTVSPropertyOp44
 70
     0
102
RTVSPropertyOp45
 70
     0
102
RTVSPropertyOp46
 70
     0
102
RTVSPropertyOp47
 70
     0
102
RTVSPropertyOp48
 70
     0
102
RTVSPropertyOp49
 70
     0
102
RTVSPropertyOp50
 70
     0
102
RTVSPropertyOp51
 70
     0
102
RTVSPropertyOp52
 70
     0
102
RTVSPropertyOp53
 70
     0
102
RTVSPropertyOp54
 70
     0
102
RTVSPropertyOp55
 70
     0
102
RTVSPropertyOp56
 70
     0
102
RTVSPropertyOp57
 70
     0
102
RTVSPropertyOp58
 70
     1
102
RTVSPropertyOp59
 70
     1
102
RTVSPropertyOp60
 70
     1
102
RTVSPropertyOp61
 70
     1
102
RTVSPropertyOp62
 70
     1
  0
XRECORD
  5
9B3
102
{ACAD_REACTORS
330
9B2
102
}
330
9B2
100
AcDbXrecord
280
     1
102
RTVSPost2010Prop28
280
     0
102
RTVSPost2010PropOp28
 70
     1
102
RTVSPost2010Prop29
280
     1
102
RTVSPost2010PropOp29
 70
     1
102
RTVSPost2010Prop30
280
     1
102
RTVSPost2010PropOp30
 70
     1
102
RTVSPost2010Prop31
280
     0
102
RTVSPost2010PropOp31
 70
     1
102
RTVSPost2010Prop32
280
     0
102
RTVSPost2010PropOp32
 70
     1
102
RTVSPost2010Prop33
280
     0
102
RTVSPost2010PropOp33
 70
     1
102
RTVSPost2010Prop34
280
     0
102
RTVSPost2010PropOp34
 70
     1
102
RTVSPost2010Prop35
280
     0
102
RTVSPost2010PropOp35
 70
     1
102
RTVSPost2010Prop36
280
     0
102
RTVSPost2010PropOp36
 70
     1
102
RTVSPost2010Prop37
 90
       50
102
RTVSPost2010PropOp37
 70
     1
102
RTVSPost2010Prop38
140
0.0
102
RTVSPost2010PropOp38
 70
     1
102
RTVSPost2010Prop39
140
1.0
102
RTVSPost2010PropOp39
 70
     1
102
RTVSPost2010Prop40
 90
        0
102
RTVSPost2010PropOp40
 70
     1
102
RTVSPost2010Prop41ColorIndex
 90
       18
102
RTVSPost2010Prop41ColorRGB
 90
-16777216
102
RTVSPost2010PropOp41
 70
     1
102
RTVSPost2010Prop42
 90
       50
102
RTVSPost2010PropOp42
 70
     1
102
RTVSPost2010Prop43
 90
        3
102
RTVSPost2010PropOp43
 70
     1
102
RTVSPost2010Prop44ColorIndex
 90
        5
102
RTVSPost2010Prop44ColorRGB
 90
      255
102
RTVSPost2010PropOp44
 70
     1
102
RTVSPost2010Prop45
280
     0
102
RTVSPost2010PropOp45
 70
     1
102
RTVSPost2010Prop46
 90
       50
102
RTVSPost2010PropOp46
 70
     1
102
RTVSPost2010Prop47
 90
       50
102
RTVSPost2010PropOp47
 70
     1
102
RTVSPost2010Prop48
 90
       50
102
RTVSPost2010PropOp48
 70
     1
102
RTVSPost2010Prop49
280
     0
102
RTVSPost2010PropOp49
 70
     1
102
RTVSPost2010Prop50
 90
       50
102
RTVSPost2010PropOp50
 70
     1
102
RTVSPost2010Prop51ColorIndex
 90
      256
102
RTVSPost2010Prop51ColorRGB
 90
-16777216
102
RTVSPost2010PropOp51
 70
     0
102
RTVSPost2010Prop52
140
1.0
102
RTVSPost2010PropOp52
 70
     0
102
RTVSPost2010Prop53
 90
        2
102
RTVSPost2010PropOp53
 70
     1
102
RTVSPost2010Prop54
  1
strokes_ogs.tif
102
RTVSPost2010PropOp54
 70
     1
102
RTVSPost2010Prop55
280
     0
102
RTVSPost2010PropOp55
 70
     1
102
RTVSPost2010Prop56
140
1.0
102
RTVSPost2010PropOp56
 70
     1
102
RTVSPost2010Prop57
140
1.0
102
RTVSPost2010PropOp57
 70
     1
102
RTVSPropertyOp0
 70
     1
102
RTVSPropertyOp1
 70
     1
102
RTVSPropertyOp2
 70
     1
102
RTVSPropertyOp3
 70
     1
102
RTVSPropertyOp4
 70
     1
102
RTVSPropertyOp5
 70
     1
102
RTVSPropertyOp6
 70
     1
102
RTVSPropertyOp7
 70
     1
102
RTVSPropertyOp8
 70
     1
102
RTVSPropertyOp9
 70
     1
102
RTVSPropertyOp10
 70
     1
102
RTVSPropertyOp11
 70
     1
102
RTVSPropertyOp12
 70
     1
102
RTVSPropertyOp13
 70
     1
102
RTVSPropertyOp14
 70
     1
102
RTVSPropertyOp15
 70
     1
102
RTVSPropertyOp16
 70
     1
102
RTVSPropertyOp17
 70
     1
102
RTVSPropertyOp18
 70
     1
102
RTVSPropertyOp19
 70
     1
102
RTVSPropertyOp20
 70
     1
102
RTVSPropertyOp21
 70
     1
102
RTVSPropertyOp22
 70
     1
102
RTVSPropertyOp23
 70
     1
102
RTVSPropertyOp24
 70
     1
102
RTVSPropertyOp25
 70
     1
102
RTVSPropertyOp26
 70
     1
102
RTVSPropertyOp27
 70
     1
102
RTVSPropertyOp28
 70
     1
102
RTVSPropertyOp29
 70
     1
102
RTVSPropertyOp30
 70
     1
102
RTVSPropertyOp31
 70
     1
102
RTVSPropertyOp32
 70
     1
102
RTVSPropertyOp33
 70
     1
102
RTVSPropertyOp34
 70
     1
102
RTVSPropertyOp35
 70
     1
102
RTVSPropertyOp36
 70
     1
102
RTVSPropertyOp37
 70
     1
102
RTVSPropertyOp38
 70
     1
102
RTVSPropertyOp39
 70
     1
102
RTVSPropertyOp40
 70
     1
102
RTVSPropertyOp41
 70
     1
102
RTVSPropertyOp42
 70
     1
102
RTVSPropertyOp43
 70
     1
102
RTVSPropertyOp44
 70
     1
102
RTVSPropertyOp45
 70
     1
102
RTVSPropertyOp46
 70
     1
102
RTVSPropertyOp47
 70
     1
102
RTVSPropertyOp48
 70
     1
102
RTVSPropertyOp49
 70
     1
102
RTVSPropertyOp50
 70
     1
102
RTVSPropertyOp51
 70
     0
102
RTVSPropertyOp52
 70
     0
102
RTVSPropertyOp53
 70
     1
102
RTVSPropertyOp54
 70
     1
102
RTVSPropertyOp55
 70
     1
102
RTVSPropertyOp56
 70
     1
102
RTVSPropertyOp57
 70
     1
102
RTVSPropertyOp58
 70
     1
102
RTVSPropertyOp59
 70
     1
102
RTVSPropertyOp60
 70
     1
102
RTVSPropertyOp61
 70
     1
102
RTVSPropertyOp62
 70
     1
  0
XRECORD
  5
9C9
102
{ACAD_REACTORS
330
9C8
102
}
330
9C8
100
AcDbXrecord
280
     1
102
RTVSPost2010Prop28
280
     0
102
RTVSPost2010PropOp28
 70
     1
102
RTVSPost2010Prop29
280
     1
102
RTVSPost2010PropOp29
 70
     1
102
RTVSPost2010Prop30
280
     1
102
RTVSPost2010PropOp30
 70
     1
102
RTVSPost2010Prop31
280
     0
102
RTVSPost2010PropOp31
 70
     1
102
RTVSPost2010Prop32
280
     0
102
RTVSPost2010PropOp32
 70
     1
102
RTVSPost2010Prop33
280
     0
102
RTVSPost2010PropOp33
 70
     1
102
RTVSPost2010Prop34
280
     0
102
RTVSPost2010PropOp34
 70
     1
102
RTVSPost2010Prop35
280
     0
102
RTVSPost2010PropOp35
 70
     1
102
RTVSPost2010Prop36
280
     0
102
RTVSPost2010PropOp36
 70
     1
102
RTVSPost2010Prop37
 90
       50
102
RTVSPost2010PropOp37
 70
     1
102
RTVSPost2010Prop38
140
0.0
102
RTVSPost2010PropOp38
 70
     1
102
RTVSPost2010Prop39
140
1.0
102
RTVSPost2010PropOp39
 70
     1
102
RTVSPost2010Prop40
 90
        0
102
RTVSPost2010PropOp40
 70
     1
102
RTVSPost2010Prop41ColorIndex
 90
       18
102
RTVSPost2010Prop41ColorRGB
 90
-16777216
102
RTVSPost2010PropOp41
 70
     1
102
RTVSPost2010Prop42
 90
       50
102
RTVSPost2010PropOp42
 70
     1
102
RTVSPost2010Prop43
 90
        3
102
RTVSPost2010PropOp43
 70
     1
102
RTVSPost2010Prop44ColorIndex
 90
        5
102
RTVSPost2010Prop44ColorRGB
 90
      255
102
RTVSPost2010PropOp44
 70
     1
102
RTVSPost2010Prop45
280
     0
102
RTVSPost2010PropOp45
 70
     1
102
RTVSPost2010Prop46
 90
       50
102
RTVSPost2010PropOp46
 70
     1
102
RTVSPost2010Prop47
 90
       50
102
RTVSPost2010PropOp47
 70
     1
102
RTVSPost2010Prop48
 90
       50
102
RTVSPost2010PropOp48
 70
     1
102
RTVSPost2010Prop49
280
     0
102
RTVSPost2010PropOp49
 70
     1
102
RTVSPost2010Prop50
 90
       50
102
RTVSPost2010PropOp50
 70
     1
102
RTVSPost2010Prop51ColorIndex
 90
      256
102
RTVSPost2010Prop51ColorRGB
 90
-16777216
102
RTVSPost2010PropOp51
 70
     0
102
RTVSPost2010Prop52
140
1.0
102
RTVSPost2010PropOp52
 70
     0
102
RTVSPost2010Prop53
 90
        2
102
RTVSPost2010PropOp53
 70
     1
102
RTVSPost2010Prop54
  1
strokes_ogs.tif
102
RTVSPost2010PropOp54
 70
     1
102
RTVSPost2010Prop55
280
     0
102
RTVSPost2010PropOp55
 70
     1
102
RTVSPost2010Prop56
140
1.0
102
RTVSPost2010PropOp56
 70
     1
102
RTVSPost2010Prop57
140
1.0
102
RTVSPost2010PropOp57
 70
     1
102
RTVSPropertyOp0
 70
     1
102
RTVSPropertyOp1
 70
     1
102
RTVSPropertyOp2
 70
     1
102
RTVSPropertyOp3
 70
     1
102
RTVSPropertyOp4
 70
     1
102
RTVSPropertyOp5
 70
     1
102
RTVSPropertyOp6
 70
     1
102
RTVSPropertyOp7
 70
     1
102
RTVSPropertyOp8
 70
     1
102
RTVSPropertyOp9
 70
     1
102
RTVSPropertyOp10
 70
     1
102
RTVSPropertyOp11
 70
     1
102
RTVSPropertyOp12
 70
     1
102
RTVSPropertyOp13
 70
     1
102
RTVSPropertyOp14
 70
     1
102
RTVSPropertyOp15
 70
     1
102
RTVSPropertyOp16
 70
     1
102
RTVSPropertyOp17
 70
     1
102
RTVSPropertyOp18
 70
     1
102
RTVSPropertyOp19
 70
     1
102
RTVSPropertyOp20
 70
     1
102
RTVSPropertyOp21
 70
     1
102
RTVSPropertyOp22
 70
     1
102
RTVSPropertyOp23
 70
     1
102
RTVSPropertyOp24
 70
     1
102
RTVSPropertyOp25
 70
     1
102
RTVSPropertyOp26
 70
     1
102
RTVSPropertyOp27
 70
     1
102
RTVSPropertyOp28
 70
     1
102
RTVSPropertyOp29
 70
     1
102
RTVSPropertyOp30
 70
     1
102
RTVSPropertyOp31
 70
     1
102
RTVSPropertyOp32
 70
     1
102
RTVSPropertyOp33
 70
     1
102
RTVSPropertyOp34
 70
     1
102
RTVSPropertyOp35
 70
     1
102
RTVSPropertyOp36
 70
     1
102
RTVSPropertyOp37
 70
     1
102
RTVSPropertyOp38
 70
     1
102
RTVSPropertyOp39
 70
     1
102
RTVSPropertyOp40
 70
     1
102
RTVSPropertyOp41
 70
     1
102
RTVSPropertyOp42
 70
     1
102
RTVSPropertyOp43
 70
     1
102
RTVSPropertyOp44
 70
     1
102
RTVSPropertyOp45
 70
     1
102
RTVSPropertyOp46
 70
     1
102
RTVSPropertyOp47
 70
     1
102
RTVSPropertyOp48
 70
     1
102
RTVSPropertyOp49
 70
     1
102
RTVSPropertyOp50
 70
     1
102
RTVSPropertyOp51
 70
     0
102
RTVSPropertyOp52
 70
     0
102
RTVSPropertyOp53
 70
     1
102
RTVSPropertyOp54
 70
     1
102
RTVSPropertyOp55
 70
     1
102
RTVSPropertyOp56
 70
     1
102
RTVSPropertyOp57
 70
     1
102
RTVSPropertyOp58
 70
     1
102
RTVSPropertyOp59
 70
     1
102
RTVSPropertyOp60
 70
     1
102
RTVSPropertyOp61
 70
     1
102
RTVSPropertyOp62
 70
     1
  0
XRECORD
  5
9C7
102
{ACAD_REACTORS
330
9C6
102
}
330
9C6
100
AcDbXrecord
280
     1
102
RTVSPost2010Prop28
280
     0
102
RTVSPost2010PropOp28
 70
     1
102
RTVSPost2010Prop29
280
     1
102
RTVSPost2010PropOp29
 70
     1
102
RTVSPost2010Prop30
280
     1
102
RTVSPost2010PropOp30
 70
     1
102
RTVSPost2010Prop31
280
     0
102
RTVSPost2010PropOp31
 70
     1
102
RTVSPost2010Prop32
280
     0
102
RTVSPost2010PropOp32
 70
     1
102
RTVSPost2010Prop33
280
     0
102
RTVSPost2010PropOp33
 70
     1
102
RTVSPost2010Prop34
280
     0
102
RTVSPost2010PropOp34
 70
     1
102
RTVSPost2010Prop35
280
     0
102
RTVSPost2010PropOp35
 70
     1
102
RTVSPost2010Prop36
280
     0
102
RTVSPost2010PropOp36
 70
     1
102
RTVSPost2010Prop37
 90
       50
102
RTVSPost2010PropOp37
 70
     1
102
RTVSPost2010Prop38
140
0.0
102
RTVSPost2010PropOp38
 70
     1
102
RTVSPost2010Prop39
140
1.0
102
RTVSPost2010PropOp39
 70
     1
102
RTVSPost2010Prop40
 90
        0
102
RTVSPost2010PropOp40
 70
     1
102
RTVSPost2010Prop41ColorIndex
 90
       18
102
RTVSPost2010Prop41ColorRGB
 90
-16777216
102
RTVSPost2010PropOp41
 70
     1
102
RTVSPost2010Prop42
 90
       50
102
RTVSPost2010PropOp42
 70
     1
102
RTVSPost2010Prop43
 90
        3
102
RTVSPost2010PropOp43
 70
     1
102
RTVSPost2010Prop44ColorIndex
 90
        5
102
RTVSPost2010Prop44ColorRGB
 90
      255
102
RTVSPost2010PropOp44
 70
     1
102
RTVSPost2010Prop45
280
     0
102
RTVSPost2010PropOp45
 70
     1
102
RTVSPost2010Prop46
 90
       50
102
RTVSPost2010PropOp46
 70
     1
102
RTVSPost2010Prop47
 90
       50
102
RTVSPost2010PropOp47
 70
     1
102
RTVSPost2010Prop48
 90
       50
102
RTVSPost2010PropOp48
 70
     1
102
RTVSPost2010Prop49
280
     0
102
RTVSPost2010PropOp49
 70
     1
102
RTVSPost2010Prop50
 90
       50
102
RTVSPost2010PropOp50
 70
     1
102
RTVSPost2010Prop51ColorIndex
 90
      256
102
RTVSPost2010Prop51ColorRGB
 90
-16777216
102
RTVSPost2010PropOp51
 70
     0
102
RTVSPost2010Prop52
140
1.0
102
RTVSPost2010PropOp52
 70
     0
102
RTVSPost2010Prop53
 90
        2
102
RTVSPost2010PropOp53
 70
     1
102
RTVSPost2010Prop54
  1
strokes_ogs.tif
102
RTVSPost2010PropOp54
 70
     1
102
RTVSPost2010Prop55
280
     0
102
RTVSPost2010PropOp55
 70
     1
102
RTVSPost2010Prop56
140
1.0
102
RTVSPost2010PropOp56
 70
     1
102
RTVSPost2010Prop57
140
1.0
102
RTVSPost2010PropOp57
 70
     1
102
RTVSPropertyOp0
 70
     1
102
RTVSPropertyOp1
 70
     1
102
RTVSPropertyOp2
 70
     1
102
RTVSPropertyOp3
 70
     1
102
RTVSPropertyOp4
 70
     1
102
RTVSPropertyOp5
 70
     1
102
RTVSPropertyOp6
 70
     1
102
RTVSPropertyOp7
 70
     1
102
RTVSPropertyOp8
 70
     1
102
RTVSPropertyOp9
 70
     1
102
RTVSPropertyOp10
 70
     1
102
RTVSPropertyOp11
 70
     1
102
RTVSPropertyOp12
 70
     1
102
RTVSPropertyOp13
 70
     1
102
RTVSPropertyOp14
 70
     1
102
RTVSPropertyOp15
 70
     1
102
RTVSPropertyOp16
 70
     1
102
RTVSPropertyOp17
 70
     1
102
RTVSPropertyOp18
 70
     1
102
RTVSPropertyOp19
 70
     1
102
RTVSPropertyOp20
 70
     1
102
RTVSPropertyOp21
 70
     1
102
RTVSPropertyOp22
 70
     1
102
RTVSPropertyOp23
 70
     1
102
RTVSPropertyOp24
 70
     1
102
RTVSPropertyOp25
 70
     1
102
RTVSPropertyOp26
 70
     1
102
RTVSPropertyOp27
 70
     1
102
RTVSPropertyOp28
 70
     1
102
RTVSPropertyOp29
 70
     1
102
RTVSPropertyOp30
 70
     1
102
RTVSPropertyOp31
 70
     1
102
RTVSPropertyOp32
 70
     1
102
RTVSPropertyOp33
 70
     1
102
RTVSPropertyOp34
 70
     1
102
RTVSPropertyOp35
 70
     1
102
RTVSPropertyOp36
 70
     1
102
RTVSPropertyOp37
 70
     1
102
RTVSPropertyOp38
 70
     1
102
RTVSPropertyOp39
 70
     1
102
RTVSPropertyOp40
 70
     1
102
RTVSPropertyOp41
 70
     1
102
RTVSPropertyOp42
 70
     1
102
RTVSPropertyOp43
 70
     1
102
RTVSPropertyOp44
 70
     1
102
RTVSPropertyOp45
 70
     1
102
RTVSPropertyOp46
 70
     1
102
RTVSPropertyOp47
 70
     1
102
RTVSPropertyOp48
 70
     1
102
RTVSPropertyOp49
 70
     1
102
RTVSPropertyOp50
 70
     1
102
RTVSPropertyOp51
 70
     0
102
RTVSPropertyOp52
 70
     0
102
RTVSPropertyOp53
 70
     1
102
RTVSPropertyOp54
 70
     1
102
RTVSPropertyOp55
 70
     1
102
RTVSPropertyOp56
 70
     1
102
RTVSPropertyOp57
 70
     1
102
RTVSPropertyOp58
 70
     1
102
RTVSPropertyOp59
 70
     1
102
RTVSPropertyOp60
 70
     1
102
RTVSPropertyOp61
 70
     1
102
RTVSPropertyOp62
 70
     1
  0
XRECORD
  5
9C1
102
{ACAD_REACTORS
330
9C0
102
}
330
9C0
100
AcDbXrecord
280
     1
102
RTVSPost2010Prop28
280
     0
102
RTVSPost2010PropOp28
 70
     1
102
RTVSPost2010Prop29
280
     1
102
RTVSPost2010PropOp29
 70
     1
102
RTVSPost2010Prop30
280
     1
102
RTVSPost2010PropOp30
 70
     1
102
RTVSPost2010Prop31
280
     0
102
RTVSPost2010PropOp31
 70
     1
102
RTVSPost2010Prop32
280
     0
102
RTVSPost2010PropOp32
 70
     1
102
RTVSPost2010Prop33
280
     0
102
RTVSPost2010PropOp33
 70
     1
102
RTVSPost2010Prop34
280
     0
102
RTVSPost2010PropOp34
 70
     1
102
RTVSPost2010Prop35
280
     0
102
RTVSPost2010PropOp35
 70
     1
102
RTVSPost2010Prop36
280
     0
102
RTVSPost2010PropOp36
 70
     1
102
RTVSPost2010Prop37
 90
       50
102
RTVSPost2010PropOp37
 70
     1
102
RTVSPost2010Prop38
140
0.0
102
RTVSPost2010PropOp38
 70
     1
102
RTVSPost2010Prop39
140
1.0
102
RTVSPost2010PropOp39
 70
     1
102
RTVSPost2010Prop40
 90
        0
102
RTVSPost2010PropOp40
 70
     1
102
RTVSPost2010Prop41ColorIndex
 90
       18
102
RTVSPost2010Prop41ColorRGB
 90
-16777216
102
RTVSPost2010PropOp41
 70
     1
102
RTVSPost2010Prop42
 90
       50
102
RTVSPost2010PropOp42
 70
     1
102
RTVSPost2010Prop43
 90
        3
102
RTVSPost2010PropOp43
 70
     1
102
RTVSPost2010Prop44ColorIndex
 90
        5
102
RTVSPost2010Prop44ColorRGB
 90
      255
102
RTVSPost2010PropOp44
 70
     1
102
RTVSPost2010Prop45
280
     0
102
RTVSPost2010PropOp45
 70
     1
102
RTVSPost2010Prop46
 90
       50
102
RTVSPost2010PropOp46
 70
     1
102
RTVSPost2010Prop47
 90
       50
102
RTVSPost2010PropOp47
 70
     1
102
RTVSPost2010Prop48
 90
       50
102
RTVSPost2010PropOp48
 70
     1
102
RTVSPost2010Prop49
280
     0
102
RTVSPost2010PropOp49
 70
     1
102
RTVSPost2010Prop50
 90
       50
102
RTVSPost2010PropOp50
 70
     1
102
RTVSPost2010Prop51ColorIndex
 90
      256
102
RTVSPost2010Prop51ColorRGB
 90
-16777216
102
RTVSPost2010PropOp51
 70
     0
102
RTVSPost2010Prop52
140
1.0
102
RTVSPost2010PropOp52
 70
     0
102
RTVSPost2010Prop53
 90
        2
102
RTVSPost2010PropOp53
 70
     1
102
RTVSPost2010Prop54
  1
strokes_ogs.tif
102
RTVSPost2010PropOp54
 70
     1
102
RTVSPost2010Prop55
280
     0
102
RTVSPost2010PropOp55
 70
     1
102
RTVSPost2010Prop56
140
1.0
102
RTVSPost2010PropOp56
 70
     1
102
RTVSPost2010Prop57
140
1.0
102
RTVSPost2010PropOp57
 70
     1
102
RTVSPropertyOp0
 70
     1
102
RTVSPropertyOp1
 70
     1
102
RTVSPropertyOp2
 70
     1
102
RTVSPropertyOp3
 70
     1
102
RTVSPropertyOp4
 70
     1
102
RTVSPropertyOp5
 70
     1
102
RTVSPropertyOp6
 70
     1
102
RTVSPropertyOp7
 70
     1
102
RTVSPropertyOp8
 70
     1
102
RTVSPropertyOp9
 70
     1
102
RTVSPropertyOp10
 70
     1
102
RTVSPropertyOp11
 70
     1
102
RTVSPropertyOp12
 70
     1
102
RTVSPropertyOp13
 70
     1
102
RTVSPropertyOp14
 70
     1
102
RTVSPropertyOp15
 70
     1
102
RTVSPropertyOp16
 70
     1
102
RTVSPropertyOp17
 70
     1
102
RTVSPropertyOp18
 70
     1
102
RTVSPropertyOp19
 70
     1
102
RTVSPropertyOp20
 70
     1
102
RTVSPropertyOp21
 70
     1
102
RTVSPropertyOp22
 70
     1
102
RTVSPropertyOp23
 70
     1
102
RTVSPropertyOp24
 70
     1
102
RTVSPropertyOp25
 70
     1
102
RTVSPropertyOp26
 70
     1
102
RTVSPropertyOp27
 70
     1
102
RTVSPropertyOp28
 70
     1
102
RTVSPropertyOp29
 70
     1
102
RTVSPropertyOp30
 70
     1
102
RTVSPropertyOp31
 70
     1
102
RTVSPropertyOp32
 70
     1
102
RTVSPropertyOp33
 70
     1
102
RTVSPropertyOp34
 70
     1
102
RTVSPropertyOp35
 70
     1
102
RTVSPropertyOp36
 70
     1
102
RTVSPropertyOp37
 70
     1
102
RTVSPropertyOp38
 70
     1
102
RTVSPropertyOp39
 70
     1
102
RTVSPropertyOp40
 70
     1
102
RTVSPropertyOp41
 70
     1
102
RTVSPropertyOp42
 70
     1
102
RTVSPropertyOp43
 70
     1
102
RTVSPropertyOp44
 70
     1
102
RTVSPropertyOp45
 70
     1
102
RTVSPropertyOp46
 70
     1
102
RTVSPropertyOp47
 70
     1
102
RTVSPropertyOp48
 70
     1
102
RTVSPropertyOp49
 70
     1
102
RTVSPropertyOp50
 70
     1
102
RTVSPropertyOp51
 70
     0
102
RTVSPropertyOp52
 70
     0
102
RTVSPropertyOp53
 70
     1
102
RTVSPropertyOp54
 70
     1
102
RTVSPropertyOp55
 70
     1
102
RTVSPropertyOp56
 70
     1
102
RTVSPropertyOp57
 70
     1
102
RTVSPropertyOp58
 70
     1
102
RTVSPropertyOp59
 70
     1
102
RTVSPropertyOp60
 70
     1
102
RTVSPropertyOp61
 70
     1
102
RTVSPropertyOp62
 70
     1
  0
XRECORD
  5
9C3
102
{ACAD_REACTORS
330
9C2
102
}
330
9C2
100
AcDbXrecord
280
     1
102
RTVSPost2010Prop28
280
     0
102
RTVSPost2010PropOp28
 70
     1
102
RTVSPost2010Prop29
280
     1
102
RTVSPost2010PropOp29
 70
     1
102
RTVSPost2010Prop30
280
     1
102
RTVSPost2010PropOp30
 70
     1
102
RTVSPost2010Prop31
280
     0
102
RTVSPost2010PropOp31
 70
     1
102
RTVSPost2010Prop32
280
     0
102
RTVSPost2010PropOp32
 70
     1
102
RTVSPost2010Prop33
280
     0
102
RTVSPost2010PropOp33
 70
     1
102
RTVSPost2010Prop34
280
     0
102
RTVSPost2010PropOp34
 70
     1
102
RTVSPost2010Prop35
280
     0
102
RTVSPost2010PropOp35
 70
     1
102
RTVSPost2010Prop36
280
     0
102
RTVSPost2010PropOp36
 70
     1
102
RTVSPost2010Prop37
 90
       50
102
RTVSPost2010PropOp37
 70
     1
102
RTVSPost2010Prop38
140
0.0
102
RTVSPost2010PropOp38
 70
     1
102
RTVSPost2010Prop39
140
1.0
102
RTVSPost2010PropOp39
 70
     1
102
RTVSPost2010Prop40
 90
        0
102
RTVSPost2010PropOp40
 70
     1
102
RTVSPost2010Prop41ColorIndex
 90
       18
102
RTVSPost2010Prop41ColorRGB
 90
-16777216
102
RTVSPost2010PropOp41
 70
     1
102
RTVSPost2010Prop42
 90
       50
102
RTVSPost2010PropOp42
 70
     1
102
RTVSPost2010Prop43
 90
        3
102
RTVSPost2010PropOp43
 70
     1
102
RTVSPost2010Prop44ColorIndex
 90
        5
102
RTVSPost2010Prop44ColorRGB
 90
      255
102
RTVSPost2010PropOp44
 70
     1
102
RTVSPost2010Prop45
280
     0
102
RTVSPost2010PropOp45
 70
     1
102
RTVSPost2010Prop46
 90
       50
102
RTVSPost2010PropOp46
 70
     1
102
RTVSPost2010Prop47
 90
       50
102
RTVSPost2010PropOp47
 70
     1
102
RTVSPost2010Prop48
 90
       50
102
RTVSPost2010PropOp48
 70
     1
102
RTVSPost2010Prop49
280
     0
102
RTVSPost2010PropOp49
 70
     1
102
RTVSPost2010Prop50
 90
       50
102
RTVSPost2010PropOp50
 70
     1
102
RTVSPost2010Prop51ColorIndex
 90
      256
102
RTVSPost2010Prop51ColorRGB
 90
-16777216
102
RTVSPost2010PropOp51
 70
     0
102
RTVSPost2010Prop52
140
1.0
102
RTVSPost2010PropOp52
 70
     0
102
RTVSPost2010Prop53
 90
        2
102
RTVSPost2010PropOp53
 70
     1
102
RTVSPost2010Prop54
  1
strokes_ogs.tif
102
RTVSPost2010PropOp54
 70
     1
102
RTVSPost2010Prop55
280
     0
102
RTVSPost2010PropOp55
 70
     1
102
RTVSPost2010Prop56
140
1.0
102
RTVSPost2010PropOp56
 70
     1
102
RTVSPost2010Prop57
140
1.0
102
RTVSPost2010PropOp57
 70
     1
102
RTVSPropertyOp0
 70
     1
102
RTVSPropertyOp1
 70
     1
102
RTVSPropertyOp2
 70
     1
102
RTVSPropertyOp3
 70
     1
102
RTVSPropertyOp4
 70
     1
102
RTVSPropertyOp5
 70
     1
102
RTVSPropertyOp6
 70
     1
102
RTVSPropertyOp7
 70
     1
102
RTVSPropertyOp8
 70
     1
102
RTVSPropertyOp9
 70
     1
102
RTVSPropertyOp10
 70
     1
102
RTVSPropertyOp11
 70
     1
102
RTVSPropertyOp12
 70
     1
102
RTVSPropertyOp13
 70
     1
102
RTVSPropertyOp14
 70
     1
102
RTVSPropertyOp15
 70
     1
102
RTVSPropertyOp16
 70
     1
102
RTVSPropertyOp17
 70
     1
102
RTVSPropertyOp18
 70
     1
102
RTVSPropertyOp19
 70
     1
102
RTVSPropertyOp20
 70
     1
102
RTVSPropertyOp21
 70
     1
102
RTVSPropertyOp22
 70
     1
102
RTVSPropertyOp23
 70
     1
102
RTVSPropertyOp24
 70
     1
102
RTVSPropertyOp25
 70
     1
102
RTVSPropertyOp26
 70
     1
102
RTVSPropertyOp27
 70
     1
102
RTVSPropertyOp28
 70
     1
102
RTVSPropertyOp29
 70
     1
102
RTVSPropertyOp30
 70
     1
102
RTVSPropertyOp31
 70
     1
102
RTVSPropertyOp32
 70
     1
102
RTVSPropertyOp33
 70
     1
102
RTVSPropertyOp34
 70
     1
102
RTVSPropertyOp35
 70
     1
102
RTVSPropertyOp36
 70
     1
102
RTVSPropertyOp37
 70
     1
102
RTVSPropertyOp38
 70
     1
102
RTVSPropertyOp39
 70
     1
102
RTVSPropertyOp40
 70
     1
102
RTVSPropertyOp41
 70
     1
102
RTVSPropertyOp42
 70
     1
102
RTVSPropertyOp43
 70
     1
102
RTVSPropertyOp44
 70
     1
102
RTVSPropertyOp45
 70
     1
102
RTVSPropertyOp46
 70
     1
102
RTVSPropertyOp47
 70
     1
102
RTVSPropertyOp48
 70
     1
102
RTVSPropertyOp49
 70
     1
102
RTVSPropertyOp50
 70
     1
102
RTVSPropertyOp51
 70
     0
102
RTVSPropertyOp52
 70
     0
102
RTVSPropertyOp53
 70
     1
102
RTVSPropertyOp54
 70
     1
102
RTVSPropertyOp55
 70
     1
102
RTVSPropertyOp56
 70
     1
102
RTVSPropertyOp57
 70
     1
102
RTVSPropertyOp58
 70
     1
102
RTVSPropertyOp59
 70
     1
102
RTVSPropertyOp60
 70
     1
102
RTVSPropertyOp61
 70
     1
102
RTVSPropertyOp62
 70
     1
  0
XRECORD
  5
9B9
102
{ACAD_REACTORS
330
9B8
102
}
330
9B8
100
AcDbXrecord
280
     1
102
RTVSPost2010Prop28
280
     0
102
RTVSPost2010PropOp28
 70
     1
102
RTVSPost2010Prop29
280
     1
102
RTVSPost2010PropOp29
 70
     1
102
RTVSPost2010Prop30
280
     1
102
RTVSPost2010PropOp30
 70
     1
102
RTVSPost2010Prop31
280
     0
102
RTVSPost2010PropOp31
 70
     1
102
RTVSPost2010Prop32
280
     0
102
RTVSPost2010PropOp32
 70
     1
102
RTVSPost2010Prop33
280
     0
102
RTVSPost2010PropOp33
 70
     1
102
RTVSPost2010Prop34
280
     0
102
RTVSPost2010PropOp34
 70
     1
102
RTVSPost2010Prop35
280
     0
102
RTVSPost2010PropOp35
 70
     1
102
RTVSPost2010Prop36
280
     0
102
RTVSPost2010PropOp36
 70
     1
102
RTVSPost2010Prop37
 90
       50
102
RTVSPost2010PropOp37
 70
     1
102
RTVSPost2010Prop38
140
0.0
102
RTVSPost2010PropOp38
 70
     1
102
RTVSPost2010Prop39
140
1.0
102
RTVSPost2010PropOp39
 70
     1
102
RTVSPost2010Prop40
 90
        0
102
RTVSPost2010PropOp40
 70
     1
102
RTVSPost2010Prop41ColorIndex
 90
       18
102
RTVSPost2010Prop41ColorRGB
 90
-16777216
102
RTVSPost2010PropOp41
 70
     1
102
RTVSPost2010Prop42
 90
       50
102
RTVSPost2010PropOp42
 70
     1
102
RTVSPost2010Prop43
 90
        3
102
RTVSPost2010PropOp43
 70
     1
102
RTVSPost2010Prop44ColorIndex
 90
        5
102
RTVSPost2010Prop44ColorRGB
 90
      255
102
RTVSPost2010PropOp44
 70
     1
102
RTVSPost2010Prop45
280
     0
102
RTVSPost2010PropOp45
 70
     1
102
RTVSPost2010Prop46
 90
       50
102
RTVSPost2010PropOp46
 70
     1
102
RTVSPost2010Prop47
 90
       50
102
RTVSPost2010PropOp47
 70
     1
102
RTVSPost2010Prop48
 90
       50
102
RTVSPost2010PropOp48
 70
     1
102
RTVSPost2010Prop49
280
     0
102
RTVSPost2010PropOp49
 70
     1
102
RTVSPost2010Prop50
 90
       50
102
RTVSPost2010PropOp50
 70
     1
102
RTVSPost2010Prop51ColorIndex
 90
      256
102
RTVSPost2010Prop51ColorRGB
 90
-16777216
102
RTVSPost2010PropOp51
 70
     0
102
RTVSPost2010Prop52
140
1.0
102
RTVSPost2010PropOp52
 70
     0
102
RTVSPost2010Prop53
 90
        2
102
RTVSPost2010PropOp53
 70
     1
102
RTVSPost2010Prop54
  1
strokes_ogs.tif
102
RTVSPost2010PropOp54
 70
     1
102
RTVSPost2010Prop55
280
     0
102
RTVSPost2010PropOp55
 70
     1
102
RTVSPost2010Prop56
140
1.0
102
RTVSPost2010PropOp56
 70
     1
102
RTVSPost2010Prop57
140
1.0
102
RTVSPost2010PropOp57
 70
     1
102
RTVSPropertyOp0
 70
     1
102
RTVSPropertyOp1
 70
     1
102
RTVSPropertyOp2
 70
     1
102
RTVSPropertyOp3
 70
     1
102
RTVSPropertyOp4
 70
     1
102
RTVSPropertyOp5
 70
     1
102
RTVSPropertyOp6
 70
     1
102
RTVSPropertyOp7
 70
     1
102
RTVSPropertyOp8
 70
     1
102
RTVSPropertyOp9
 70
     1
102
RTVSPropertyOp10
 70
     1
102
RTVSPropertyOp11
 70
     1
102
RTVSPropertyOp12
 70
     1
102
RTVSPropertyOp13
 70
     1
102
RTVSPropertyOp14
 70
     1
102
RTVSPropertyOp15
 70
     1
102
RTVSPropertyOp16
 70
     1
102
RTVSPropertyOp17
 70
     1
102
RTVSPropertyOp18
 70
     1
102
RTVSPropertyOp19
 70
     1
102
RTVSPropertyOp20
 70
     1
102
RTVSPropertyOp21
 70
     1
102
RTVSPropertyOp22
 70
     1
102
RTVSPropertyOp23
 70
     1
102
RTVSPropertyOp24
 70
     1
102
RTVSPropertyOp25
 70
     1
102
RTVSPropertyOp26
 70
     1
102
RTVSPropertyOp27
 70
     1
102
RTVSPropertyOp28
 70
     1
102
RTVSPropertyOp29
 70
     1
102
RTVSPropertyOp30
 70
     1
102
RTVSPropertyOp31
 70
     1
102
RTVSPropertyOp32
 70
     1
102
RTVSPropertyOp33
 70
     1
102
RTVSPropertyOp34
 70
     1
102
RTVSPropertyOp35
 70
     1
102
RTVSPropertyOp36
 70
     1
102
RTVSPropertyOp37
 70
     1
102
RTVSPropertyOp38
 70
     1
102
RTVSPropertyOp39
 70
     1
102
RTVSPropertyOp40
 70
     1
102
RTVSPropertyOp41
 70
     1
102
RTVSPropertyOp42
 70
     1
102
RTVSPropertyOp43
 70
     1
102
RTVSPropertyOp44
 70
     1
102
RTVSPropertyOp45
 70
     1
102
RTVSPropertyOp46
 70
     1
102
RTVSPropertyOp47
 70
     1
102
RTVSPropertyOp48
 70
     1
102
RTVSPropertyOp49
 70
     1
102
RTVSPropertyOp50
 70
     1
102
RTVSPropertyOp51
 70
     0
102
RTVSPropertyOp52
 70
     0
102
RTVSPropertyOp53
 70
     1
102
RTVSPropertyOp54
 70
     1
102
RTVSPropertyOp55
 70
     1
102
RTVSPropertyOp56
 70
     1
102
RTVSPropertyOp57
 70
     1
102
RTVSPropertyOp58
 70
     1
102
RTVSPropertyOp59
 70
     1
102
RTVSPropertyOp60
 70
     1
102
RTVSPropertyOp61
 70
     1
102
RTVSPropertyOp62
 70
     1
  0
XRECORD
  5
9AD
102
{ACAD_REACTORS
330
9AC
102
}
330
9AC
100
AcDbXrecord
280
     1
102
RTVSPost2010Prop28
280
     0
102
RTVSPost2010PropOp28
 70
     1
102
RTVSPost2010Prop29
280
     1
102
RTVSPost2010PropOp29
 70
     1
102
RTVSPost2010Prop30
280
     1
102
RTVSPost2010PropOp30
 70
     1
102
RTVSPost2010Prop31
280
     0
102
RTVSPost2010PropOp31
 70
     1
102
RTVSPost2010Prop32
280
     0
102
RTVSPost2010PropOp32
 70
     1
102
RTVSPost2010Prop33
280
     0
102
RTVSPost2010PropOp33
 70
     1
102
RTVSPost2010Prop34
280
     0
102
RTVSPost2010PropOp34
 70
     1
102
RTVSPost2010Prop35
280
     0
102
RTVSPost2010PropOp35
 70
     1
102
RTVSPost2010Prop36
280
     0
102
RTVSPost2010PropOp36
 70
     1
102
RTVSPost2010Prop37
 90
       50
102
RTVSPost2010PropOp37
 70
     1
102
RTVSPost2010Prop38
140
0.0
102
RTVSPost2010PropOp38
 70
     1
102
RTVSPost2010Prop39
140
1.0
102
RTVSPost2010PropOp39
 70
     1
102
RTVSPost2010Prop40
 90
        0
102
RTVSPost2010PropOp40
 70
     1
102
RTVSPost2010Prop41ColorIndex
 90
       18
102
RTVSPost2010Prop41ColorRGB
 90
-16777216
102
RTVSPost2010PropOp41
 70
     1
102
RTVSPost2010Prop42
 90
       50
102
RTVSPost2010PropOp42
 70
     1
102
RTVSPost2010Prop43
 90
        3
102
RTVSPost2010PropOp43
 70
     1
102
RTVSPost2010Prop44ColorIndex
 90
        5
102
RTVSPost2010Prop44ColorRGB
 90
      255
102
RTVSPost2010PropOp44
 70
     1
102
RTVSPost2010Prop45
280
     0
102
RTVSPost2010PropOp45
 70
     1
102
RTVSPost2010Prop46
 90
       50
102
RTVSPost2010PropOp46
 70
     1
102
RTVSPost2010Prop47
 90
       50
102
RTVSPost2010PropOp47
 70
     1
102
RTVSPost2010Prop48
 90
       50
102
RTVSPost2010PropOp48
 70
     1
102
RTVSPost2010Prop49
280
     0
102
RTVSPost2010PropOp49
 70
     1
102
RTVSPost2010Prop50
 90
       50
102
RTVSPost2010PropOp50
 70
     1
102
RTVSPost2010Prop51ColorIndex
 90
      256
102
RTVSPost2010Prop51ColorRGB
 90
-16777216
102
RTVSPost2010PropOp51
 70
     0
102
RTVSPost2010Prop52
140
1.0
102
RTVSPost2010PropOp52
 70
     0
102
RTVSPost2010Prop53
 90
        2
102
RTVSPost2010PropOp53
 70
     1
102
RTVSPost2010Prop54
  1
strokes_ogs.tif
102
RTVSPost2010PropOp54
 70
     1
102
RTVSPost2010Prop55
280
     0
102
RTVSPost2010PropOp55
 70
     1
102
RTVSPost2010Prop56
140
1.0
102
RTVSPost2010PropOp56
 70
     1
102
RTVSPost2010Prop57
140
1.0
102
RTVSPost2010PropOp57
 70
     1
102
RTVSPropertyOp0
 70
     1
102
RTVSPropertyOp1
 70
     1
102
RTVSPropertyOp2
 70
     1
102
RTVSPropertyOp3
 70
     1
102
RTVSPropertyOp4
 70
     1
102
RTVSPropertyOp5
 70
     1
102
RTVSPropertyOp6
 70
     1
102
RTVSPropertyOp7
 70
     1
102
RTVSPropertyOp8
 70
     1
102
RTVSPropertyOp9
 70
     1
102
RTVSPropertyOp10
 70
     1
102
RTVSPropertyOp11
 70
     1
102
RTVSPropertyOp12
 70
     1
102
RTVSPropertyOp13
 70
     1
102
RTVSPropertyOp14
 70
     1
102
RTVSPropertyOp15
 70
     1
102
RTVSPropertyOp16
 70
     1
102
RTVSPropertyOp17
 70
     1
102
RTVSPropertyOp18
 70
     1
102
RTVSPropertyOp19
 70
     1
102
RTVSPropertyOp20
 70
     1
102
RTVSPropertyOp21
 70
     1
102
RTVSPropertyOp22
 70
     1
102
RTVSPropertyOp23
 70
     1
102
RTVSPropertyOp24
 70
     1
102
RTVSPropertyOp25
 70
     1
102
RTVSPropertyOp26
 70
     1
102
RTVSPropertyOp27
 70
     1
102
RTVSPropertyOp28
 70
     1
102
RTVSPropertyOp29
 70
     1
102
RTVSPropertyOp30
 70
     1
102
RTVSPropertyOp31
 70
     1
102
RTVSPropertyOp32
 70
     1
102
RTVSPropertyOp33
 70
     1
102
RTVSPropertyOp34
 70
     1
102
RTVSPropertyOp35
 70
     1
102
RTVSPropertyOp36
 70
     1
102
RTVSPropertyOp37
 70
     1
102
RTVSPropertyOp38
 70
     1
102
RTVSPropertyOp39
 70
     1
102
RTVSPropertyOp40
 70
     1
102
RTVSPropertyOp41
 70
     1
102
RTVSPropertyOp42
 70
     1
102
RTVSPropertyOp43
 70
     1
102
RTVSPropertyOp44
 70
     1
102
RTVSPropertyOp45
 70
     1
102
RTVSPropertyOp46
 70
     1
102
RTVSPropertyOp47
 70
     1
102
RTVSPropertyOp48
 70
     1
102
RTVSPropertyOp49
 70
     1
102
RTVSPropertyOp50
 70
     1
102
RTVSPropertyOp51
 70
     0
102
RTVSPropertyOp52
 70
     0
102
RTVSPropertyOp53
 70
     1
102
RTVSPropertyOp54
 70
     1
102
RTVSPropertyOp55
 70
     1
102
RTVSPropertyOp56
 70
     1
102
RTVSPropertyOp57
 70
     1
102
RTVSPropertyOp58
 70
     1
102
RTVSPropertyOp59
 70
     1
102
RTVSPropertyOp60
 70
     1
102
RTVSPropertyOp61
 70
     1
102
RTVSPropertyOp62
 70
     1
  0
XRECORD
  5
9C5
102
{ACAD_REACTORS
330
9C4
102
}
330
9C4
100
AcDbXrecord
280
     1
102
RTVSPost2010Prop28
280
     0
102
RTVSPost2010PropOp28
 70
     1
102
RTVSPost2010Prop29
280
     1
102
RTVSPost2010PropOp29
 70
     1
102
RTVSPost2010Prop30
280
     1
102
RTVSPost2010PropOp30
 70
     1
102
RTVSPost2010Prop31
280
     0
102
RTVSPost2010PropOp31
 70
     1
102
RTVSPost2010Prop32
280
     0
102
RTVSPost2010PropOp32
 70
     1
102
RTVSPost2010Prop33
280
     0
102
RTVSPost2010PropOp33
 70
     1
102
RTVSPost2010Prop34
280
     0
102
RTVSPost2010PropOp34
 70
     1
102
RTVSPost2010Prop35
280
     0
102
RTVSPost2010PropOp35
 70
     1
102
RTVSPost2010Prop36
280
     0
102
RTVSPost2010PropOp36
 70
     1
102
RTVSPost2010Prop37
 90
       50
102
RTVSPost2010PropOp37
 70
     1
102
RTVSPost2010Prop38
140
0.0
102
RTVSPost2010PropOp38
 70
     1
102
RTVSPost2010Prop39
140
1.0
102
RTVSPost2010PropOp39
 70
     1
102
RTVSPost2010Prop40
 90
        0
102
RTVSPost2010PropOp40
 70
     1
102
RTVSPost2010Prop41ColorIndex
 90
       18
102
RTVSPost2010Prop41ColorRGB
 90
-16777216
102
RTVSPost2010PropOp41
 70
     1
102
RTVSPost2010Prop42
 90
       50
102
RTVSPost2010PropOp42
 70
     1
102
RTVSPost2010Prop43
 90
        3
102
RTVSPost2010PropOp43
 70
     1
102
RTVSPost2010Prop44ColorIndex
 90
        5
102
RTVSPost2010Prop44ColorRGB
 90
      255
102
RTVSPost2010PropOp44
 70
     1
102
RTVSPost2010Prop45
280
     0
102
RTVSPost2010PropOp45
 70
     1
102
RTVSPost2010Prop46
 90
       50
102
RTVSPost2010PropOp46
 70
     1
102
RTVSPost2010Prop47
 90
       50
102
RTVSPost2010PropOp47
 70
     1
102
RTVSPost2010Prop48
 90
       50
102
RTVSPost2010PropOp48
 70
     1
102
RTVSPost2010Prop49
280
     0
102
RTVSPost2010PropOp49
 70
     1
102
RTVSPost2010Prop50
 90
       50
102
RTVSPost2010PropOp50
 70
     1
102
RTVSPost2010Prop51ColorIndex
 90
      256
102
RTVSPost2010Prop51ColorRGB
 90
-16777216
102
RTVSPost2010PropOp51
 70
     0
102
RTVSPost2010Prop52
140
1.0
102
RTVSPost2010PropOp52
 70
     0
102
RTVSPost2010Prop53
 90
        2
102
RTVSPost2010PropOp53
 70
     1
102
RTVSPost2010Prop54
  1
strokes_ogs.tif
102
RTVSPost2010PropOp54
 70
     1
102
RTVSPost2010Prop55
280
     0
102
RTVSPost2010PropOp55
 70
     1
102
RTVSPost2010Prop56
140
1.0
102
RTVSPost2010PropOp56
 70
     1
102
RTVSPost2010Prop57
140
1.0
102
RTVSPost2010PropOp57
 70
     1
102
RTVSPropertyOp0
 70
     1
102
RTVSPropertyOp1
 70
     1
102
RTVSPropertyOp2
 70
     1
102
RTVSPropertyOp3
 70
     1
102
RTVSPropertyOp4
 70
     1
102
RTVSPropertyOp5
 70
     1
102
RTVSPropertyOp6
 70
     1
102
RTVSPropertyOp7
 70
     1
102
RTVSPropertyOp8
 70
     1
102
RTVSPropertyOp9
 70
     1
102
RTVSPropertyOp10
 70
     1
102
RTVSPropertyOp11
 70
     1
102
RTVSPropertyOp12
 70
     1
102
RTVSPropertyOp13
 70
     1
102
RTVSPropertyOp14
 70
     1
102
RTVSPropertyOp15
 70
     1
102
RTVSPropertyOp16
 70
     1
102
RTVSPropertyOp17
 70
     1
102
RTVSPropertyOp18
 70
     1
102
RTVSPropertyOp19
 70
     1
102
RTVSPropertyOp20
 70
     1
102
RTVSPropertyOp21
 70
     1
102
RTVSPropertyOp22
 70
     1
102
RTVSPropertyOp23
 70
     1
102
RTVSPropertyOp24
 70
     1
102
RTVSPropertyOp25
 70
     1
102
RTVSPropertyOp26
 70
     1
102
RTVSPropertyOp27
 70
     1
102
RTVSPropertyOp28
 70
     1
102
RTVSPropertyOp29
 70
     1
102
RTVSPropertyOp30
 70
     1
102
RTVSPropertyOp31
 70
     1
102
RTVSPropertyOp32
 70
     1
102
RTVSPropertyOp33
 70
     1
102
RTVSPropertyOp34
 70
     1
102
RTVSPropertyOp35
 70
     1
102
RTVSPropertyOp36
 70
     1
102
RTVSPropertyOp37
 70
     1
102
RTVSPropertyOp38
 70
     1
102
RTVSPropertyOp39
 70
     1
102
RTVSPropertyOp40
 70
     1
102
RTVSPropertyOp41
 70
     1
102
RTVSPropertyOp42
 70
     1
102
RTVSPropertyOp43
 70
     1
102
RTVSPropertyOp44
 70
     1
102
RTVSPropertyOp45
 70
     1
102
RTVSPropertyOp46
 70
     1
102
RTVSPropertyOp47
 70
     1
102
RTVSPropertyOp48
 70
     1
102
RTVSPropertyOp49
 70
     1
102
RTVSPropertyOp50
 70
     1
102
RTVSPropertyOp51
 70
     0
102
RTVSPropertyOp52
 70
     0
102
RTVSPropertyOp53
 70
     1
102
RTVSPropertyOp54
 70
     1
102
RTVSPropertyOp55
 70
     1
102
RTVSPropertyOp56
 70
     1
102
RTVSPropertyOp57
 70
     1
102
RTVSPropertyOp58
 70
     1
102
RTVSPropertyOp59
 70
     1
102
RTVSPropertyOp60
 70
     1
102
RTVSPropertyOp61
 70
     1
102
RTVSPropertyOp62
 70
     1
  0
ENDSEC
  0
EOF
