  0
SECTION
  2
HEADER
  9
$ACADVER
  1
AC1015
  9
$ACADMAINTVER
 70
    20
  9
$DWGCODEPAGE
  3
ANSI_1252
  9
$INSBASE
 10
0.0
 20
0.0
 30
0.0
  9
$EXTMIN
 10
1727.709815250417
 20
29.29922001457919
 30
-0.0000000349181948
  9
$EXTMAX
 10
2223.331354365669
 20
390.4159674416467
 30
0.0000000814935747
  9
$LIMMIN
 10
0.0
 20
0.0
  9
$LIMMAX
 10
12.0
 20
9.0
  9
$ORTHOMODE
 70
     1
  9
$REGENMODE
 70
     1
  9
$FILLMODE
 70
     1
  9
$QTEXTMODE
 70
     0
  9
$MIRRTEXT
 70
     0
  9
$LTSCALE
 40
1.0
  9
$ATTMODE
 70
     1
  9
$TEXTSIZE
 40
0.2
  9
$TRACEWID
 40
0.05
  9
$TEXTSTYLE
  7
Standard
  9
$CLAYER
  8
0
  9
$CELTYPE
  6
ByLayer
  9
$CECOLOR
 62
   256
  9
$CELTSCALE
 40
1.0
  9
$DISPSILH
 70
     0
  9
$DIMSCALE
 40
24.0
  9
$DIMASZ
 40
0.18
  9
$DIMEXO
 40
0.0625
  9
$DIMDLI
 40
0.38
  9
$DIMRND
 40
0.0
  9
$DIMDLE
 40
0.0
  9
$DIMEXE
 40
0.18
  9
$DIMTP
 40
0.0
  9
$DIMTM
 40
0.0
  9
$DIMTXT
 40
0.18
  9
$DIMCEN
 40
0.09
  9
$DIMTSZ
 40
0.0
  9
$DIMTOL
 70
     0
  9
$DIMLIM
 70
     0
  9
$DIMTIH
 70
     1
  9
$DIMTOH
 70
     1
  9
$DIMSE1
 70
     0
  9
$DIMSE2
 70
     0
  9
$DIMTAD
 70
     0
  9
$DIMZIN
 70
     0
  9
$DIMBLK
  1

  9
$DIMASO
 70
     1
  9
$DIMSHO
 70
     1
  9
$DIMPOST
  1

  9
$DIMAPOST
  1

  9
$DIMALT
 70
     0
  9
$DIMALTD
 70
     2
  9
$DIMALTF
 40
25.4
  9
$DIMLFAC
 40
1.0
  9
$DIMTOFL
 70
     0
  9
$DIMTVP
 40
0.0
  9
$DIMTIX
 70
     0
  9
$DIMSOXD
 70
     0
  9
$DIMSAH
 70
     0
  9
$DIMBLK1
  1

  9
$DIMBLK2
  1

  9
$DIMSTYLE
  2
Standard
  9
$DIMCLRD
 70
     0
  9
$DIMCLRE
 70
     0
  9
$DIMCLRT
 70
     0
  9
$DIMTFAC
 40
1.0
  9
$DIMGAP
 40
0.09
  9
$DIMJUST
 70
     0
  9
$DIMSD1
 70
     0
  9
$DIMSD2
 70
     0
  9
$DIMTOLJ
 70
     1
  9
$DIMTZIN
 70
     0
  9
$DIMALTZ
 70
     0
  9
$DIMALTTZ
 70
     0
  9
$DIMUPT
 70
     0
  9
$DIMDEC
 70
     3
  9
$DIMTDEC
 70
     3
  9
$DIMALTU
 70
     4
  9
$DIMALTTD
 70
     2
  9
$DIMTXSTY
  7
Standard
  9
$DIMAUNIT
 70
     0
  9
$DIMADEC
 70
     0
  9
$DIMALTRND
 40
0.0
  9
$DIMAZIN
 70
     0
  9
$DIMDSEP
 70
    46
  9
$DIMATFIT
 70
     3
  9
$DIMFRAC
 70
     0
  9
$DIMLDRBLK
  1

  9
$DIMLUNIT
 70
     5
  9
$DIMLWD
 70
    -2
  9
$DIMLWE
 70
    -2
  9
$DIMTMOVE
 70
     0
  9
$LUNITS
 70
     4
  9
$LUPREC
 70
     4
  9
$SKETCHINC
 40
0.1
  9
$FILLETRAD
 40
0.0
  9
$AUNITS
 70
     0
  9
$AUPREC
 70
     0
  9
$MENU
  1
.
  9
$ELEVATION
 40
0.0
  9
$PELEVATION
 40
0.0
  9
$THICKNESS
 40
0.0
  9
$LIMCHECK
 70
     0
  9
$CHAMFERA
 40
0.0
  9
$CHAMFERB
 40
0.0
  9
$CHAMFERC
 40
0.0
  9
$CHAMFERD
 40
0.0
  9
$SKPOLY
 70
     0
  9
$TDCREATE
 40
2457120.629677847
  9
$TDUCREATE
 40
2457120.796344514
  9
$TDUPDATE
 40
2457120.679772152
  9
$TDUUPDATE
 40
2457120.846438820
  9
$TDINDWG
 40
0.0168454861
  9
$TDUSRTIMER
 40
0.0168453472
  9
$USRTIMER
 70
     1
  9
$ANGBASE
 50
0.0
  9
$ANGDIR
 70
     0
  9
$PDMODE
 70
     0
  9
$PDSIZE
 40
0.0
  9
$PLINEWID
 40
0.0
  9
$SPLFRAME
 70
     0
  9
$SPLINETYPE
 70
     6
  9
$SPLINESEGS
 70
     8
  9
$HANDSEED
  5
993
  9
$SURFTAB1
 70
     6
  9
$SURFTAB2
 70
     6
  9
$SURFTYPE
 70
     6
  9
$SURFU
 70
     6
  9
$SURFV
 70
     6
  9
$UCSBASE
  2

  9
$UCSNAME
  2

  9
$UCSORG
 10
0.0
 20
0.0
 30
0.0
  9
$UCSXDIR
 10
1.0
 20
0.0
 30
0.0
  9
$UCSYDIR
 10
0.0
 20
1.0
 30
0.0
  9
$UCSORTHOREF
  2

  9
$UCSORTHOVIEW
 70
     0
  9
$UCSORGTOP
 10
0.0
 20
0.0
 30
0.0
  9
$UCSORGBOTTOM
 10
0.0
 20
0.0
 30
0.0
  9
$UCSORGLEFT
 10
0.0
 20
0.0
 30
0.0
  9
$UCSORGRIGHT
 10
0.0
 20
0.0
 30
0.0
  9
$UCSORGFRONT
 10
0.0
 20
0.0
 30
0.0
  9
$UCSORGBACK
 10
0.0
 20
0.0
 30
0.0
  9
$PUCSBASE
  2

  9
$PUCSNAME
  2

  9
$PUCSORG
 10
0.0
 20
0.0
 30
0.0
  9
$PUCSXDIR
 10
1.0
 20
0.0
 30
0.0
  9
$PUCSYDIR
 10
0.0
 20
1.0
 30
0.0
  9
$PUCSORTHOREF
  2

  9
$PUCSORTHOVIEW
 70
     0
  9
$PUCSORGTOP
 10
0.0
 20
0.0
 30
0.0
  9
$PUCSORGBOTTOM
 10
0.0
 20
0.0
 30
0.0
  9
$PUCSORGLEFT
 10
0.0
 20
0.0
 30
0.0
  9
$PUCSORGRIGHT
 10
0.0
 20
0.0
 30
0.0
  9
$PUCSORGFRONT
 10
0.0
 20
0.0
 30
0.0
  9
$PUCSORGBACK
 10
0.0
 20
0.0
 30
0.0
  9
$USERI1
 70
     0
  9
$USERI2
 70
     0
  9
$USERI3
 70
     0
  9
$USERI4
 70
     0
  9
$USERI5
 70
     0
  9
$USERR1
 40
0.0
  9
$USERR2
 40
0.0
  9
$USERR3
 40
0.0
  9
$USERR4
 40
0.0
  9
$USERR5
 40
0.0
  9
$WORLDVIEW
 70
     1
  9
$SHADEDGE
 70
     3
  9
$SHADEDIF
 70
    70
  9
$TILEMODE
 70
     1
  9
$MAXACTVP
 70
    64
  9
$PINSBASE
 10
0.0
 20
0.0
 30
0.0
  9
$PLIMCHECK
 70
     0
  9
$PEXTMIN
 10
1.000000000000000E+20
 20
1.000000000000000E+20
 30
1.000000000000000E+20
  9
$PEXTMAX
 10
-1.000000000000000E+20
 20
-1.000000000000000E+20
 30
-1.000000000000000E+20
  9
$PLIMMIN
 10
457.0559704444398
 20
-936.3798351776614
  9
$PLIMMAX
 10
3103.405920651643
 20
1108.526931389329
  9
$UNITMODE
 70
     0
  9
$VISRETAIN
 70
     1
  9
$PLINEGEN
 70
     0
  9
$PSLTSCALE
 70
     1
  9
$TREEDEPTH
 70
  3020
  9
$CMLSTYLE
  2
Standard
  9
$CMLJUST
 70
     0
  9
$CMLSCALE
 40
1.0
  9
$PROXYGRAPHICS
 70
     1
  9
$MEASUREMENT
 70
     0
  9
$CELWEIGHT
370
    -1
  9
$ENDCAPS
280
     0
  9
$JOINSTYLE
280
     0
  9
$LWDISPLAY
290
     0
  9
$INSUNITS
 70
     1
  9
$HYPERLINKBASE
  1

  9
$STYLESHEET
  1

  9
$XEDIT
290
     1
  9
$CEPSNTYPE
380
     0
  9
$PSTYLEMODE
290
     1
  9
$FINGERPRINTGUID
  2
{804A1BB7-4CC0-468E-97C2-5CBDF48864D7}
  9
$VERSIONGUID
  2
{A40350B8-A175-4B57-B764-7CD0B52D6BEE}
  9
$EXTNAMES
290
     1
  9
$PSVPSCALE
 40
0.0
  9
$OLESTARTUP
290
     0
  0
ENDSEC
  0
SECTION
  2
CLASSES
  0
CLASS
  1
ACDBDICTIONARYWDFLT
  2
AcDbDictionaryWithDefault
  3
ObjectDBX Classes
 90
        0
280
     0
281
     0
  0
CLASS
  1
MATERIAL
  2
AcDbMaterial
  3
ObjectDBX Classes
 90
     1153
280
     0
281
     0
  0
CLASS
  1
VISUALSTYLE
  2
AcDbVisualStyle
  3
ObjectDBX Classes
 90
     4095
280
     0
281
     0
  0
CLASS
  1
SCALE
  2
AcDbScale
  3
ObjectDBX Classes
 90
     1153
280
     0
281
     0
  0
CLASS
  1
TABLESTYLE
  2
AcDbTableStyle
  3
ObjectDBX Classes
 90
     4095
280
     0
281
     0
  0
CLASS
  1
MLEADERSTYLE
  2
AcDbMLeaderStyle
  3
ACDB_MLEADERSTYLE_CLASS
 90
     4095
280
     0
281
     0
  0
CLASS
  1
ACDBSECTIONVIEWSTYLE
  2
AcDbSectionViewStyle
  3
ObjectDBX Classes
 90
     1025
280
     0
281
     0
  0
CLASS
  1
ACDBDETAILVIEWSTYLE
  2
AcDbDetailViewStyle
  3
ObjectDBX Classes
 90
     1025
280
     0
281
     0
  0
CLASS
  1
RASTERVARIABLES
  2
AcDbRasterVariables
  3
ISM
 90
        0
280
     0
281
     0
  0
CLASS
  1
DICTIONARYVAR
  2
AcDbDictionaryVar
  3
ObjectDBX Classes
 90
        0
280
     0
281
     0
  0
CLASS
  1
CELLSTYLEMAP
  2
AcDbCellStyleMap
  3
ObjectDBX Classes
 90
     1152
280
     0
281
     0
  0
CLASS
  1
SORTENTSTABLE
  2
AcDbSortentsTable
  3
ObjectDBX Classes
 90
        0
280
     0
281
     0
  0
CLASS
  1
SUN
  2
AcDbSun
  3
SCENEOE
 90
    33921
280
     0
281
     0
  0
CLASS
  1
EXACXREFPANELOBJECT
  2
ExAcXREFPanelObject
  3
EXAC_ESW
 90
     1025
280
     0
281
     0
  0
CLASS
  1
NPOCOLLECTION
  2
AcDbImpNonPersistentObjectsCollection
  3
ObjectDBX Classes
 90
     1153
280
     0
281
     0
  0
CLASS
  1
DIMASSOC
  2
AcDbDimAssoc
  3
"AcDbDimAssoc|Product Desc:     AcDim ARX App For Dimension|Company:          Autodesk, Inc.|WEB Address:      www.autodesk.com"
 90
        0
280
     0
281
     0
  0
CLASS
  1
ACDBPLACEHOLDER
  2
AcDbPlaceHolder
  3
ObjectDBX Classes
 90
        0
280
     0
281
     0
  0
CLASS
  1
LAYOUT
  2
AcDbLayout
  3
ObjectDBX Classes
 90
        0
280
     0
281
     0
  0
ENDSEC
  0
SECTION
  2
TABLES
  0
TABLE
  2
VPORT
  5
8
330
0
100
AcDbSymbolTable
 70
     1
  0
VPORT
  5
57
330
8
100
AcDbSymbolTableRecord
100
AcDbViewportTableRecord
  2
*Active
 70
     0
 10
0.0
 20
0.0
 11
1.0
 21
1.0
 12
1975.520584808043
 22
209.8575937281129
 13
0.0
 23
0.0
 14
1.0
 24
1.0
 15
0.0
 25
0.0
 16
0.0
 26
0.0
 36
1.0
 17
0.0
 27
0.0
 37
0.0
 40
363.8874641592445
 41
2.451984635083226
 42
50.0
 43
0.0
 44
0.0
 50
0.0
 51
0.0
 71
     0
 72
  1000
 73
     1
 74
     1
 75
     0
 76
     0
 77
     0
 78
     0
281
     0
 65
     1
110
0.0
120
0.0
130
0.0
111
1.0
121
0.0
131
0.0
112
0.0
122
1.0
132
0.0
 79
     0
146
0.0
1001
ACAD_NAV_VCDISPLAY
1070
     3
  0
ENDTAB
  0
TABLE
  2
LTYPE
  5
5
330
0
100
AcDbSymbolTable
 70
     2
  0
LTYPE
  5
5B
330
5
100
AcDbSymbolTableRecord
100
AcDbLinetypeTableRecord
  2
ByBlock
 70
     0
  3

 72
    65
 73
     0
 40
0.0
  0
LTYPE
  5
5C
330
5
100
AcDbSymbolTableRecord
100
AcDbLinetypeTableRecord
  2
ByLayer
 70
     0
  3

 72
    65
 73
     0
 40
0.0
  0
LTYPE
  5
5D
330
5
100
AcDbSymbolTableRecord
100
AcDbLinetypeTableRecord
  2
Continuous
 70
     0
  3
Solid line
 72
    65
 73
     0
 40
0.0
  0
LTYPE
  5
69
330
5
100
AcDbSymbolTableRecord
100
AcDbLinetypeTableRecord
  2
PHANTOM2
 70
     0
  3
___ _ _ ___ _ _ ___ _ _ ___ _ _
 72
    65
 73
     6
 40
1.25
 49
0.625
 74
     0
 49
-0.125
 74
     0
 49
0.125
 74
     0
 49
-0.125
 74
     0
 49
0.125
 74
     0
 49
-0.125
 74
     0
  0
ENDTAB
  0
TABLE
  2
LAYER
  5
2
102
{ACAD_XDICTIONARY
360
39B
102
}
330
0
100
AcDbSymbolTable
 70
     2
  0
LAYER
  5
54
330
2
100
AcDbSymbolTableRecord
100
AcDbLayerTableRecord
  2
0
 70
     0
 62
     7
  6
Continuous
370
    -3
390
F
  0
LAYER
  5
65D
330
2
100
AcDbSymbolTableRecord
100
AcDbLayerTableRecord
  2
Defpoints
 70
     0
 62
     7
  6
Continuous
290
     0
370
    -3
390
F
  0
ENDTAB
  0
TABLE
  2
STYLE
  5
3
330
0
100
AcDbSymbolTable
 70
     1
  0
STYLE
  5
55
330
3
100
AcDbSymbolTableRecord
100
AcDbTextStyleTableRecord
  2
Standard
 70
     0
 40
0.0
 41
1.0
 50
0.0
 71
     0
 42
0.2
  3
txt
  4

  0
ENDTAB
  0
TABLE
  2
VIEW
  5
6
330
0
100
AcDbSymbolTable
 70
     0
  0
ENDTAB
  0
TABLE
  2
UCS
  5
7
330
0
100
AcDbSymbolTable
 70
     0
  0
ENDTAB
  0
TABLE
  2
APPID
  5
9
330
0
100
AcDbSymbolTable
 70
    11
  0
APPID
  5
56
330
9
100
AcDbSymbolTableRecord
100
AcDbRegAppTableRecord
  2
ACAD
 70
     0
  0
APPID
  5
5E
330
9
100
AcDbSymbolTableRecord
100
AcDbRegAppTableRecord
  2
AcadAnnotative
 70
     0
  0
APPID
  5
79
330
9
100
AcDbSymbolTableRecord
100
AcDbRegAppTableRecord
  2
REVIT
 70
     0
  0
APPID
  5
394
330
9
100
AcDbSymbolTableRecord
100
AcDbRegAppTableRecord
  2
ACAD_PSEXT
 70
     0
  0
APPID
  5
3A8
330
9
100
AcDbSymbolTableRecord
100
AcDbRegAppTableRecord
  2
ACAD_NAV_VCDISPLAY
 70
     0
  0
APPID
  5
58E
330
9
100
AcDbSymbolTableRecord
100
AcDbRegAppTableRecord
  2
ACAD_EXEMPT_FROM_CAD_STANDARDS
 70
     0
  0
APPID
  5
657
330
9
100
AcDbSymbolTableRecord
100
AcDbRegAppTableRecord
  2
GradientColor1ACI
 70
     0
  0
APPID
  5
658
330
9
100
AcDbSymbolTableRecord
100
AcDbRegAppTableRecord
  2
GradientColor2ACI
 70
     0
  0
APPID
  5
65A
330
9
100
AcDbSymbolTableRecord
100
AcDbRegAppTableRecord
  2
ACAD_DSTYLE_DIMJAG
 70
     0
  0
APPID
  5
65B
330
9
100
AcDbSymbolTableRecord
100
AcDbRegAppTableRecord
  2
ACAD_DSTYLE_DIMTALN
 70
     0
  0
APPID
  5
934
330
9
100
AcDbSymbolTableRecord
100
AcDbRegAppTableRecord
  2
ACAD_MLEADERVER
 70
     0
  0
ENDTAB
  0
TABLE
  2
DIMSTYLE
  5
A
330
0
100
AcDbSymbolTable
 70
     1
100
AcDbDimStyleTable
 71
     1
340
58
  0
DIMSTYLE
105
58
330
A
100
AcDbSymbolTableRecord
100
AcDbDimStyleTableRecord
  2
Standard
 70
     0
340
55
  0
ENDTAB
  0
TABLE
  2
BLOCK_RECORD
  5
1
330
0
100
AcDbSymbolTable
 70
     3
  0
BLOCK_RECORD
  5
71
102
{ACAD_XDICTIONARY
360
381
102
}
330
1
100
AcDbSymbolTableRecord
100
AcDbBlockTableRecord
  2
*Model_Space
340
74
  0
BLOCK_RECORD
  5
6D
330
1
100
AcDbSymbolTableRecord
100
AcDbBlockTableRecord
  2
*Paper_Space
340
70
  0
ENDTAB
  0
ENDSEC
  0
SECTION
  2
BLOCKS
  0
BLOCK
  5
72
330
71
100
AcDbEntity
  8
0
100
AcDbBlockBegin
  2
*Model_Space
 70
     0
 10
0.0
 20
0.0
 30
0.0
  3
*Model_Space
  1

  0
ENDBLK
  5
73
330
71
100
AcDbEntity
  8
0
100
AcDbBlockEnd
  0
BLOCK
  5
6E
330
6D
100
AcDbEntity
 67
     1
  8
0
100
AcDbBlockBegin
  2
*Paper_Space
 70
     0
 10
0.0
 20
0.0
 30
0.0
  3
*Paper_Space
  1

  0
ENDBLK
  5
6F
330
6D
100
AcDbEntity
 67
     1
  8
0
100
AcDbBlockEnd
  0
ENDSEC
  0
SECTION
  2
ENTITIES
  0
LINE
  5
3C8
330
71
100
AcDbEntity
  8
0
100
AcDbLine
 10
2028.725476880552
 20
325.0186158172307
 30
0.0
 11
2033.725476880552
 21
325.0186158172307
 31
0.0
  0
LINE
  5
3C9
330
71
100
AcDbEntity
  8
0
100
AcDbLine
 10
2033.725476880552
 20
330.0186158172307
 30
0.0
 11
2028.725476880552
 21
330.0186158172307
 31
0.0
  0
LWPOLYLINE
  5
3CA
330
71
100
AcDbEntity
  8
0
100
AcDbPolyline
 90
       41
 70
   128
 43
0.0
 10
2033.725476880552
 20
325.0186158172307
 10
2033.885434217299
 20
325.0186158172307
 10
2034.045135656429
 20
325.0186158172307
 10
2034.204325709708
 20
325.0186158172307
 10
2034.362749707009
 20
325.0186158172307
 10
2034.520154203733
 20
325.0186158172307
 10
2034.676287386261
 20
325.0186158172307
 10
2034.830899474809
 20
325.0186158172307
 10
2034.983743123017
 20
325.0186158172307
 10
2035.134573813653
 20
325.0186158172307
 10
2035.283150249787
 20
325.0186158172307
 10
2035.429234740816
 20
325.0186158172307
 10
2035.572593582718
 20
325.0186158172307
 10
2035.712997431927
 20
325.0186158172307
 10
2035.850221672236
 20
325.0186158172307
 10
2035.984046774133
 20
325.0186158172307
 10
2036.114258646002
 20
325.0186158172307
 10
2036.240648976626
 20
325.0186158172307
 10
2036.363015568438
 20
325.0186158172307
 10
2036.481162660995
 20
325.0186158172307
 10
2036.594901244151
 20
325.0186158172307
 10
2036.704049360436
 20
325.0186158172307
 10
2036.808432396148
 20
325.0186158172307
 10
2036.907883360698
 20
325.0186158172307
 10
2037.002243153757
 20
325.0186158172307
 10
2037.091360819784
 20
325.0186158172307
 10
2037.175093789526
 20
325.0186158172307
 10
2037.253308108093
 20
325.0186158172307
 10
2037.325878649259
 20
325.0186158172307
 10
2037.39268931564
 20
325.0186158172307
 10
2037.453633224421
 20
325.0186158172307
 10
2037.508612878351
 20
325.0186158172307
 10
2037.55754032171
 20
325.0186158172307
 10
2037.600337281026
 20
325.0186158172307
 10
2037.636935290294
 20
325.0186158172307
 10
2037.667275800506
 20
325.0186158172307
 10
2037.69131027332
 20
325.0186158172307
 10
2037.709000258704
 20
325.0186158172307
 10
2037.720317456455
 20
325.0186158172307
 10
2037.725243761473
 20
325.0186158172307
 10
2037.725476880552
 20
325.0186158172307
  0
LWPOLYLINE
  5
3CB
330
71
100
AcDbEntity
  8
0
100
AcDbPolyline
 90
       41
 70
   128
 43
0.0
 10
2037.725476880552
 20
330.0186158172307
 10
2037.722277307197
 20
330.0186158172307
 10
2037.712683705763
 20
330.0186158172307
 10
2037.696711423968
 20
330.0186158172307
 10
2037.674386014055
 20
330.0186158172307
 10
2037.645743191918
 20
330.0186158172307
 10
2037.610828779961
 20
330.0186158172307
 10
2037.569698633796
 20
330.0186158172307
 10
2037.522418552882
 20
330.0186158172307
 10
2037.469064175264
 20
330.0186158172307
 10
2037.409720856564
 20
330.0186158172307
 10
2037.344483533432
 20
330.0186158172307
 10
2037.27345657167
 20
330.0186158172307
 10
2037.196753599264
 20
330.0186158172307
 10
2037.114497324606
 20
330.0186158172307
 10
2037.026819340191
 20
330.0186158172307
 10
2036.93385991209
 20
330.0186158172307
 10
2036.835767755556
 20
330.0186158172307
 10
2036.732699797116
 20
330.0186158172307
 10
2036.624820923516
 20
330.0186158172307
 10
2036.512303717941
 20
330.0186158172307
 10
2036.395328183917
 20
330.0186158172307
 10
2036.274081457347
 20
330.0186158172307
 10
2036.148757507126
 20
330.0186158172307
 10
2036.019556824842
 20
330.0186158172307
 10
2035.886686104025
 20
330.0186158172307
 10
2035.750357909483
 20
330.0186158172307
 10
2035.610790337248
 20
330.0186158172307
 10
2035.468206665659
 20
330.0186158172307
 10
2035.322834998178
 20
330.0186158172307
 10
2035.174907898459
 20
330.0186158172307
 10
2035.024662018307
 20
330.0186158172307
 10
2034.87233771908
 20
330.0186158172307
 10
2034.718178687162
 20
330.0186158172307
 10
2034.562431544117
 20
330.0186158172307
 10
2034.405345452153
 20
330.0186158172307
 10
2034.247171715505
 20
330.0186158172307
 10
2034.08816337841
 20
330.0186158172307
 10
2033.928574820286
 20
330.0186158172307
 10
2033.768661348785
 20
330.0186158172307
 10
2033.725476880552
 20
330.0186158172307
  0
LINE
  5
3CC
330
71
100
AcDbEntity
  8
0
100
AcDbLine
 10
2048.725476880552
 20
331.5186158172327
 30
0.0
 11
2043.725476880553
 21
331.5186158172327
 31
0.0
  0
LINE
  5
3CD
330
71
100
AcDbEntity
  8
0
100
AcDbLine
 10
2043.725476880553
 20
331.5186158172327
 30
0.0
 11
2043.725476880553
 21
326.9827839429246
 31
0.0
  0
LINE
  5
3CE
330
71
100
AcDbEntity
  8
0
100
AcDbLine
 10
2048.725476880552
 20
325.013761818319
 30
0.0
 11
2048.725476880552
 21
331.5186158172327
 31
0.0
  0
LINE
  5
3CF
330
71
100
AcDbEntity
  8
0
100
AcDbLine
 10
2028.725476880554
 20
321.5186158172315
 30
0.0
 11
2035.225476880552
 21
321.5186158172315
 31
0.0
  0
LINE
  5
3D0
330
71
100
AcDbEntity
  8
0
100
AcDbLine
 10
2040.225476880552
 20
320.5186158172314
 30
0.0
 11
2041.975476880552
 21
320.5186158172314
 31
0.0
  0
LINE
  5
3D1
330
71
100
AcDbEntity
  8
0
100
AcDbLine
 10
2041.975476880552
 20
326.5186158172336
 30
0.0
 11
2040.225476880552
 21
326.5186158172336
 31
0.0
  0
LWPOLYLINE
  5
3D2
330
71
100
AcDbEntity
  8
0
100
AcDbPolyline
 90
       41
 70
   128
 43
0.0
 10
2042.725476880552
 20
319.5186158172313
 10
2042.695484879912
 20
319.5192157372357
 10
2042.665540860075
 20
319.5210145375045
 10
2042.635692725085
 20
319.5240093403411
 10
2042.605988225592
 20
319.5281953546997
 10
2042.576474882455
 20
319.5335658838506
 10
2042.547199910732
 20
319.5401123360924
 10
2042.518210144129
 20
319.5478242384984
 10
2042.48955196009
 20
319.5566892536696
 10
2042.461271205596
 20
319.566693199473
 10
2042.43341312382
 20
319.5778200717293
 10
2042.406022281753
 20
319.5900520698164
 10
2042.379142498896
 20
319.603369625147
 10
2042.35281677717
 20
319.6177514324733
 10
2042.327087232111
 20
319.6331744839714
 10
2042.301995025506
 20
319.6496141060493
 10
2042.27758029953
 20
319.6670439988182
 10
2042.253882112538
 20
319.6854362781683
 10
2042.230938376574
 20
319.7047615203758
 10
2042.208785796719
 20
319.7249888091759
 10
2042.187459812378
 20
319.7460857852211
 10
2042.166994540574
 20
319.7680186978505
 10
2042.147422721378
 20
319.7907524590826
 10
2042.128775665525
 20
319.8142506997489
 10
2042.111083204327
 20
319.8384758276771
 10
2042.094373641946
 20
319.8633890878304
 10
2042.07867371012
 20
319.8889506243069
 10
2042.064008525388
 20
319.9151195441011
 10
2042.05040154892
 20
319.941853982524
 10
2042.037874548973
 20
319.9691111701768
 10
2042.026447566077
 20
319.9968475013741
 10
2042.016138880965
 20
320.0250186039026
 10
2042.006964985335
 20
320.0535794100075
 10
2041.998940555464
 20
320.0824842284923
 10
2041.992078428725
 20
320.1116868178128
 10
2041.986389583061
 20
320.1411404600563
 10
2041.981883119408
 20
320.1707980356779
 10
2041.978566247149
 20
320.2006120988833
 10
2041.97644427257
 20
320.2305349535313
 10
2041.97552059038
 20
320.2605187294377
 10
2041.975476880552
 20
320.2686158172314
  0
LWPOLYLINE
  5
3D3
330
71
100
AcDbEntity
  8
0
100
AcDbPolyline
 90
       41
 70
   128
 43
0.0
 10
2041.975476880552
 20
323.5186158172326
 10
2041.975476880552
 20
323.3886504811259
 10
2041.975476880552
 20
323.2588930618325
 10
2041.975476880552
 20
323.1295511435435
 10
2041.975476880552
 20
323.0008316457361
 10
2041.975476880552
 20
322.8729404921485
 10
2041.975476880552
 20
322.7460822813441
 10
2041.975476880552
 20
322.6204599593988
 10
2041.975476880552
 20
322.4962744952297
 10
2041.975476880552
 20
322.373724559088
 10
2041.975476880552
 20
322.253006204729
 10
2041.975476880552
 20
322.1343125557676
 10
2041.975476880552
 20
322.0178334967223
 10
2041.975476880552
 20
321.9037553692398
 10
2041.975476880552
 20
321.792260673989
 10
2041.975476880552
 20
321.683527778698
 10
2041.975476880552
 20
321.5777306328042
 10
2041.975476880552
 20
321.4750384891719
 10
2041.975476880552
 20
321.3756156333245
 10
2041.975476880552
 20
321.2796211206224
 10
2041.975476880552
 20
321.1872085218082
 10
2041.975476880552
 20
321.0985256773265
 10
2041.975476880552
 20
321.0137144608101
 10
2041.975476880552
 20
320.9329105521135
 10
2041.975476880552
 20
320.8562432202534
 10
2041.975476880552
 20
320.783835116606
 10
2041.975476880552
 20
320.7158020786907
 10
2041.975476880552
 20
320.6522529448555
 10
2041.975476880552
 20
320.5932893801578
 10
2041.975476880552
 20
320.5390057137233
 10
2041.975476880552
 20
320.4894887878381
 10
2041.975476880552
 20
320.4448178190205
 10
2041.975476880552
 20
320.4050642712916
 10
2041.975476880552
 20
320.3702917418472
 10
2041.975476880552
 20
320.3405558593167
 10
2041.975476880552
 20
320.315904194769
 10
2041.975476880552
 20
320.2963761856086
 10
2041.975476880552
 20
320.2820030724841
 10
2041.975476880552
 20
320.2728078493109
 10
2041.975476880552
 20
320.268805226484
 10
2041.975476880552
 20
320.2686158172314
  0
LWPOLYLINE
  5
3D4
330
71
100
AcDbEntity
  8
0
100
AcDbPolyline
 90
       11
 70
   128
 43
0.0
 10
2041.975476880552
 20
320.2686158172314
 10
2041.975476880552
 20
320.2712154705832
 10
2041.975476880552
 20
320.279010271748
 10
2041.975476880552
 20
320.2919877507064
 10
2041.975476880552
 20
320.3101271462606
 10
2041.975476880552
 20
320.3333994392474
 10
2041.975476880552
 20
320.3617673989624
 10
2041.975476880552
 20
320.3951856427216
 10
2041.975476880552
 20
320.4336007084636
 10
2041.975476880552
 20
320.4769511402783
 10
2041.975476880552
 20
320.5186158172314
  0
LWPOLYLINE
  5
3D5
330
71
100
AcDbEntity
  8
0
100
AcDbPolyline
 90
       41
 70
   128
 43
0.0
 10
2041.975476880552
 20
326.7686158172336
 10
2041.976076800557
 20
326.7986078178734
 10
2041.977875600825
 20
326.8285518377104
 10
2041.980870403662
 20
326.8583999727001
 10
2041.98505641802
 20
326.8881044721942
 10
2041.990426947171
 20
326.9176178153298
 10
2041.996973399413
 20
326.9468927870538
 10
2042.004685301819
 20
326.9758825536566
 10
2042.01355031699
 20
327.0045407376957
 10
2042.023554262794
 20
327.0328214921899
 10
2042.03468113505
 20
327.060679573965
 10
2042.046913133137
 20
327.088070416033
 10
2042.060230688468
 20
327.1149501988897
 10
2042.074612495794
 20
327.1412759206163
 10
2042.090035547292
 20
327.1670054656742
 10
2042.10647516937
 20
327.1920976722798
 10
2042.123905062139
 20
327.2165123982553
 10
2042.142297341489
 20
327.2402105852474
 10
2042.161622583697
 20
327.263154321212
 10
2042.181849872497
 20
327.2853069010663
 10
2042.202946848542
 20
327.3066328854083
 10
2042.224879761171
 20
327.3270981572116
 10
2042.247613522404
 20
327.3466699764079
 10
2042.271111763069
 20
327.3653170322607
 10
2042.295336890998
 20
327.3830094934591
 10
2042.320250151151
 20
327.3997190558396
 10
2042.345811687628
 20
327.415418987666
 10
2042.371980607422
 20
327.4300841723972
 10
2042.398715045845
 20
327.4436911488658
 10
2042.425972233498
 20
327.4562181488124
 10
2042.453708564694
 20
327.4676451317089
 10
2042.481879667223
 20
327.4779538168207
 10
2042.510440473328
 20
327.4871277124504
 10
2042.539345291813
 20
327.4951521423221
 10
2042.568547881133
 20
327.5020142690599
 10
2042.598001523377
 20
327.5077031147249
 10
2042.627659098998
 20
327.5122095783772
 10
2042.657473162204
 20
327.5155264506368
 10
2042.687396016852
 20
327.5176484252153
 10
2042.717379792759
 20
327.518572107406
 10
2042.725476880552
 20
327.5186158172336
  0
LWPOLYLINE
  5
3D6
330
71
100
AcDbEntity
  8
0
100
AcDbPolyline
 90
       12
 70
   128
 43
0.0
 10
2041.975476880552
 20
326.5186158172336
 10
2041.975476880552
 20
326.5477428466269
 10
2041.975476880552
 20
326.5924138154445
 10
2041.975476880552
 20
326.6321673631734
 10
2041.975476880552
 20
326.6669398926179
 10
2041.975476880552
 20
326.6966757751483
 10
2041.975476880552
 20
326.721327439696
 10
2041.975476880552
 20
326.7408554488564
 10
2041.975476880552
 20
326.7552285619808
 10
2041.975476880552
 20
326.7644237851541
 10
2041.975476880552
 20
326.7684264079809
 10
2041.975476880552
 20
326.7686158172336
  0
LWPOLYLINE
  5
3D7
330
71
100
AcDbEntity
  8
0
100
AcDbPolyline
 90
       41
 70
   128
 43
0.0
 10
2041.975476880552
 20
326.7686158172336
 10
2041.975476880552
 20
326.7660161638818
 10
2041.975476880552
 20
326.758221362717
 10
2041.975476880552
 20
326.7452438837586
 10
2041.975476880552
 20
326.7271044882044
 10
2041.975476880552
 20
326.7038321952175
 10
2041.975476880552
 20
326.6754642355027
 10
2041.975476880552
 20
326.6420459917434
 10
2041.975476880552
 20
326.6036309260014
 10
2041.975476880552
 20
326.5602804941867
 10
2041.975476880552
 20
326.5120640477428
 10
2041.975476880552
 20
326.4590587226984
 10
2041.975476880552
 20
326.4013493162661
 10
2041.975476880552
 20
326.3390281511858
 10
2041.975476880552
 20
326.272194928027
 10
2041.975476880552
 20
326.2009565656897
 10
2041.975476880552
 20
326.1254270303573
 10
2041.975476880552
 20
326.0457271531739
 10
2041.975476880552
 20
325.9619844369413
 10
2041.975476880552
 20
325.8743328521412
 10
2041.975476880552
 20
325.7829126226115
 10
2041.975476880552
 20
325.6878700012174
 10
2041.975476880552
 20
325.5893570358785
 10
2041.975476880552
 20
325.4875313263245
 10
2041.975476880552
 20
325.3825557719685
 10
2041.975476880552
 20
325.2745983113044
 10
2041.975476880552
 20
325.1638316532396
 10
2041.975476880552
 20
325.0504330007976
 10
2041.975476880552
 20
324.9345837676322
 10
2041.975476880552
 20
324.8164692878033
 10
2041.975476880552
 20
324.696278519282
 10
2041.975476880552
 20
324.574203741659
 10
2041.975476880552
 20
324.4504402485367
 10
2041.975476880552
 20
324.325186035103
 10
2041.975476880552
 20
324.1986414813799
 10
2041.975476880552
 20
324.0710090316585
 10
2041.975476880552
 20
323.9424928706317
 10
2041.975476880552
 20
323.8132985967415
 10
2041.975476880552
 20
323.6836328932667
 10
2041.975476880552
 20
323.5537031976719
 10
2041.975476880552
 20
323.5186158172326
  0
LINE
  5
3D8
330
71
100
AcDbEntity
  8
0
100
AcDbLine
 10
2042.725476880552
 20
319.5186158172313
 30
0.0
 11
2047.225476880552
 21
319.5186158172313
 31
0.0
  0
LINE
  5
3D9
330
71
100
AcDbEntity
  8
0
100
AcDbLine
 10
2043.725476880553
 20
327.5186158172336
 30
0.0
 11
2042.725476880552
 21
327.5186158172336
 31
0.0
  0
LWPOLYLINE
  5
3DA
330
71
100
AcDbEntity
  8
0
100
AcDbPolyline
 90
       41
 70
   128
 43
0.0
 10
2048.725476880552
 20
321.0186158172314
 10
2048.724277040544
 20
320.9586318159515
 10
2048.720679440006
 20
320.8987437762777
 10
2048.714689834333
 20
320.8390475062981
 10
2048.706317805616
 20
320.7796385073101
 10
2048.695576747314
 20
320.7206118210389
 10
2048.68248384283
 20
320.6620618775908
 10
2048.667060038019
 20
320.6040823443853
 10
2048.649330007676
 20
320.5467659763074
 10
2048.629322116069
 20
320.4902044673188
 10
2048.607068371557
 20
320.4344883037685
 10
2048.582604375383
 20
320.3797066196324
 10
2048.555969264721
 20
320.3259470539193
 10
2048.527205650069
 20
320.2732956104659
 10
2048.496359547073
 20
320.2218365203502
 10
2048.463480302917
 20
320.1716521071389
 10
2048.428620517379
 20
320.1228226551878
 10
2048.391835958679
 20
320.0754262812037
 10
2048.353185474264
 20
320.0295388092744
 10
2048.312730896664
 20
319.9852336495657
 10
2048.270536944573
 20
319.9425816808821
 10
2048.226671119314
 20
319.9016511372753
 10
2048.18120359685
 20
319.8625074988831
 10
2048.134207115518
 20
319.825213387177
 10
2048.085756859661
 20
319.7898284647799
 10
2048.035930339354
 20
319.7564093400197
 10
2047.984807266401
 20
319.7250094763664
 10
2047.932469426813
 20
319.695679106904
 10
2047.879000549967
 20
319.6684651539667
 10
2047.824486174662
 20
319.643411154074
 10
2047.769013512267
 20
319.6205571882807
 10
2047.712671307211
 20
319.5999398180571
 10
2047.655549695
 20
319.5815920267977
 10
2047.597740058031
 20
319.565543167054
 10
2047.539334879389
 20
319.5518189135786
 10
2047.480427594903
 20
319.5404412222488
 10
2047.42111244366
 20
319.5314282949439
 10
2047.361484317249
 20
319.524794550425
 10
2047.301638607953
 20
319.520550601268
 10
2047.24167105614
 20
319.5187032368866
 10
2047.225476880552
 20
319.5186158172313
  0
LWPOLYLINE
  5
3DB
330
71
100
AcDbEntity
  8
0
100
AcDbPolyline
 90
       41
 70
   128
 43
0.0
 10
2048.725476880552
 20
323.5186158172326
 10
2048.725476880552
 20
323.4186424817658
 10
2048.725476880552
 20
323.3188290823094
 10
2048.725476880552
 20
323.21933529901
 10
2048.725476880552
 20
323.1203203006968
 10
2048.725476880552
 20
323.0219424902447
 10
2048.725476880552
 20
322.9243592511644
 10
2048.725476880552
 20
322.827726695822
 10
2048.725476880552
 20
322.7321994156919
 10
2048.725476880552
 20
322.6379302340443
 10
2048.725476880552
 20
322.5450699614605
 10
2048.725476880552
 20
322.4537671545671
 10
2048.725476880552
 20
322.3641678783782
 10
2048.725476880552
 20
322.2764154726227
 10
2048.725476880552
 20
322.1906503224297
 10
2048.725476880552
 20
322.1070096337443
 10
2048.725476880552
 20
322.0256272138258
 10
2048.725476880552
 20
321.9466332571855
 10
2048.725476880552
 20
321.8701541373032
 10
2048.725476880552
 20
321.7963122044554
 10
2048.725476880552
 20
321.7252255899829
 10
2048.725476880552
 20
321.6570080173046
 10
2048.725476880552
 20
321.5917686199842
 10
2048.725476880552
 20
321.5296117671408
 10
2048.725476880552
 20
321.4706368964792
 10
2048.725476880552
 20
321.4149383552118
 10
2048.725476880552
 20
321.3626052491232
 10
2048.725476880552
 20
321.3137213000193
 10
2048.725476880552
 20
321.2683647117902
 10
2048.725476880552
 20
321.2266080453021
 10
2048.725476880552
 20
321.1885181023134
 10
2048.725476880552
 20
321.1541558186076
 10
2048.725476880552
 20
321.1235761665084
 10
2048.725476880552
 20
321.0968280669358
 10
2048.725476880552
 20
321.0739543111431
 10
2048.725476880552
 20
321.0549914922602
 10
2048.725476880552
 20
321.0399699467522
 10
2048.725476880552
 20
321.0289137058873
 10
2048.725476880552
 20
321.0218404572926
 10
2048.725476880552
 20
321.0187615166565
 10
2048.725476880552
 20
321.0186158172314
  0
LWPOLYLINE
  5
3DC
330
71
100
AcDbEntity
  8
0
100
AcDbPolyline
 90
       41
 70
   128
 43
0.0
 10
2048.725476880552
 20
321.0186158172314
 10
2048.725476880552
 20
321.0206155505791
 10
2048.725476880552
 20
321.026611551475
 10
2048.725476880552
 20
321.0365942275968
 10
2048.725476880552
 20
321.0505476087924
 10
2048.725476880552
 20
321.0684493726284
 10
2048.725476880552
 20
321.0902708801013
 10
2048.725476880552
 20
321.1159772214546
 10
2048.725476880552
 20
321.1455272720254
 10
2048.725476880552
 20
321.1788737580367
 10
2048.725476880552
 20
321.2159633322243
 10
2048.725476880552
 20
321.2567366591817
 10
2048.725476880552
 20
321.3011285102833
 10
2048.725476880552
 20
321.3490678680374
 10
2048.725476880552
 20
321.4004780396982
 10
2048.725476880552
 20
321.4552767799574
 10
2048.725476880552
 20
321.5133764225209
 10
2048.725476880552
 20
321.5746840203546
 10
2048.725476880552
 20
321.6391014943796
 10
2048.725476880552
 20
321.7065257903795
 10
2048.725476880552
 20
321.7768490438638
 10
2048.725476880552
 20
321.8499587526287
 10
2048.725476880552
 20
321.9257379567354
 10
2048.725476880552
 20
322.0040654256233
 10
2048.725476880552
 20
322.0848158520507
 10
2048.725476880552
 20
322.1678600525615
 10
2048.725476880552
 20
322.2530651741501
 10
2048.725476880552
 20
322.3402949067977
 10
2048.725476880552
 20
322.4294097015403
 10
2048.725476880552
 20
322.5202669937164
 10
2048.725476880552
 20
322.6127214310405
 10
2048.725476880552
 20
322.7066251061352
 10
2048.725476880552
 20
322.8018277931523
 10
2048.725476880552
 20
322.8981771881013
 10
2048.725476880552
 20
322.9955191525037
 10
2048.725476880552
 20
323.0936979599818
 10
2048.725476880552
 20
323.192556545387
 10
2048.725476880552
 20
323.2919367560715
 10
2048.725476880552
 20
323.3916796048986
 10
2048.725476880552
 20
323.4916255245869
 10
2048.725476880552
 20
323.5186158172326
  0
LWPOLYLINE
  5
3DD
330
71
100
AcDbEntity
  8
0
100
AcDbPolyline
 90
       20
 70
   128
 43
0.0
 10
2048.725476880552
 20
323.5186158172326
 10
2048.725476880552
 20
323.6185891526992
 10
2048.725476880552
 20
323.7184025521556
 10
2048.725476880552
 20
323.817896335455
 10
2048.725476880552
 20
323.9169113337682
 10
2048.725476880552
 20
324.0152891442203
 10
2048.725476880552
 20
324.1128723833006
 10
2048.725476880552
 20
324.209504938643
 10
2048.725476880552
 20
324.3050322187731
 10
2048.725476880552
 20
324.3993014004205
 10
2048.725476880552
 20
324.4921616730045
 10
2048.725476880552
 20
324.5834644798979
 10
2048.725476880552
 20
324.6730637560868
 10
2048.725476880552
 20
324.7608161618423
 10
2048.725476880552
 20
324.8465813120354
 10
2048.725476880552
 20
324.9302220007207
 10
2048.725476880552
 20
325.0116044206392
 10
2048.725476880552
 20
325.0905983772792
 10
2048.725476880552
 20
325.1670774971618
 10
2048.725476880552
 20
325.2070781586926
  0
LWPOLYLINE
  5
3DE
330
71
100
AcDbEntity
  8
0
100
AcDbPolyline
 90
        4
 70
   128
 43
0.0
 10
2048.725476880552
 20
326.0122211565338
 10
2048.725476880552
 20
326.0153911771724
 10
2048.725476880552
 20
326.0184701178086
 10
2048.725476880552
 20
326.0186158172337
  0
LINE
  5
3DF
330
71
100
AcDbEntity
  8
0
100
AcDbLine
 10
2048.725476880552
 20
326.0166160838859
 30
0.0
 11
2048.725476880552
 21
326.0135424675461
 31
0.0
  0
LWPOLYLINE
  5
3E0
330
71
100
AcDbEntity
  8
0
100
AcDbPolyline
 90
        4
 70
   128
 43
0.0
 10
2040.225476880552
 20
319.2686158172327
 10
2040.223477147205
 20
319.1686424817772
 10
2040.217481146309
 20
319.0688290823208
 10
2040.215717748751
 20
319.0512539258878
  0
LWPOLYLINE
  5
3E1
330
71
100
AcDbEntity
  8
0
100
AcDbPolyline
 90
        4
 70
   128
 43
0.0
 10
2040.215664825671
 20
319.0507264603635
 10
2040.207498470187
 20
318.9693352990214
 10
2040.193545088991
 20
318.8703203007082
 10
2040.191558058147
 20
318.8594007206332
  0
LWPOLYLINE
  5
3E2
330
71
100
AcDbEntity
  8
0
100
AcDbPolyline
 90
       69
 70
   128
 43
0.0
 10
2040.18702604378
 20
318.8344953730653
 10
2040.175643325155
 20
318.7719424902561
 10
2040.153821817682
 20
318.6743592511758
 10
2040.128115476329
 20
318.5777266958333
 10
2040.098565425758
 20
318.4821994157033
 10
2040.065218939747
 20
318.3879302340558
 10
2040.028129365559
 20
318.2950699614721
 10
2039.987356038602
 20
318.2037671545787
 10
2039.9429641875
 20
318.1141678783899
 10
2039.895024829746
 20
318.0264154726344
 10
2039.843614658086
 20
317.9406503224416
 10
2039.788815917826
 20
317.857009633756
 10
2039.730716275263
 20
317.7756272138377
 10
2039.669408677429
 20
317.6966332571975
 10
2039.604991203404
 20
317.6201541373151
 10
2039.537566907404
 20
317.5463122044672
 10
2039.46724365392
 20
317.4752255899949
 10
2039.394133945156
 20
317.4070080173164
 10
2039.318354741048
 20
317.3417686199963
 10
2039.24002727216
 20
317.2796117671527
 10
2039.159276845733
 20
317.2206368964912
 10
2039.076232645223
 20
317.1649383552239
 10
2038.991027523634
 20
317.1126052491353
 10
2038.903797790986
 20
317.0637213000314
 10
2038.814682996244
 20
317.0183647118023
 10
2038.723825704067
 20
316.9766080453144
 10
2038.631371266744
 20
316.9385181023257
 10
2038.537467591649
 20
316.9041558186199
 10
2038.442264904632
 20
316.8735761665207
 10
2038.345915509683
 20
316.8468280669482
 10
2038.248573545281
 20
316.8239543111554
 10
2038.150394737803
 20
316.8049914922726
 10
2038.051536152398
 20
316.7899699467645
 10
2037.952155941713
 20
316.7789137058997
 10
2037.852413092887
 20
316.7718404573046
 10
2037.752467173198
 20
316.7687615166688
 10
2037.652478074798
 20
316.7696818096399
 10
2037.552605758917
 20
316.7745998639458
 10
2037.453009999953
 20
316.7835078117485
 10
2037.353850129874
 20
316.7963914022319
 10
2037.25528478332
 20
316.8132300243997
 10
2037.15747164382
 20
316.8339967400482
 10
2037.06056719153
 20
316.8586583268627
 10
2036.964726452902
 20
316.8871753315648
 10
2036.870102752675
 20
316.9195021330303
 10
2036.776847468582
 20
316.9555870152733
 10
2036.685109789184
 20
316.9953722501796
 10
2036.5950364752
 20
317.0387941898602
 10
2036.506771624717
 20
317.0857833684749
 10
2036.420456442666
 20
317.1362646133613
 10
2036.336229014926
 20
317.1901571652969
 10
2036.254224087414
 20
317.2473748076948
 10
2036.174572850521
 20
317.3078260045326
 10
2036.097402729233
 20
317.3714140467914
 10
2036.022837179285
 20
317.4380372071681
 10
2035.950995489647
 20
317.5075889028184
 10
2035.881992591699
 20
317.5799578658657
 10
2035.815938875358
 20
317.6550283214077
 10
2035.752940012478
 20
317.7326801727295
 10
2035.693096787802
 20
317.8127891934336
 10
2035.636504937723
 20
317.895227226176
 10
2035.583254997129
 20
317.9798623876901
 10
2035.533432154566
 20
318.0665592797721
 10
2035.487116115954
 20
318.155179205889
 10
2035.444380977072
 20
318.2455803930636
 10
2035.405295105029
 20
318.337618218681
 10
2035.36992102888
 20
318.431145441854
 10
2035.338315339603
 20
318.5260124389767
 10
2035.310528599557
 20
318.6220674430909
  0
LWPOLYLINE
  5
3E3
330
71
100
AcDbEntity
  8
0
100
AcDbPolyline
 90
        4
 70
   128
 43
0.0
 10
2035.307725131087
 20
318.6334449069739
 10
2035.2866052616
 20
318.7191567866809
 10
2035.266583597967
 20
318.8171251475081
 10
2035.263752007778
 20
318.8344953730653
  0
LWPOLYLINE
  5
3E4
330
71
100
AcDbEntity
  8
0
100
AcDbPolyline
 90
        6
 70
   128
 43
0.0
 10
2035.262174746363
 20
318.8441709916083
 10
2035.250495639051
 20
318.915815797094
 10
2035.238367122154
 20
319.0150708514522
 10
2035.230217450314
 20
319.114731523669
 10
2035.22605966127
 20
319.2146383779285
 10
2035.225476880552
 20
319.2686158172327
  0
LWPOLYLINE
  5
3E5
330
71
100
AcDbEntity
  8
0
100
AcDbPolyline
 90
        8
 70
   128
 43
0.0
 10
2035.225476880552
 20
322.9966877788911
 10
2035.225476880552
 20
322.8415134391237
 10
2035.225476880552
 20
322.6742711613558
 10
2035.225476880552
 20
322.5083796549199
 10
2035.225476880552
 20
322.344104310838
 10
2035.225476880552
 20
322.1817079346175
 10
2035.225476880552
 20
322.0214503258172
 10
2035.225476880552
 20
321.9306048919775
  0
LWPOLYLINE
  5
3E6
330
71
100
AcDbEntity
  8
0
100
AcDbPolyline
 90
        7
 70
   128
 43
0.0
 10
2035.225476880552
 20
320.4096302058876
 10
2035.225476880552
 20
320.3538825573646
 10
2035.225476880552
 20
320.2429755819206
 10
2035.225476880552
 20
320.1373089320869
 10
2035.225476880552
 20
320.0370516519624
 10
2035.225476880552
 20
319.9423641318083
 10
2035.225476880552
 20
319.8910523645257
  0
LWPOLYLINE
  5
3E7
330
71
100
AcDbEntity
  8
0
100
AcDbPolyline
 90
        7
 70
   128
 43
0.0
 10
2035.225476880552
 20
319.7136114018061
 10
2035.225476880552
 20
319.6931889379925
 10
2035.225476880552
 20
319.6222026049628
 10
2035.225476880552
 20
319.5574497018821
 10
2035.225476880552
 20
319.4990338195826
 10
2035.225476880552
 20
319.4470484110139
 10
2035.225476880552
 20
319.4074559531643
  0
LWPOLYLINE
  5
3E8
330
71
100
AcDbEntity
  8
0
100
AcDbPolyline
 90
        7
 70
   128
 43
0.0
 10
2035.225476880552
 20
319.4074559531643
 10
2035.225476880552
 20
319.4341302044226
 10
2035.225476880552
 20
319.4843652903927
 10
2035.225476880552
 20
319.5410543166117
 10
2035.225476880552
 20
319.6041065927307
 10
2035.225476880552
 20
319.6734212485579
 10
2035.225476880552
 20
319.7136114018061
  0
LWPOLYLINE
  5
3E9
330
71
100
AcDbEntity
  8
0
100
AcDbPolyline
 90
        7
 70
   128
 43
0.0
 10
2035.225476880552
 20
319.8910523645257
 10
2035.225476880552
 20
319.9177815954349
 10
2035.225476880552
 20
320.0109394538756
 10
2035.225476880552
 20
320.1097088462333
 10
2035.225476880552
 20
320.2139317625497
 10
2035.225476880552
 20
320.3234414683922
 10
2035.225476880552
 20
320.4096302058876
  0
LWPOLYLINE
  5
3EA
330
71
100
AcDbEntity
  8
0
100
AcDbPolyline
 90
        6
 70
   128
 43
0.0
 10
2040.225476880552
 20
320.2465777578726
 10
2040.225476880552
 20
320.2429755819206
 10
2040.225476880552
 20
320.1373089320869
 10
2040.225476880552
 20
320.0370516519624
 10
2040.225476880552
 20
319.9423641318083
 10
2040.225476880552
 20
319.9244057188967
  0
LWPOLYLINE
  5
3EB
330
71
100
AcDbEntity
  8
0
100
AcDbPolyline
 90
        8
 70
   128
 43
0.0
 10
2040.225476880552
 20
319.5189160734394
 10
2040.225476880552
 20
319.4990338195826
 10
2040.225476880552
 20
319.4470484110139
 10
2040.225476880552
 20
319.4015766417408
 10
2040.225476880552
 20
319.3626912568933
 10
2040.225476880552
 20
319.3304544647926
 10
2040.225476880552
 20
319.3049178374289
 10
2040.225476880552
 20
319.2888324155072
  0
LWPOLYLINE
  5
3EC
330
71
100
AcDbEntity
  8
0
100
AcDbPolyline
 90
        8
 70
   128
 43
0.0
 10
2040.225476880552
 20
319.2888324155072
 10
2040.225476880552
 20
319.2991791148647
 10
2040.225476880552
 20
319.322899862897
 10
2040.225476880552
 20
319.353332861418
 10
2040.225476880552
 20
319.3904294241223
 10
2040.225476880552
 20
319.4341302044226
 10
2040.225476880552
 20
319.4843652903927
 10
2040.225476880552
 20
319.5189160734394
  0
LWPOLYLINE
  5
3ED
330
71
100
AcDbEntity
  8
0
100
AcDbPolyline
 90
        5
 70
   128
 43
0.0
 10
2040.225476880552
 20
319.9244057188967
 10
2040.225476880552
 20
320.0109394538756
 10
2040.225476880552
 20
320.1097088462333
 10
2040.225476880552
 20
320.2139317625497
 10
2040.225476880552
 20
320.2465777578726
  0
LWPOLYLINE
  5
3EE
330
71
100
AcDbEntity
  8
0
100
AcDbPolyline
 90
        5
 70
   128
 43
0.0
 10
2040.225476880552
 20
320.7815878987712
 10
2040.225476880552
 20
320.8107234543958
 10
2040.225476880552
 20
320.9438801515045
 10
2040.225476880552
 20
321.081155876431
 10
2040.225476880552
 20
321.2139276465036
  0
LWPOLYLINE
  5
3EF
330
71
100
AcDbEntity
  8
0
100
AcDbPolyline
 90
        8
 70
   128
 43
0.0
 10
2040.225476880552
 20
321.6389144123084
 10
2040.225476880552
 20
321.6669654205614
 10
2040.225476880552
 20
321.8214228172603
 10
2040.225476880552
 20
321.9785953607108
 10
2040.225476880552
 20
322.1382316083714
 10
2040.225476880552
 20
322.3000761762999
 10
2040.225476880552
 20
322.4638701477127
 10
2040.225476880552
 20
322.5098444154867
  0
LWPOLYLINE
  5
3F0
330
71
100
AcDbEntity
  8
0
100
AcDbPolyline
 90
       52
 70
   128
 43
0.0
 10
2036.63627076486
 20
330.0188669226625
 10
2036.727128057036
 20
330.0606235891506
 10
2036.81958249436
 20
330.0987135321393
 10
2036.913486169455
 20
330.1330758158451
 10
2037.008688856472
 20
330.1636554679443
 10
2037.105038251421
 20
330.1904035675168
 10
2037.202380215823
 20
330.2132773233096
 10
2037.300559023302
 20
330.2322401421924
 10
2037.399417608707
 20
330.2472616877005
 10
2037.498797819392
 20
330.2583179285654
 10
2037.598540668218
 20
330.2653911771604
 10
2037.698486587906
 20
330.2684701177962
 10
2037.798475686305
 20
330.2675498248252
 10
2037.898348002187
 20
330.2626317705192
 10
2037.997943761152
 20
330.2537238227164
 10
2038.09710363123
 20
330.240840232233
 10
2038.195668977784
 20
330.2240016100653
 10
2038.293482117285
 20
330.2032348944168
 10
2038.390386569575
 20
330.1785733076024
 10
2038.486227308202
 20
330.1500563029002
 10
2038.580851008429
 20
330.1177295014346
 10
2038.674106292523
 20
330.0816446191917
 10
2038.76584397192
 20
330.0418593842854
 10
2038.855917285904
 20
329.9984374446048
 10
2038.944182136388
 20
329.9514482659902
 10
2039.030497318439
 20
329.9009670211036
 10
2039.114724746179
 20
329.8470744691679
 10
2039.19672967369
 20
329.7898568267702
 10
2039.276380910584
 20
329.7294056299322
 10
2039.353551031871
 20
329.6658175876736
 10
2039.42811658182
 20
329.5991944272969
 10
2039.499958271457
 20
329.5296427316466
 10
2039.568961169405
 20
329.4572737685993
 10
2039.635014885746
 20
329.3822033130573
 10
2039.698013748626
 20
329.3045514617355
 10
2039.757856973302
 20
329.2244424410315
 10
2039.814448823381
 20
329.1420044082891
 10
2039.867698763975
 20
329.0573692467749
 10
2039.917521606538
 20
328.9706723546928
 10
2039.963837645151
 20
328.882052428576
 10
2040.006572784032
 20
328.7916512414014
 10
2040.045658656076
 20
328.699613415784
 10
2040.081032732224
 20
328.606086192611
 10
2040.112638421501
 20
328.5112191954886
 10
2040.140425161547
 20
328.4151641913741
 10
2040.164348499505
 20
328.3180748477842
 10
2040.184370163137
 20
328.2201064869568
 10
2040.200458122054
 20
328.121415837371
 10
2040.212586638951
 20
328.0221607830128
 10
2040.22073631079
 20
327.922500110796
 10
2040.224894099834
 20
327.8225932565365
 10
2040.225476880552
 20
327.7686158172212
  0
LWPOLYLINE
  5
3F1
330
71
100
AcDbEntity
  8
0
100
AcDbPolyline
 90
        8
 70
   128
 43
0.0
 10
2035.225476880552
 20
324.8312694823028
 10
2035.225476880552
 20
324.7371554581651
 10
2035.225476880552
 20
324.5733614867523
 10
2035.225476880552
 20
324.4078801472686
 10
2035.225476880552
 20
324.2409761745566
 10
2035.225476880552
 20
324.0729165793681
 10
2035.225476880552
 20
323.9039702212049
 10
2035.225476880552
 20
323.7634471546671
  0
LWPOLYLINE
  5
3F2
330
71
100
AcDbEntity
  8
0
100
AcDbPolyline
 90
        9
 70
   128
 43
0.0
 10
2040.225476880552
 20
324.1021818166295
 10
2040.225476880552
 20
324.1957181953413
 10
2040.225476880552
 20
324.3629604731092
 10
2040.225476880552
 20
324.5288519795451
 10
2040.225476880552
 20
324.693127323627
 10
2040.225476880552
 20
324.8555236998475
 10
2040.225476880552
 20
325.0157813086478
 10
2040.225476880552
 20
325.17364377204
 10
2040.225476880552
 20
325.2297972005702
  0
LWPOLYLINE
  5
3F3
330
71
100
AcDbEntity
  8
0
100
AcDbPolyline
 90
        8
 70
   128
 43
0.0
 10
2040.225476880552
 20
325.5484096930916
 10
2040.225476880552
 20
325.6303564030628
 10
2040.225476880552
 20
325.7761571583903
 10
2040.225476880552
 20
325.9183463291551
 10
2040.225476880552
 20
326.056696443016
 10
2040.225476880552
 20
326.190986169304
 10
2040.225476880552
 20
326.321000673104
 10
2040.225476880552
 20
326.3776011074037
  0
LWPOLYLINE
  5
3F4
330
71
100
AcDbEntity
  8
0
100
AcDbPolyline
 90
        6
 70
   128
 43
0.0
 10
2040.225476880552
 20
327.2527236911987
 10
2040.225476880552
 20
327.2669364964837
 10
2040.225476880552
 20
327.3440426964725
 10
2040.225476880552
 20
327.4150290295022
 10
2040.225476880552
 20
327.4797819325828
 10
2040.225476880552
 20
327.5072443444476
  0
LWPOLYLINE
  5
3F5
330
71
100
AcDbEntity
  8
0
100
AcDbPolyline
 90
       11
 70
   128
 43
0.0
 10
2040.225476880552
 20
327.5186158172326
 10
2040.225476880552
 20
327.5381978148824
 10
2040.225476880552
 20
327.590183223451
 10
2040.225476880552
 20
327.6356549927244
 10
2040.225476880552
 20
327.6745403775717
 10
2040.225476880552
 20
327.7067771696724
 10
2040.225476880552
 20
327.732313797036
 10
2040.225476880552
 20
327.7511094065063
 10
2040.225476880552
 20
327.7631339291176
 10
2040.225476880552
 20
327.7683681281986
 10
2040.225476880552
 20
327.7686158172212
  0
LWPOLYLINE
  5
3F6
330
71
100
AcDbEntity
  8
0
100
AcDbPolyline
 90
       10
 70
   128
 43
0.0
 10
2040.225476880552
 20
327.7686158172212
 10
2040.225476880552
 20
327.7652162705305
 10
2040.225476880552
 20
327.7550230690075
 10
2040.225476880552
 20
327.7380525196003
 10
2040.225476880552
 20
327.7143317715678
 10
2040.225476880552
 20
327.6838987730467
 10
2040.225476880552
 20
327.6468022103427
 10
2040.225476880552
 20
327.6031014300424
 10
2040.225476880552
 20
327.5528663440723
 10
2040.225476880552
 20
327.5186158172326
  0
LWPOLYLINE
  5
3F7
330
71
100
AcDbEntity
  8
0
100
AcDbPolyline
 90
        6
 70
   128
 43
0.0
 10
2040.225476880552
 20
327.5072443444476
 10
2040.225476880552
 20
327.4961773178532
 10
2040.225476880552
 20
327.4331250417343
 10
2040.225476880552
 20
327.3638103859071
 10
2040.225476880552
 20
327.2883442390346
 10
2040.225476880552
 20
327.2527236911987
  0
LWPOLYLINE
  5
3F8
330
71
100
AcDbEntity
  8
0
100
AcDbPolyline
 90
       41
 70
   128
 43
0.0
 10
2040.225476880552
 20
319.2686158172327
 10
2040.225476880552
 20
319.2718153905888
 10
2040.225476880552
 20
319.2814089920223
 10
2040.225476880552
 20
319.2973812738172
 10
2040.225476880552
 20
319.3197066837303
 10
2040.225476880552
 20
319.3483495058678
 10
2040.225476880552
 20
319.3832639178247
 10
2040.225476880552
 20
319.4243940639899
 10
2040.225476880552
 20
319.471674144903
 10
2040.225476880552
 20
319.5250285225212
 10
2040.225476880552
 20
319.5843718412212
 10
2040.225476880552
 20
319.6496091643528
 10
2040.225476880552
 20
319.7206361261156
 10
2040.225476880552
 20
319.797339098522
 10
2040.225476880552
 20
319.8795953731791
 10
2040.225476880552
 20
319.967273357594
 10
2040.225476880552
 20
320.0602327856957
 10
2040.225476880552
 20
320.1583249422289
 10
2040.225476880552
 20
320.2613929006692
 10
2040.225476880552
 20
320.369271774269
 10
2040.225476880552
 20
320.4817889798442
 10
2040.225476880552
 20
320.5987645138675
 10
2040.225476880552
 20
320.7200112404385
 10
2040.225476880552
 20
320.8453351906588
 10
2040.225476880552
 20
320.974535872943
 10
2040.225476880552
 20
321.1074065937602
 10
2040.225476880552
 20
321.2437347883015
 10
2040.225476880552
 20
321.3833023605378
 10
2040.225476880552
 20
321.5258860321258
 10
2040.225476880552
 20
321.6712576996076
 10
2040.225476880552
 20
321.819184799326
 10
2040.225476880552
 20
321.9694306794776
 10
2040.225476880552
 20
322.121754978705
 10
2040.225476880552
 20
322.2759140106232
 10
2040.225476880552
 20
322.4316611536671
 10
2040.225476880552
 20
322.5887472456317
 10
2040.225476880552
 20
322.7469209822801
 10
2040.225476880552
 20
322.9059293193754
 10
2040.225476880552
 20
323.0655178774983
 10
2040.225476880552
 20
323.2254313489996
 10
2040.225476880552
 20
323.2686158172327
  0
LWPOLYLINE
  5
3F9
330
71
100
AcDbEntity
  8
0
100
AcDbPolyline
 90
       41
 70
   128
 43
0.0
 10
2035.225476880552
 20
323.2686158172327
 10
2035.225476880552
 20
323.1086584804863
 10
2035.225476880552
 20
322.948957041356
 10
2035.225476880552
 20
322.7897669880771
 10
2035.225476880552
 20
322.6313429907757
 10
2035.225476880552
 20
322.4739384940525
 10
2035.225476880552
 20
322.3178053115241
 10
2035.225476880552
 20
322.1631932229763
 10
2035.225476880552
 20
322.0103495747683
 10
2035.225476880552
 20
321.8595188841324
 10
2035.225476880552
 20
321.7109424479982
 10
2035.225476880552
 20
321.5648579569687
 10
2035.225476880552
 20
321.4214991150668
 10
2035.225476880552
 20
321.2810952658579
 10
2035.225476880552
 20
321.1438710255491
 10
2035.225476880552
 20
321.0100459236526
 10
2035.225476880552
 20
320.8798340517832
 10
2035.225476880552
 20
320.7534437211588
 10
2035.225476880552
 20
320.631077129347
 10
2035.225476880552
 20
320.5129300367905
 10
2035.225476880552
 20
320.3991914536347
 10
2035.225476880552
 20
320.2900433373492
 10
2035.225476880552
 20
320.1856603016369
 10
2035.225476880552
 20
320.0862093370872
 10
2035.225476880552
 20
319.9918495440288
 10
2035.225476880552
 20
319.9027318780011
 10
2035.225476880552
 20
319.8189989082595
 10
2035.225476880552
 20
319.7407845896929
 10
2035.225476880552
 20
319.6682140485266
 10
2035.225476880552
 20
319.6014033821457
 10
2035.225476880552
 20
319.5404594733637
 10
2035.225476880552
 20
319.4854798194346
 10
2035.225476880552
 20
319.4365523760759
 10
2035.225476880552
 20
319.3937554167596
 10
2035.225476880552
 20
319.3571574074915
 10
2035.225476880552
 20
319.3268168972788
 10
2035.225476880552
 20
319.302782424466
 10
2035.225476880552
 20
319.2850924390822
 10
2035.225476880552
 20
319.2737752413303
 10
2035.225476880552
 20
319.2688489363129
 10
2035.225476880552
 20
319.2686158172327
  0
LINE
  5
3FA
330
71
100
AcDbEntity
  8
0
100
AcDbLine
 10
2040.225476880552
 20
323.2686158172327
 30
0.0
 11
2040.225476880552
 21
323.5186158172326
 31
0.0
  0
LINE
  5
3FB
330
71
100
AcDbEntity
  8
0
100
AcDbLine
 10
2035.225476880552
 20
323.5186158172326
 30
0.0
 11
2035.225476880552
 21
323.2686158172327
 31
0.0
  0
LWPOLYLINE
  5
3FC
330
71
100
AcDbEntity
  8
0
100
AcDbPolyline
 90
        4
 70
   128
 43
0.0
 10
2037.725476880552
 20
330.0186158172325
 10
2037.825450216018
 20
330.016616083885
 10
2037.925263615475
 20
330.0106200829891
 10
2037.943366237422
 20
330.0088037623522
  0
LWPOLYLINE
  5
3FD
330
71
100
AcDbEntity
  8
0
100
AcDbPolyline
 90
        4
 70
   128
 43
0.0
 10
2037.973023057228
 20
330.0058281550616
 10
2038.024757398774
 20
330.0006374068672
 10
2038.123772397088
 20
329.9866840256716
 10
2038.148542047317
 20
329.9821767040849
  0
LWPOLYLINE
  5
3FE
330
71
100
AcDbEntity
  8
0
100
AcDbPolyline
 90
        4
 70
   128
 43
0.0
 10
2038.15959732472
 20
329.9801649804625
 10
2038.222150207539
 20
329.9687822618356
 10
2038.31973344662
 20
329.9469607543624
 10
2038.357172822923
 20
329.9370010737573
  0
LWPOLYLINE
  5
3FF
330
71
100
AcDbEntity
  8
0
100
AcDbPolyline
 90
       35
 70
   128
 43
0.0
 10
2038.372524493309
 20
329.932917198733
 10
2038.416366001962
 20
329.9212544130095
 10
2038.511893282092
 20
329.8917043624387
 10
2038.606162463739
 20
329.8583578764274
 10
2038.699022736324
 20
329.8212683022398
 10
2038.790325543217
 20
329.7804949752824
 10
2038.879924819406
 20
329.7361031241808
 10
2038.967677225161
 20
329.6881637664267
 10
2039.053442375355
 20
329.636753594766
 10
2039.137083064039
 20
329.5819548545066
 10
2039.218465483958
 20
329.5238552119432
 10
2039.297459440598
 20
329.4625476141098
 10
2039.373938560481
 20
329.3981301400847
 10
2039.447780493329
 20
329.3307058440849
 10
2039.518867107801
 20
329.2603825906005
 10
2039.58708468048
 20
329.1872728818357
 10
2039.652324077799
 20
329.1114936777291
 10
2039.714480930643
 20
329.0331662088412
 10
2039.773455801304
 20
328.9524157824136
 10
2039.829154342572
 20
328.8693715819028
 10
2039.88148744866
 20
328.7841664603144
 10
2039.930371397764
 20
328.6969367276669
 10
2039.975727985993
 20
328.6078219329241
 10
2040.017484652482
 20
328.5169646407482
 10
2040.05557459547
 20
328.4245102034242
 10
2040.089936879176
 20
328.3306065283294
 10
2040.120516531275
 20
328.2354038413124
 10
2040.147264630848
 20
328.1390544463635
 10
2040.17013838664
 20
328.0417124819611
 10
2040.189101205523
 20
327.9435336744832
 10
2040.204122751031
 20
327.844675089078
 10
2040.215178991896
 20
327.7452948783933
 10
2040.222252240491
 20
327.6455520295665
 10
2040.225331181127
 20
327.5456061098783
 10
2040.225476880552
 20
327.5186158172326
  0
LWPOLYLINE
  5
400
330
71
100
AcDbEntity
  8
0
100
AcDbPolyline
 90
       41
 70
   128
 43
0.0
 10
2040.225476880552
 20
327.5186158172326
 10
2040.225476880552
 20
327.5154162438763
 10
2040.225476880552
 20
327.505822642443
 10
2040.225476880552
 20
327.489850360648
 10
2040.225476880552
 20
327.467524950735
 10
2040.225476880552
 20
327.4388821285975
 10
2040.225476880552
 20
327.4039677166407
 10
2040.225476880552
 20
327.3628375704754
 10
2040.225476880552
 20
327.3155574895623
 10
2040.225476880552
 20
327.2622031119444
 10
2040.225476880552
 20
327.2028597932441
 10
2040.225476880552
 20
327.1376224701123
 10
2040.225476880552
 20
327.0665955083496
 10
2040.225476880552
 20
326.9898925359432
 10
2040.225476880552
 20
326.9076362612862
 10
2040.225476880552
 20
326.8199582768712
 10
2040.225476880552
 20
326.7269988487695
 10
2040.225476880552
 20
326.6289066922364
 10
2040.225476880552
 20
326.5258387337961
 10
2040.225476880552
 20
326.4179598601962
 10
2040.225476880552
 20
326.3054426546211
 10
2040.225476880552
 20
326.1884671205977
 10
2040.225476880552
 20
326.0672203940268
 10
2040.225476880552
 20
325.9418964438064
 10
2040.225476880552
 20
325.8126957615222
 10
2040.225476880552
 20
325.679825040705
 10
2040.225476880552
 20
325.5434968461635
 10
2040.225476880552
 20
325.4039292739275
 10
2040.225476880552
 20
325.2613456023395
 10
2040.225476880552
 20
325.1159739348576
 10
2040.225476880552
 20
324.968046835139
 10
2040.225476880552
 20
324.8178009549874
 10
2040.225476880552
 20
324.6654766557603
 10
2040.225476880552
 20
324.5113176238421
 10
2040.225476880552
 20
324.3555704807982
 10
2040.225476880552
 20
324.1984843888333
 10
2040.225476880552
 20
324.0403106521851
 10
2040.225476880552
 20
323.8813023150898
 10
2040.225476880552
 20
323.7217137569668
 10
2040.225476880552
 20
323.5618002854654
 10
2040.225476880552
 20
323.5186158172326
  0
LWPOLYLINE
  5
401
330
71
100
AcDbEntity
  8
0
100
AcDbPolyline
 90
       11
 70
   128
 43
0.0
 10
2035.225476880552
 20
323.5186158172326
 10
2035.225476880552
 20
323.678573153979
 10
2035.225476880552
 20
323.8382745931092
 10
2035.225476880552
 20
323.9974646463882
 10
2035.225476880552
 20
324.1558886436895
 10
2035.225476880552
 20
324.3132931404127
 10
2035.225476880552
 20
324.4694263229411
 10
2035.225476880552
 20
324.6240384114889
 10
2035.225476880552
 20
324.776882059697
 10
2035.225476880552
 20
324.9277127503328
 10
2035.225476880552
 20
325.0198236570293
  0
LINE
  5
402
330
71
100
AcDbEntity
  8
0
100
AcDbLine
 10
1959.858721406035
 20
371.1436158172617
 30
0.0
 11
1959.858721406035
 21
378.7325910661632
 31
0.0
  0
LINE
  5
403
330
71
100
AcDbEntity
  8
0
100
AcDbLine
 10
1959.858721406035
 20
378.7325910661632
 30
0.0
 11
1959.858721406035
 21
390.3936158172617
 31
0.0
  0
LINE
  5
404
330
71
100
AcDbEntity
  8
0
100
AcDbLine
 10
1981.108721406035
 20
390.3936158172617
 30
0.0
 11
1981.108721406035
 21
378.7325910661632
 31
0.0
  0
LINE
  5
405
330
71
100
AcDbEntity
  8
0
100
AcDbLine
 10
1981.108721406035
 20
378.7325910661632
 30
0.0
 11
1981.108721406035
 21
371.1436158172615
 31
0.0
  0
LINE
  5
406
330
71
100
AcDbEntity
  8
0
100
AcDbLine
 10
1981.108721406035
 20
378.7325910661632
 30
0.0
 11
1959.858721406035
 21
378.7325910661632
 31
0.0
  0
LINE
  5
407
330
71
100
AcDbEntity
  8
0
100
AcDbLine
 10
1981.108721406035
 20
390.3936158172617
 30
0.0
 11
1959.858721406035
 21
390.3936158172617
 31
0.0
  0
LINE
  5
408
330
71
100
AcDbEntity
  8
0
100
AcDbLine
 10
2028.725476880552
 20
283.8936158172327
 30
0.0
 11
2028.725476880552
 21
371.1436158172327
 31
0.0
  0
LINE
  5
409
330
71
100
AcDbEntity
  8
0
100
AcDbLine
 10
2028.725476880552
 20
371.1436158172327
 30
0.0
 11
1980.295540860002
 21
371.1436158172327
 31
0.0
  0
LINE
  5
40A
330
71
100
AcDbEntity
  8
0
100
AcDbLine
 10
1969.405412901103
 20
371.1436158172327
 30
0.0
 11
1920.975476880552
 21
371.1436158172327
 31
0.0
  0
LINE
  5
40B
330
71
100
AcDbEntity
  8
0
100
AcDbLine
 10
1920.975476880552
 20
371.1436158172327
 30
0.0
 11
1920.975476880552
 21
283.8936158172327
 31
0.0
  0
LINE
  5
40C
330
71
100
AcDbEntity
  8
0
100
AcDbLine
 10
1920.975476880552
 20
283.8936158172327
 30
0.0
 11
1969.40541290106
 21
283.8936158172327
 31
0.0
  0
LINE
  5
40D
330
71
100
AcDbEntity
  8
0
100
AcDbLine
 10
1980.295540860044
 20
283.8936158172327
 30
0.0
 11
2028.725476880552
 21
283.8936158172327
 31
0.0
  0
ARC
  5
40E
330
71
100
AcDbEntity
  8
0
100
AcDbCircle
 10
1974.850476880552
 20
327.5186158172293
 30
0.0
 40
43.99999999999992
100
AcDbArc
 50
0.0
 51
180.0
  0
ARC
  5
40F
330
71
100
AcDbEntity
  8
0
100
AcDbCircle
 10
1974.850476880552
 20
327.5186158172293
 30
0.0
 40
43.99999999999992
100
AcDbArc
 50
180.0
 51
0.0
  0
ARC
  5
410
330
71
100
AcDbEntity
  8
0
100
AcDbCircle
 10
1974.850476880552
 20
327.5186158172291
 30
0.0
 40
2.999999999999993
100
AcDbArc
 50
0.0
 51
180.0
  0
ARC
  5
411
330
71
100
AcDbEntity
  8
0
100
AcDbCircle
 10
1974.850476880552
 20
327.5186158172291
 30
0.0
 40
3.0
100
AcDbArc
 50
180.0
 51
0.0
  0
LINE
  5
412
330
71
100
AcDbEntity
  8
0
100
AcDbLine
 10
2028.975476880552
 20
293.1436158172322
 30
0.0
 11
2028.725476880554
 21
293.1436158172322
 31
0.0
  0
LINE
  5
413
330
71
100
AcDbEntity
  8
0
100
AcDbLine
 10
2028.725476880554
 20
291.1436158172323
 30
0.0
 11
2028.975476880552
 21
291.1436158172323
 31
0.0
  0
LINE
  5
414
330
71
100
AcDbEntity
  8
0
100
AcDbLine
 10
2028.975476880552
 20
361.3936158172324
 30
0.0
 11
2028.725476880554
 21
361.3936158172324
 31
0.0
  0
LINE
  5
415
330
71
100
AcDbEntity
  8
0
100
AcDbLine
 10
2028.725476880554
 20
359.8936158172322
 30
0.0
 11
2028.975476880552
 21
359.8936158172322
 31
0.0
  0
LINE
  5
416
330
71
100
AcDbEntity
  8
0
100
AcDbLine
 10
2028.975476880552
 20
293.1436158172322
 30
0.0
 11
2028.975476880552
 21
291.1436158172321
 31
0.0
  0
LINE
  5
417
330
71
100
AcDbEntity
  8
0
100
AcDbLine
 10
2028.975476880552
 20
361.3936158172322
 30
0.0
 11
2028.975476880552
 21
359.8936158172322
 31
0.0
  0
LINE
  5
418
330
71
100
AcDbEntity
  8
0
100
AcDbLine
 10
2037.725476880552
 20
308.6436158172327
 30
0.0
 11
2028.725476880552
 21
308.6436158172327
 31
0.0
  0
LINE
  5
419
330
71
100
AcDbEntity
  8
0
100
AcDbLine
 10
2028.725476880552
 20
304.6436158172326
 30
0.0
 11
2037.725476880552
 21
304.6436158172326
 31
0.0
  0
LINE
  5
41A
330
71
100
AcDbEntity
  8
0
100
AcDbLine
 10
2037.725476880552
 20
350.3936158172326
 30
0.0
 11
2028.725476880552
 21
350.3936158172327
 31
0.0
  0
LINE
  5
41B
330
71
100
AcDbEntity
  8
0
100
AcDbLine
 10
2028.725476880552
 20
346.3936158172326
 30
0.0
 11
2037.725476880552
 21
346.3936158172326
 31
0.0
  0
LINE
  5
41C
330
71
100
AcDbEntity
  8
0
100
AcDbLine
 10
2037.725476880552
 20
308.6436158172324
 30
0.0
 11
2037.725476880552
 21
304.6436158172324
 31
0.0
  0
LINE
  5
41D
330
71
100
AcDbEntity
  8
0
100
AcDbLine
 10
2037.725476880552
 20
350.3936158172324
 30
0.0
 11
2037.725476880552
 21
346.3936158172324
 31
0.0
  0
LINE
  5
420
330
71
100
AcDbEntity
  8
0
100
AcDbLine
 10
1733.4662012804
 20
189.1754950710442
 30
0.0
 11
1733.4662012804
 21
178.4254950710449
 31
0.0
  0
LINE
  5
421
330
71
100
AcDbEntity
  8
0
100
AcDbLine
 10
1742.4662012804
 20
178.4254950710449
 30
0.0
 11
1742.4662012804
 21
189.1754950710445
 31
0.0
  0
LINE
  5
422
330
71
100
AcDbEntity
  8
0
100
AcDbLine
 10
1737.9662012804
 20
178.4254950710447
 30
0.0
 11
1733.466201280401
 21
178.4254950710447
 31
0.0
  0
LINE
  5
423
330
71
100
AcDbEntity
  8
0
100
AcDbLine
 10
1742.4662012804
 20
178.4254950710447
 30
0.0
 11
1737.9662012804
 21
178.4254950710447
 31
0.0
  0
LINE
  5
424
330
71
100
AcDbEntity
  8
0
100
AcDbLine
 10
1746.9662012804
 20
206.1754950710443
 30
0.0
 11
1739.377226031499
 21
206.1754950710442
 31
0.0
  0
LINE
  5
425
330
71
100
AcDbEntity
  8
0
100
AcDbLine
 10
1739.377226031499
 20
206.1754950710442
 30
0.0
 11
1727.7162012804
 21
194.5144703199457
 31
0.0
  0
LINE
  5
426
330
71
100
AcDbEntity
  8
0
100
AcDbLine
 10
1727.7162012804
 20
194.5144703199457
 30
0.0
 11
1727.7162012804
 21
189.1754950710442
 31
0.0
  0
LINE
  5
427
330
71
100
AcDbEntity
  8
0
100
AcDbLine
 10
1727.7162012804
 20
189.1754950710442
 30
0.0
 11
1746.9662012804
 21
189.1754950710442
 31
0.0
  0
LINE
  5
428
330
71
100
AcDbEntity
  8
0
100
AcDbLine
 10
1746.966201280429
 20
207.3004950710434
 30
0.0
 11
1834.216201280429
 21
207.3004950710437
 31
0.0
  0
LINE
  5
429
330
71
100
AcDbEntity
  8
0
100
AcDbLine
 10
1834.216201280429
 20
183.7955304589533
 30
0.0
 11
1746.966201280429
 21
183.795530458953
 31
0.0
  0
LINE
  5
42A
330
71
100
AcDbEntity
  8
0
100
AcDbLine
 10
1746.966201280429
 20
183.795530458953
 30
0.0
 11
1746.966201280429
 21
207.3004950710434
 31
0.0
  0
LINE
  5
42B
330
71
100
AcDbEntity
  8
0
100
AcDbLine
 10
1834.216201280429
 20
183.7955304589533
 30
0.0
 11
1834.216201280429
 21
207.3004950710437
 31
0.0
  0
LWPOLYLINE
  5
42C
330
71
100
AcDbEntity
  8
0
100
AcDbPolyline
 90
       41
 70
   128
 43
0.0
 10
1747.591201280432
 20
207.3004950710466
 10
1747.611195947525
 20
207.3008950177162
 10
1747.631158627417
 20
207.3020942178952
 10
1747.651057384077
 20
207.3040907531195
 10
1747.67086038374
 20
207.3068814293587
 10
1747.69053594583
 20
207.310461782126
 10
1747.710052593646
 20
207.3148260836205
 10
1747.729379104714
 20
207.3199673518911
 10
1747.74848456074
 20
207.3258773620054
 10
1747.76733839707
 20
207.3325466592076
 10
1747.785910451587
 20
207.3399645740451
 10
1747.804171012965
 20
207.3481192394367
 10
1747.822090868203
 20
207.356997609657
 10
1747.839641349354
 20
207.3665854812078
 10
1747.856794379393
 20
207.3768675155399
 10
1747.87352251713
 20
207.3878272635917
 10
1747.889799001113
 20
207.3994471921043
 10
1747.905597792441
 20
207.4117087116711
 10
1747.920893616418
 20
207.4245922064762
 10
1747.935662002988
 20
207.4380770656763
 10
1747.949879325882
 20
207.452141716373
 10
1747.963522840418
 20
207.4667636581259
 10
1747.976570719882
 20
207.4819194989473
 10
1747.98900209045
 20
207.4975849927248
 10
1748.000797064583
 20
207.5137350780102
 10
1748.011936772836
 20
207.5303439181125
 10
1748.022403394054
 20
207.5473849424301
 10
1748.032180183875
 20
207.5648308889596
 10
1748.04125150152
 20
207.5826538479082
 10
1748.049602834818
 20
207.6008253063435
 10
1748.057220823416
 20
207.6193161938084
 10
1748.064093280157
 20
207.6380969288272
 10
1748.070209210577
 20
207.6571374662305
 10
1748.075558830491
 20
207.6764073452205
 10
1748.08013358165
 20
207.6958757381008
 10
1748.083926145427
 20
207.7155114995964
 10
1748.086930454528
 20
207.7352832166776
 10
1748.089141702701
 20
207.7551592588143
 10
1748.09055635242
 20
207.7751078285799
 10
1748.091172140547
 20
207.7950970125174
 10
1748.091201280432
 20
207.8004950710467
  0
LWPOLYLINE
  5
42D
330
71
100
AcDbEntity
  8
0
100
AcDbPolyline
 90
       41
 70
   128
 43
0.0
 10
1833.091201280432
 20
207.8004950710453
 10
1833.091601227102
 20
207.7805004039523
 10
1833.092800427281
 20
207.7605377240608
 10
1833.094796962505
 20
207.7406389674008
 10
1833.097587638745
 20
207.7208359677383
 10
1833.101167991512
 20
207.701160405648
 10
1833.105532293006
 20
207.6816437578318
 10
1833.110673561277
 20
207.6623172467632
 10
1833.116583571391
 20
207.6432117907373
 10
1833.123252868593
 20
207.6243579544079
 10
1833.130670783431
 20
207.605785899891
 10
1833.138825448822
 20
207.5875253385123
 10
1833.147703819043
 20
207.5696054832746
 10
1833.157291690594
 20
207.5520550021237
 10
1833.167573724925
 20
207.5349019720851
 10
1833.178533472977
 20
207.5181738343479
 10
1833.19015340149
 20
207.5018973503643
 10
1833.202414921057
 20
207.4860985590362
 10
1833.215298415862
 20
207.4708027350596
 10
1833.228783275062
 20
207.4560343484902
 10
1833.242847925759
 20
207.4418170255956
 10
1833.257469867512
 20
207.42817351106
 10
1833.272625708333
 20
207.4151256315959
 10
1833.288291202111
 20
207.4026942610271
 10
1833.304441287396
 20
207.3908992868949
 10
1833.321050127497
 20
207.3797595786414
 10
1833.338091151816
 20
207.3692929574237
 10
1833.355537098345
 20
207.3595161676029
 10
1833.373360057294
 20
207.3504448499571
 10
1833.391531515729
 20
207.3420935166594
 10
1833.410022403194
 20
207.3344755280617
 10
1833.428803138213
 20
207.3276030713208
 10
1833.447843675616
 20
207.3214871409008
 10
1833.467113554606
 20
207.3161375209862
 10
1833.486581947487
 20
207.3115627698278
 10
1833.506217708982
 20
207.3077702060512
 10
1833.525989426063
 20
207.3047658969495
 10
1833.5458654682
 20
207.3025546487766
 10
1833.565814037966
 20
207.3011399990577
 10
1833.585803221903
 20
207.3005242109305
 10
1833.591201280432
 20
207.3004950710453
  0
LINE
  5
42E
330
71
100
AcDbEntity
  8
0
100
AcDbLine
 10
1748.091201280433
 20
222.3004950710466
 30
0.0
 11
1748.091201280432
 21
207.8004950710467
 31
0.0
  0
LINE
  5
42F
330
71
100
AcDbEntity
  8
0
100
AcDbLine
 10
1833.091201280432
 20
207.8004950710453
 30
0.0
 11
1833.091201280432
 21
222.3004950710453
 31
0.0
  0
LINE
  5
430
330
71
100
AcDbEntity
  8
0
100
AcDbLine
 10
1746.591201280432
 20
222.5504950710466
 30
0.0
 11
1746.591201280432
 21
222.3004950710466
 31
0.0
  0
LINE
  5
431
330
71
100
AcDbEntity
  8
0
100
AcDbLine
 10
1834.591201280433
 20
222.3004950710453
 30
0.0
 11
1834.591201280433
 21
222.5504950710454
 31
0.0
  0
LINE
  5
432
330
71
100
AcDbEntity
  8
0
100
AcDbLine
 10
1787.591201280433
 20
230.050495071046
 30
0.0
 11
1746.591201280432
 21
222.5504950710466
 31
0.0
  0
LINE
  5
433
330
71
100
AcDbEntity
  8
0
100
AcDbLine
 10
1834.591201280433
 20
222.5504950710454
 30
0.0
 11
1793.591201280432
 21
230.050495071046
 31
0.0
  0
LINE
  5
434
330
71
100
AcDbEntity
  8
0
100
AcDbLine
 10
1790.591201280433
 20
222.3004950710458
 30
0.0
 11
1746.591201280432
 21
222.3004950710464
 31
0.0
  0
LINE
  5
435
330
71
100
AcDbEntity
  8
0
100
AcDbLine
 10
1834.591201280433
 20
222.3004950710451
 30
0.0
 11
1790.591201280433
 21
222.3004950710458
 31
0.0
  0
LINE
  5
436
330
71
100
AcDbEntity
  8
0
100
AcDbLine
 10
1790.591201280433
 20
222.5504950710458
 30
0.0
 11
1746.591201280432
 21
222.5504950710464
 31
0.0
  0
LINE
  5
437
330
71
100
AcDbEntity
  8
0
100
AcDbLine
 10
1834.591201280433
 20
222.5504950710452
 30
0.0
 11
1790.591201280433
 21
222.5504950710458
 31
0.0
  0
LINE
  5
438
330
71
100
AcDbEntity
  8
0
100
AcDbLine
 10
1790.591201280433
 20
230.0504950710458
 30
0.0
 11
1787.591201280433
 21
230.0504950710458
 31
0.0
  0
LINE
  5
439
330
71
100
AcDbEntity
  8
0
100
AcDbLine
 10
1793.591201280433
 20
230.0504950710458
 30
0.0
 11
1790.591201280433
 21
230.0504950710458
 31
0.0
  0
LINE
  5
43A
330
71
100
AcDbEntity
  8
0
100
AcDbLine
 10
1746.966201280429
 20
183.5504950710465
 30
0.0
 11
1834.21620128043
 21
183.5504950710465
 31
0.0
  0
LINE
  5
43B
330
71
100
AcDbEntity
  8
0
100
AcDbLine
 10
1834.21620128043
 20
74.67549507104648
 30
0.0
 11
1746.966201280429
 21
74.67549507104648
 31
0.0
  0
LINE
  5
43C
330
71
100
AcDbEntity
  8
0
100
AcDbLine
 10
1746.966201280429
 20
74.67549507104648
 30
0.0
 11
1746.966201280429
 21
183.5504950710465
 31
0.0
  0
LINE
  5
43D
330
71
100
AcDbEntity
  8
0
100
AcDbLine
 10
1834.21620128043
 20
74.67549507104648
 30
0.0
 11
1834.21620128043
 21
183.5504950710465
 31
0.0
  0
LINE
  5
441
330
71
100
AcDbEntity
  8
0
100
AcDbLine
 10
1746.966201280429
 20
74.67549507104647
 30
0.0
 11
1834.216201280429
 21
74.67549507104647
 31
0.0
  0
LINE
  5
442
330
71
100
AcDbEntity
  8
0
100
AcDbLine
 10
1834.216201280429
 20
29.8004950710465
 30
0.0
 11
1746.966201280429
 21
29.8004950710465
 31
0.0
  0
LINE
  5
443
330
71
100
AcDbEntity
  8
0
100
AcDbLine
 10
1746.966201280429
 20
68.80049507104654
 30
0.0
 11
1746.966201280429
 21
74.67549507104647
 31
0.0
  0
LINE
  5
444
330
71
100
AcDbEntity
  8
0
100
AcDbLine
 10
1746.966201280429
 20
68.80049507104654
 30
0.0
 11
1834.216201280429
 21
68.80049507104654
 31
0.0
  0
LINE
  5
445
330
71
100
AcDbEntity
  8
0
100
AcDbLine
 10
1834.216201280429
 20
46.30049507104653
 30
0.0
 11
1746.966201280429
 21
46.30049507104653
 31
0.0
  0
LINE
  5
446
330
71
100
AcDbEntity
  8
0
100
AcDbLine
 10
1746.966201280429
 20
29.8004950710465
 30
0.0
 11
1746.966201280429
 21
46.30049507104653
 31
0.0
  0
LINE
  5
447
330
71
100
AcDbEntity
  8
0
100
AcDbLine
 10
1834.216201280429
 20
68.80049507104654
 30
0.0
 11
1834.216201280429
 21
74.67549507104647
 31
0.0
  0
LINE
  5
448
330
71
100
AcDbEntity
  8
0
100
AcDbLine
 10
1834.216201280429
 20
29.8004950710465
 30
0.0
 11
1834.216201280429
 21
46.30049507104653
 31
0.0
  0
LINE
  5
449
330
71
100
AcDbEntity
  8
0
100
AcDbLine
 10
1833.21620128043
 20
68.80049507104653
 30
0.0
 11
1833.21620128043
 21
46.3004950710465
 31
0.0
  0
LINE
  5
44A
330
71
100
AcDbEntity
  8
0
100
AcDbLine
 10
1831.841201280429
 20
68.80049507104653
 30
0.0
 11
1831.841201280429
 21
46.30049507104653
 31
0.0
  0
LINE
  5
44B
330
71
100
AcDbEntity
  8
0
100
AcDbLine
 10
1828.466201280429
 20
68.80049507104653
 30
0.0
 11
1828.466201280429
 21
46.30049507104653
 31
0.0
  0
LINE
  5
44E
330
71
100
AcDbEntity
  8
0
100
AcDbLine
 10
1752.716201280429
 20
68.80049507104653
 30
0.0
 11
1752.716201280429
 21
46.30049507104653
 31
0.0
  0
LINE
  5
44F
330
71
100
AcDbEntity
  8
0
100
AcDbLine
 10
1749.341201280429
 20
68.80049507104653
 30
0.0
 11
1749.341201280429
 21
46.30049507104653
 31
0.0
  0
LINE
  5
450
330
71
100
AcDbEntity
  8
0
100
AcDbLine
 10
1747.966201280429
 20
68.80049507104653
 30
0.0
 11
1747.966201280429
 21
46.3004950710465
 31
0.0
  0
LINE
  5
451
330
71
100
AcDbEntity
  8
0
100
AcDbLine
 10
2033.725476880552
 20
176.4254950710498
 30
0.0
 11
2028.725476880552
 21
176.4254950710498
 31
0.0
  0
LINE
  5
452
330
71
100
AcDbEntity
  8
0
100
AcDbLine
 10
2028.725476880552
 20
171.4254950710499
 30
0.0
 11
2033.725476880552
 21
171.4254950710499
 31
0.0
  0
LWPOLYLINE
  5
453
330
71
100
AcDbEntity
  8
0
100
AcDbPolyline
 90
       41
 70
   128
 43
0.0
 10
2040.225476880553
 20
169.9254950710494
 10
2040.220277573849
 20
170.1854257432626
 10
2040.204687971518
 20
170.444940581849
 10
2040.178733013603
 20
170.7036244184275
 10
2040.142454222494
 20
170.9610634140422
 10
2040.095909636521
 20
171.2168457212175
 10
2040.039173717091
 20
171.4705621428261
 10
2039.972337229572
 20
171.7218067867165
 10
2039.895507098088
 20
171.9701777150545
 10
2039.808806234459
 20
172.2152775873378
 10
2039.712373341571
 20
172.456714296056
 10
2039.606362691482
 20
172.6941015939786
 10
2039.490943878618
 20
172.9270597120694
 10
2039.366301548457
 20
173.155215967034
 10
2039.23263510214
 20
173.3782053575356
 10
2039.090158377465
 20
173.5956711481176
 10
2038.9390993068
 20
173.8072654399054
 10
2038.779699552433
 20
174.0126497271699
 10
2038.612214119968
 20
174.2114954388643
 10
2038.436910950368
 20
174.4034844642685
 10
2038.254070491309
 20
174.5883096618966
 10
2038.063985248521
 20
174.7656753508604
 10
2037.866959317844
 20
174.9352977838932
 10
2037.663307898735
 20
175.0969056012862
 10
2037.453356790024
 20
175.2502402650063
 10
2037.237441868695
 20
175.3950564723012
 10
2037.015908552565
 20
175.5311225481315
 10
2036.789111247681
 20
175.6582208158021
 10
2036.557412781351
 20
175.7761479451973
 10
2036.321183821693
 20
175.8847152780663
 10
2036.080802284651
 20
175.9837491298369
 10
2035.836652729404
 20
176.073091067472
 10
2035.58912574316
 20
176.15259816293
 10
2035.338617316293
 20
176.2221432218186
 10
2035.085528208846
 20
176.2816149868795
 10
2034.830263309403
 20
176.330918315975
 10
2034.57323098735
 20
176.3699743342958
 10
2034.31484243957
 20
176.3987205605447
 10
2034.05551103262
 20
176.4171110068911
 10
2033.795651641431
 20
176.4251162525448
 10
2033.725476880552
 20
176.42549507105
  0
LWPOLYLINE
  5
454
330
71
100
AcDbEntity
  8
0
100
AcDbPolyline
 90
       41
 70
   128
 43
0.0
 10
2033.725476880552
 20
171.4254950710499
 10
2033.785460881832
 20
171.4242952310415
 10
2033.845348921506
 20
171.4206976305039
 10
2033.905045191485
 20
171.4147080248307
 10
2033.964454190474
 20
171.4063359961133
 10
2034.023480876745
 20
171.3955949378119
 10
2034.082030820193
 20
171.3825020333279
 10
2034.140010353398
 20
171.3670782285162
 10
2034.197326721476
 20
171.3493481981736
 10
2034.253888230465
 20
171.3293403065668
 10
2034.309604394015
 20
171.3070865620541
 10
2034.364386078151
 20
171.2826225658798
 10
2034.418145643865
 20
171.2559874552187
 10
2034.470797087318
 20
171.2272238405663
 10
2034.522256177433
 20
171.1963777375699
 10
2034.572440590645
 20
171.1634984934143
 10
2034.621270042596
 20
171.1286387078763
 10
2034.66866641658
 20
171.0918541491763
 10
2034.71455388851
 20
171.0532036647611
 10
2034.758859048218
 20
171.0127490871611
 10
2034.801511016902
 20
170.9705551350704
 10
2034.842441560509
 20
170.9266893098116
 10
2034.881585198901
 20
170.8812217873475
 10
2034.918879310607
 20
170.8342253060149
 10
2034.954264233004
 20
170.7857750501585
 10
2034.987683357765
 20
170.7359485298519
 10
2035.019083221417
 20
170.6848254568987
 10
2035.04841359088
 20
170.6324876173103
 10
2035.075627543817
 20
170.5790187404648
 10
2035.10068154371
 20
170.5245043651591
 10
2035.123535509503
 20
170.4690317027646
 10
2035.144152879727
 20
170.4126894977077
 10
2035.162500670987
 20
170.3555678854974
 10
2035.17854953073
 20
170.2977582485282
 10
2035.192273784206
 20
170.2393530698866
 10
2035.203651475535
 20
170.1804457853999
 10
2035.21266440284
 20
170.1211306341566
 10
2035.219298147359
 20
170.0615025077456
 10
2035.223542096516
 20
170.0016567984497
 10
2035.225389460897
 20
169.9416892466368
 10
2035.225476880552
 20
169.9254950710494
  0
LINE
  5
455
330
71
100
AcDbEntity
  8
0
100
AcDbLine
 10
2040.225476880553
 20
161.9254950710494
 30
0.0
 11
2040.225476880553
 21
169.9254950710494
 31
0.0
  0
LINE
  5
456
330
71
100
AcDbEntity
  8
0
100
AcDbLine
 10
2035.225476880552
 20
169.9254950710494
 30
0.0
 11
2035.225476880552
 21
168.3004950710467
 31
0.0
  0
LINE
  5
458
330
71
100
AcDbEntity
  8
0
100
AcDbLine
 10
2028.725476880555
 20
34.05049507104485
 30
0.0
 11
2035.225476880552
 21
34.05049507104485
 31
0.0
  0
LINE
  5
459
330
71
100
AcDbEntity
  8
0
100
AcDbLine
 10
2035.225476880552
 20
38.05049507104667
 30
0.0
 11
2028.725476880555
 21
38.05049507104667
 31
0.0
  0
LINE
  5
45A
330
71
100
AcDbEntity
  8
0
100
AcDbLine
 10
2040.225476880552
 20
33.05049507104474
 30
0.0
 11
2041.975476880553
 21
33.05049507104474
 31
0.0
  0
LINE
  5
45B
330
71
100
AcDbEntity
  8
0
100
AcDbLine
 10
2041.975476880553
 20
39.05049507104661
 30
0.0
 11
2040.225476880552
 21
39.05049507104661
 31
0.0
  0
LWPOLYLINE
  5
45C
330
71
100
AcDbEntity
  8
0
100
AcDbPolyline
 90
       80
 70
   128
 43
0.0
 10
2041.975476880553
 20
39.30049507104655
 10
2041.975476880553
 20
39.29789541769493
 10
2041.975476880553
 20
39.2901006165302
 10
2041.975476880553
 20
39.27712313757178
 10
2041.975476880553
 20
39.25898374201739
 10
2041.975476880553
 20
39.23571144903082
 10
2041.975476880553
 20
39.20734348931586
 10
2041.975476880553
 20
39.17392524555663
 10
2041.975476880553
 20
39.13551017981462
 10
2041.975476880553
 20
39.09215974799991
 10
2041.975476880553
 20
39.04394330155594
 10
2041.975476880553
 20
38.99093797651142
 10
2041.975476880553
 20
38.9332285700794
 10
2041.975476880553
 20
38.87090740499906
 10
2041.975476880553
 20
38.80407418184018
 10
2041.975476880553
 20
38.73283581950307
 10
2041.975476880553
 20
38.65730628417042
 10
2041.975476880553
 20
38.577606406987
 10
2041.975476880553
 20
38.49386369075444
 10
2041.975476880553
 20
38.40621210595447
 10
2041.975476880553
 20
38.31479187642458
 10
2041.975476880553
 20
38.21974925503059
 10
2041.975476880553
 20
38.12123628969181
 10
2041.975476880553
 20
38.01941058013767
 10
2041.975476880553
 20
37.9144350257817
 10
2041.975476880553
 20
37.80647756511763
 10
2041.975476880553
 20
37.69571090705279
 10
2041.975476880553
 20
37.58231225461083
 10
2041.975476880553
 20
37.46646302144552
 10
2041.975476880553
 20
37.34834854161647
 10
2041.975476880552
 20
37.22815777309518
 10
2041.975476880552
 20
37.10608299547215
 10
2041.975476880552
 20
36.98231950234987
 10
2041.975476880552
 20
36.85706528891615
 10
2041.975476880552
 20
36.73052073519308
 10
2041.975476880552
 20
36.60288828547165
 10
2041.975476880552
 20
36.47437212444482
 10
2041.975476880552
 20
36.34517785055475
 10
2041.975476880552
 20
36.21551214707989
 10
2041.975476880552
 20
36.08558245148504
 10
2041.975476880552
 20
35.95559662356652
 10
2041.975476880552
 20
35.82576261291985
 10
2041.975476880552
 20
35.69628812626604
 10
2041.975476880552
 20
35.56738029516357
 10
2041.975476880552
 20
35.43924534464379
 10
2041.975476880552
 20
35.31208826329294
 10
2041.975476880552
 20
35.18611247531612
 10
2041.975476880552
 20
35.06151951510094
 10
2041.975476880552
 20
34.93850870480498
 10
2041.975476880553
 20
34.81727683548383
 10
2041.975476880553
 20
34.69801785226702
 10
2041.975476880553
 20
34.5809225440874
 10
2041.975476880553
 20
34.46617823845844
 10
2041.975476880553
 20
34.35396850179234
 10
2041.975476880553
 20
34.24447284573074
 10
2041.975476880553
 20
34.13786643996514
 10
2041.975476880553
 20
34.03431983200397
 10
2041.975476880553
 20
33.93399867433038
 10
2041.975476880553
 20
33.83706345939681
 10
2041.975476880553
 20
33.74366926286815
 10
2041.975476880553
 20
33.65396549553589
 10
2041.975476880553
 20
33.56809566429217
 10
2041.975476880553
 20
33.48619714254898
 10
2041.975476880553
 20
33.40840095047015
 10
2041.975476880553
 20
33.33483154536772
 10
2041.975476880553
 20
33.26560662259574
 10
2041.975476880553
 20
33.20083692726337
 10
2041.975476880553
 20
33.1406260770666
 10
2041.975476880553
 20
33.08507039652086
 10
2041.975476880553
 20
33.0342587628644
 10
2041.975476880553
 20
32.98827246387162
 10
2041.975476880553
 20
32.9471850678109
 10
2041.975476880553
 20
32.91106230575122
 10
2041.975476880553
 20
32.87996196640631
 10
2041.975476880553
 20
32.85393380368418
 10
2041.975476880553
 20
32.83301945709315
 10
2041.975476880553
 20
32.81725238512655
 10
2041.975476880553
 20
32.80665781173542
 10
2041.975476880552
 20
32.80125268597771
 10
2041.975476880553
 20
32.80049507104479
  0
LWPOLYLINE
  5
45D
330
71
100
AcDbEntity
  8
0
100
AcDbPolyline
 90
       41
 70
   128
 43
0.0
 10
2041.975476880553
 20
39.30049507104655
 10
2041.976076800557
 20
39.33048707168672
 10
2041.977875600826
 20
39.36043109152377
 10
2041.980870403662
 20
39.39027922651348
 10
2041.98505641802
 20
39.41998372600756
 10
2041.990426947171
 20
39.44949706914309
 10
2041.996973399414
 20
39.47877204086707
 10
2042.004685301819
 20
39.50776180746976
 10
2042.01355031699
 20
39.5364199915087
 10
2042.023554262794
 20
39.56470074600299
 10
2042.03468113505
 20
39.59255882777831
 10
2042.046913133138
 20
39.61994966984622
 10
2042.060230688468
 20
39.64682945270272
 10
2042.074612495794
 20
39.67315517442961
 10
2042.090035547293
 20
39.69888471948747
 10
2042.10647516937
 20
39.72397692609315
 10
2042.123905062139
 20
39.74839165206851
 10
2042.142297341489
 20
39.77208983906058
 10
2042.161622583697
 20
39.79503357502522
 10
2042.181849872497
 20
39.8171861548796
 10
2042.202946848542
 20
39.8385121392214
 10
2042.224879761171
 20
39.85897741102496
 10
2042.247613522404
 20
39.87854923022098
 10
2042.27111176307
 20
39.89719628607407
 10
2042.295336890998
 20
39.91488874727247
 10
2042.320250151151
 20
39.93159830965272
 10
2042.345811687628
 20
39.94729824147908
 10
2042.371980607422
 20
39.96196342621039
 10
2042.398715045845
 20
39.97557040267901
 10
2042.425972233498
 20
39.98809740262572
 10
2042.453708564695
 20
39.99952438552219
 10
2042.481879667223
 20
40.0098330706337
 10
2042.510440473328
 20
40.0190069662636
 10
2042.539345291813
 20
40.02703139613544
 10
2042.568547881134
 20
40.03389352287308
 10
2042.598001523377
 20
40.03958236853804
 10
2042.627659098998
 20
40.0440888321904
 10
2042.657473162204
 20
40.04740570444975
 10
2042.687396016852
 20
40.04952767902858
 10
2042.717379792759
 20
40.05045136121924
 10
2042.725476880553
 20
40.05049507104653
  0
LWPOLYLINE
  5
45E
330
71
100
AcDbEntity
  8
0
100
AcDbPolyline
 90
       41
 70
   128
 43
0.0
 10
2042.725476880553
 20
32.05049507104462
 10
2042.695484879912
 20
32.05109499104907
 10
2042.665540860075
 20
32.05289379131779
 10
2042.635692725086
 20
32.0558885941544
 10
2042.605988225592
 20
32.06007460851305
 10
2042.576474882456
 20
32.06544513766374
 10
2042.547199910732
 20
32.07199158990557
 10
2042.518210144129
 20
32.07970349231175
 10
2042.48955196009
 20
32.08856850748293
 10
2042.461271205596
 20
32.09857245328635
 10
2042.433413123821
 20
32.10969932554252
 10
2042.406022281753
 20
32.12193132362985
 10
2042.379142498896
 20
32.13524887896023
 10
2042.352816777169
 20
32.14963068628646
 10
2042.327087232111
 20
32.16505373778466
 10
2042.301995025506
 20
32.18149335986243
 10
2042.277580299531
 20
32.19892325263146
 10
2042.253882112539
 20
32.21731553198146
 10
2042.230938376574
 20
32.23664077418897
 10
2042.20878579672
 20
32.25686806298905
 10
2042.187459812378
 20
32.27796503903427
 10
2042.166994540574
 20
32.29989795166381
 10
2042.147422721378
 20
32.32263171289577
 10
2042.128775665525
 20
32.34612995356207
 10
2042.111083204327
 20
32.37035508149034
 10
2042.094373641946
 20
32.39526834164367
 10
2042.07867371012
 20
32.42082987812
 10
2042.064008525389
 20
32.44699879791443
 10
2042.05040154892
 20
32.47373323633735
 10
2042.037874548974
 20
32.50099042398995
 10
2042.026447566077
 20
32.52872675518722
 10
2042.016138880965
 20
32.55689785771546
 10
2042.006964985335
 20
32.5854586638207
 10
2041.998940555464
 20
32.61436348230541
 10
2041.992078428726
 20
32.6435660716262
 10
2041.986389583061
 20
32.67301971386956
 10
2041.981883119408
 20
32.70267728949102
 10
2041.978566247149
 20
32.73249135269646
 10
2041.97644427257
 20
32.76241420734448
 10
2041.97552059038
 20
32.79239798325102
 10
2041.975476880553
 20
32.80049507104479
  0
LWPOLYLINE
  5
45F
330
71
100
AcDbEntity
  8
0
100
AcDbPolyline
 90
        4
 70
   128
 43
0.0
 10
2041.975476880553
 20
32.80049507104479
 10
2041.975476880553
 20
32.80309472439643
 10
2041.975476880553
 20
32.81088952556132
 10
2041.975476880553
 20
32.82105349284791
  0
LWPOLYLINE
  5
460
330
71
100
AcDbEntity
  8
0
100
AcDbPolyline
 90
        5
 70
   128
 43
0.0
 10
2041.975476880553
 20
39.27860044540347
 10
2041.975476880553
 20
39.28373775696497
 10
2041.975476880553
 20
39.2943323303561
 10
2041.975476880552
 20
39.29973745611363
 10
2041.975476880553
 20
39.30049507104655
  0
LINE
  5
461
330
71
100
AcDbEntity
  8
0
100
AcDbLine
 10
2042.725476880553
 20
32.05049507104462
 30
0.0
 11
2047.225476880552
 21
32.05049507104462
 31
0.0
  0
LINE
  5
462
330
71
100
AcDbEntity
  8
0
100
AcDbLine
 10
2047.225476880552
 20
40.05049507104653
 30
0.0
 11
2042.725476880553
 21
40.05049507104653
 31
0.0
  0
LWPOLYLINE
  5
463
330
71
100
AcDbEntity
  8
0
100
AcDbPolyline
 90
       80
 70
   128
 43
0.0
 10
2048.725476880552
 20
33.55049507104479
 10
2048.725476880552
 20
33.55249480439232
 10
2048.725476880552
 20
33.55849080528799
 10
2048.725476880552
 20
33.56847348141014
 10
2048.725476880552
 20
33.58242686260554
 10
2048.725476880552
 20
33.60032862644175
 10
2048.725476880552
 20
33.62215013391455
 10
2048.725476880552
 20
33.64785647526777
 10
2048.725476880552
 20
33.67740652583876
 10
2048.725476880552
 20
33.71075301185005
 10
2048.725476880552
 20
33.74784258603752
 10
2048.725476880552
 20
33.78861591299506
 10
2048.725476880552
 20
33.83300776409669
 10
2048.725476880552
 20
33.88094712185079
 10
2048.725476880552
 20
33.93235729351147
 10
2048.725476880552
 20
33.98715603377065
 10
2048.725476880552
 20
34.04525567633408
 10
2048.725476880552
 20
34.10656327416769
 10
2048.725476880552
 20
34.17098074819274
 10
2048.725476880552
 20
34.23840504419263
 10
2048.725476880552
 20
34.30872829767714
 10
2048.725476880552
 20
34.38183800644174
 10
2048.725476880552
 20
34.45761721054856
 10
2048.725476880552
 20
34.53594467943657
 10
2048.725476880552
 20
34.61669510586393
 10
2048.725476880552
 20
34.69973930637485
 10
2048.725476880552
 20
34.78494442796318
 10
2048.725476880552
 20
34.87217416061088
 10
2048.725476880552
 20
34.96128895535361
 10
2048.725476880552
 20
35.05214624752955
 10
2048.725476880552
 20
35.14460068485357
 10
2048.725476880552
 20
35.23850435994837
 10
2048.725476880552
 20
35.33370704696557
 10
2048.725476880552
 20
35.43005644191442
 10
2048.725476880552
 20
35.52739840631689
 10
2048.725476880552
 20
35.62557721379493
 10
2048.725476880552
 20
35.72443579920031
 10
2048.725476880552
 20
35.82381600988475
 10
2048.725476880552
 20
35.92355885871177
 10
2048.725476880552
 20
36.02350477839991
 10
2048.725476880552
 20
36.12349387679888
 10
2048.725476880552
 20
36.22336619268083
 10
2048.725476880552
 20
36.3229619516456
 10
2048.725476880552
 20
36.42212182172438
 10
2048.725476880552
 20
36.52068716827813
 10
2048.725476880552
 20
36.61850030777868
 10
2048.725476880552
 20
36.71540476006845
 10
2048.725476880552
 20
36.81124549869571
 10
2048.725476880552
 20
36.90586919892331
 10
2048.725476880552
 20
36.99912448301637
 10
2048.725476880552
 20
37.09086216241383
 10
2048.725476880552
 20
37.18093547639848
 10
2048.725476880552
 20
37.26920032688202
 10
2048.725476880552
 20
37.35551550893297
 10
2048.725476880552
 20
37.43974293667282
 10
2048.725476880552
 20
37.52174786418465
 10
2048.725476880552
 20
37.60139910107807
 10
2048.725476880552
 20
37.67856922236524
 10
2048.725476880552
 20
37.75313477231424
 10
2048.725476880552
 20
37.82497646195179
 10
2048.725476880552
 20
37.89397935989956
 10
2048.725476880552
 20
37.9600330762409
 10
2048.725476880552
 20
38.0230319391203
 10
2048.725476880552
 20
38.0828751637963
 10
2048.725476880552
 20
38.13946701387516
 10
2048.725476880552
 20
38.19271695446884
 10
2048.725476880552
 20
38.24253979703229
 10
2048.725476880552
 20
38.28885583564535
 10
2048.725476880552
 20
38.33159097452642
 10
2048.725476880552
 20
38.37067684656995
 10
2048.725476880552
 20
38.40605092271841
 10
2048.725476880552
 20
38.43765661199575
 10
2048.725476880552
 20
38.46544335204157
 10
2048.725476880552
 20
38.48936668999943
 10
2048.725476880552
 20
38.50938835363184
 10
2048.725476880552
 20
38.52547631254783
 10
2048.725476880552
 20
38.5376048294454
 10
2048.725476880552
 20
38.54575450128471
 10
2048.725476880552
 20
38.54991229032913
 10
2048.725476880552
 20
38.55049507104673
  0
LWPOLYLINE
  5
464
330
71
100
AcDbEntity
  8
0
100
AcDbPolyline
 90
       41
 70
   128
 43
0.0
 10
2047.225476880552
 20
40.05049507104653
 10
2047.285460881832
 20
40.04929523103816
 10
2047.345348921506
 20
40.04569763050072
 10
2047.405045191486
 20
40.03970802482768
 10
2047.464454190474
 20
40.03133599611021
 10
2047.523480876745
 20
40.02059493780865
 10
2047.582030820193
 20
40.00750203332484
 10
2047.640010353398
 20
39.99207822851281
 10
2047.697326721477
 20
39.97434819817044
 10
2047.753888230465
 20
39.95434030656379
 10
2047.809604394016
 20
39.9320865620511
 10
2047.864386078151
 20
39.90762256587663
 10
2047.918145643865
 20
39.88098745521569
 10
2047.970797087318
 20
39.85222384056323
 10
2048.022256177434
 20
39.82137773756682
 10
2048.072440590646
 20
39.78849849341128
 10
2048.121270042596
 20
39.75363870787322
 10
2048.16866641658
 20
39.71685414917322
 10
2048.21455388851
 20
39.67820366475803
 10
2048.258859048218
 20
39.63774908715805
 10
2048.301511016902
 20
39.59555513506746
 10
2048.342441560508
 20
39.5516893098087
 10
2048.381585198901
 20
39.50622178734478
 10
2048.418879310608
 20
39.45922530601183
 10
2048.454264233004
 20
39.41077505015545
 10
2048.487683357765
 20
39.36094852984883
 10
2048.519083221417
 20
39.30982545689597
 10
2048.54841359088
 20
39.25748761730729
 10
2048.575627543817
 20
39.20401874046179
 10
2048.60068154371
 20
39.14950436515625
 10
2048.623535509503
 20
39.09403170276171
 10
2048.644152879727
 20
39.03768949770507
 10
2048.662500670986
 20
38.98056788549457
 10
2048.67854953073
 20
38.92275824852533
 10
2048.692273784205
 20
38.86435306988376
 10
2048.703651475535
 20
38.80544578539701
 10
2048.71266440284
 20
38.74613063415393
 10
2048.719298147359
 20
38.68650250774323
 10
2048.723542096516
 20
38.62665679844702
 10
2048.725389460897
 20
38.56668924663411
 10
2048.725476880552
 20
38.55049507104673
  0
LWPOLYLINE
  5
465
330
71
100
AcDbEntity
  8
0
100
AcDbPolyline
 90
       41
 70
   128
 43
0.0
 10
2048.725476880552
 20
33.55049507104479
 10
2048.724277040544
 20
33.49051106976481
 10
2048.720679440006
 20
33.4306230300909
 10
2048.714689834333
 20
33.37092676011128
 10
2048.706317805616
 20
33.3115177611233
 10
2048.695576747314
 20
33.25249107485206
 10
2048.682483842831
 20
33.19394113140396
 10
2048.667060038019
 20
33.13596159819856
 10
2048.649330007676
 20
33.0786452301207
 10
2048.62932211607
 20
33.02208372113194
 10
2048.607068371557
 20
32.96636755758163
 10
2048.582604375383
 20
32.9115858734458
 10
2048.555969264721
 20
32.85782630773247
 10
2048.527205650069
 20
32.8051748642792
 10
2048.496359547073
 20
32.75371577416348
 10
2048.463480302917
 20
32.70353136095213
 10
2048.428620517379
 20
32.65470190900106
 10
2048.391835958679
 20
32.60730553501709
 10
2048.353185474264
 20
32.56141806308761
 10
2048.312730896664
 20
32.51711290337903
 10
2048.270536944573
 20
32.47446093469547
 10
2048.226671119314
 20
32.43353039108848
 10
2048.18120359685
 20
32.39438675269628
 10
2048.134207115518
 20
32.35709264099012
 10
2048.085756859661
 20
32.32170771859313
 10
2048.035930339355
 20
32.28828859383283
 10
2047.984807266401
 20
32.25688873017976
 10
2047.932469426813
 20
32.2275583607173
 10
2047.879000549967
 20
32.20034440778005
 10
2047.824486174662
 20
32.17529040788696
 10
2047.769013512267
 20
32.15243644209386
 10
2047.712671307211
 20
32.13181907187049
 10
2047.655549695001
 20
32.11347128061073
 10
2047.597740058031
 20
32.09742242086736
 10
2047.53933487939
 20
32.08369816739173
 10
2047.480427594903
 20
32.07232047606197
 10
2047.42111244366
 20
32.06330754875722
 10
2047.361484317249
 20
32.05667380423836
 10
2047.301638607953
 20
32.05242985508125
 10
2047.24167105614
 20
32.05058249069975
 10
2047.225476880552
 20
32.05049507104462
  0
LWPOLYLINE
  5
466
330
71
100
AcDbEntity
  8
0
100
AcDbPolyline
 90
        5
 70
   128
 43
0.0
 10
2048.725476880552
 20
38.55049507104673
 10
2048.725476880552
 20
38.5484953376992
 10
2048.725476880552
 20
38.54249933680319
 10
2048.725476880552
 20
38.53251666068138
 10
2048.725476880552
 20
38.51856327948583
  0
LWPOLYLINE
  5
467
330
71
100
AcDbEntity
  8
0
100
AcDbPolyline
 90
        6
 70
   128
 43
0.0
 10
2048.725476880552
 20
33.58109654730782
 10
2048.725476880552
 20
33.57551382954353
 10
2048.725476880552
 20
33.56338531264612
 10
2048.725476880552
 20
33.55523564080681
 10
2048.725476880552
 20
33.55107785176239
 10
2048.725476880552
 20
33.55049507104479
  0
LWPOLYLINE
  5
468
330
71
100
AcDbEntity
  8
0
100
AcDbPolyline
 90
       48
 70
   128
 43
0.0
 10
2035.225476880552
 20
37.18438532275854
 10
2035.225476880552
 20
37.10524074056548
 10
2035.225476880552
 20
36.93975940108186
 10
2035.225476880552
 20
36.77285542836978
 10
2035.225476880552
 20
36.60479583318153
 10
2035.225476880552
 20
36.4358494750179
 10
2035.225476880552
 20
36.26628663201291
 10
2035.225476880552
 20
36.09637856854317
 10
2035.225476880552
 20
35.92639710126548
 10
2035.225476880552
 20
35.75661416426664
 10
2035.225476880552
 20
35.58730137402751
 10
2035.225476880552
 20
35.41872959489416
 10
2035.225476880552
 20
35.25116850575301
 10
2035.225476880552
 20
35.08488616860274
 10
2035.225476880552
 20
34.92014859971056
 10
2035.225476880552
 20
34.75721934404481
 10
2035.225476880552
 20
34.59635905365815
 10
2035.225476880552
 20
34.43782507070029
 10
2035.225476880552
 20
34.28187101572508
 10
2035.225476880552
 20
34.12874638195177
 10
2035.225476880552
 20
33.97869613613011
 10
2035.225476880552
 20
33.83196032664404
 10
2035.225476880552
 20
33.68877369948695
 10
2035.225476880552
 20
33.54936532271705
 10
2035.225476880552
 20
33.41395821999879
 10
2035.225476880552
 20
33.28276901381088
 10
2035.225476880552
 20
33.15600757889797
 10
2035.225476880552
 20
33.03387670651466
 10
2035.225476880552
 20
32.91657178000378
 10
2035.225476880552
 20
32.80428046222363
 10
2035.225476880552
 20
32.69718239532898
 10
2035.225476880552
 20
32.59544891338033
 10
2035.225476880552
 20
32.49924276824652
 10
2035.225476880552
 20
32.40871786923731
 10
2035.225476880552
 20
32.32401903687998
 10
2035.225476880552
 20
32.24528177123779
 10
2035.225476880552
 20
32.17263203514011
 10
2035.225476880552
 20
32.10618605266633
 10
2035.225476880552
 20
32.0460501232144
 10
2035.225476880552
 20
31.99232045144311
 10
2035.225476880552
 20
31.94508299336514
 10
2035.225476880552
 20
31.90441331883716
 10
2035.225476880552
 20
31.87037649066223
 10
2035.225476880552
 20
31.84302696050497
 10
2035.225476880552
 20
31.82240848177918
 10
2035.225476880552
 20
31.80855403965257
 10
2035.225476880552
 20
31.80148579827699
 10
2035.225476880552
 20
31.80049507105696
  0
LWPOLYLINE
  5
469
330
71
100
AcDbEntity
  8
0
100
AcDbPolyline
 90
       47
 70
   128
 43
0.0
 10
2040.225476880552
 20
31.80049507105696
 10
2040.225476880552
 20
31.80389461774775
 10
2040.225476880552
 20
31.8140878192707
 10
2040.225476880552
 20
31.83105836867787
 10
2040.225476880552
 20
31.85477911671036
 10
2040.225476880552
 20
31.88521211523141
 10
2040.225476880552
 20
31.92230867793535
 10
2040.225476880552
 20
31.96600945823576
 10
2040.225476880552
 20
32.01624454420591
 10
2040.225476880552
 20
32.07293357042488
 10
2040.225476880552
 20
32.13598584654363
 10
2040.225476880552
 20
32.20530050237107
 10
2040.225476880552
 20
32.28076664924379
 10
2040.225476880552
 20
32.36226355742542
 10
2040.225476880552
 20
32.44966084924823
 10
2040.225476880552
 20
32.54281870768898
 10
2040.225476880552
 20
32.64158810004648
 10
2040.225476880552
 20
32.74581101636302
 10
2040.225476880552
 20
32.85532072220542
 10
2040.225476880552
 20
32.96994202540498
 10
2040.225476880552
 20
33.08949155632809
 10
2040.225476880552
 20
33.21377806122774
 10
2040.225476880552
 20
33.34260270820891
 10
2040.225476880552
 20
33.47575940531778
 10
2040.225476880552
 20
33.61303513024421
 10
2040.225476880552
 20
33.75421027111207
 10
2040.225476880552
 20
33.89905897781205
 10
2040.225476880552
 20
34.04734952331267
 10
2040.225476880552
 20
34.1988446743747
 10
2040.225476880552
 20
34.35330207107365
 10
2040.225476880552
 20
34.5104746145239
 10
2040.225476880552
 20
34.6701108621844
 10
2040.225476880552
 20
34.83195543011305
 10
2040.225476880552
 20
34.99574940152604
 10
2040.225476880552
 20
35.16123074100949
 10
2040.225476880552
 20
35.32813471372175
 10
2040.225476880552
 20
35.49619430891016
 10
2040.225476880552
 20
35.66514066707345
 10
2040.225476880552
 20
35.83470351007861
 10
2040.225476880552
 20
36.00461157354835
 10
2040.225476880552
 20
36.17459304082587
 10
2040.225476880552
 20
36.34437597782471
 10
2040.225476880552
 20
36.51368876806384
 10
2040.225476880552
 20
36.68226054719736
 10
2040.225476880552
 20
36.84982163633851
 10
2040.225476880552
 20
37.01610397348878
 10
2040.225476880552
 20
37.18084154238096
  0
LINE
  5
46A
330
71
100
AcDbEntity
  8
0
100
AcDbLine
 10
2040.225476880552
 20
40.29499437299715
 30
0.0
 11
2040.225476880552
 21
40.29950434381452
 31
0.0
  0
LWPOLYLINE
  5
46B
330
71
100
AcDbEntity
  8
0
100
AcDbPolyline
 90
       80
 70
   128
 43
0.0
 10
2040.225476880552
 20
31.80049507105696
 10
2040.223477147204
 20
31.7005217355902
 10
2040.217481146309
 20
31.60070833613395
 10
2040.207498470187
 20
31.5012145528346
 10
2040.193545088992
 20
31.4021995545213
 10
2040.175643325155
 20
31.30382174406918
 10
2040.153821817682
 20
31.20623850498913
 10
2040.128115476329
 20
31.10960594964655
 10
2040.098565425759
 20
31.01407866951672
 10
2040.065218939747
 20
30.9198094878692
 10
2040.028129365559
 20
30.82694921528509
 10
2039.987356038603
 20
30.73564640839197
 10
2039.9429641875
 20
30.64604713220331
 10
2039.895024829746
 20
30.55829472644757
 10
2039.843614658086
 20
30.47252957625455
 10
2039.788815917827
 20
30.38888888756935
 10
2039.730716275263
 20
30.30750646765103
 10
2039.66940867743
 20
30.22851251101082
 10
2039.604991203404
 20
30.1520333911281
 10
2039.537566907405
 20
30.07819145828057
 10
2039.46724365392
 20
30.00710484380795
 10
2039.394133945156
 20
29.93888727112983
 10
2039.318354741049
 20
29.87364787380967
 10
2039.24002727216
 20
29.81149102096606
 10
2039.159276845734
 20
29.75251615030425
 10
2039.076232645223
 20
29.69681760903723
 10
2038.991027523634
 20
29.64448450294862
 10
2038.903797790986
 20
29.59560055384452
 10
2038.814682996244
 20
29.55024396561567
 10
2038.723825704068
 20
29.50848729912735
 10
2038.631371266744
 20
29.47039735613885
 10
2038.537467591649
 20
29.4360350724329
 10
2038.442264904632
 20
29.40545542033385
 10
2038.345915509683
 20
29.37870732076106
 10
2038.248573545281
 20
29.35583356496869
 10
2038.150394737803
 20
29.33687074608577
 10
2038.051536152398
 20
29.32184920057779
 10
2037.952155941713
 20
29.31079295971279
 10
2037.852413092887
 20
29.30371971111799
 10
2037.752467173198
 20
29.30064077048189
 10
2037.652478074799
 20
29.30156106345311
 10
2037.552605758917
 20
29.30647911775884
 10
2037.453009999953
 20
29.31538706556177
 10
2037.353850129874
 20
29.32827065604517
 10
2037.25528478332
 20
29.34510927821282
 10
2037.15747164382
 20
29.36587599386155
 10
2037.06056719153
 20
29.39053758067593
 10
2036.964726452902
 20
29.41905458537809
 10
2036.870102752675
 20
29.4513813868436
 10
2036.776847468582
 20
29.48746626908644
 10
2036.685109789185
 20
29.52725150399272
 10
2036.5950364752
 20
29.57067344367345
 10
2036.506771624717
 20
29.61766262228811
 10
2036.420456442666
 20
29.66814386717476
 10
2036.336229014926
 20
29.72203641911011
 10
2036.254224087414
 20
29.77925406150797
 10
2036.174572850521
 20
29.83970525834593
 10
2036.097402729233
 20
29.90329330060461
 10
2036.022837179285
 20
29.96991646098127
 10
2035.950995489647
 20
30.03946815663136
 10
2035.881992591699
 20
30.11183711967908
 10
2035.815938875358
 20
30.18690757522108
 10
2035.752940012478
 20
30.26455942654263
 10
2035.693096787802
 20
30.34466844724671
 10
2035.636504937724
 20
30.42710647998911
 10
2035.583254997129
 20
30.51174164150325
 10
2035.533432154567
 20
30.59843853358529
 10
2035.487116115954
 20
30.68705845970237
 10
2035.444380977073
 20
30.77745964687682
 10
2035.405295105029
 20
30.86949747249434
 10
2035.36992102888
 20
30.96302469566734
 10
2035.338315339603
 20
31.0578916927899
 10
2035.310528599557
 20
31.1539466969041
 10
2035.2866052616
 20
31.25103604049417
 10
2035.266583597968
 20
31.34900440132145
 10
2035.250495639051
 20
31.44769505090732
 10
2035.238367122154
 20
31.54695010526547
 10
2035.230217450314
 20
31.64661077748201
 10
2035.22605966127
 20
31.74651763174171
 10
2035.225476880552
 20
31.80049507105696
  0
LWPOLYLINE
  5
46C
330
71
100
AcDbEntity
  8
0
100
AcDbPolyline
 90
        5
 70
   128
 43
0.0
 10
2035.225476880552
 20
31.80049507105696
 10
2035.225476880552
 20
31.80389461774775
 10
2035.225476880552
 20
31.8140878192707
 10
2035.225476880552
 20
31.83105836867787
 10
2035.225476880552
 20
31.8383133483905
  0
LINE
  5
46D
330
71
100
AcDbEntity
  8
0
100
AcDbLine
 10
2035.225476880552
 20
40.2956016635026
 30
0.0
 11
2035.225476880552
 21
40.29950434381452
 31
0.0
  0
LWPOLYLINE
  5
46E
330
71
100
AcDbEntity
  8
0
100
AcDbPolyline
 90
        5
 70
   128
 43
0.0
 10
2040.225476880552
 20
31.83964850480175
 10
2040.225476880552
 20
31.82240848177918
 10
2040.225476880552
 20
31.80855403965257
 10
2040.225476880552
 20
31.80148579827699
 10
2040.225476880552
 20
31.80049507105696
  0
LINE
  5
46F
330
71
100
AcDbEntity
  8
0
100
AcDbLine
 10
2040.225476880552
 20
43.50049507104972
 30
0.0
 11
2040.225476880552
 21
56.05049507104665
 31
0.0
  0
LINE
  5
470
330
71
100
AcDbEntity
  8
0
100
AcDbLine
 10
2035.225476880552
 20
56.05049507104665
 30
0.0
 11
2035.225476880552
 21
43.50049507104972
 31
0.0
  0
LWPOLYLINE
  5
471
330
71
100
AcDbEntity
  8
0
100
AcDbPolyline
 90
       41
 70
   128
 43
0.0
 10
2040.225476880552
 20
56.05049507104665
 10
2040.225476880552
 20
56.21045240779324
 10
2040.225476880552
 20
56.37015384692323
 10
2040.225476880552
 20
56.5293439002022
 10
2040.225476880552
 20
56.68776789750364
 10
2040.225476880552
 20
56.84517239422699
 10
2040.225476880552
 20
57.00130557675515
 10
2040.225476880552
 20
57.15591766530297
 10
2040.225476880552
 20
57.30876131351118
 10
2040.225476880552
 20
57.45959200414694
 10
2040.225476880552
 20
57.60816844028102
 10
2040.225476880552
 20
57.75425293131047
 10
2040.225476880552
 20
57.89761177321264
 10
2040.225476880552
 20
58.03801562242146
 10
2040.225476880552
 20
58.17523986273005
 10
2040.225476880552
 20
58.30906496462677
 10
2040.225476880552
 20
58.43927683649615
 10
2040.225476880552
 20
58.56566716712052
 10
2040.225476880552
 20
58.68803375893254
 10
2040.225476880552
 20
58.80618085148881
 10
2040.225476880552
 20
58.91991943464467
 10
2040.225476880552
 20
59.0290675509301
 10
2040.225476880552
 20
59.13345058664248
 10
2040.225476880552
 20
59.23290155119207
 10
2040.225476880552
 20
59.3272613442507
 10
2040.225476880552
 20
59.41637901027821
 10
2040.225476880552
 20
59.50011198001988
 10
2040.225476880552
 20
59.57832629858643
 10
2040.225476880552
 20
59.6508968397527
 10
2040.225476880552
 20
59.71770750613377
 10
2040.225476880552
 20
59.77865141491554
 10
2040.225476880552
 20
59.83363106884468
 10
2040.225476880552
 20
59.88255851220349
 10
2040.225476880552
 20
59.92535547151964
 10
2040.225476880552
 20
59.96195348078799
 10
2040.225476880552
 20
59.99229399100051
 10
2040.225476880552
 20
60.01632846381323
 10
2040.225476880552
 20
60.03401844919729
 10
2040.225476880552
 20
60.045335646949
 10
2040.225476880552
 20
60.05026195196641
 10
2040.225476880552
 20
60.05049507104661
  0
LWPOLYLINE
  5
472
330
71
100
AcDbEntity
  8
0
100
AcDbPolyline
 90
       41
 70
   128
 43
0.0
 10
2035.225476880552
 20
60.05049507104661
 10
2035.225476880552
 20
60.04729549769035
 10
2035.225476880552
 20
60.0377018962571
 10
2035.225476880552
 20
60.02172961446206
 10
2035.225476880552
 20
59.99940420454919
 10
2035.225476880552
 20
59.97076138241157
 10
2035.225476880552
 20
59.93584697045482
 10
2035.225476880552
 20
59.89471682428972
 10
2035.225476880552
 20
59.84743674337636
 10
2035.225476880552
 20
59.7940823657584
 10
2035.225476880552
 20
59.7347390470581
 10
2035.225476880552
 20
59.6695017239266
 10
2035.225476880552
 20
59.59847476216367
 10
2035.225476880552
 20
59.52177178975728
 10
2035.225476880552
 20
59.4395155151002
 10
2035.225476880552
 20
59.35183753068531
 10
2035.225476880552
 20
59.25887810258382
 10
2035.225476880552
 20
59.16078594605021
 10
2035.225476880552
 20
59.05771798761015
 10
2035.225476880552
 20
58.94983911401027
 10
2035.225476880552
 20
58.83732190843534
 10
2035.225476880552
 20
58.72034637441196
 10
2035.225476880552
 20
58.59909964784105
 10
2035.225476880552
 20
58.47377569762045
 10
2035.225476880552
 20
58.34457501533637
 10
2035.225476880552
 20
58.21170429451917
 10
2035.225476880552
 20
58.07537609997762
 10
2035.225476880552
 20
57.93580852774158
 10
2035.225476880552
 20
57.79322485615352
 10
2035.225476880552
 20
57.64785318867154
 10
2035.225476880552
 20
57.49992608895333
 10
2035.225476880552
 20
57.3496802088017
 10
2035.225476880552
 20
57.19735590957452
 10
2035.225476880552
 20
57.0431968776561
 10
2035.225476880552
 20
56.88744973461222
 10
2035.225476880552
 20
56.73036364264742
 10
2035.225476880552
 20
56.57218990599915
 10
2035.225476880552
 20
56.41318156890385
 10
2035.225476880552
 20
56.25359301078093
 10
2035.225476880552
 20
56.09367953927971
 10
2035.225476880552
 20
56.05049507104665
  0
LWPOLYLINE
  5
473
330
71
100
AcDbEntity
  8
0
100
AcDbPolyline
 90
        3
 70
   128
 43
0.0
 10
2040.225138090412
 20
60.03355782271153
 10
2040.223477147204
 20
59.95052173558002
 10
2040.222885178357
 20
59.94066743034311
  0
LWPOLYLINE
  5
474
330
71
100
AcDbEntity
  8
0
100
AcDbPolyline
 90
       41
 70
   128
 43
0.0
 10
2040.225476880552
 20
64.05049507104656
 10
2040.225476880552
 20
63.89053773430013
 10
2040.225476880552
 20
63.7308362951698
 10
2040.225476880552
 20
63.57164624189084
 10
2040.225476880552
 20
63.41322224458973
 10
2040.225476880552
 20
63.25581774786638
 10
2040.225476880552
 20
63.09968456533805
 10
2040.225476880552
 20
62.94507247679007
 10
2040.225476880552
 20
62.79222882858221
 10
2040.225476880552
 20
62.64139813794628
 10
2040.225476880552
 20
62.49282170181203
 10
2040.225476880552
 20
62.34673721078256
 10
2040.225476880552
 20
62.20337836888075
 10
2040.225476880552
 20
62.06297451967157
 10
2040.225476880552
 20
61.925750279363
 10
2040.225476880552
 20
61.79192517746646
 10
2040.225476880552
 20
61.66171330559707
 10
2040.225476880552
 20
61.53532297497271
 10
2040.225476880552
 20
61.41295638316068
 10
2040.225476880552
 20
61.29480929060441
 10
2040.225476880552
 20
61.18107070744838
 10
2040.225476880552
 20
61.07192259116311
 10
2040.225476880552
 20
60.96753955545057
 10
2040.225476880552
 20
60.86808859090115
 10
2040.225476880552
 20
60.77372879784253
 10
2040.225476880552
 20
60.68461113181484
 10
2040.225476880552
 20
60.60087816207317
 10
2040.225476880552
 20
60.52266384350678
 10
2040.225476880552
 20
60.45009330234051
 10
2040.225476880552
 20
60.38328263595964
 10
2040.225476880552
 20
60.32233872717768
 10
2040.225476880552
 20
60.26735907324836
 10
2040.225476880552
 20
60.21843162988972
 10
2040.225476880552
 20
60.17563467057339
 10
2040.225476880552
 20
60.1390366613054
 10
2040.225476880552
 20
60.10869615109271
 10
2040.225476880552
 20
60.08466167827982
 10
2040.225476880552
 20
60.06697169289612
 10
2040.225476880552
 20
60.05565449514421
 10
2040.225476880552
 20
60.05072819012662
 10
2040.225476880552
 20
60.05049507104661
  0
LWPOLYLINE
  5
475
330
71
100
AcDbEntity
  8
0
100
AcDbPolyline
 90
        4
 70
   128
 43
0.0
 10
2035.228877210019
 20
59.92108138861641
 10
2035.228701520614
 20
59.92355885871262
 10
2035.225622579977
 20
60.02350477840092
 10
2035.225491781311
 20
60.04773475922927
  0
LWPOLYLINE
  5
476
330
71
100
AcDbEntity
  8
0
100
AcDbPolyline
 90
       41
 70
   128
 43
0.0
 10
2035.225476880552
 20
60.05049507104661
 10
2035.225476880552
 20
60.05369464440271
 10
2035.225476880552
 20
60.06328824583611
 10
2035.225476880552
 20
60.07926052763099
 10
2035.225476880552
 20
60.1015859375442
 10
2035.225476880552
 20
60.13022875968164
 10
2035.225476880552
 20
60.1651431716386
 10
2035.225476880552
 20
60.20627331780349
 10
2035.225476880552
 20
60.25355339871686
 10
2035.225476880552
 20
60.30690777633497
 10
2035.225476880552
 20
60.36625109503511
 10
2035.225476880552
 20
60.43148841816678
 10
2035.225476880552
 20
60.50251537992954
 10
2035.225476880552
 20
60.57921835233611
 10
2035.225476880552
 20
60.66147462699285
 10
2035.225476880552
 20
60.74915261140791
 10
2035.225476880552
 20
60.84211203950957
 10
2035.225476880552
 20
60.94020419604282
 10
2035.225476880552
 20
61.04327215448289
 10
2035.225476880552
 20
61.15115102808295
 10
2035.225476880552
 20
61.26366823365804
 10
2035.225476880552
 20
61.38064376768141
 10
2035.225476880552
 20
61.50189049425232
 10
2035.225476880552
 20
61.62721444447277
 10
2035.225476880552
 20
61.75641512675667
 10
2035.225476880552
 20
61.88928584757404
 10
2035.225476880552
 20
62.02561404211542
 10
2035.225476880552
 20
62.16518161435179
 10
2035.225476880552
 20
62.30776528593986
 10
2035.225476880552
 20
62.4531369534215
 10
2035.225476880552
 20
62.60106405313988
 10
2035.225476880552
 20
62.7513099332915
 10
2035.225476880552
 20
62.90363423251886
 10
2035.225476880552
 20
63.05779326443712
 10
2035.225476880552
 20
63.21354040748097
 10
2035.225476880552
 20
63.37062649944562
 10
2035.225476880552
 20
63.52880023609407
 10
2035.225476880552
 20
63.68780857318938
 10
2035.225476880552
 20
63.84739713131243
 10
2035.225476880552
 20
64.0073106028135
 10
2035.225476880552
 20
64.05049507104656
  0
LINE
  5
477
330
71
100
AcDbEntity
  8
0
100
AcDbLine
 10
2040.225476880552
 20
64.05049507104656
 30
0.0
 11
2040.225476880552
 21
161.925495071047
 31
0.0
  0
LINE
  5
478
330
71
100
AcDbEntity
  8
0
100
AcDbLine
 10
2035.225476880552
 20
161.925495071047
 30
0.0
 11
2035.225476880552
 21
164.3004950710468
 31
0.0
  0
LINE
  5
479
330
71
100
AcDbEntity
  8
0
100
AcDbLine
 10
2035.225476880552
 20
164.3004950710468
 30
0.0
 11
2035.225476880552
 21
90.6754950710466
 31
0.0
  0
LINE
  5
47A
330
71
100
AcDbEntity
  8
0
100
AcDbLine
 10
2035.225476880552
 20
86.67549507104649
 30
0.0
 11
2035.225476880552
 21
64.05049507104671
 31
0.0
  0
LINE
  5
47F
330
71
100
AcDbEntity
  8
0
100
AcDbLine
 10
2040.225476880552
 20
36.05049507104627
 30
0.0
 11
2040.225476880552
 21
43.50049507104631
 31
0.0
  0
LINE
  5
480
330
71
100
AcDbEntity
  8
0
100
AcDbLine
 10
2035.225476880552
 20
43.50049507104631
 30
0.0
 11
2035.225476880552
 21
36.05049507104627
 31
0.0
  0
LINE
  5
48F
330
71
100
AcDbEntity
  8
0
100
AcDbLine
 10
1965.983721406035
 20
183.7955304589535
 30
0.0
 11
1965.983721406035
 21
183.5504950710467
 31
0.0
  0
LINE
  5
490
330
71
100
AcDbEntity
  8
0
100
AcDbLine
 10
1974.983721406035
 20
183.5504950710467
 30
0.0
 11
1974.983721406035
 21
183.7955304589535
 31
0.0
  0
LINE
  5
491
330
71
100
AcDbEntity
  8
0
100
AcDbLine
 10
1920.975476880552
 20
207.3004950710437
 30
0.0
 11
2028.725476880552
 21
207.3004950710437
 31
0.0
  0
LINE
  5
492
330
71
100
AcDbEntity
  8
0
100
AcDbLine
 10
2028.725476880552
 20
183.7955304589533
 30
0.0
 11
1920.975476880552
 21
183.7955304589533
 31
0.0
  0
LINE
  5
493
330
71
100
AcDbEntity
  8
0
100
AcDbLine
 10
2028.725476880552
 20
207.3004950710437
 30
0.0
 11
2028.725476880552
 21
183.7955304589533
 31
0.0
  0
LINE
  5
494
330
71
100
AcDbEntity
  8
0
100
AcDbLine
 10
1920.975476880552
 20
183.7955304589533
 30
0.0
 11
1920.975476880552
 21
207.3004950710437
 31
0.0
  0
LWPOLYLINE
  5
495
330
71
100
AcDbEntity
  8
0
100
AcDbPolyline
 90
       41
 70
   128
 43
0.0
 10
1931.850476880552
 20
207.3004950710459
 10
1931.870471547646
 20
207.3008950177155
 10
1931.890434227537
 20
207.3020942178945
 10
1931.910332984197
 20
207.3040907531192
 10
1931.93013598386
 20
207.306881429358
 10
1931.949811545949
 20
207.3104617821253
 10
1931.969328193765
 20
207.3148260836199
 10
1931.988654704834
 20
207.3199673518906
 10
1932.00776016086
 20
207.3258773620049
 10
1932.02661399719
 20
207.3325466592071
 10
1932.045186051707
 20
207.3399645740445
 10
1932.063446613085
 20
207.348119239436
 10
1932.081366468323
 20
207.3569976096563
 10
1932.098916949474
 20
207.3665854812071
 10
1932.116069979513
 20
207.3768675155392
 10
1932.132798117249
 20
207.3878272635911
 10
1932.149074601233
 20
207.3994471921038
 10
1932.164873392562
 20
207.4117087116704
 10
1932.180169216538
 20
207.4245922064755
 10
1932.194937603108
 20
207.4380770656756
 10
1932.209154926002
 20
207.4521417163723
 10
1932.222798440538
 20
207.4667636581254
 10
1932.235846320002
 20
207.4819194989466
 10
1932.24827769057
 20
207.4975849927243
 10
1932.260072664703
 20
207.5137350780099
 10
1932.271212372956
 20
207.530343918112
 10
1932.281678994174
 20
207.5473849424297
 10
1932.291455783994
 20
207.5648308889591
 10
1932.30052710164
 20
207.5826538479075
 10
1932.308878434938
 20
207.6008253063428
 10
1932.316496423536
 20
207.6193161938077
 10
1932.323368880277
 20
207.6380969288267
 10
1932.329484810697
 20
207.6571374662298
 10
1932.334834430611
 20
207.6764073452198
 10
1932.33940918177
 20
207.6958757381003
 10
1932.343201745546
 20
207.7155114995959
 10
1932.346206054648
 20
207.7352832166769
 10
1932.348417302821
 20
207.755159258814
 10
1932.34983195254
 20
207.7751078285792
 10
1932.350447740667
 20
207.7950970125167
 10
1932.350476880552
 20
207.800495071046
  0
LWPOLYLINE
  5
496
330
71
100
AcDbEntity
  8
0
100
AcDbPolyline
 90
       41
 70
   128
 43
0.0
 10
2017.350476880553
 20
207.800495071046
 10
2017.350876827222
 20
207.7805004039526
 10
2017.352076027401
 20
207.7605377240615
 10
2017.354072562625
 20
207.7406389674015
 10
2017.356863238864
 20
207.7208359677388
 10
2017.360443591632
 20
207.7011604056487
 10
2017.364807893126
 20
207.6816437578325
 10
2017.369949161397
 20
207.6623172467639
 10
2017.375859171511
 20
207.6432117907378
 10
2017.382528468713
 20
207.6243579544084
 10
2017.389946383551
 20
207.6057858998917
 10
2017.398101048943
 20
207.587525338513
 10
2017.406979419163
 20
207.5696054832753
 10
2017.416567290713
 20
207.552055002124
 10
2017.426849325046
 20
207.5349019720854
 10
2017.437809073097
 20
207.5181738343486
 10
2017.44942900161
 20
207.5018973503648
 10
2017.461690521177
 20
207.4860985590367
 10
2017.474574015982
 20
207.4708027350603
 10
2017.488058875182
 20
207.4560343484907
 10
2017.502123525879
 20
207.4418170255963
 10
2017.516745467632
 20
207.4281735110605
 10
2017.531901308453
 20
207.4151256315966
 10
2017.54756680223
 20
207.4026942610279
 10
2017.563716887516
 20
207.3908992868954
 10
2017.580325727618
 20
207.3797595786421
 10
2017.597366751936
 20
207.3692929574244
 10
2017.614812698465
 20
207.3595161676036
 10
2017.632635657414
 20
207.3504448499576
 10
2017.650807115849
 20
207.3420935166601
 10
2017.669298003314
 20
207.3344755280624
 10
2017.688078738333
 20
207.3276030713213
 10
2017.707119275736
 20
207.3214871409015
 10
2017.726389154726
 20
207.3161375209868
 10
2017.745857547606
 20
207.3115627698283
 10
2017.765493309102
 20
207.3077702060519
 10
2017.785265026184
 20
207.3047658969502
 10
2017.80514106832
 20
207.3025546487773
 10
2017.825089638086
 20
207.3011399990582
 10
2017.845078822023
 20
207.3005242109311
 10
2017.850476880552
 20
207.3004950710459
  0
LINE
  5
497
330
71
100
AcDbEntity
  8
0
100
AcDbLine
 10
2017.350476880553
 20
207.800495071046
 30
0.0
 11
2017.350476880553
 21
222.3004950710458
 31
0.0
  0
LINE
  5
498
330
71
100
AcDbEntity
  8
0
100
AcDbLine
 10
1932.350476880552
 20
222.3004950710458
 30
0.0
 11
1932.350476880552
 21
207.800495071046
 31
0.0
  0
LINE
  5
499
330
71
100
AcDbEntity
  8
0
100
AcDbLine
 10
2018.850476880553
 20
222.3004950710459
 30
0.0
 11
2018.850476880553
 21
222.550495071046
 31
0.0
  0
LINE
  5
49A
330
71
100
AcDbEntity
  8
0
100
AcDbLine
 10
1930.850476880552
 20
222.550495071046
 30
0.0
 11
1930.850476880552
 21
222.3004950710459
 31
0.0
  0
LINE
  5
49B
330
71
100
AcDbEntity
  8
0
100
AcDbLine
 10
2018.850476880553
 20
222.550495071046
 30
0.0
 11
1977.850476880552
 21
230.050495071046
 31
0.0
  0
LINE
  5
49C
330
71
100
AcDbEntity
  8
0
100
AcDbLine
 10
1971.850476880552
 20
230.050495071046
 30
0.0
 11
1930.850476880552
 21
222.550495071046
 31
0.0
  0
LINE
  5
49D
330
71
100
AcDbEntity
  8
0
100
AcDbLine
 10
2018.850476880553
 20
222.3004950710458
 30
0.0
 11
1930.850476880552
 21
222.3004950710458
 31
0.0
  0
LINE
  5
49E
330
71
100
AcDbEntity
  8
0
100
AcDbLine
 10
2018.850476880553
 20
222.5504950710458
 30
0.0
 11
1930.850476880552
 21
222.5504950710458
 31
0.0
  0
LINE
  5
49F
330
71
100
AcDbEntity
  8
0
100
AcDbLine
 10
1977.850476880552
 20
230.0504950710458
 30
0.0
 11
1971.850476880552
 21
230.0504950710458
 31
0.0
  0
LINE
  5
4A0
330
71
100
AcDbEntity
  8
0
100
AcDbLine
 10
1920.975476880552
 20
183.5504950710465
 30
0.0
 11
2028.725476880552
 21
183.5504950710465
 31
0.0
  0
LINE
  5
4A1
330
71
100
AcDbEntity
  8
0
100
AcDbLine
 10
2028.725476880552
 20
74.67549507104648
 30
0.0
 11
1920.975476880552
 21
74.67549507104648
 31
0.0
  0
LINE
  5
4A2
330
71
100
AcDbEntity
  8
0
100
AcDbLine
 10
1920.975476880552
 20
74.67549507104648
 30
0.0
 11
1920.975476880552
 21
183.5504950710465
 31
0.0
  0
LINE
  5
4A3
330
71
100
AcDbEntity
  8
0
100
AcDbLine
 10
1982.350476880552
 20
160.9254950710495
 30
0.0
 11
2016.850476880552
 21
160.9254950710495
 31
0.0
  0
LINE
  5
4A4
330
71
100
AcDbEntity
  8
0
100
AcDbLine
 10
2016.850476880552
 20
160.9254950710495
 30
0.0
 11
2016.850476880552
 21
95.4254950710492
 31
0.0
  0
LINE
  5
4A5
330
71
100
AcDbEntity
  8
0
100
AcDbLine
 10
2016.850476880552
 20
95.4254950710492
 30
0.0
 11
1982.350476880552
 21
95.4254950710492
 31
0.0
  0
LINE
  5
4A6
330
71
100
AcDbEntity
  8
0
100
AcDbLine
 10
1982.350476880552
 20
95.4254950710492
 30
0.0
 11
1982.350476880552
 21
160.9254950710495
 31
0.0
  0
LINE
  5
4A7
330
71
100
AcDbEntity
  8
0
100
AcDbLine
 10
1932.850476880552
 20
95.4254950710492
 30
0.0
 11
1932.850476880552
 21
160.9254950710495
 31
0.0
  0
LINE
  5
4A8
330
71
100
AcDbEntity
  8
0
100
AcDbLine
 10
1932.850476880552
 20
160.9254950710495
 30
0.0
 11
1967.350476880552
 21
160.9254950710495
 31
0.0
  0
LINE
  5
4A9
330
71
100
AcDbEntity
  8
0
100
AcDbLine
 10
1967.350476880552
 20
160.9254950710495
 30
0.0
 11
1967.350476880552
 21
95.4254950710492
 31
0.0
  0
LINE
  5
4AA
330
71
100
AcDbEntity
  8
0
100
AcDbLine
 10
1967.350476880552
 20
95.4254950710492
 30
0.0
 11
1932.850476880552
 21
95.4254950710492
 31
0.0
  0
LINE
  5
4AB
330
71
100
AcDbEntity
  8
0
100
AcDbLine
 10
2028.725476880552
 20
74.67549507104648
 30
0.0
 11
2028.725476880552
 21
183.5504950710465
 31
0.0
  0
LINE
  5
4AF
330
71
100
AcDbEntity
  8
0
100
AcDbLine
 10
1920.975476880554
 20
74.67549507104647
 30
0.0
 11
2028.725476880554
 21
74.67549507104647
 31
0.0
  0
LINE
  5
4B0
330
71
100
AcDbEntity
  8
0
100
AcDbLine
 10
2028.725476880554
 20
29.8004950710465
 30
0.0
 11
1920.975476880554
 21
29.8004950710465
 31
0.0
  0
LINE
  5
4B1
330
71
100
AcDbEntity
  8
0
100
AcDbLine
 10
2028.725476880554
 20
74.67549507104647
 30
0.0
 11
2028.725476880554
 21
68.8004950710462
 31
0.0
  0
LINE
  5
4B2
330
71
100
AcDbEntity
  8
0
100
AcDbLine
 10
2028.725476880554
 20
46.30049507104618
 30
0.0
 11
2028.725476880554
 21
29.8004950710465
 31
0.0
  0
LINE
  5
4B3
330
71
100
AcDbEntity
  8
0
100
AcDbLine
 10
1920.975476880554
 20
68.80049507104654
 30
0.0
 11
1920.975476880554
 21
74.67549507104647
 31
0.0
  0
LINE
  5
4B4
330
71
100
AcDbEntity
  8
0
100
AcDbLine
 10
1920.975476880554
 20
68.80049507104654
 30
0.0
 11
2028.725476880554
 21
68.8004950710462
 31
0.0
  0
LINE
  5
4B5
330
71
100
AcDbEntity
  8
0
100
AcDbLine
 10
2028.725476880554
 20
46.30049507104618
 30
0.0
 11
1920.975476880554
 21
46.30049507104653
 31
0.0
  0
LINE
  5
4B6
330
71
100
AcDbEntity
  8
0
100
AcDbLine
 10
1920.975476880554
 20
29.8004950710465
 30
0.0
 11
1920.975476880554
 21
46.30049507104653
 31
0.0
  0
LINE
  5
4B7
330
71
100
AcDbEntity
  8
0
100
AcDbLine
 10
2027.725476880554
 20
68.8004950710462
 30
0.0
 11
2027.725476880554
 21
46.3004950710462
 31
0.0
  0
LINE
  5
4B8
330
71
100
AcDbEntity
  8
0
100
AcDbLine
 10
2026.350476880554
 20
68.80049507104621
 30
0.0
 11
2026.350476880554
 21
46.3004950710462
 31
0.0
  0
LINE
  5
4B9
330
71
100
AcDbEntity
  8
0
100
AcDbLine
 10
2022.975476880555
 20
68.80049507104621
 30
0.0
 11
2022.975476880554
 21
46.30049507104621
 31
0.0
  0
LINE
  5
4BB
330
71
100
AcDbEntity
  8
0
100
AcDbLine
 10
1976.600476880555
 20
68.80049507104636
 30
0.0
 11
1976.600476880555
 21
46.30049507104636
 31
0.0
  0
LINE
  5
4BD
330
71
100
AcDbEntity
  8
0
100
AcDbLine
 10
1973.100476880555
 20
46.30049507104637
 30
0.0
 11
1973.100476880555
 21
68.80049507104638
 31
0.0
  0
LINE
  5
4C0
330
71
100
AcDbEntity
  8
0
100
AcDbLine
 10
1926.725476880554
 20
68.80049507104653
 30
0.0
 11
1926.725476880554
 21
46.3004950710465
 31
0.0
  0
LINE
  5
4C1
330
71
100
AcDbEntity
  8
0
100
AcDbLine
 10
1923.350476880554
 20
68.80049507104653
 30
0.0
 11
1923.350476880554
 21
46.30049507104653
 31
0.0
  0
LINE
  5
4C2
330
71
100
AcDbEntity
  8
0
100
AcDbLine
 10
1921.975476880554
 20
68.80049507104653
 30
0.0
 11
1921.975476880554
 21
46.30049507104653
 31
0.0
  0
ARC
  5
4C3
330
71
100
AcDbEntity
  8
0
100
AcDbCircle
 10
2004.725476880551
 20
195.425495071048
 30
0.0
 40
8.25
100
AcDbArc
 50
179.9999999999996
 51
359.9999999999988
  0
ARC
  5
4C4
330
71
100
AcDbEntity
  8
0
100
AcDbCircle
 10
2004.725476880551
 20
195.425495071048
 30
0.0
 40
8.25
100
AcDbArc
 50
359.9999999999994
 51
179.9999999999996
  0
ARC
  5
4C5
330
71
100
AcDbEntity
  8
0
100
AcDbCircle
 10
2004.725476880551
 20
195.425495071048
 30
0.0
 40
7.687500000000007
100
AcDbArc
 50
0.0000000000006107
 51
180.0
  0
ARC
  5
4C6
330
71
100
AcDbEntity
  8
0
100
AcDbCircle
 10
2004.725476880551
 20
195.425495071048
 30
0.0
 40
7.687499999999982
100
AcDbArc
 50
180.0000000000002
 51
359.9999999999996
  0
LINE
  5
4C7
330
71
100
AcDbEntity
  8
0
100
AcDbLine
 10
2009.847977654539
 20
192.9836392222506
 30
0.0
 11
2009.653037178349
 21
192.5347304920919
 31
0.0
  0
LINE
  5
4C8
330
71
100
AcDbEntity
  8
0
100
AcDbLine
 10
2009.653037178349
 20
192.5347304920919
 30
0.0
 11
2009.202144321206
 21
192.3774884285998
 31
0.0
  0
LINE
  5
4C9
330
71
100
AcDbEntity
  8
0
100
AcDbLine
 10
2009.202144321206
 20
192.3774884285998
 30
0.0
 11
2008.877615551365
 21
192.4417245397109
 31
0.0
  0
LINE
  5
4CA
330
71
100
AcDbEntity
  8
0
100
AcDbLine
 10
2008.877615551365
 20
192.4417245397109
 30
0.0
 11
2008.642124479936
 21
192.6344328730443
 31
0.0
  0
LINE
  5
4CB
330
71
100
AcDbEntity
  8
0
100
AcDbLine
 10
2008.642124479936
 20
192.6344328730443
 30
0.0
 11
2008.451152257714
 21
193.3923693809808
 31
0.0
  0
LINE
  5
4CC
330
71
100
AcDbEntity
  8
0
100
AcDbLine
 10
2008.451152257714
 20
193.3923693809808
 30
0.0
 11
2008.635180035492
 21
194.1562582698697
 31
0.0
  0
LINE
  5
4CD
330
71
100
AcDbEntity
  8
0
100
AcDbLine
 10
2008.635180035492
 20
194.1562582698697
 30
0.0
 11
2008.864966741841
 21
194.3459904127268
 31
0.0
  0
LINE
  5
4CE
330
71
100
AcDbEntity
  8
0
100
AcDbLine
 10
2008.864966741841
 20
194.3459904127268
 30
0.0
 11
2009.186271305333
 21
194.4092344603459
 31
0.0
  0
LINE
  5
4CF
330
71
100
AcDbEntity
  8
0
100
AcDbLine
 10
2009.186271305333
 20
194.4092344603459
 30
0.0
 11
2009.654525273587
 21
194.2658812857427
 31
0.0
  0
LINE
  5
4D0
330
71
100
AcDbEntity
  8
0
100
AcDbLine
 10
2009.654525273587
 20
194.2658812857427
 30
0.0
 11
2009.847977654539
 21
193.8407820793935
 31
0.0
  0
LINE
  5
4D1
330
71
100
AcDbEntity
  8
0
100
AcDbLine
 10
2009.847977654539
 20
193.8407820793935
 30
0.0
 11
2010.990834797396
 21
193.8407820793935
 31
0.0
  0
LINE
  5
4D2
330
71
100
AcDbEntity
  8
0
100
AcDbLine
 10
2010.990834797396
 20
193.8407820793935
 30
0.0
 11
2010.830616543428
 21
194.4884755317744
 31
0.0
  0
LINE
  5
4D3
330
71
100
AcDbEntity
  8
0
100
AcDbLine
 10
2010.830616543428
 20
194.4884755317744
 30
0.0
 11
2010.463057019618
 21
194.9672701746315
 31
0.0
  0
LINE
  5
4D4
330
71
100
AcDbEntity
  8
0
100
AcDbLine
 10
2010.463057019618
 20
194.9672701746315
 30
0.0
 11
2009.904029241841
 21
195.263029103203
 31
0.0
  0
LINE
  5
4D5
330
71
100
AcDbEntity
  8
0
100
AcDbLine
 10
2009.904029241841
 20
195.263029103203
 30
0.0
 11
2009.169406225968
 21
195.3616154127266
 31
0.0
  0
LINE
  5
4D6
330
71
100
AcDbEntity
  8
0
100
AcDbLine
 10
2009.169406225968
 20
195.3616154127266
 30
0.0
 11
2008.371415154539
 21
195.2296709682824
 31
0.0
  0
LINE
  5
4D7
330
71
100
AcDbEntity
  8
0
100
AcDbLine
 10
2008.371415154539
 20
195.2296709682824
 30
0.0
 11
2007.761172098984
 21
194.833837634949
 31
0.0
  0
LINE
  5
4D8
330
71
100
AcDbEntity
  8
0
100
AcDbLine
 10
2007.761172098984
 20
194.833837634949
 30
0.0
 11
2007.373895313269
 21
194.2098296984411
 31
0.0
  0
LINE
  5
4D9
330
71
100
AcDbEntity
  8
0
100
AcDbLine
 10
2007.373895313269
 20
194.2098296984411
 30
0.0
 11
2007.244803051364
 21
193.3933614444728
 31
0.0
  0
LINE
  5
4DA
330
71
100
AcDbEntity
  8
0
100
AcDbLine
 10
2007.244803051364
 20
193.3933614444728
 30
0.0
 11
2007.374515352952
 21
192.575033071457
 31
0.0
  0
LINE
  5
4DB
330
71
100
AcDbEntity
  8
0
100
AcDbLine
 10
2007.374515352952
 20
192.575033071457
 30
0.0
 11
2007.763652257714
 21
191.9513971587585
 31
0.0
  0
LINE
  5
4DC
330
71
100
AcDbEntity
  8
0
100
AcDbLine
 10
2007.763652257714
 20
191.9513971587585
 30
0.0
 11
2008.378979638666
 21
191.5566798968538
 31
0.0
  0
LINE
  5
4DD
330
71
100
AcDbEntity
  8
0
100
AcDbLine
 10
2008.378979638666
 20
191.5566798968538
 30
0.0
 11
2009.187263368825
 21
191.4251074762189
 31
0.0
  0
LINE
  5
4DE
330
71
100
AcDbEntity
  8
0
100
AcDbLine
 10
2009.187263368825
 20
191.4251074762189
 30
0.0
 11
2009.910353646603
 21
191.5272900159014
 31
0.0
  0
LINE
  5
4DF
330
71
100
AcDbEntity
  8
0
100
AcDbLine
 10
2009.910353646603
 20
191.5272900159014
 30
0.0
 11
2010.466529241841
 21
191.833837634949
 31
0.0
  0
LINE
  5
4E0
330
71
100
AcDbEntity
  8
0
100
AcDbLine
 10
2010.466529241841
 20
191.833837634949
 30
0.0
 11
2010.833964757714
 21
192.3256531111395
 31
0.0
  0
LINE
  5
4E1
330
71
100
AcDbEntity
  8
0
100
AcDbLine
 10
2010.833964757714
 20
192.3256531111395
 30
0.0
 11
2010.990834797396
 21
192.9836392222506
 31
0.0
  0
LINE
  5
4E2
330
71
100
AcDbEntity
  8
0
100
AcDbLine
 10
2010.990834797396
 20
192.9836392222506
 30
0.0
 11
2009.847977654539
 21
192.9836392222506
 31
0.0
  0
LINE
  5
4E3
330
71
100
AcDbEntity
  8
0
100
AcDbLine
 10
2002.626250276771
 20
193.7577134111738
 30
0.0
 11
2003.803829641851
 21
193.7577134111738
 31
0.0
  0
LINE
  5
4E4
330
71
100
AcDbEntity
  8
0
100
AcDbLine
 10
2003.803829641851
 20
193.7577134111738
 30
0.0
 11
2003.950655038676
 21
194.2656499191103
 31
0.0
  0
LINE
  5
4E5
330
71
100
AcDbEntity
  8
0
100
AcDbLine
 10
2003.950655038676
 20
194.2656499191103
 30
0.0
 11
2005.154028054549
 21
194.2656499191103
 31
0.0
  0
LINE
  5
4E6
330
71
100
AcDbEntity
  8
0
100
AcDbLine
 10
2005.154028054549
 20
194.2656499191103
 30
0.0
 11
2005.295893133914
 21
193.7577134111738
 31
0.0
  0
LINE
  5
4E7
330
71
100
AcDbEntity
  8
0
100
AcDbLine
 10
2005.295893133914
 20
193.7577134111738
 30
0.0
 11
2006.499266149787
 21
193.7577134111738
 31
0.0
  0
LINE
  5
4E8
330
71
100
AcDbEntity
  8
0
100
AcDbLine
 10
2006.499266149787
 20
193.7577134111738
 30
0.0
 11
2005.169901070422
 21
197.5672372206976
 31
0.0
  0
LINE
  5
4E9
330
71
100
AcDbEntity
  8
0
100
AcDbLine
 10
2005.169901070422
 20
197.5672372206976
 30
0.0
 11
2003.940734403755
 21
197.5672372206976
 31
0.0
  0
LINE
  5
4EA
330
71
100
AcDbEntity
  8
0
100
AcDbLine
 10
2003.940734403755
 20
197.5672372206976
 30
0.0
 11
2002.626250276771
 21
193.7577134111738
 31
0.0
  0
LINE
  5
4EB
330
71
100
AcDbEntity
  8
0
100
AcDbLine
 10
2004.170893133914
 20
195.0910467445071
 30
0.0
 11
2004.556805832327
 21
196.3946181730786
 31
0.0
  0
LINE
  5
4EC
330
71
100
AcDbEntity
  8
0
100
AcDbLine
 10
2004.556805832327
 20
196.3946181730786
 30
0.0
 11
2004.933789959311
 21
195.0910467445071
 31
0.0
  0
LINE
  5
4ED
330
71
100
AcDbEntity
  8
0
100
AcDbLine
 10
2004.933789959311
 20
195.0910467445071
 30
0.0
 11
2004.170893133914
 21
195.0910467445071
 31
0.0
  0
LINE
  5
4EE
330
71
100
AcDbEntity
  8
0
100
AcDbLine
 10
1998.86551908651
 20
195.498101720354
 30
0.0
 11
2000.564923848415
 21
195.498101720354
 31
0.0
  0
LINE
  5
4EF
330
71
100
AcDbEntity
  8
0
100
AcDbLine
 10
2000.564923848415
 20
195.498101720354
 30
0.0
 11
2001.332780991272
 21
195.5367921965445
 31
0.0
  0
LINE
  5
4F0
330
71
100
AcDbEntity
  8
0
100
AcDbLine
 10
2001.332780991272
 20
195.5367921965445
 30
0.0
 11
2001.74547940397
 21
195.6687366409889
 31
0.0
  0
LINE
  5
4F1
330
71
100
AcDbEntity
  8
0
100
AcDbLine
 10
2001.74547940397
 20
195.6687366409889
 30
0.0
 11
2002.153713530955
 21
196.0516731489255
 31
0.0
  0
LINE
  5
4F2
330
71
100
AcDbEntity
  8
0
100
AcDbLine
 10
2002.153713530955
 20
196.0516731489255
 30
0.0
 11
2002.294090515082
 21
196.6389747362271
 31
0.0
  0
LINE
  5
4F3
330
71
100
AcDbEntity
  8
0
100
AcDbLine
 10
2002.294090515082
 20
196.6389747362271
 30
0.0
 11
2002.150241308732
 21
197.2019707679731
 31
0.0
  0
LINE
  5
4F4
330
71
100
AcDbEntity
  8
0
100
AcDbLine
 10
2002.150241308732
 20
197.2019707679731
 30
0.0
 11
2001.70678892778
 21
197.5268715616239
 31
0.0
  0
LINE
  5
4F5
330
71
100
AcDbEntity
  8
0
100
AcDbLine
 10
2001.70678892778
 20
197.5268715616239
 30
0.0
 11
2002.052027023018
 21
197.8443318790842
 31
0.0
  0
LINE
  5
4F6
330
71
100
AcDbEntity
  8
0
100
AcDbLine
 10
2002.052027023018
 20
197.8443318790842
 30
0.0
 11
2002.167106388097
 21
198.2967128314652
 31
0.0
  0
LINE
  5
4F7
330
71
100
AcDbEntity
  8
0
100
AcDbLine
 10
2002.167106388097
 20
198.2967128314652
 30
0.0
 11
2002.013336546827
 21
198.8567326727349
 31
0.0
  0
LINE
  5
4F8
330
71
100
AcDbEntity
  8
0
100
AcDbLine
 10
2002.013336546827
 20
198.8567326727349
 30
0.0
 11
2001.570876229367
 21
199.1965144187668
 31
0.0
  0
LINE
  5
4F9
330
71
100
AcDbEntity
  8
0
100
AcDbLine
 10
2001.570876229367
 20
199.1965144187668
 30
0.0
 11
2001.17553892778
 21
199.2818318790842
 31
0.0
  0
LINE
  5
4FA
330
71
100
AcDbEntity
  8
0
100
AcDbLine
 10
2001.17553892778
 20
199.2818318790842
 30
0.0
 11
2000.441907975399
 21
199.3076255298779
 31
0.0
  0
LINE
  5
4FB
330
71
100
AcDbEntity
  8
0
100
AcDbLine
 10
2000.441907975399
 20
199.3076255298779
 30
0.0
 11
1998.86551908651
 21
199.3076255298779
 31
0.0
  0
LINE
  5
4FC
330
71
100
AcDbEntity
  8
0
100
AcDbLine
 10
1998.86551908651
 20
199.3076255298779
 30
0.0
 11
1998.86551908651
 21
195.498101720354
 31
0.0
  0
LINE
  5
4FD
330
71
100
AcDbEntity
  8
0
100
AcDbLine
 10
2000.071868292859
 20
196.386990609243
 30
0.0
 11
2000.071868292859
 21
197.0854033076556
 31
0.0
  0
LINE
  5
4FE
330
71
100
AcDbEntity
  8
0
100
AcDbLine
 10
2000.071868292859
 20
197.0854033076556
 30
0.0
 11
2000.62047940397
 21
197.0854033076556
 31
0.0
  0
LINE
  5
4FF
330
71
100
AcDbEntity
  8
0
100
AcDbLine
 10
2000.62047940397
 20
197.0854033076556
 30
0.0
 11
2001.029705594446
 21
197.0060382282906
 31
0.0
  0
LINE
  5
500
330
71
100
AcDbEntity
  8
0
100
AcDbLine
 10
2001.029705594446
 20
197.0060382282906
 30
0.0
 11
2001.151233372224
 21
196.7391731489255
 31
0.0
  0
LINE
  5
501
330
71
100
AcDbEntity
  8
0
100
AcDbLine
 10
2001.151233372224
 20
196.7391731489255
 30
0.0
 11
2001.032185753176
 21
196.4693318790842
 31
0.0
  0
LINE
  5
502
330
71
100
AcDbEntity
  8
0
100
AcDbLine
 10
2001.032185753176
 20
196.4693318790842
 30
0.0
 11
2000.631392102383
 21
196.386990609243
 31
0.0
  0
LINE
  5
503
330
71
100
AcDbEntity
  8
0
100
AcDbLine
 10
2000.631392102383
 20
196.386990609243
 30
0.0
 11
2000.071868292859
 21
196.386990609243
 31
0.0
  0
LINE
  5
504
330
71
100
AcDbEntity
  8
0
100
AcDbLine
 10
2000.071868292859
 20
197.7838160060684
 30
0.0
 11
2000.071868292859
 21
198.418736640989
 31
0.0
  0
LINE
  5
505
330
71
100
AcDbEntity
  8
0
100
AcDbLine
 10
2000.071868292859
 20
198.418736640989
 30
0.0
 11
2000.406193689684
 21
198.418736640989
 31
0.0
  0
LINE
  5
506
330
71
100
AcDbEntity
  8
0
100
AcDbLine
 10
2000.406193689684
 20
198.418736640989
 30
0.0
 11
2000.914626229367
 21
198.3512763235287
 31
0.0
  0
LINE
  5
507
330
71
100
AcDbEntity
  8
0
100
AcDbLine
 10
2000.914626229367
 20
198.3512763235287
 30
0.0
 11
2001.02424924524
 21
198.1012763235287
 31
0.0
  0
LINE
  5
508
330
71
100
AcDbEntity
  8
0
100
AcDbLine
 10
2001.02424924524
 20
198.1012763235287
 30
0.0
 11
2000.922066705558
 21
197.856236640989
 31
0.0
  0
LINE
  5
509
330
71
100
AcDbEntity
  8
0
100
AcDbLine
 10
2000.922066705558
 20
197.856236640989
 30
0.0
 11
2000.569884165875
 21
197.7838160060684
 31
0.0
  0
LINE
  5
50A
330
71
100
AcDbEntity
  8
0
100
AcDbLine
 10
2000.569884165875
 20
197.7838160060684
 30
0.0
 11
2000.071868292859
 21
197.7838160060684
 31
0.0
  0
ARC
  5
50B
330
71
100
AcDbEntity
  8
0
100
AcDbCircle
 10
2004.725476880551
 20
195.4254950710486
 30
0.0
 40
9.000000000000012
100
AcDbArc
 50
179.9999999999996
 51
359.9999999999988
  0
ARC
  5
50C
330
71
100
AcDbEntity
  8
0
100
AcDbCircle
 10
2004.725476880551
 20
195.4254950710486
 30
0.0
 40
9.000000000000017
100
AcDbArc
 50
359.9999999999996
 51
179.9999999999996
  0
LINE
  5
50D
330
71
100
AcDbEntity
  8
0
100
AcDbLine
 10
2028.725476880554
 20
41.30049507104661
 30
0.0
 11
2028.975476880551
 21
41.30049507104661
 31
0.0
  0
LINE
  5
50E
330
71
100
AcDbEntity
  8
0
100
AcDbLine
 10
2028.975476880551
 20
44.30049507104661
 30
0.0
 11
2028.725476880554
 21
44.30049507104661
 31
0.0
  0
LINE
  5
50F
330
71
100
AcDbEntity
  8
0
100
AcDbLine
 10
2028.725476880555
 20
31.92549507104644
 30
0.0
 11
2028.975476880552
 21
31.92549507104644
 31
0.0
  0
LINE
  5
510
330
71
100
AcDbEntity
  8
0
100
AcDbLine
 10
2028.975476880552
 20
33.9254950710465
 30
0.0
 11
2028.725476880555
 21
33.9254950710465
 31
0.0
  0
LINE
  5
511
330
71
100
AcDbEntity
  8
0
100
AcDbLine
 10
2027.725476880554
 20
51.05049507104644
 30
0.0
 11
2028.975476880551
 21
51.05049507104644
 31
0.0
  0
LINE
  5
512
330
71
100
AcDbEntity
  8
0
100
AcDbLine
 10
2028.975476880551
 20
52.55049507104661
 30
0.0
 11
2027.725476880554
 21
52.55049507104661
 31
0.0
  0
LINE
  5
515
330
71
100
AcDbEntity
  8
0
100
AcDbLine
 10
2028.975476880552
 20
44.3004950710465
 30
0.0
 11
2028.975476880552
 21
42.80049507104648
 31
0.0
  0
LINE
  5
516
330
71
100
AcDbEntity
  8
0
100
AcDbLine
 10
2028.975476880552
 20
42.80049507104648
 30
0.0
 11
2028.975476880552
 21
41.3004950710465
 31
0.0
  0
LINE
  5
517
330
71
100
AcDbEntity
  8
0
100
AcDbLine
 10
2028.975476880551
 20
33.9254950710465
 30
0.0
 11
2028.975476880551
 21
32.92549507104651
 31
0.0
  0
LINE
  5
518
330
71
100
AcDbEntity
  8
0
100
AcDbLine
 10
2028.975476880551
 20
32.92549507104649
 30
0.0
 11
2028.975476880551
 21
31.9254950710465
 31
0.0
  0
LINE
  5
519
330
71
100
AcDbEntity
  8
0
100
AcDbLine
 10
2028.975476880552
 20
52.5504950710465
 30
0.0
 11
2028.975476880552
 21
51.80049507104651
 31
0.0
  0
LINE
  5
51A
330
71
100
AcDbEntity
  8
0
100
AcDbLine
 10
2028.975476880552
 20
51.80049507104648
 30
0.0
 11
2028.975476880552
 21
51.05049507104649
 31
0.0
  0
LINE
  5
51B
330
71
100
AcDbEntity
  8
0
100
AcDbLine
 10
2028.725476880552
 20
164.3004950710468
 30
0.0
 11
2037.725476880551
 21
164.3004950710468
 31
0.0
  0
LINE
  5
51C
330
71
100
AcDbEntity
  8
0
100
AcDbLine
 10
2037.725476880551
 20
168.3004950710467
 30
0.0
 11
2028.725476880552
 21
168.3004950710467
 31
0.0
  0
LINE
  5
51D
330
71
100
AcDbEntity
  8
0
100
AcDbLine
 10
2028.725476880552
 20
86.67549507104649
 30
0.0
 11
2037.725476880551
 21
86.67549507104649
 31
0.0
  0
LINE
  5
51E
330
71
100
AcDbEntity
  8
0
100
AcDbLine
 10
2037.725476880551
 20
90.6754950710466
 30
0.0
 11
2028.725476880552
 21
90.6754950710466
 31
0.0
  0
LINE
  5
51F
330
71
100
AcDbEntity
  8
0
100
AcDbLine
 10
2037.725476880551
 20
168.3004950710464
 30
0.0
 11
2037.725476880551
 21
166.3004950710465
 31
0.0
  0
LINE
  5
520
330
71
100
AcDbEntity
  8
0
100
AcDbLine
 10
2037.725476880551
 20
166.3004950710464
 30
0.0
 11
2037.725476880551
 21
164.3004950710465
 31
0.0
  0
LINE
  5
521
330
71
100
AcDbEntity
  8
0
100
AcDbLine
 10
2037.725476880551
 20
90.67549507104649
 30
0.0
 11
2037.725476880551
 21
88.67549507104648
 31
0.0
  0
LINE
  5
522
330
71
100
AcDbEntity
  8
0
100
AcDbLine
 10
2037.725476880551
 20
88.67549507104646
 30
0.0
 11
2037.725476880551
 21
86.67549507104647
 31
0.0
  0
LWPOLYLINE
  5
523
330
71
100
AcDbEntity
  8
0
100
AcDbPolyline
 90
       41
 70
   128
 43
0.0
 10
2157.837378181846
 20
173.9254950710499
 10
2157.837378181846
 20
173.9222954976938
 10
2157.837378181846
 20
173.9127018962603
 10
2157.837378181846
 20
173.8967296144653
 10
2157.837378181846
 20
173.8744042045525
 10
2157.837378181846
 20
173.8457613824148
 10
2157.837378181846
 20
173.8108469704581
 10
2157.837378181846
 20
173.7697168242929
 10
2157.837378181846
 20
173.7224367433796
 10
2157.837378181846
 20
173.6690823657617
 10
2157.837378181846
 20
173.6097390470614
 10
2157.837378181846
 20
173.5445017239297
 10
2157.837378181846
 20
173.473474762167
 10
2157.837378181846
 20
173.3967717897604
 10
2157.837378181846
 20
173.3145155151035
 10
2157.837378181846
 20
173.2268375306884
 10
2157.837378181846
 20
173.1338781025869
 10
2157.837378181846
 20
173.0357859460535
 10
2157.837378181846
 20
172.9327179876132
 10
2157.837378181846
 20
172.8248391140134
 10
2157.837378181846
 20
172.7123219084383
 10
2157.837378181846
 20
172.5953463744151
 10
2157.837378181846
 20
172.4740996478441
 10
2157.837378181846
 20
172.3487756976235
 10
2157.837378181846
 20
172.2195750153395
 10
2157.837378181846
 20
172.0867042945223
 10
2157.837378181846
 20
171.9503760999807
 10
2157.837378181846
 20
171.8108085277447
 10
2157.837378181846
 20
171.6682248561563
 10
2157.837378181846
 20
171.5228531886746
 10
2157.837378181846
 20
171.3749260889562
 10
2157.837378181846
 20
171.2246802088046
 10
2157.837378181846
 20
171.0723559095774
 10
2157.837378181846
 20
170.918196877659
 10
2157.837378181846
 20
170.7624497346152
 10
2157.837378181846
 20
170.6053636426503
 10
2157.837378181846
 20
170.4471899060019
 10
2157.837378181846
 20
170.2881815689065
 10
2157.837378181846
 20
170.1285930107837
 10
2157.837378181846
 20
169.9686795392825
 10
2157.837378181846
 20
169.9254950710493
  0
LWPOLYLINE
  5
524
330
71
100
AcDbEntity
  8
0
100
AcDbPolyline
 90
       41
 70
   128
 43
0.0
 10
2162.837378181846
 20
169.9254950710494
 10
2162.837378181846
 20
170.085452407796
 10
2162.837378181846
 20
170.2451538469262
 10
2162.837378181846
 20
170.4043439002051
 10
2162.837378181846
 20
170.5627678975064
 10
2162.837378181846
 20
170.7201723942298
 10
2162.837378181846
 20
170.8763055767582
 10
2162.837378181846
 20
171.030917665306
 10
2162.837378181846
 20
171.1837613135139
 10
2162.837378181846
 20
171.3345920041499
 10
2162.837378181846
 20
171.4831684402841
 10
2162.837378181846
 20
171.6292529313136
 10
2162.837378181846
 20
171.7726117732157
 10
2162.837378181846
 20
171.9130156224245
 10
2162.837378181846
 20
172.0502398627333
 10
2162.837378181846
 20
172.1840649646299
 10
2162.837378181846
 20
172.3142768364992
 10
2162.837378181846
 20
172.4406671671236
 10
2162.837378181846
 20
172.5630337589358
 10
2162.837378181846
 20
172.6811808514919
 10
2162.837378181846
 20
172.7949194346479
 10
2162.837378181846
 20
172.9040675509334
 10
2162.837378181846
 20
173.0084505866457
 10
2162.837378181846
 20
173.1079015511953
 10
2162.837378181846
 20
173.202261344254
 10
2162.837378181846
 20
173.2913790102815
 10
2162.837378181846
 20
173.3751119800233
 10
2162.837378181846
 20
173.4533262985897
 10
2162.837378181846
 20
173.525896839756
 10
2162.837378181846
 20
173.592707506137
 10
2162.837378181846
 20
173.6536514149188
 10
2162.837378181846
 20
173.708631068848
 10
2162.837378181846
 20
173.7575585122069
 10
2162.837378181846
 20
173.8003554715229
 10
2162.837378181846
 20
173.8369534807913
 10
2162.837378181846
 20
173.8672939910038
 10
2162.837378181846
 20
173.8913284638168
 10
2162.837378181846
 20
173.9090184492004
 10
2162.837378181846
 20
173.9203356469523
 10
2162.837378181846
 20
173.9252619519699
 10
2162.837378181846
 20
173.92549507105
  0
LINE
  5
525
330
71
100
AcDbEntity
  8
0
100
AcDbLine
 10
2157.837378181846
 20
169.9254950710493
 30
0.0
 11
2157.837378181846
 21
161.9254950710494
 31
0.0
  0
LINE
  5
526
330
71
100
AcDbEntity
  8
0
100
AcDbLine
 10
2162.837378181846
 20
161.9254950710494
 30
0.0
 11
2162.837378181846
 21
169.9254950710494
 31
0.0
  0
LINE
  5
529
330
71
100
AcDbEntity
  8
0
100
AcDbLine
 10
2156.337378181848
 20
38.05039067038966
 30
0.0
 11
2164.337378181848
 21
38.05039067038966
 31
0.0
  0
LINE
  5
52A
330
71
100
AcDbEntity
  8
0
100
AcDbLine
 10
2164.337378181848
 20
34.05059947170258
 30
0.0
 11
2156.337378181848
 21
34.05059947170258
 31
0.0
  0
LINE
  5
52B
330
71
100
AcDbEntity
  8
0
100
AcDbLine
 10
2164.337378181848
 20
38.05039067038966
 30
0.0
 11
2164.337378181848
 21
34.05059947170258
 31
0.0
  0
LINE
  5
52C
330
71
100
AcDbEntity
  8
0
100
AcDbLine
 10
2156.337378181848
 20
34.05059947170258
 30
0.0
 11
2156.337378181848
 21
38.05039067038966
 31
0.0
  0
LWPOLYLINE
  5
52D
330
71
100
AcDbEntity
  8
0
100
AcDbPolyline
 90
       80
 70
   128
 43
0.0
 10
2156.337378181847
 20
40.05049507104653
 10
2156.177420845101
 20
40.04729549769064
 10
2156.017719405971
 20
40.03770189625718
 10
2155.858529352692
 20
40.02172961446215
 10
2155.700105355391
 20
39.9994042045493
 10
2155.542700858667
 20
39.97076138241169
 10
2155.386567676139
 20
39.93584697045493
 10
2155.231955587591
 20
39.89471682428967
 10
2155.079111939383
 20
39.84743674337647
 10
2154.928281248747
 20
39.79408236575853
 10
2154.779704812613
 20
39.73473904705821
 10
2154.633620321583
 20
39.66950172392638
 10
2154.490261479681
 20
39.59847476216378
 10
2154.349857630473
 20
39.52177178975706
 10
2154.212633390164
 20
39.43951551510031
 10
2154.078808288268
 20
39.35183753068526
 10
2153.948596416397
 20
39.25887810258378
 10
2153.822206085773
 20
39.16078594605035
 10
2153.699839493961
 20
39.05771798761009
 10
2153.581692401405
 20
38.94983911401005
 10
2153.467953818249
 20
38.83732190843512
 10
2153.358805701964
 20
38.72034637441158
 10
2153.254422666251
 20
38.59909964784066
 10
2153.154971701702
 20
38.47377569762023
 10
2153.060611908643
 20
38.34457501533598
 10
2152.971494242615
 20
38.21170429451877
 10
2152.887761272873
 20
38.07537609997723
 10
2152.809546954307
 20
37.93580852774119
 10
2152.736976413141
 20
37.79322485615313
 10
2152.67016574676
 20
37.64785318867115
 10
2152.609221837978
 20
37.49992608895293
 10
2152.554242184049
 20
37.34968020880116
 10
2152.50531474069
 20
37.19735590957396
 10
2152.462517781374
 20
37.04319687765536
 10
2152.425919772106
 20
36.88744973461167
 10
2152.395579261893
 20
36.73036364264687
 10
2152.37154478908
 20
36.57218990599858
 10
2152.353854803696
 20
36.41318156890311
 10
2152.342537605945
 20
36.25359301078004
 10
2152.337611300927
 20
36.09367953927881
 10
2152.33908376968
 20
35.93369698184057
 10
2152.34695265657
 20
35.77390127642934
 10
2152.361205373054
 20
35.61454806208616
 10
2152.381819117828
 20
35.45589226995998
 10
2152.408760913296
 20
35.298187715474
 10
2152.441987658335
 20
35.1416866922732
 10
2152.481446197237
 20
34.98663956860952
 10
2152.527073404761
 20
34.83329438680608
 10
2152.578796287105
 20
34.68189646644173
 10
2152.636532098695
 20
34.53268801189285
 10
2152.700188474544
 20
34.38590772485686
 10
2152.769663578034
 20
34.24179042248159
 10
2152.844846263817
 20
34.10056666170773
 10
2152.925616255636
 20
33.9624623704263
 10
2153.011844338732
 20
33.82769848604278
 10
2153.103392566569
 20
33.69649060202374
 10
2153.200114481509
 20
33.56904862299433
 10
2153.301855349123
 20
33.44557642893483
 10
2153.408452405726
 20
33.32627154901633
 10
2153.519735118766
 20
33.21132484559655
 10
2153.635525459643
 20
33.10092020887982
 10
2153.75563818851
 20
32.99523426273373
 10
2153.879881150624
 20
32.89443608212673
 10
2154.008055583751
 20
32.79868692264539
 10
2154.139956436139
 20
32.70813996251924
 10
2154.275372694561
 20
32.62294005756911
 10
2154.414087721892
 20
32.54322350946768
 10
2154.555879603679
 20
32.46911784768685
 10
2154.700521503159
 20
32.40074162547694
 10
2154.847782024147
 20
32.33820423020758
 10
2154.997425581223
 20
32.28160570837014
 10
2155.14921277662
 20
32.23103660552619
 10
2155.302900783203
 20
32.18657782145283
 10
2155.458243732947
 20
32.14830048072037
 10
2155.614993110271
 20
32.1162658189087
 10
2155.772898149608
 20
32.09052508464277
 10
2155.931706236581
 20
32.07111945760698
 10
2156.091163312128
 20
32.05807998266403
 10
2156.251014278943
 20
32.05142752019288
 10
2156.337378181847
 20
32.05049507104462
  0
LWPOLYLINE
  5
52E
330
71
100
AcDbEntity
  8
0
100
AcDbPolyline
 90
       28
 70
   128
 43
0.0
 10
2156.337378181847
 20
32.05049507104462
 10
2156.497335518594
 20
32.05369464440071
 10
2156.657036957724
 20
32.06328824583432
 10
2156.816227011003
 20
32.07926052762934
 10
2156.974651008305
 20
32.10158593754221
 10
2157.132055505028
 20
32.13022875967983
 10
2157.288188687557
 20
32.1651431716366
 10
2157.442800776104
 20
32.20627331780168
 10
2157.595644424313
 20
32.25355339871504
 10
2157.746475114948
 20
32.30690777633299
 10
2157.895051551083
 20
32.36625109503331
 10
2158.041136042112
 20
32.43148841816497
 10
2158.184494884014
 20
32.50251537992756
 10
2158.324898733223
 20
32.57921835233413
 10
2158.462122973531
 20
32.66147462699121
 10
2158.595948075427
 20
32.74915261140626
 10
2158.726159947298
 20
32.84211203950775
 10
2158.852550277922
 20
32.94020419604118
 10
2158.974916869734
 20
33.04327215448143
 10
2159.093063962291
 20
33.1511510280813
 10
2159.206802545446
 20
33.26366823365623
 10
2159.315950661732
 20
33.38064376767994
 10
2159.420333697444
 20
33.50189049425086
 10
2159.519784661994
 20
33.62721444447128
 10
2159.614144455053
 20
33.7564151267552
 10
2159.70326212108
 20
33.88928584757241
 10
2159.786995090822
 20
34.02561404211411
 10
2159.800997042121
 20
34.0505994717027
  0
LWPOLYLINE
  5
52F
330
71
100
AcDbEntity
  8
0
100
AcDbPolyline
 90
       28
 70
   128
 43
0.0
 10
2159.800686898408
 20
38.05039067038985
 10
2159.74914010806
 20
38.13852777166506
 10
2159.662912024963
 20
38.27329165604874
 10
2159.571363797127
 20
38.40449954006761
 10
2159.474641882186
 20
38.53194151909719
 10
2159.372901014572
 20
38.65541371315668
 10
2159.26630395797
 20
38.77471859307502
 10
2159.155021244929
 20
38.8896652964948
 10
2159.039230904053
 20
39.00006993321137
 10
2158.919118175186
 20
39.10575587935762
 10
2158.794875213071
 20
39.20655405996445
 10
2158.666700779945
 20
39.30230321944595
 10
2158.534799927557
 20
39.39285017957212
 10
2158.399383669134
 20
39.4780500845224
 10
2158.260668641803
 20
39.55776663262368
 10
2158.118876760016
 20
39.6318722944045
 10
2157.974234860536
 20
39.70024851661458
 10
2157.826974339549
 20
39.76278591188395
 10
2157.677330782472
 20
39.81938443372138
 10
2157.525543587075
 20
39.86995353656516
 10
2157.371855580493
 20
39.91441232063868
 10
2157.216512630748
 20
39.95268966137098
 10
2157.059763253425
 20
39.98472432318266
 10
2156.901858214087
 20
40.01046505744841
 10
2156.743050127114
 20
40.02987068448453
 10
2156.583593051567
 20
40.04291015942732
 10
2156.423742084752
 20
40.04956262189845
 10
2156.337378181848
 20
40.05049507104653
  0
LWPOLYLINE
  5
530
330
71
100
AcDbEntity
  8
0
100
AcDbPolyline
 90
        8
 70
   128
 43
0.0
 10
2156.337378181848
 20
42.80049507103449
 10
2156.067450176088
 20
42.79509579099618
 10
2155.797953997558
 20
42.77890658857723
 10
2155.529320782649
 20
42.75195336304824
 10
2155.261980287203
 20
42.71427923382018
 10
2154.996360198983
 20
42.66594447146325
 10
2154.732885453467
 20
42.60702640128601
 10
2154.580860477409
 20
42.56658448277402
  0
LWPOLYLINE
  5
531
330
71
100
AcDbEntity
  8
0
100
AcDbPolyline
 90
       42
 70
   128
 43
0.0
 10
2149.593895886288
 20
36.32217113299442
 10
2149.587771570306
 20
36.12336886118902
 10
2149.590256361329
 20
35.85339829551236
 10
2149.603535107955
 20
35.58374304263157
 10
2149.627586567023
 20
35.31483449342768
 10
2149.662372261327
 20
35.04710284421572
 10
2149.70783654118
 20
34.78097640852098
 10
2149.763906673431
 20
34.51688093186999
 10
2149.830492957829
 20
34.25523891068804
 10
2149.907488870525
 20
33.99646891639537
 10
2149.994771234482
 20
33.74098492578094
 10
2150.092200416538
 20
33.48919565873001
 10
2150.199620550784
 20
33.24150392435718
 10
2150.316859787923
 20
32.99830597659957
 10
2150.443730570182
 20
32.7599908802942
 10
2150.580029931375
 20
32.52693988875734
 10
2150.725539821602
 20
32.2995258338604
 10
2150.880027456075
 20
32.07811252957885
 10
2151.043245687537
 20
31.86305418996716
 10
2151.214933401635
 20
31.65469486249208
 10
2151.394815934652
 20
31.45336787763
 10
2151.582605512908
 20
31.25939531560931
 10
2151.778001713135
 20
31.07308749115066
 10
2151.980691943098
 20
30.89474245702917
 10
2152.190351941666
 20
30.72464552725512
 10
2152.406646297567
 20
30.56306882063046
 10
2152.629228985971
 20
30.41027082541814
 10
2152.857743922059
 20
30.26649598581491
 10
2153.09182553068
 20
30.13197431089412
 10
2153.331099331195
 20
30.00692100663923
 10
2153.575182536567
 20
29.89153613166013
 10
2153.823684665733
 20
29.78600427714315
 10
2154.076208168299
 20
29.69049427154295
 10
2154.33234906053
 20
29.60515891049397
 10
2154.591697571638
 20
29.53013471237017
 10
2154.853838799331
 20
29.46554169988434
 10
2155.118353373564
 20
29.41148320807736
 10
2155.384818127445
 20
29.36804571900376
 10
2155.652806774212
 20
29.33529872338039
 10
2155.921890589197
 20
29.31329460941481
 10
2156.191639095696
 20
29.30206857899463
 10
2156.337378181847
 20
29.30049507105702
  0
LWPOLYLINE
  5
532
330
71
100
AcDbEntity
  8
0
100
AcDbPolyline
 90
       33
 70
   128
 43
0.0
 10
2156.337378181847
 20
29.30049507105702
 10
2156.607306187607
 20
29.30589435109533
 10
2156.876802366139
 20
29.32208355351429
 10
2157.145435581047
 20
29.34903677904311
 10
2157.412776076492
 20
29.38671090827131
 10
2157.678396164712
 20
29.43504567062826
 10
2157.941870910228
 20
29.4939637408055
 10
2158.202778809652
 20
29.56337086245861
 10
2158.460702466003
 20
29.64315599899993
 10
2158.715229256451
 20
29.73319151123019
 10
2158.965951992427
 20
29.8333333615364
 10
2159.212469571039
 20
29.94342134432105
 10
2159.454387616748
 20
30.06327934229541
 10
2159.691319112287
 20
30.19271560823131
 10
2159.922885017808
 20
30.33152307171463
 10
2160.148714877258
 20
30.47947967041455
 10
2160.368447411038
 20
30.63634870533565
 10
2160.581731093965
 20
30.80187921948578
 10
2160.788224717648
 20
30.97580639935308
 10
2160.987597936336
 20
31.1578519985527
 10
2161.179531795411
 20
31.34772478295997
 10
2161.363719241643
 20
31.5451209966244
 10
2161.539865614407
 20
31.7497248477124
 10
2161.707689117084
 20
31.96120901370927
 10
2161.86692126787
 20
32.17923516506306
 10
2162.017307329291
 20
32.40345450644185
 10
2162.158606715731
 20
32.63350833473015
 10
2162.290593378311
 20
32.86902861287814
 10
2162.413056166529
 20
33.10963855868272
 10
2162.525799166047
 20
33.35495324755778
 10
2162.628642012116
 20
33.60458022833205
 10
2162.721420178122
 20
33.85812015108769
 10
2162.783245645922
 20
34.0505994717027
  0
LWPOLYLINE
  5
533
330
71
100
AcDbEntity
  8
0
100
AcDbPolyline
 90
       34
 70
   128
 43
0.0
 10
2162.783373809986
 20
38.05039067038985
 10
2162.767267493171
 20
38.10452122569614
 10
2162.679985129213
 20
38.36000521631024
 10
2162.582555947158
 20
38.61179448336151
 10
2162.475135812911
 20
38.85948621773435
 10
2162.357896575773
 20
39.10268416549195
 10
2162.231025793514
 20
39.34099926179714
 10
2162.09472643232
 20
39.57405025333401
 10
2161.949216542094
 20
39.80146430823112
 10
2161.794728907621
 20
40.02287761251266
 10
2161.631510676158
 20
40.23793595212436
 10
2161.459822962061
 20
40.44629527959926
 10
2161.279940429043
 20
40.64762226446151
 10
2161.092150850789
 20
40.8415948264822
 10
2160.896754650561
 20
41.02790265094085
 10
2160.694064420598
 20
41.20624768506201
 10
2160.48440442203
 20
41.37634461483623
 10
2160.268110066129
 20
41.53792132146088
 10
2160.045527377725
 20
41.69071931667338
 10
2159.817012441637
 20
41.83449415627658
 10
2159.582930833016
 20
41.9690158311972
 10
2159.343657032501
 20
42.09406913545211
 10
2159.09957382713
 20
42.20945401043119
 10
2158.851071697963
 20
42.31498586494836
 10
2158.598548195396
 20
42.41049587054856
 10
2158.342407303166
 20
42.49583123159753
 10
2158.083058792057
 20
42.57085542972134
 10
2157.820917564365
 20
42.63544844220716
 10
2157.556402990131
 20
42.68950693401416
 10
2157.28993823625
 20
42.73294442308759
 10
2157.021949589484
 20
42.76569141871095
 10
2156.752865774499
 20
42.78769553267671
 10
2156.483117267999
 20
42.79892156309688
 10
2156.337378181848
 20
42.80049507103449
  0
LINE
  5
534
330
71
100
AcDbEntity
  8
0
100
AcDbLine
 10
2149.587378181848
 20
56.05049507104665
 30
0.0
 11
2149.587378181848
 21
43.50049507104972
 31
0.0
  0
LINE
  5
535
330
71
100
AcDbEntity
  8
0
100
AcDbLine
 10
2154.587378181848
 20
43.50049507104972
 30
0.0
 11
2154.587378181848
 21
56.05049507104665
 31
0.0
  0
LWPOLYLINE
  5
536
330
71
100
AcDbEntity
  8
0
100
AcDbPolyline
 90
       41
 70
   128
 43
0.0
 10
2156.087378181848
 20
62.55049507104654
 10
2155.827447509635
 20
62.54529576434292
 10
2155.567932671048
 20
62.52970616201365
 10
2155.30924883447
 20
62.50375120409664
 10
2155.051809838855
 20
62.46747241298804
 10
2154.79602753168
 20
62.42092782701472
 10
2154.542311110072
 20
62.36419190758464
 10
2154.291066466182
 20
62.2973554200667
 10
2154.042695537844
 20
62.22052528858249
 10
2153.79759566556
 20
62.13382442495309
 10
2153.556158956842
 20
62.03739153206533
 10
2153.318771658919
 20
61.93138088197628
 10
2153.085813540828
 20
61.81596206911205
 10
2152.857657285863
 20
61.69131973895138
 10
2152.634667895362
 20
61.5576532926338
 10
2152.41720210478
 20
61.41517656795956
 10
2152.205607812993
 20
61.26411749729447
 10
2152.000223525728
 20
61.10471774292779
 10
2151.801377814034
 20
60.93723231046249
 10
2151.60938878863
 20
60.76192914086255
 10
2151.424563591001
 20
60.57908868180311
 10
2151.247197902037
 20
60.38900343901514
 10
2151.077575469006
 20
60.1919775083374
 10
2150.915967651612
 20
59.98832608922914
 10
2150.762632987892
 20
59.77837498051751
 10
2150.617816780597
 20
59.56246005918956
 10
2150.481750704766
 20
59.34092674305968
 10
2150.354652437096
 20
59.11412943817595
 10
2150.236725307701
 20
58.88243097184534
 10
2150.128157974831
 20
58.64620201218742
 10
2150.029124123062
 20
58.40582047514498
 10
2149.939782185426
 20
58.16167091989878
 10
2149.860275089968
 20
57.91414393365436
 10
2149.79073003108
 20
57.6636355067871
 10
2149.731258266018
 20
57.41054639934094
 10
2149.681954936923
 20
57.15528149989808
 10
2149.642898918602
 20
56.89824917784459
 10
2149.614152692354
 20
56.63986063006468
 10
2149.595762246006
 20
56.38052922311493
 10
2149.587757000353
 20
56.12066983192541
 10
2149.587378181848
 20
56.05049507104665
  0
LWPOLYLINE
  5
537
330
71
100
AcDbEntity
  8
0
100
AcDbPolyline
 90
       41
 70
   128
 43
0.0
 10
2154.587378181848
 20
56.05049507104665
 10
2154.588578021856
 20
56.11047907232665
 10
2154.592175622394
 20
56.17036711200039
 10
2154.598165228067
 20
56.23006338197985
 10
2154.606537256785
 20
56.28947238096799
 10
2154.617278315086
 20
56.34849906723922
 10
2154.63037121957
 20
56.40704901068732
 10
2154.645795024382
 20
56.46502854389273
 10
2154.663525054724
 20
56.52234491197077
 10
2154.683532946331
 20
56.57890642095917
 10
2154.705786690843
 20
56.63462258450948
 10
2154.730250687018
 20
56.68940426864566
 10
2154.756885797679
 20
56.74316383435882
 10
2154.785649412332
 20
56.79581527781226
 10
2154.816495515328
 20
56.84727436792798
 10
2154.849374759484
 20
56.89745878113916
 10
2154.884234545022
 20
56.94628823309023
 10
2154.921019103722
 20
56.99368460707439
 10
2154.959669588137
 20
57.03957207900383
 10
2155.000124165737
 20
57.08387723871243
 10
2155.042318117827
 20
57.126529207396
 10
2155.086183943086
 20
57.16745975100298
 10
2155.13165146555
 20
57.20660338939516
 10
2155.178647946883
 20
57.24389750110116
 10
2155.22709820274
 20
57.27928242349815
 10
2155.276924723046
 20
57.31270154825846
 10
2155.328047795999
 20
57.34410141191171
 10
2155.380385635588
 20
57.373431781374
 10
2155.433854512433
 20
57.40064573431141
 10
2155.488368887739
 20
57.42569973420415
 10
2155.543841550133
 20
57.4485536999976
 10
2155.600183755189
 20
57.46917107022095
 10
2155.6573053674
 20
57.48751886148038
 10
2155.715115004369
 20
57.5035677212241
 10
2155.773520183011
 20
57.51729197469956
 10
2155.832427467498
 20
57.52866966602915
 10
2155.891742618742
 20
57.53768259333408
 10
2155.951370745151
 20
57.54431633785309
 10
2156.011216454448
 20
57.54856028700988
 10
2156.071184006261
 20
57.5504076513917
 10
2156.087378181848
 20
57.55049507104668
  0
LINE
  5
538
330
71
100
AcDbEntity
  8
0
100
AcDbLine
 10
2156.337378181848
 20
62.55049507104654
 30
0.0
 11
2156.087378181848
 21
62.55049507104654
 31
0.0
  0
LINE
  5
539
330
71
100
AcDbEntity
  8
0
100
AcDbLine
 10
2156.087378181848
 20
57.55049507104668
 30
0.0
 11
2156.337378181848
 21
57.55049507104668
 31
0.0
  0
LWPOLYLINE
  5
53A
330
71
100
AcDbEntity
  8
0
100
AcDbPolyline
 90
       41
 70
   128
 43
0.0
 10
2156.337378181848
 20
57.55049507104668
 10
2156.597308854061
 20
57.55569437775029
 10
2156.856823692647
 20
57.57128398007957
 10
2157.115507529226
 20
57.59723893799638
 10
2157.37294652484
 20
57.63351772910497
 10
2157.628728832015
 20
57.68006231507849
 10
2157.882445253624
 20
57.7367982345084
 10
2158.133689897514
 20
57.80363472202668
 10
2158.382060825852
 20
57.88046485351071
 10
2158.627160698136
 20
57.96716571713995
 10
2158.868597406854
 20
58.06359861002789
 10
2159.105984704777
 20
58.16960926011677
 10
2159.338942822868
 20
58.28502807298132
 10
2159.567099077833
 20
58.40967040314183
 10
2159.790088468333
 20
58.54333684945942
 10
2160.007554258916
 20
58.68581357413363
 10
2160.219148550703
 20
58.83687264479874
 10
2160.424532837968
 20
58.99627239916561
 10
2160.623378549662
 20
59.16375783163072
 10
2160.815367575066
 20
59.33906100123067
 10
2161.000192772695
 20
59.5219014602901
 10
2161.177558461658
 20
59.71198670307808
 10
2161.347180894691
 20
59.90901263375581
 10
2161.508788712084
 20
60.11266405286409
 10
2161.662123375804
 20
60.3226151615757
 10
2161.806939583099
 20
60.53853008290382
 10
2161.94300565893
 20
60.76006339903353
 10
2162.0701039266
 20
60.98686070391743
 10
2162.188031055995
 20
61.21855917024805
 10
2162.296598388866
 20
61.45478812990598
 10
2162.395632240635
 20
61.69516966694822
 10
2162.48497417827
 20
61.93931922219461
 10
2162.564481273728
 20
62.18684620843884
 10
2162.634026332617
 20
62.43735463530629
 10
2162.693498097677
 20
62.69044374275243
 10
2162.742801426773
 20
62.94570864219497
 10
2162.781857445094
 20
63.2027409642486
 10
2162.810603671343
 20
63.46112951202871
 10
2162.828994117689
 20
63.72046091897829
 10
2162.836999363342
 20
63.98032031016799
 10
2162.837378181848
 20
64.05049507104656
  0
LWPOLYLINE
  5
53B
330
71
100
AcDbEntity
  8
0
100
AcDbPolyline
 90
       41
 70
   128
 43
0.0
 10
2157.837378181848
 20
64.05049507104671
 10
2157.836178341839
 20
63.99051106976674
 10
2157.832580741302
 20
63.93062303009279
 10
2157.826591135628
 20
63.8709267601132
 10
2157.818219106911
 20
63.81151776112523
 10
2157.80747804861
 20
63.75249107485397
 10
2157.794385144126
 20
63.6939411314059
 10
2157.778961339314
 20
63.63596159820048
 10
2157.761231308971
 20
63.57864523012261
 10
2157.741223417364
 20
63.52208372113386
 10
2157.718969672852
 20
63.46636755758356
 10
2157.694505676677
 20
63.41158587344772
 10
2157.667870566017
 20
63.35782630773439
 10
2157.639106951364
 20
63.30517486428112
 10
2157.608260848368
 20
63.25371577416524
 10
2157.575381604212
 20
63.20353136095405
 10
2157.540521818674
 20
63.15470190900299
 10
2157.503737259974
 20
63.10730553501901
 10
2157.465086775559
 20
63.06141806308937
 10
2157.424632197959
 20
63.01711290338062
 10
2157.382438245869
 20
62.97446093469737
 10
2157.33857242061
 20
62.9335303910904
 10
2157.293104898146
 20
62.89438675269821
 10
2157.246108416813
 20
62.85709264099203
 10
2157.197658160956
 20
62.82170771859505
 10
2157.14783164065
 20
62.78828859383472
 10
2157.096708567697
 20
62.75688873018167
 10
2157.044370728108
 20
62.72755836071921
 10
2156.990901851262
 20
62.7003444077818
 10
2156.936387475957
 20
62.67529040788889
 10
2156.880914813562
 20
62.65243644209578
 10
2156.824572608506
 20
62.63181907187224
 10
2156.767450996295
 20
62.61347128061265
 10
2156.709641359326
 20
62.59742242086929
 10
2156.651236180685
 20
62.58369816739365
 10
2156.592328896198
 20
62.5723204760639
 10
2156.533013744955
 20
62.56330754875913
 10
2156.473385618545
 20
62.55667380424012
 10
2156.413539909248
 20
62.55242985508317
 10
2156.353572357435
 20
62.55058249070168
 10
2156.337378181847
 20
62.55049507104654
  0
LINE
  5
53C
330
71
100
AcDbEntity
  8
0
100
AcDbLine
 10
2157.837378181848
 20
161.925495071047
 30
0.0
 11
2157.837378181848
 21
64.05049507104656
 31
0.0
  0
LINE
  5
53D
330
71
100
AcDbEntity
  8
0
100
AcDbLine
 10
2162.837378181848
 20
64.05049507104656
 30
0.0
 11
2162.837378181848
 21
161.925495071047
 31
0.0
  0
LINE
  5
53E
330
71
100
AcDbEntity
  8
0
100
AcDbLine
 10
2154.587378181848
 20
43.50049507104965
 30
0.0
 11
2149.587378181848
 21
43.50049507104965
 31
0.0
  0
LINE
  5
540
330
71
100
AcDbEntity
  8
0
100
AcDbLine
 10
2154.587378181848
 20
42.56037510414892
 30
0.0
 11
2154.587378181848
 21
43.50049507104631
 31
0.0
  0
LINE
  5
541
330
71
100
AcDbEntity
  8
0
100
AcDbLine
 10
2149.587378181848
 20
43.50049507104631
 30
0.0
 11
2149.587378181848
 21
36.05049507104627
 31
0.0
  0
LINE
  5
542
330
71
100
AcDbEntity
  8
0
100
AcDbLine
 10
2152.087378181848
 20
43.50049507104614
 30
0.0
 11
2154.587378181848
 21
43.50049507104615
 31
0.0
  0
LINE
  5
543
330
71
100
AcDbEntity
  8
0
100
AcDbLine
 10
2149.587378181848
 20
43.50049507104615
 30
0.0
 11
2152.087378181848
 21
43.50049507104614
 31
0.0
  0
LINE
  5
544
330
71
100
AcDbEntity
  8
0
100
AcDbLine
 10
2152.087378181848
 20
36.05049507104614
 30
0.0
 11
2151.815163652936
 21
36.05049507104614
 31
0.0
  0
LINE
  5
545
330
71
100
AcDbEntity
  8
0
100
AcDbLine
 10
2151.807724196585
 20
36.05049507104614
 30
0.0
 11
2151.071146305319
 21
36.05049507104614
 31
0.0
  0
LINE
  5
546
330
71
100
AcDbEntity
  8
0
100
AcDbLine
 10
2151.057906756146
 20
36.05049507104614
 30
0.0
 11
2150.575319491398
 21
36.05049507104615
 31
0.0
  0
LINE
  5
547
330
71
100
AcDbEntity
  8
0
100
AcDbLine
 10
2150.572997844353
 20
36.05049507104615
 30
0.0
 11
2150.084709305062
 21
36.05049507104615
 31
0.0
  0
LINE
  5
548
330
71
100
AcDbEntity
  8
0
100
AcDbLine
 10
2150.078637410013
 20
36.05049507104615
 30
0.0
 11
2149.596891436619
 21
36.05049507104616
 31
0.0
  0
LINE
  5
549
330
71
100
AcDbEntity
  8
0
100
AcDbLine
 10
2149.591995056178
 20
36.05049507104616
 30
0.0
 11
2149.587378181848
 21
36.05049507104616
 31
0.0
  0
LINE
  5
54A
330
71
100
AcDbEntity
  8
0
100
AcDbLine
 10
2217.462378181878
 20
178.4254950710449
 30
0.0
 11
2217.462378181878
 21
189.1754950710442
 31
0.0
  0
LINE
  5
54B
330
71
100
AcDbEntity
  8
0
100
AcDbLine
 10
2208.462378181877
 20
189.1754950710445
 30
0.0
 11
2208.462378181877
 21
178.4254950710449
 31
0.0
  0
LINE
  5
54C
330
71
100
AcDbEntity
  8
0
100
AcDbLine
 10
2217.462378181878
 20
178.4254950710447
 30
0.0
 11
2212.962378181877
 21
178.4254950710447
 31
0.0
  0
LINE
  5
54D
330
71
100
AcDbEntity
  8
0
100
AcDbLine
 10
2212.962378181877
 20
178.4254950710447
 30
0.0
 11
2208.462378181877
 21
178.4254950710447
 31
0.0
  0
LINE
  5
54E
330
71
100
AcDbEntity
  8
0
100
AcDbLine
 10
2203.962378181877
 20
189.1754950710442
 30
0.0
 11
2223.212378181878
 21
189.1754950710442
 31
0.0
  0
LINE
  5
54F
330
71
100
AcDbEntity
  8
0
100
AcDbLine
 10
2223.212378181878
 20
189.1754950710442
 30
0.0
 11
2223.212378181878
 21
194.5144703199457
 31
0.0
  0
LINE
  5
550
330
71
100
AcDbEntity
  8
0
100
AcDbLine
 10
2223.212378181878
 20
194.5144703199457
 30
0.0
 11
2211.551353430778
 21
206.1754950710442
 31
0.0
  0
LINE
  5
551
330
71
100
AcDbEntity
  8
0
100
AcDbLine
 10
2211.551353430778
 20
206.1754950710442
 30
0.0
 11
2203.962378181877
 21
206.1754950710443
 31
0.0
  0
LINE
  5
552
330
71
100
AcDbEntity
  8
0
100
AcDbLine
 10
2116.712378181848
 20
207.3004950710437
 30
0.0
 11
2203.962378181848
 21
207.3004950710434
 31
0.0
  0
LINE
  5
553
330
71
100
AcDbEntity
  8
0
100
AcDbLine
 10
2203.962378181848
 20
183.795530458953
 30
0.0
 11
2116.712378181848
 21
183.7955304589533
 31
0.0
  0
LINE
  5
554
330
71
100
AcDbEntity
  8
0
100
AcDbLine
 10
2116.712378181848
 20
207.3004950710437
 30
0.0
 11
2116.712378181848
 21
183.7955304589533
 31
0.0
  0
LINE
  5
555
330
71
100
AcDbEntity
  8
0
100
AcDbLine
 10
2203.962378181848
 20
183.795530458953
 30
0.0
 11
2203.962378181848
 21
207.3004950710434
 31
0.0
  0
LWPOLYLINE
  5
556
330
71
100
AcDbEntity
  8
0
100
AcDbPolyline
 90
       41
 70
   128
 43
0.0
 10
2202.837378181845
 20
207.8004950710467
 10
2202.837778128515
 20
207.7805004039533
 10
2202.838977328694
 20
207.760537724062
 10
2202.840973863918
 20
207.7406389674022
 10
2202.843764540157
 20
207.7208359677393
 10
2202.847344892924
 20
207.701160405649
 10
2202.851709194419
 20
207.6816437578328
 10
2202.856850462689
 20
207.6623172467646
 10
2202.862760472804
 20
207.6432117907385
 10
2202.869429770006
 20
207.6243579544091
 10
2202.876847684843
 20
207.6057858998924
 10
2202.885002350235
 20
207.5875253385135
 10
2202.893880720455
 20
207.5696054832758
 10
2202.903468592006
 20
207.5520550021247
 10
2202.913750626338
 20
207.5349019720861
 10
2202.92471037439
 20
207.5181738343491
 10
2202.936330302903
 20
207.5018973503653
 10
2202.948591822469
 20
207.4860985590372
 10
2202.961475317275
 20
207.4708027350608
 10
2202.974960176474
 20
207.4560343484914
 10
2202.989024827171
 20
207.4418170255969
 10
2203.003646768924
 20
207.4281735110612
 10
2203.018802609745
 20
207.4151256315971
 10
2203.034468103523
 20
207.4026942610284
 10
2203.050618188809
 20
207.3908992868961
 10
2203.067227028911
 20
207.3797595786426
 10
2203.084268053228
 20
207.3692929574249
 10
2203.101713999758
 20
207.3595161676041
 10
2203.119536958706
 20
207.3504448499583
 10
2203.137708417142
 20
207.3420935166608
 10
2203.156199304606
 20
207.3344755280629
 10
2203.174980039626
 20
207.3276030713218
 10
2203.194020577029
 20
207.3214871409018
 10
2203.213290456019
 20
207.3161375209874
 10
2203.232758848899
 20
207.311562769829
 10
2203.252394610395
 20
207.3077702060522
 10
2203.272166327476
 20
207.3047658969509
 10
2203.292042369612
 20
207.3025546487778
 10
2203.311990939378
 20
207.3011399990587
 10
2203.331980123316
 20
207.3005242109315
 10
2203.337378181845
 20
207.3004950710466
  0
LWPOLYLINE
  5
557
330
71
100
AcDbEntity
  8
0
100
AcDbPolyline
 90
       41
 70
   128
 43
0.0
 10
2117.337378181844
 20
207.3004950710453
 10
2117.357372848938
 20
207.3008950177148
 10
2117.377335528829
 20
207.3020942178942
 10
2117.397234285489
 20
207.3040907531185
 10
2117.417037285152
 20
207.3068814293577
 10
2117.436712847242
 20
207.3104617821246
 10
2117.456229495058
 20
207.3148260836194
 10
2117.475556006127
 20
207.3199673518901
 10
2117.494661462153
 20
207.3258773620042
 10
2117.513515298482
 20
207.3325466592064
 10
2117.532087352999
 20
207.339964574044
 10
2117.550347914378
 20
207.3481192394353
 10
2117.568267769616
 20
207.3569976096558
 10
2117.585818250767
 20
207.3665854812066
 10
2117.602971280806
 20
207.3768675155386
 10
2117.619699418543
 20
207.3878272635905
 10
2117.635975902526
 20
207.3994471921033
 10
2117.651774693854
 20
207.4117087116699
 10
2117.66707051783
 20
207.4245922064749
 10
2117.6818389044
 20
207.4380770656749
 10
2117.696056227295
 20
207.4521417163718
 10
2117.70969974183
 20
207.4667636581247
 10
2117.722747621295
 20
207.4819194989462
 10
2117.735178991863
 20
207.4975849927238
 10
2117.746973965995
 20
207.5137350780092
 10
2117.758113674249
 20
207.5303439181113
 10
2117.768580295467
 20
207.5473849424291
 10
2117.778357085287
 20
207.5648308889586
 10
2117.787428402933
 20
207.5826538479072
 10
2117.795779736231
 20
207.6008253063421
 10
2117.803397724828
 20
207.619316193807
 10
2117.810270181569
 20
207.638096928826
 10
2117.81638611199
 20
207.6571374662295
 10
2117.821735731904
 20
207.6764073452191
 10
2117.826310483062
 20
207.6958757380998
 10
2117.83010304684
 20
207.7155114995954
 10
2117.83310735594
 20
207.7352832166764
 10
2117.835318604114
 20
207.7551592588133
 10
2117.836733253833
 20
207.7751078285786
 10
2117.83734904196
 20
207.7950970125164
 10
2117.837378181845
 20
207.8004950710453
  0
LINE
  5
558
330
71
100
AcDbEntity
  8
0
100
AcDbLine
 10
2202.837378181845
 20
207.8004950710467
 30
0.0
 11
2202.837378181845
 21
222.3004950710466
 31
0.0
  0
LINE
  5
559
330
71
100
AcDbEntity
  8
0
100
AcDbLine
 10
2117.837378181845
 20
222.3004950710453
 30
0.0
 11
2117.837378181845
 21
207.8004950710453
 31
0.0
  0
LINE
  5
55A
330
71
100
AcDbEntity
  8
0
100
AcDbLine
 10
2204.337378181845
 20
222.3004950710466
 30
0.0
 11
2204.337378181845
 21
222.5504950710466
 31
0.0
  0
LINE
  5
55B
330
71
100
AcDbEntity
  8
0
100
AcDbLine
 10
2116.337378181845
 20
222.5504950710454
 30
0.0
 11
2116.337378181845
 21
222.3004950710453
 31
0.0
  0
LINE
  5
55C
330
71
100
AcDbEntity
  8
0
100
AcDbLine
 10
2204.337378181845
 20
222.5504950710466
 30
0.0
 11
2163.337378181845
 21
230.050495071046
 31
0.0
  0
LINE
  5
55D
330
71
100
AcDbEntity
  8
0
100
AcDbLine
 10
2157.337378181845
 20
230.050495071046
 30
0.0
 11
2116.337378181845
 21
222.5504950710454
 31
0.0
  0
LINE
  5
55E
330
71
100
AcDbEntity
  8
0
100
AcDbLine
 10
2204.337378181845
 20
222.3004950710464
 30
0.0
 11
2160.337378181845
 21
222.3004950710458
 31
0.0
  0
LINE
  5
55F
330
71
100
AcDbEntity
  8
0
100
AcDbLine
 10
2160.337378181845
 20
222.3004950710458
 30
0.0
 11
2116.337378181845
 21
222.3004950710451
 31
0.0
  0
LINE
  5
560
330
71
100
AcDbEntity
  8
0
100
AcDbLine
 10
2204.337378181845
 20
222.5504950710464
 30
0.0
 11
2160.337378181845
 21
222.5504950710458
 31
0.0
  0
LINE
  5
561
330
71
100
AcDbEntity
  8
0
100
AcDbLine
 10
2160.337378181845
 20
222.5504950710458
 30
0.0
 11
2116.337378181845
 21
222.5504950710452
 31
0.0
  0
LINE
  5
562
330
71
100
AcDbEntity
  8
0
100
AcDbLine
 10
2163.337378181845
 20
230.0504950710458
 30
0.0
 11
2160.337378181845
 21
230.0504950710458
 31
0.0
  0
LINE
  5
563
330
71
100
AcDbEntity
  8
0
100
AcDbLine
 10
2160.337378181845
 20
230.0504950710458
 30
0.0
 11
2157.337378181845
 21
230.0504950710458
 31
0.0
  0
LINE
  5
564
330
71
100
AcDbEntity
  8
0
100
AcDbLine
 10
2116.712378181848
 20
183.5504950710465
 30
0.0
 11
2203.962378181848
 21
183.5504950710465
 31
0.0
  0
LINE
  5
565
330
71
100
AcDbEntity
  8
0
100
AcDbLine
 10
2203.962378181848
 20
74.67549507104648
 30
0.0
 11
2162.837378181848
 21
74.67549507104648
 31
0.0
  0
LINE
  5
566
330
71
100
AcDbEntity
  8
0
100
AcDbLine
 10
2157.837378181848
 20
74.67549507104648
 30
0.0
 11
2116.712378181848
 21
74.67549507104648
 31
0.0
  0
LINE
  5
567
330
71
100
AcDbEntity
  8
0
100
AcDbLine
 10
2203.962378181848
 20
183.5504950710465
 30
0.0
 11
2203.962378181848
 21
74.67549507104648
 31
0.0
  0
LINE
  5
568
330
71
100
AcDbEntity
  8
0
100
AcDbLine
 10
2116.712378181848
 20
74.67549507104648
 30
0.0
 11
2116.712378181848
 21
183.5504950710465
 31
0.0
  0
LINE
  5
56C
330
71
100
AcDbEntity
  8
0
100
AcDbLine
 10
2116.712378181848
 20
74.67549507104647
 30
0.0
 11
2157.837378181848
 21
74.67549507104647
 31
0.0
  0
LINE
  5
56D
330
71
100
AcDbEntity
  8
0
100
AcDbLine
 10
2162.837378181848
 20
74.67549507104647
 30
0.0
 11
2203.962378181848
 21
74.67549507104647
 31
0.0
  0
LINE
  5
56E
330
71
100
AcDbEntity
  8
0
100
AcDbLine
 10
2203.962378181848
 20
29.8004950710465
 30
0.0
 11
2158.875291406513
 21
29.8004950710465
 31
0.0
  0
LINE
  5
56F
330
71
100
AcDbEntity
  8
0
100
AcDbLine
 10
2153.803510425722
 20
29.8004950710465
 30
0.0
 11
2116.712378181848
 21
29.8004950710465
 31
0.0
  0
LINE
  5
570
330
71
100
AcDbEntity
  8
0
100
AcDbLine
 10
2116.712378181848
 20
74.67549507104647
 30
0.0
 11
2116.712378181848
 21
68.8004950710462
 31
0.0
  0
LINE
  5
571
330
71
100
AcDbEntity
  8
0
100
AcDbLine
 10
2116.712378181848
 20
68.8004950710462
 30
0.0
 11
2157.837378181848
 21
68.8004950710462
 31
0.0
  0
LINE
  5
572
330
71
100
AcDbEntity
  8
0
100
AcDbLine
 10
2162.837378181848
 20
68.8004950710462
 30
0.0
 11
2203.962378181848
 21
68.8004950710462
 31
0.0
  0
LINE
  5
573
330
71
100
AcDbEntity
  8
0
100
AcDbLine
 10
2203.962378181848
 20
46.30049507104618
 30
0.0
 11
2154.587378181848
 21
46.30049507104618
 31
0.0
  0
LINE
  5
574
330
71
100
AcDbEntity
  8
0
100
AcDbLine
 10
2149.587378181848
 20
46.30049507104618
 30
0.0
 11
2116.712378181848
 21
46.30049507104618
 31
0.0
  0
LINE
  5
575
330
71
100
AcDbEntity
  8
0
100
AcDbLine
 10
2116.712378181848
 20
46.30049507104618
 30
0.0
 11
2116.712378181848
 21
29.8004950710465
 31
0.0
  0
LINE
  5
576
330
71
100
AcDbEntity
  8
0
100
AcDbLine
 10
2203.962378181848
 20
68.8004950710462
 30
0.0
 11
2203.962378181848
 21
74.67549507104647
 31
0.0
  0
LINE
  5
577
330
71
100
AcDbEntity
  8
0
100
AcDbLine
 10
2203.962378181848
 20
29.8004950710465
 30
0.0
 11
2203.962378181848
 21
46.30049507104618
 31
0.0
  0
LINE
  5
578
330
71
100
AcDbEntity
  8
0
100
AcDbLine
 10
2202.962378181848
 20
46.30049507104621
 30
0.0
 11
2202.962378181848
 21
68.80049507104621
 31
0.0
  0
LINE
  5
579
330
71
100
AcDbEntity
  8
0
100
AcDbLine
 10
2201.587378181848
 20
68.80049507104621
 30
0.0
 11
2201.587378181848
 21
46.3004950710462
 31
0.0
  0
LINE
  5
57A
330
71
100
AcDbEntity
  8
0
100
AcDbLine
 10
2198.212378181848
 20
68.8004950710462
 30
0.0
 11
2198.212378181848
 21
46.3004950710462
 31
0.0
  0
LINE
  5
57D
330
71
100
AcDbEntity
  8
0
100
AcDbLine
 10
2122.462378181849
 20
68.8004950710462
 30
0.0
 11
2122.462378181849
 21
46.3004950710462
 31
0.0
  0
LINE
  5
57E
330
71
100
AcDbEntity
  8
0
100
AcDbLine
 10
2119.087378181848
 20
68.80049507104621
 30
0.0
 11
2119.087378181848
 21
46.3004950710462
 31
0.0
  0
LINE
  5
57F
330
71
100
AcDbEntity
  8
0
100
AcDbLine
 10
2117.712378181848
 20
68.80049507104621
 30
0.0
 11
2117.712378181848
 21
46.30049507104621
 31
0.0
  0
ARC
  5
580
330
71
100
AcDbEntity
  8
0
100
AcDbCircle
 10
2181.712378181847
 20
42.80049507104648
 30
0.0
 40
1.499999999999995
100
AcDbArc
 50
359.9999999999996
 51
179.9999999999996
  0
ARC
  5
581
330
71
100
AcDbEntity
  8
0
100
AcDbCircle
 10
2181.712378181847
 20
42.80049507104648
 30
0.0
 40
1.5
100
AcDbArc
 50
180.0
 51
359.9999999999992
  0
ARC
  5
582
330
71
100
AcDbEntity
  8
0
100
AcDbCircle
 10
2124.962378181848
 20
32.9254950710465
 30
0.0
 40
0.9999999999999715
100
AcDbArc
 50
359.9999999999994
 51
179.9999999999996
  0
ARC
  5
583
330
71
100
AcDbEntity
  8
0
100
AcDbCircle
 10
2124.962378181848
 20
32.9254950710465
 30
0.0
 40
1.000000000000001
100
AcDbArc
 50
180.0
 51
359.9999999999992
  0
ARC
  5
584
330
71
100
AcDbEntity
  8
0
100
AcDbCircle
 10
2193.462378181847
 20
51.8004950710465
 30
0.0
 40
0.7500000000000126
100
AcDbArc
 50
359.9999999999984
 51
179.9999999999988
  0
ARC
  5
585
330
71
100
AcDbEntity
  8
0
100
AcDbCircle
 10
2193.462378181847
 20
51.8004950710465
 30
0.0
 40
0.7499999999999895
100
AcDbArc
 50
180.0000000000012
 51
0.0000000000006107
  0
ARC
  5
586
330
71
100
AcDbEntity
  8
0
100
AcDbCircle
 10
2139.462378181848
 20
166.3004950710465
 30
0.0
 40
2.0
100
AcDbArc
 50
359.9999999999988
 51
179.9999999999996
  0
ARC
  5
587
330
71
100
AcDbEntity
  8
0
100
AcDbCircle
 10
2139.462378181848
 20
166.3004950710465
 30
0.0
 40
2.0
100
AcDbArc
 50
180.0000000000004
 51
359.9999999999988
  0
ARC
  5
588
330
71
100
AcDbEntity
  8
0
100
AcDbCircle
 10
2139.462378181848
 20
88.67549507104648
 30
0.0
 40
2.000000000000014
100
AcDbArc
 50
359.9999999999992
 51
179.9999999999994
  0
ARC
  5
589
330
71
100
AcDbEntity
  8
0
100
AcDbCircle
 10
2139.462378181848
 20
88.67549507104648
 30
0.0
 40
1.999999999999992
100
AcDbArc
 50
180.0000000000006
 51
0.0000000000002036
  0
ARC
  5
58A
330
71
100
AcDbEntity
  8
0
100
AcDbCircle
 10
2181.212378181848
 20
166.3004950710465
 30
0.0
 40
2.000000000000031
100
AcDbArc
 50
359.9999999999984
 51
179.9999999999992
  0
ARC
  5
58B
330
71
100
AcDbEntity
  8
0
100
AcDbCircle
 10
2181.212378181848
 20
166.3004950710465
 30
0.0
 40
1.999999999999965
100
AcDbArc
 50
180.0000000000012
 51
359.9999999999992
  0
ARC
  5
58C
330
71
100
AcDbEntity
  8
0
100
AcDbCircle
 10
2181.212378181848
 20
88.67549507104648
 30
0.0
 40
2.000000000000026
100
AcDbArc
 50
0.0
 51
179.9999999999998
  0
ARC
  5
58D
330
71
100
AcDbEntity
  8
0
100
AcDbCircle
 10
2181.212378181848
 20
88.67549507104648
 30
0.0
 40
2.0
100
AcDbArc
 50
180.0000000000002
 51
359.9999999999994
  0
ARC
  5
596
330
71
100
AcDbEntity
  8
0
100
AcDbCircle
 10
2160.337378181846
 20
173.9254950710499
 30
0.0
 40
2.509388370788988
100
AcDbArc
 50
355.0422536718029
 51
184.9577463281969
  0
HATCH
  5
659
330
71
100
AcDbEntity
  8
0
100
AcDbHatch
 10
0.0
 20
0.0
 30
0.0
210
0.0
220
0.0
230
1.0
  2
HONEY
 70
     0
 71
     0
 91
        6
 92
        7
 72
     0
 73
     1
 93
        4
 10
1828.466201280429
 20
68.80049507104654
 10
1752.716201280429
 20
68.80049507104654
 10
1752.716201280429
 20
46.30049507104653
 10
1828.466201280429
 20
46.30049507104653
 97
        0
 92
        7
 72
     0
 73
     1
 93
        4
 10
1973.100476880555
 20
68.80049507104638
 10
1926.725476880554
 20
68.80049507104654
 10
1926.725476880554
 20
46.30049507104653
 10
1973.100476880555
 20
46.30049507104637
 97
        0
 92
        7
 72
     0
 73
     1
 93
        4
 10
2022.975476880555
 20
68.80049507104621
 10
1976.600476880555
 20
68.80049507104637
 10
1976.600476880555
 20
46.30049507104636
 10
2022.975476880554
 20
46.3004950710462
 97
        0
 92
        7
 72
     0
 73
     1
 93
       85
 10
2149.79073003108
 20
57.66363550678786
 10
2149.860275089968
 20
57.9141439336535
 10
2149.939782185426
 20
58.16167091989758
 10
2150.029124123062
 20
58.40582047514601
 10
2150.128157974831
 20
58.64620201218667
 10
2150.236725307701
 20
58.882430971846
 10
2150.354652437096
 20
59.11412943817736
 10
2150.481750704766
 20
59.34092674305988
 10
2150.617816780597
 20
59.56246005918959
 10
2150.762632987892
 20
59.77837498051785
 10
2150.915967651612
 20
59.98832608922981
 10
2151.077575469006
 20
60.19197750833745
 10
2151.247197902038
 20
60.3890034390146
 10
2151.424563591
 20
60.57908868180252
 10
2151.60938878863
 20
60.76192914086207
 10
2151.801377814033
 20
60.93723231046254
 10
2152.000223525728
 20
61.1047177429272
 10
2152.205607812993
 20
61.26411749729438
 10
2152.41720210478
 20
61.41517656795956
 10
2152.634667895362
 20
61.5576532926341
 10
2152.857657285863
 20
61.69131973895135
 10
2153.085813540828
 20
61.81596206911208
 10
2153.31877165892
 20
61.93138088197654
 10
2153.556158956842
 20
62.03739153206528
 10
2153.79759566556
 20
62.13382442495309
 10
2154.042695537844
 20
62.22052528858254
 10
2154.291066466182
 20
62.29735542006665
 10
2154.542311110072
 20
62.36419190758468
 10
2154.79602753168
 20
62.42092782701474
 10
2155.051809838855
 20
62.46747241298804
 10
2155.30924883447
 20
62.50375120409663
 10
2155.567932671048
 20
62.52970616201364
 10
2155.827447509635
 20
62.54529576434292
 10
2156.087378181848
 20
62.55049507104654
 10
2156.337378181847
 20
62.55049507104654
 10
2156.353572357435
 20
62.55058249070168
 10
2156.413539909248
 20
62.55242985508317
 10
2156.473385618545
 20
62.55667380424013
 10
2156.533013744956
 20
62.56330754875914
 10
2156.592328896198
 20
62.57232047606388
 10
2156.651236180684
 20
62.58369816739359
 10
2156.709641359326
 20
62.59742242086929
 10
2156.767450996295
 20
62.61347128061274
 10
2156.824572608506
 20
62.63181907187219
 10
2156.880914813562
 20
62.65243644209578
 10
2156.936387475958
 20
62.67529040788861
 10
2156.990901851262
 20
62.70034440778172
 10
2157.044370728108
 20
62.72755836071906
 10
2157.096708567697
 20
62.75688873018197
 10
2157.14783164065
 20
62.78828859383522
 10
2157.197658160956
 20
62.82170771859481
 10
2157.246108416813
 20
62.85709264099232
 10
2157.293104898144
 20
62.89438675269813
 10
2157.338572420609
 20
62.9335303910895
 10
2157.382438245869
 20
62.97446093469811
 10
2157.424632197959
 20
63.01711290338044
 10
2157.465086775559
 20
63.06141806309036
 10
2157.503737259974
 20
63.1073055350194
 10
2157.540521818674
 20
63.15470190900274
 10
2157.575381604213
 20
63.20353136095534
 10
2157.608260848368
 20
63.25371577416628
 10
2157.639106951364
 20
63.30517486428157
 10
2157.667870566016
 20
63.35782630773442
 10
2157.694505676677
 20
63.41158587344772
 10
2157.718969672852
 20
63.46636755758389
 10
2157.741223417366
 20
63.52208372113508
 10
2157.761231308971
 20
63.57864523012093
 10
2157.778961339313
 20
63.63596159819869
 10
2157.794385144125
 20
63.69394113140335
 10
2157.80747804861
 20
63.75249107485572
 10
2157.818219106912
 20
63.81151776112502
 10
2157.826591135628
 20
63.87092676011381
 10
2157.832580741302
 20
63.93062303009402
 10
2157.836178341839
 20
63.99051106976589
 10
2157.837378181848
 20
64.05049507104546
 10
2157.837378181848
 20
68.8004950710462
 10
2122.462378181849
 20
68.8004950710462
 10
2122.462378181849
 20
46.30049507104618
 10
2149.587378181848
 20
46.30049507104618
 10
2149.587378181848
 20
56.10837295179876
 10
2149.595762246006
 20
56.38052922311543
 10
2149.614152692354
 20
56.63986063006539
 10
2149.642898918602
 20
56.89824917784616
 10
2149.681954936923
 20
57.15528149990023
 10
2149.731258266019
 20
57.41054639934175
 97
        0
 92
        7
 72
     0
 73
     1
 93
       85
 10
2198.212378181848
 20
68.8004950710462
 10
2162.837378181848
 20
68.8004950710462
 10
2162.837378181848
 20
63.99261719029411
 10
2162.828994117689
 20
63.72046091898043
 10
2162.810603671343
 20
63.46112951202908
 10
2162.781857445094
 20
63.202740964248
 10
2162.742801426773
 20
62.9457086421948
 10
2162.693498097677
 20
62.69044374275068
 10
2162.634026332617
 20
62.43735463530679
 10
2162.564481273728
 20
62.18684620843787
 10
2162.48497417827
 20
61.93931922219444
 10
2162.395632240635
 20
61.6951696669496
 10
2162.296598388866
 20
61.45478812990699
 10
2162.188031055995
 20
61.21855917024579
 10
2162.070103926599
 20
60.98686070391632
 10
2161.94300565893
 20
60.76006339903349
 10
2161.8069395831
 20
60.53853008290491
 10
2161.662123375805
 20
60.32261516157539
 10
2161.508788712085
 20
60.11266405286441
 10
2161.347180894691
 20
59.90901263375588
 10
2161.177558461658
 20
59.71198670307781
 10
2161.000192772695
 20
59.52190146029034
 10
2160.815367575066
 20
59.33906100123053
 10
2160.623378549663
 20
59.16375783163125
 10
2160.424532837968
 20
58.99627239916547
 10
2160.219148550703
 20
58.83687264479896
 10
2160.007554258915
 20
58.68581357413353
 10
2159.790088468333
 20
58.54333684945959
 10
2159.567099077833
 20
58.40967040314165
 10
2159.338942822868
 20
58.28502807298136
 10
2159.105984704776
 20
58.16960926011677
 10
2158.868597406854
 20
58.06359861002789
 10
2158.627160698136
 20
57.96716571713986
 10
2158.382060825852
 20
57.88046485351063
 10
2158.133689897514
 20
57.80363472202665
 10
2157.882445253624
 20
57.73679823450839
 10
2157.628728832015
 20
57.68006231507848
 10
2157.37294652484
 20
57.633517729105
 10
2157.115507529225
 20
57.59723893799638
 10
2156.856823692647
 20
57.57128398007957
 10
2156.597308854061
 20
57.55569437775029
 10
2156.337378181848
 20
57.55049507104668
 10
2156.087378181848
 20
57.55049507104668
 10
2156.071184006261
 20
57.5504076513917
 10
2156.011216454448
 20
57.54856028700988
 10
2155.951370745151
 20
57.54431633785309
 10
2155.891742618742
 20
57.53768259333406
 10
2155.832427467498
 20
57.52866966602908
 10
2155.773520183011
 20
57.51729197469952
 10
2155.715115004369
 20
57.50356772122414
 10
2155.6573053674
 20
57.4875188614803
 10
2155.600183755189
 20
57.4691710702209
 10
2155.543841550133
 20
57.44855369999751
 10
2155.48836888774
 20
57.4256997342045
 10
2155.433854512432
 20
57.40064573431141
 10
2155.380385635587
 20
57.37343178137375
 10
2155.328047796
 20
57.34410141191172
 10
2155.276924723045
 20
57.31270154825843
 10
2155.22709820274
 20
57.27928242349838
 10
2155.178647946883
 20
57.24389750110127
 10
2155.13165146555
 20
57.20660338939549
 10
2155.086183943085
 20
57.16745975100248
 10
2155.042318117827
 20
57.12652920739623
 10
2155.000124165736
 20
57.08387723871143
 10
2154.959669588137
 20
57.03957207900393
 10
2154.921019103721
 20
56.99368460707368
 10
2154.884234545022
 20
56.94628823309011
 10
2154.849374759484
 20
56.89745878113786
 10
2154.816495515327
 20
56.84727436792631
 10
2154.785649412331
 20
56.79581527781204
 10
2154.756885797679
 20
56.7431638343586
 10
2154.730250687017
 20
56.68940426864605
 10
2154.705786690844
 20
56.63462258451024
 10
2154.683532946331
 20
56.57890642095857
 10
2154.663525054724
 20
56.52234491196772
 10
2154.645795024382
 20
56.46502854389159
 10
2154.63037121957
 20
56.4070490106885
 10
2154.617278315086
 20
56.34849906723979
 10
2154.606537256785
 20
56.28947238096864
 10
2154.598165228067
 20
56.23006338197878
 10
2154.592175622394
 20
56.1703671120001
 10
2154.588578021856
 20
56.11047907232634
 10
2154.587378181848
 20
56.05049507104705
 10
2154.587378181848
 20
46.30049507104618
 10
2198.212378181848
 20
46.30049507104618
 97
        0
 92
       22
 72
     1
 73
     1
 93
        2
 10
2194.212378181847
 20
51.80049507104648
 42
-1.0
 10
2192.712378181847
 20
51.80049507104648
 42
-1.0
 97
        0
 75
     1
 76
     1
 52
0.0
 41
8.0
 77
     0
 78
     3
 53
0.0
 43
0.0
 44
0.0
 45
1.5
 46
0.8660254037844385
 79
     2
 49
1.0
 49
-2.0
 53
120.0
 43
0.0
 44
0.0
 45
-1.499999999999999
 46
0.8660254037844389
 79
     2
 49
0.9999999999999998
 49
-1.999999999999999
 53
60.0
 43
0.0
 44
0.0
 45
0.0000000000000003
 46
1.732050807568876
 79
     2
 49
-2.0
 49
1.0
 47
0.221924802715361
 98
        6
 10
1788.094279193738
 20
62.05982119329656
 10
1941.338448243237
 20
56.51170375426045
 10
1997.411161009623
 20
58.06630893171131
 10
2136.663479502389
 20
57.40053868433278
 10
2176.862296591229
 20
56.06899079475624
 10
2176.862296591229
 20
56.06899079475624
1001
GradientColor1ACI
1070
     5
1001
GradientColor2ACI
1070
     2
1001
ACAD
1010
0.0
1020
0.0
1030
0.0
  0
LINE
  5
950
330
71
100
AcDbEntity
  8
0
100
AcDbLine
 10
2035.225476880552
 20
164.3004950710468
 30
0.0
 11
2035.225476880552
 21
161.9254950710494
 31
0.0
  0
VIEWPORT
  5
35A
102
{ACAD_XDICTIONARY
360
991
102
}
330
6D
100
AcDbEntity
 67
     1
  8
0
100
AcDbViewport
 10
1780.230945548041
 20
86.073548105834
 30
0.0
 40
5052.551173629652
 41
2060.596588305356
 68
     1
 69
     1
 12
1780.230945548041
 22
86.073548105834
 13
0.0
 23
0.0
 14
0.0
 24
0.0
 15
0.0
 25
0.0
 16
0.0
 26
0.0
 36
1.0
 17
0.0
 27
0.0
 37
0.0
 42
50.0
 43
0.0
 44
0.0
 45
2060.596588305356
 50
0.0
 51
0.0
 72
   100
 90
    32800
  1

281
     0
 71
     1
 74
     1
110
0.0
120
0.0
130
0.0
111
1.0
121
0.0
131
0.0
112
0.0
122
1.0
132
0.0
 79
     0
146
0.0
  0
ENDSEC
  0
SECTION
  2
OBJECTS
  0
DICTIONARY
  5
C
330
0
100
AcDbDictionary
281
     1
  3
ACAD_CIP_PREVIOUS_PRODUCT_INFO
350
7A
  3
ACAD_COLOR
350
63
  3
ACAD_DETAILVIEWSTYLE
350
6B
  3
ACAD_GROUP
350
D
  3
ACAD_IMAGE_VARS
350
7B
  3
ACAD_LAYOUT
350
62
  3
ACAD_MATERIAL
350
10
  3
ACAD_MLEADERSTYLE
350
66
  3
ACAD_MLINESTYLE
350
5F
  3
ACAD_PLOTSETTINGS
350
61
  3
ACAD_PLOTSTYLENAME
350
E
  3
ACAD_SCALELIST
350
42
  3
ACAD_SECTIONVIEWSTYLE
350
68
  3
ACAD_TABLESTYLE
350
64
  3
ACAD_VISUALSTYLE
350
29
  3
ACDB_RECOMPOSE_DATA
350
958
  3
AcDbVariableDictionary
350
7C
  3
DWGPROPS
350
959
  3
REVIT_DICTIONARY
350
37D
  0
DICTIONARY
  5
39B
330
2
100
AcDbDictionary
280
     1
281
     1
  3
ACAD_LAYERSTATES
360
39C
  0
DICTIONARY
  5
381
330
71
100
AcDbDictionary
280
     1
281
     1
  3
ACAD_SORTENTS
360
382
  0
DICTIONARY
  5
991
330
35A
100
AcDbDictionary
280
     1
281
     1
  3
ACAD_XREC_ROUNDTRIP
360
992
  0
XRECORD
  5
7A
102
{ACAD_REACTORS
330
C
102
}
330
C
100
AcDbXrecord
280
     1
300
ACD
300
2013
300
85946BDSPRM_2013_0F
  0
DICTIONARY
  5
63
102
{ACAD_REACTORS
330
C
102
}
330
C
100
AcDbDictionary
281
     1
  0
DICTIONARY
  5
6B
102
{ACAD_REACTORS
330
C
102
}
330
C
100
AcDbDictionary
281
     1
  3
Imperial24
350
6C
  0
DICTIONARY
  5
D
102
{ACAD_REACTORS
330
C
102
}
330
C
100
AcDbDictionary
281
     1
  0
RASTERVARIABLES
  5
7B
102
{ACAD_REACTORS
330
C
102
}
330
C
100
AcDbRasterVariables
 90
        0
 70
     0
 71
     1
 72
     5
  0
DICTIONARY
  5
62
102
{ACAD_REACTORS
330
C
102
}
330
C
100
AcDbDictionary
281
     1
  3
Layout1
350
70
  3
Model
350
74
  0
DICTIONARY
  5
10
102
{ACAD_REACTORS
330
C
102
}
330
C
100
AcDbDictionary
281
     1
  3
ByBlock
350
19
  3
ByLayer
350
11
  3
Global
350
21
  0
DICTIONARY
  5
66
102
{ACAD_REACTORS
330
C
102
}
330
C
100
AcDbDictionary
281
     1
  3
Standard
350
67
  0
DICTIONARY
  5
5F
102
{ACAD_REACTORS
330
C
102
}
330
C
100
AcDbDictionary
281
     1
  3
Standard
350
60
  0
DICTIONARY
  5
61
102
{ACAD_REACTORS
330
C
102
}
330
C
100
AcDbDictionary
281
     1
  0
ACDBDICTIONARYWDFLT
  5
E
102
{ACAD_REACTORS
330
C
102
}
330
C
100
AcDbDictionary
281
     1
  3
Normal
350
F
100
AcDbDictionaryWithDefault
340
F
  0
DICTIONARY
  5
42
102
{ACAD_REACTORS
330
C
102
}
330
C
100
AcDbDictionary
281
     1
  3
A0
350
43
  3
A1
350
44
  3
A2
350
45
  3
A3
350
46
  3
A4
350
47
  3
A5
350
48
  3
A6
350
49
  3
A7
350
4A
  3
A8
350
4B
  3
A9
350
4C
  3
B0
350
4D
  3
B1
350
4E
  3
B2
350
4F
  3
B3
350
50
  3
B4
350
51
  3
B5
350
52
  3
B6
350
53
  0
DICTIONARY
  5
68
102
{ACAD_REACTORS
330
C
102
}
330
C
100
AcDbDictionary
281
     1
  3
Imperial24
350
6A
  0
DICTIONARY
  5
64
102
{ACAD_REACTORS
330
C
102
}
330
C
100
AcDbDictionary
281
     1
  3
Standard
350
65
  0
DICTIONARY
  5
29
102
{ACAD_REACTORS
330
C
102
}
330
C
100
AcDbDictionary
281
     1
  3
2dWireframe
350
2F
  3
Basic
350
2E
  3
Brighten
350
35
  3
ColorChange
350
39
  3
Conceptual
350
32
  3
Dim
350
34
  3
EdgeColorOff
350
41
  3
Facepattern
350
38
  3
Flat
350
2A
  3
FlatWithEdges
350
2B
  3
Gouraud
350
2C
  3
GouraudWithEdges
350
2D
  3
Hidden
350
31
  3
JitterOff
350
3F
  3
Linepattern
350
37
  3
OverhangOff
350
40
  3
Realistic
350
33
  3
Shaded
350
3E
  3
Shaded with edges
350
3D
  3
Shades of Gray
350
3A
  3
Sketchy
350
3B
  3
Thicken
350
36
  3
Wireframe
350
30
  3
X-Ray
350
3C
  0
XRECORD
  5
958
102
{ACAD_REACTORS
330
C
102
}
330
C
100
AcDbXrecord
280
     1
 90
        1
330
65
  0
DICTIONARY
  5
7C
102
{ACAD_REACTORS
330
C
102
}
330
C
100
AcDbDictionary
281
     1
  3
CANNOSCALE
350
81
  3
CMLEADERSTYLE
350
7E
  3
CTABLESTYLE
350
7D
  3
CVIEWDETAILSTYLE
350
7F
  3
CVIEWSECTIONSTYLE
350
80
  3
DIMASSOC
350
6C0
  3
HIDETEXT
350
6BF
  3
INDEXCTL
350
6BE
  3
LATITUDE
350
953
  3
LAYEREVAL
350
6BB
  3
LAYERNOTIFY
350
6BC
  3
LIGHTINGUNITS
350
6BA
  3
LOFTANG1
350
951
  3
LOFTANG2
350
952
  3
LONGITUDE
350
954
  3
MSLTSCALE
350
6B9
  3
SORTENTS
350
6BD
  3
TIMEZONE
350
955
  3
XCLIPFRAME
350
956
  0
XRECORD
  5
959
102
{ACAD_REACTORS
330
C
102
}
330
C
100
AcDbXrecord
280
     1
  1
DWGPROPS COOKIE
  2

  3

  4

  6

  7

  8
jcl
  9

300
=
301
=
302
=
303
=
304
=
305
=
306
=
307
=
308
=
309
=
 40
0.0168440393518519
 41
2457120.629677847
 42
2457120.679772152
  1

 90
        0
  0
DICTIONARY
  5
37D
102
{ACAD_REACTORS
330
C
102
}
330
C
100
AcDbDictionary
281
     1
  3
REVIT_CATEGORY_MAPPING
350
37F
  3
REVIT_SUB_CATEGORY_MAPPING
350
380
  3
REVIT_TYPE_MAPPING
350
37E
  0
DICTIONARY
  5
39C
102
{ACAD_REACTORS
330
39B
102
}
330
39B
100
AcDbDictionary
281
     1
  0
SORTENTSTABLE
  5
382
102
{ACAD_REACTORS
330
381
102
}
330
381
100
AcDbSortentsTable
330
71
331
524
  5
3C9
331
520
  5
50B
331
55F
  5
407
331
596
  5
65C
331
51C
  5
507
331
55B
  5
403
331
518
  5
501
331
950
  5
43E
331
436
  5
524
331
432
  5
520
331
42E
  5
51C
331
46D
  5
454
331
3F7
  5
56E
331
4A8
  5
492
331
4E7
  5
4D0
331
58A
  5
433
331
42A
  5
518
331
469
  5
450
331
3F3
  5
56A
331
4E3
  5
4CC
331
4A4
  5
48B
331
4A0
  5
487
331
557
  5
3FF
331
586
  5
42F
331
553
  5
3FB
331
510
  5
4FB
331
54F
  5
3F7
331
582
  5
42A
331
50C
  5
4F7
331
54B
  5
3F3
331
57E
  5
426
331
508
  5
4F1
331
57A
  5
424
331
426
  5
514
331
465
  5
44C
331
3EF
  5
566
331
4DF
  5
4C8
331
422
  5
510
331
461
  5
448
331
3EB
  5
562
331
49C
  5
483
331
4DB
  5
4C4
331
3E7
  5
55E
331
4D7
  5
4C0
331
45D
  5
444
331
498
  5
47F
331
41A
  5
59B
331
459
  5
440
331
3E3
  5
55A
331
4D3
  5
4BC
331
494
  5
47B
331
490
  5
477
331
547
  5
3EF
331
504
  5
4ED
331
543
  5
3EB
331
576
  5
41E
331
500
  5
4E9
331
572
  5
41A
331
4FC
  5
4E5
331
53B
  5
3E3
331
56E
  5
416
331
4F8
  5
4E1
331
416
  5
58D
331
3DF
  5
556
331
4CF
  5
4B8
331
455
  5
43C
331
412
  5
589
331
3DB
  5
552
331
4CB
  5
4B4
331
451
  5
437
331
40E
  5
585
331
3D7
  5
54E
331
4C7
  5
4B0
331
40A
  5
581
331
449
  5
539
331
3D3
  5
54A
331
4C3
  5
4AC
331
480
  5
475
331
537
  5
3DF
331
4F4
  5
4DD
331
533
  5
3D8
331
4F0
  5
4D9
331
52F
  5
3D4
331
4EC
  5
4D5
331
52B
  5
3D0
331
566
  5
411
331
4E8
  5
4D1
331
562
  5
40A
331
406
  5
57D
331
445
  5
535
331
3CF
  5
546
331
402
  5
579
331
441
  5
52F
331
3CB
  5
542
331
4BB
  5
4A7
331
3FE
  5
575
331
43D
  5
52E
331
478
  5
471
331
659
  5
3DA
331
4B7
  5
4A4
331
3FA
  5
571
331
439
  5
52A
331
474
  5
45B
331
4B3
  5
49D
331
470
  5
457
331
523
  5
3C8
331
51F
  5
50A
331
55E
  5
406
331
51B
  5
504
331
55A
  5
402
331
435
  5
523
331
4AF
  5
497
331
431
  5
51F
331
4AB
  5
495
331
58D
  5
436
331
42D
  5
51B
331
46C
  5
453
331
3F6
  5
56D
331
4A7
  5
491
331
589
  5
432
331
4E6
  5
4CF
331
429
  5
517
331
468
  5
44F
331
3F2
  5
569
331
4E2
  5
4CB
331
4A3
  5
48A
331
517
  5
500
331
556
  5
3FE
331
585
  5
42E
331
552
  5
3FA
331
50F
  5
4FA
331
54E
  5
3F6
331
581
  5
429
331
50B
  5
4F4
331
54A
  5
3F2
331
57D
  5
425
331
579
  5
423
331
425
  5
513
331
464
  5
44B
331
3EE
  5
565
331
49F
  5
486
331
4DE
  5
4C7
331
421
  5
50F
331
460
  5
447
331
3EA
  5
561
331
49B
  5
482
331
4DA
  5
4C3
331
41D
  5
59E
331
45C
  5
443
331
3E6
  5
55D
331
497
  5
47E
331
4D6
  5
4BF
331
419
  5
59A
331
458
  5
43F
331
3E2
  5
559
331
4D2
  5
4BB
331
493
  5
47A
331
507
  5
4F0
331
546
  5
3EE
331
503
  5
4EC
331
575
  5
41D
331
542
  5
3EA
331
4FF
  5
4E8
331
53E
  5
3E7
331
571
  5
419
331
4FB
  5
4E4
331
53A
  5
3E2
331
56D
  5
415
331
415
  5
58C
331
3DE
  5
555
331
4CE
  5
4B7
331
48F
  5
476
331
454
  5
43B
331
411
  5
588
331
450
  5
53E
331
3DA
  5
551
331
4CA
  5
4B3
331
40D
  5
584
331
3D6
  5
54D
331
4C6
  5
4AF
331
409
  5
580
331
448
  5
538
331
3D2
  5
549
331
4C2
  5
4AB
331
4F7
  5
4E0
331
536
  5
3DE
331
4F3
  5
4DC
331
532
  5
3D7
331
4EF
  5
4D8
331
52E
  5
3D3
331
4EB
  5
4D4
331
52A
  5
3CF
331
565
  5
40D
331
561
  5
409
331
405
  5
57C
331
444
  5
532
331
47F
  5
474
331
3CE
  5
545
331
401
  5
578
331
3CA
  5
541
331
3FD
  5
574
331
43C
  5
52D
331
477
  5
462
331
4B6
  5
4A3
331
3F9
  5
570
331
438
  5
529
331
4B2
  5
49B
331
473
  5
45A
331
526
  5
3CB
331
522
  5
50D
331
51E
  5
509
331
55D
  5
405
331
51A
  5
503
331
559
  5
401
331
434
  5
522
331
430
  5
51E
331
46F
  5
456
331
4AA
  5
494
331
58C
  5
435
331
42C
  5
51A
331
46B
  5
452
331
3F5
  5
56C
331
4E5
  5
4CE
331
588
  5
431
331
4A6
  5
48D
331
428
  5
516
331
3F1
  5
568
331
4E1
  5
4CA
331
4A2
  5
489
331
516
  5
4FF
331
555
  5
3FD
331
512
  5
4FD
331
551
  5
3F9
331
584
  5
42D
331
50E
  5
4F9
331
54D
  5
3F5
331
580
  5
428
331
50A
  5
4F3
331
549
  5
3F1
331
578
  5
422
331
467
  5
44E
331
424
  5
512
331
463
  5
44A
331
3ED
  5
564
331
49E
  5
485
331
4DD
  5
4C6
331
420
  5
50E
331
45F
  5
446
331
3E9
  5
560
331
49A
  5
481
331
4D9
  5
4C2
331
41C
  5
59D
331
45B
  5
442
331
3E5
  5
55C
331
496
  5
47D
331
4D5
  5
4BE
331
418
  5
598
331
3E1
  5
558
331
4D1
  5
4BA
331
492
  5
479
331
506
  5
4EF
331
545
  5
3ED
331
502
  5
4EB
331
574
  5
41C
331
541
  5
3E9
331
4FE
  5
4E7
331
53D
  5
3E6
331
570
  5
418
331
4FA
  5
4E3
331
539
  5
3E1
331
56C
  5
414
331
568
  5
413
331
414
  5
58B
331
3DD
  5
554
331
4CD
  5
4B6
331
453
  5
43A
331
410
  5
587
331
44F
  5
53D
331
3D9
  5
550
331
4C9
  5
4B2
331
40C
  5
583
331
44B
  5
53B
331
3D5
  5
54C
331
4C5
  5
4AE
331
408
  5
57F
331
3D1
  5
548
331
4C1
  5
4AA
331
4F6
  5
4DF
331
535
  5
3DD
331
4F2
  5
4DB
331
531
  5
3D6
331
4EE
  5
4D7
331
52D
  5
3D2
331
4EA
  5
4D3
331
529
  5
3CE
331
564
  5
40C
331
560
  5
408
331
447
  5
537
331
404
  5
57B
331
443
  5
531
331
3CD
  5
544
331
4BD
  5
4A8
331
400
  5
577
331
3C9
  5
540
331
4B9
  5
4A6
331
47A
  5
473
331
3FC
  5
573
331
43B
  5
52C
331
476
  5
461
331
4B5
  5
4A2
331
3F8
  5
56F
331
4B1
  5
49A
331
472
  5
459
331
525
  5
3CA
331
521
  5
50C
331
51D
  5
508
331
55C
  5
404
331
519
  5
502
331
558
  5
400
331
437
  5
528
331
433
  5
521
331
42F
  5
51D
331
46E
  5
455
331
4A9
  5
493
331
58B
  5
434
331
42B
  5
519
331
46A
  5
451
331
3F4
  5
56B
331
4E4
  5
4CD
331
4A5
  5
48C
331
3F0
  5
567
331
4E0
  5
4C9
331
4A1
  5
488
331
515
  5
4FE
331
554
  5
3FC
331
587
  5
430
331
511
  5
4FC
331
550
  5
3F8
331
583
  5
42C
331
50D
  5
4F8
331
54C
  5
3F4
331
57F
  5
427
331
509
  5
4F2
331
548
  5
3F0
331
427
  5
515
331
466
  5
44D
331
423
  5
511
331
462
  5
449
331
3EC
  5
563
331
49D
  5
484
331
4DC
  5
4C5
331
3E8
  5
55F
331
4D8
  5
4C1
331
45E
  5
445
331
499
  5
480
331
41B
  5
59C
331
45A
  5
441
331
3E4
  5
55B
331
4D4
  5
4BD
331
495
  5
47C
331
3E0
  5
557
331
4D0
  5
4B9
331
491
  5
478
331
505
  5
4EE
331
544
  5
3EC
331
577
  5
41F
331
501
  5
4EA
331
540
  5
3E8
331
573
  5
41B
331
4FD
  5
4E6
331
53C
  5
3E5
331
56F
  5
417
331
4F9
  5
4E2
331
538
  5
3E0
331
417
  5
596
331
456
  5
43D
331
413
  5
58A
331
3DC
  5
553
331
4CC
  5
4B5
331
452
  5
438
331
40F
  5
586
331
44E
  5
53C
331
3D8
  5
54F
331
4C8
  5
4B1
331
40B
  5
582
331
44A
  5
53A
331
3D4
  5
54B
331
4C4
  5
4AD
331
3D0
  5
547
331
4C0
  5
4A9
331
4F5
  5
4DE
331
534
  5
3DB
331
4F1
  5
4DA
331
530
  5
3D5
331
4ED
  5
4D6
331
52C
  5
3D1
331
567
  5
412
331
4E9
  5
4D2
331
563
  5
40B
331
407
  5
57E
331
446
  5
536
331
403
  5
57A
331
442
  5
530
331
3CC
  5
543
331
3FF
  5
576
331
3C8
  5
53F
331
4B8
  5
4A5
331
479
  5
472
331
3FB
  5
572
331
43A
  5
52B
331
475
  5
45C
331
4B4
  5
49F
331
4B0
  5
499
331
471
  5
458
  0
XRECORD
  5
992
102
{ACAD_REACTORS
330
991
102
}
330
991
100
AcDbXrecord
280
     1
102
SHADEPLOT
 70
     0
  0
ACDBDETAILVIEWSTYLE
  5
6C
102
{ACAD_REACTORS
330
6B
102
}
330
6B
100
AcDbModelDocViewStyle
 70
     0
  3
Imperial24
290
     0
100
AcDbDetailViewStyle
 70
     0
 71
     0
 90
        3
 71
     1
340
55
 40
0.24
340
0
 40
0.24
300

 40
0.36
280
     3
 71
     2
340
5D
 90
       25
 71
     3
340
55
 40
0.24
 90
        1
 40
0.75
 90
        1
300
%<\AcVar ViewType \f "%tc1">% %<\AcVar ViewDetailId>%\PSCALE %<\AcVar ViewScale \f "%sn">%
 71
     4
340
5D
 90
       25
340
5D
 90
       25
280
     0
  0
LAYOUT
  5
70
102
{ACAD_XDICTIONARY
360
98D
102
}
102
{ACAD_REACTORS
330
62
102
}
330
62
100
AcDbPlotSettings
  1

  2
\\USJESR-FS01\MD_ENGR_Copier
  4
Letter
  6

 40
7.143749713897705
 41
5.027099609375
 42
7.14373779296875
 43
5.027069091796875
 44
215.8999938964844
 45
279.3999938964844
 46
0.0
 47
0.0
 48
0.0
 49
0.0
140
0.0
141
0.0
142
1.0
143
240.5772734560848
 70
   688
 72
     0
 73
     1
 74
     1
  7

 75
     0
147
0.004156668606449
148
-12818.62022486862
149
22065.4239850904
100
AcDbLayout
  1
Layout1
 70
     1
 71
     1
 10
457.0559704444398
 20
-936.3798351776614
 11
3103.405920651643
 21
1108.526931389329
 12
0.0
 22
0.0
 32
0.0
 14
1.000000000000000E+20
 24
1.000000000000000E+20
 34
1.000000000000000E+20
 15
-1.000000000000000E+20
 25
-1.000000000000000E+20
 35
-1.000000000000000E+20
146
0.0
 13
0.0
 23
0.0
 33
0.0
 16
1.0
 26
0.0
 36
0.0
 17
0.0
 27
1.0
 37
0.0
 76
     0
330
6D
331
35A
1001
ACAD_PSEXT
1000
\\USJESR-FS01\MD_ENGR_Copier
1000
SAVIN C6055 PCL 5c
1000
2nd Floor Left Rear - near room 230
1000

1070
     0
  0
LAYOUT
  5
74
102
{ACAD_XDICTIONARY
360
98F
102
}
102
{ACAD_REACTORS
330
62
102
}
330
62
100
AcDbPlotSettings
  1

  2

  4

  6

 40
0.0
 41
0.0
 42
0.0
 43
0.0
 44
0.0
 45
0.0
 46
0.0
 47
0.0
 48
0.0
 49
0.0
140
0.0
141
0.0
142
1.0
143
1.0
 70
  1712
 72
     0
 73
     0
 74
     0
  7

 75
     0
147
1.0
148
0.0
149
0.0
100
AcDbLayout
  1
Model
 70
     1
 71
     0
 10
0.0
 20
0.0
 11
12.0
 21
9.0
 12
0.0
 22
0.0
 32
0.0
 14
0.0
 24
0.0
 34
0.0
 15
0.0
 25
0.0
 35
0.0
146
0.0
 13
0.0
 23
0.0
 33
0.0
 16
1.0
 26
0.0
 36
0.0
 17
0.0
 27
1.0
 37
0.0
 76
     0
330
71
331
57
  0
MATERIAL
  5
19
102
{ACAD_XDICTIONARY
360
1A
102
}
102
{ACAD_REACTORS
330
10
102
}
330
10
100
AcDbMaterial
  1
ByBlock
 72
     0
 43
0.0208333333333333
 43
0.0
 43
0.0
 43
0.0
 43
0.0
 43
0.0208333333333333
 43
0.0
 43
0.0
 43
0.0
 43
0.0
 43
1.0
 43
0.0
 43
0.0
 43
0.0
 43
0.0
 43
1.0
 77
     0
 47
0.0208333333333333
 47
0.0
 47
0.0
 47
0.0
 47
0.0
 47
0.0208333333333333
 47
0.0
 47
0.0
 47
0.0
 47
0.0
 47
1.0
 47
0.0
 47
0.0
 47
0.0
 47
0.0
 47
1.0
171
     0
 49
0.0208333333333333
 49
0.0
 49
0.0
 49
0.0
 49
0.0
 49
0.0208333333333333
 49
0.0
 49
0.0
 49
0.0
 49
0.0
 49
1.0
 49
0.0
 49
0.0
 49
0.0
 49
0.0
 49
1.0
175
     0
142
0.0208333333333333
142
0.0
142
0.0
142
0.0
142
0.0
142
0.0208333333333333
142
0.0
142
0.0
142
0.0
142
0.0
142
1.0
142
0.0
142
0.0
142
0.0
142
0.0
142
1.0
179
     0
144
0.0208333333333333
144
0.0
144
0.0
144
0.0
144
0.0
144
0.0208333333333333
144
0.0
144
0.0
144
0.0
144
0.0
144
1.0
144
0.0
144
0.0
144
0.0
144
0.0
144
1.0
147
0.0208333333333333
147
0.0
147
0.0
147
0.0
147
0.0
147
0.0208333333333333
147
0.0
147
0.0
147
0.0
147
0.0
147
1.0
147
0.0
147
0.0
147
0.0
147
0.0
147
1.0
  0
MATERIAL
  5
11
102
{ACAD_XDICTIONARY
360
12
102
}
102
{ACAD_REACTORS
330
10
102
}
330
10
100
AcDbMaterial
  1
ByLayer
 72
     0
 43
0.0208333333333333
 43
0.0
 43
0.0
 43
0.0
 43
0.0
 43
0.0208333333333333
 43
0.0
 43
0.0
 43
0.0
 43
0.0
 43
1.0
 43
0.0
 43
0.0
 43
0.0
 43
0.0
 43
1.0
 77
     0
 47
0.0208333333333333
 47
0.0
 47
0.0
 47
0.0
 47
0.0
 47
0.0208333333333333
 47
0.0
 47
0.0
 47
0.0
 47
0.0
 47
1.0
 47
0.0
 47
0.0
 47
0.0
 47
0.0
 47
1.0
171
     0
 49
0.0208333333333333
 49
0.0
 49
0.0
 49
0.0
 49
0.0
 49
0.0208333333333333
 49
0.0
 49
0.0
 49
0.0
 49
0.0
 49
1.0
 49
0.0
 49
0.0
 49
0.0
 49
0.0
 49
1.0
175
     0
142
0.0208333333333333
142
0.0
142
0.0
142
0.0
142
0.0
142
0.0208333333333333
142
0.0
142
0.0
142
0.0
142
0.0
142
1.0
142
0.0
142
0.0
142
0.0
142
0.0
142
1.0
179
     0
144
0.0208333333333333
144
0.0
144
0.0
144
0.0
144
0.0
144
0.0208333333333333
144
0.0
144
0.0
144
0.0
144
0.0
144
1.0
144
0.0
144
0.0
144
0.0
144
0.0
144
1.0
147
0.0208333333333333
147
0.0
147
0.0
147
0.0
147
0.0
147
0.0208333333333333
147
0.0
147
0.0
147
0.0
147
0.0
147
1.0
147
0.0
147
0.0
147
0.0
147
0.0
147
1.0
  0
MATERIAL
  5
21
102
{ACAD_XDICTIONARY
360
22
102
}
102
{ACAD_REACTORS
330
10
102
}
330
10
100
AcDbMaterial
  1
Global
 72
     0
 43
0.0208333333333333
 43
0.0
 43
0.0
 43
0.0
 43
0.0
 43
0.0208333333333333
 43
0.0
 43
0.0
 43
0.0
 43
0.0
 43
1.0
 43
0.0
 43
0.0
 43
0.0
 43
0.0
 43
1.0
 77
     0
 47
0.0208333333333333
 47
0.0
 47
0.0
 47
0.0
 47
0.0
 47
0.0208333333333333
 47
0.0
 47
0.0
 47
0.0
 47
0.0
 47
1.0
 47
0.0
 47
0.0
 47
0.0
 47
0.0
 47
1.0
171
     0
 49
0.0208333333333333
 49
0.0
 49
0.0
 49
0.0
 49
0.0
 49
0.0208333333333333
 49
0.0
 49
0.0
 49
0.0
 49
0.0
 49
1.0
 49
0.0
 49
0.0
 49
0.0
 49
0.0
 49
1.0
175
     0
142
0.0208333333333333
142
0.0
142
0.0
142
0.0
142
0.0
142
0.0208333333333333
142
0.0
142
0.0
142
0.0
142
0.0
142
1.0
142
0.0
142
0.0
142
0.0
142
0.0
142
1.0
179
     0
144
0.0208333333333333
144
0.0
144
0.0
144
0.0
144
0.0
144
0.0208333333333333
144
0.0
144
0.0
144
0.0
144
0.0
144
1.0
144
0.0
144
0.0
144
0.0
144
0.0
144
1.0
147
0.0208333333333333
147
0.0
147
0.0
147
0.0
147
0.0
147
0.0208333333333333
147
0.0
147
0.0
147
0.0
147
0.0
147
1.0
147
0.0
147
0.0
147
0.0
147
0.0
147
1.0
  0
MLEADERSTYLE
  5
67
102
{ACAD_XDICTIONARY
360
98B
102
}
102
{ACAD_REACTORS
330
66
102
}
330
66
100
AcDbMLeaderStyle
170
     2
171
     1
172
     0
 90
        2
 40
0.0
 41
0.0
173
     1
 91
-1056964608
340
5B
 92
       -2
290
     1
 42
0.09
291
     1
 43
0.36
  3
Standard
 44
0.18
300

342
55
174
     1
178
     6
175
     1
176
     0
 93
-1056964608
 45
0.18
292
     0
297
     0
 46
0.18
 94
-1056964608
 47
1.0
 49
1.0
140
1.0
293
     1
141
0.0
294
     1
177
     0
142
1.0
295
     0
296
     0
143
0.125
1001
ACAD_MLEADERVER
1070
     2
  0
MLINESTYLE
  5
60
102
{ACAD_REACTORS
330
5F
102
}
330
5F
100
AcDbMlineStyle
  2
STANDARD
 70
     0
  3

 62
   256
 51
90.0
 52
90.0
 71
     2
 49
0.5
 62
   256
  6
BYLAYER
 49
-0.5
 62
   256
  6
BYLAYER
  0
ACDBPLACEHOLDER
  5
F
102
{ACAD_REACTORS
330
E
102
}
330
E
  0
SCALE
  5
43
102
{ACAD_REACTORS
330
42
102
}
330
42
100
AcDbScale
 70
     0
300
1:1
140
1.0
141
1.0
290
     1
  0
SCALE
  5
44
102
{ACAD_REACTORS
330
42
102
}
330
42
100
AcDbScale
 70
     0
300
1/128" = 1'-0"
140
0.0078125
141
12.0
290
     0
  0
SCALE
  5
45
102
{ACAD_REACTORS
330
42
102
}
330
42
100
AcDbScale
 70
     0
300
1/64" = 1'-0"
140
0.015625
141
12.0
290
     0
  0
SCALE
  5
46
102
{ACAD_REACTORS
330
42
102
}
330
42
100
AcDbScale
 70
     0
300
1/32" = 1'-0"
140
0.03125
141
12.0
290
     0
  0
SCALE
  5
47
102
{ACAD_REACTORS
330
42
102
}
330
42
100
AcDbScale
 70
     0
300
1/16" = 1'-0"
140
0.0625
141
12.0
290
     0
  0
SCALE
  5
48
102
{ACAD_REACTORS
330
42
102
}
330
42
100
AcDbScale
 70
     0
300
3/32" = 1'-0"
140
0.09375
141
12.0
290
     0
  0
SCALE
  5
49
102
{ACAD_REACTORS
330
42
102
}
330
42
100
AcDbScale
 70
     0
300
1/8" = 1'-0"
140
0.125
141
12.0
290
     0
  0
SCALE
  5
4A
102
{ACAD_REACTORS
330
42
102
}
330
42
100
AcDbScale
 70
     0
300
3/16" = 1'-0"
140
0.1875
141
12.0
290
     0
  0
SCALE
  5
4B
102
{ACAD_REACTORS
330
42
102
}
330
42
100
AcDbScale
 70
     0
300
1/4" = 1'-0"
140
0.25
141
12.0
290
     0
  0
SCALE
  5
4C
102
{ACAD_REACTORS
330
42
102
}
330
42
100
AcDbScale
 70
     0
300
3/8" = 1'-0"
140
0.375
141
12.0
290
     0
  0
SCALE
  5
4D
102
{ACAD_REACTORS
330
42
102
}
330
42
100
AcDbScale
 70
     0
300
1/2" = 1'-0"
140
0.5
141
12.0
290
     0
  0
SCALE
  5
4E
102
{ACAD_REACTORS
330
42
102
}
330
42
100
AcDbScale
 70
     0
300
3/4" = 1'-0"
140
0.75
141
12.0
290
     0
  0
SCALE
  5
4F
102
{ACAD_REACTORS
330
42
102
}
330
42
100
AcDbScale
 70
     0
300
1" = 1'-0"
140
1.0
141
12.0
290
     0
  0
SCALE
  5
50
102
{ACAD_REACTORS
330
42
102
}
330
42
100
AcDbScale
 70
     0
300
1-1/2" = 1'-0"
140
1.5
141
12.0
290
     0
  0
SCALE
  5
51
102
{ACAD_REACTORS
330
42
102
}
330
42
100
AcDbScale
 70
     0
300
3" = 1'-0"
140
3.0
141
12.0
290
     0
  0
SCALE
  5
52
102
{ACAD_REACTORS
330
42
102
}
330
42
100
AcDbScale
 70
     0
300
6" = 1'-0"
140
6.0
141
12.0
290
     0
  0
SCALE
  5
53
102
{ACAD_REACTORS
330
42
102
}
330
42
100
AcDbScale
 70
     0
300
1'-0" = 1'-0"
140
12.0
141
12.0
290
     0
  0
ACDBSECTIONVIEWSTYLE
  5
6A
102
{ACAD_REACTORS
330
68
102
}
330
68
100
AcDbModelDocViewStyle
 70
     0
  3
Imperial24
290
     0
100
AcDbSectionViewStyle
 70
     0
 71
     0
 90
       78
 71
     1
340
55
 40
0.24
340
0
340
0
 40
0.24
300
I, O, Q, S, X, Z
 40
0.48
 90
        3
 40
0.18
 90
        1
 71
     2
340
69
 90
       25
340
5D
 90
       50
 40
0.24
 40
0.0
 40
0.24
 71
     3
340
55
 40
0.24
 90
        1
 40
0.75
 90
        1
300
%<\AcVar ViewType \f "%tc1">% %<\AcVar ViewSectionStartId>%-%<\AcVar ViewSectionEndId>%\PSCALE %<\AcVar ViewScale \f "%sn">%
 71
     4
300
ANSI31
 40
1.0
 90
        0
290
     0
290
     0
 90
        6
 40
0.0
 40
1.570796326794896
 40
0.2617993877991494
 40
1.308996938995747
 40
-0.2617993877991494
 40
1.832595714594044
  0
TABLESTYLE
  5
65
102
{ACAD_XDICTIONARY
360
385
102
}
102
{ACAD_REACTORS
330
64
102
}
330
64
100
AcDbTableStyle
  3
Standard
 70
     0
 71
     0
 40
0.06
 41
0.06
280
     0
281
     0
  7
Standard
140
0.18
170
     2
 62
     0
 63
     7
283
     0
274
    -2
284
     1
 64
     0
275
    -2
285
     1
 65
     0
276
    -2
286
     1
 66
     0
277
    -2
287
     1
 67
     0
278
    -2
288
     1
 68
     0
279
    -2
289
     1
 69
     0
  7
Standard
140
0.25
170
     5
 62
     0
 63
     7
283
     0
274
    -2
284
     1
 64
     0
275
    -2
285
     1
 65
     0
276
    -2
286
     1
 66
     0
277
    -2
287
     1
 67
     0
278
    -2
288
     1
 68
     0
279
    -2
289
     1
 69
     0
  7
Standard
140
0.18
170
     5
 62
     0
 63
     7
283
     0
274
    -2
284
     1
 64
     0
275
    -2
285
     1
 65
     0
276
    -2
286
     1
 66
     0
277
    -2
287
     1
 67
     0
278
    -2
288
     1
 68
     0
279
    -2
289
     1
 69
     0
  0
VISUALSTYLE
  5
2F
102
{ACAD_XDICTIONARY
360
964
102
}
102
{ACAD_REACTORS
330
29
102
}
330
29
100
AcDbVisualStyle
  2

 70
     4
 71
     0
 72
     2
 73
     0
 90
        0
 40
-0.6
 41
-30.0
 62
     5
 63
     7
 74
     1
 91
        4
 64
     7
 65
   257
 75
     1
175
     1
 42
1.0
 92
        0
 66
   257
 43
1.0
 76
     1
 77
     6
 78
     2
 67
     7
 79
     5
170
     0
171
     0
290
     0
174
     0
 93
        1
 44
0.0
173
     0
291
     0
 45
0.0
1001
ACAD
1000
AcDbSavedByObjectVersion
1070
     0
  0
VISUALSTYLE
  5
2E
102
{ACAD_XDICTIONARY
360
962
102
}
102
{ACAD_REACTORS
330
29
102
}
330
29
100
AcDbVisualStyle
  2

 70
     7
 71
     1
 72
     0
 73
     1
 90
        0
 40
-0.6
 41
-30.0
 62
     5
 63
     7
 74
     0
 91
        4
 64
     7
 65
   257
 75
     1
175
     1
 42
1.0
 92
        8
 66
     7
 43
1.0
 76
     1
 77
     6
 78
     2
 67
     7
 79
     5
170
     0
171
     0
290
     0
174
     0
 93
        1
 44
0.0
173
     0
291
     1
 45
0.0
1001
ACAD
1000
AcDbSavedByObjectVersion
1070
     0
  0
VISUALSTYLE
  5
35
102
{ACAD_XDICTIONARY
360
970
102
}
102
{ACAD_REACTORS
330
29
102
}
330
29
100
AcDbVisualStyle
  2

 70
    12
 71
     2
 72
     2
 73
     0
 90
        0
 40
-0.6
 41
-30.0
 62
     5
 63
     7
 74
     1
 91
        4
 64
     7
 65
   257
 75
     1
175
     1
 42
1.0
 92
        8
 66
     7
 43
1.0
 76
     1
 77
     6
 78
     2
 67
     7
 79
     5
170
     0
171
     0
290
     0
174
     0
 93
        1
 44
50.0
173
     0
291
     1
 45
0.0
1001
ACAD
1000
AcDbSavedByObjectVersion
1070
     0
  0
VISUALSTYLE
  5
39
102
{ACAD_XDICTIONARY
360
978
102
}
102
{ACAD_REACTORS
330
29
102
}
330
29
100
AcDbVisualStyle
  2

 70
    16
 71
     2
 72
     2
 73
     3
 90
        0
 40
-0.6
 41
-30.0
 62
     5
 63
     8
 74
     1
 91
        4
 64
     7
 65
   257
 75
     1
175
     1
 42
1.0
 92
        8
 66
     8
 43
1.0
 76
     1
 77
     6
 78
     2
 67
     7
 79
     5
170
     0
171
     0
290
     0
174
     0
 93
        1
 44
0.0
173
     0
291
     1
 45
0.0
1001
ACAD
1000
AcDbSavedByObjectVersion
1070
     0
  0
VISUALSTYLE
  5
32
102
{ACAD_XDICTIONARY
360
96A
102
}
102
{ACAD_REACTORS
330
29
102
}
330
29
100
AcDbVisualStyle
  2

 70
     9
 71
     3
 72
     2
 73
     0
 90
        0
 40
-0.6
 41
-30.0
 62
     5
 63
     7
 74
     2
 91
        2
 64
     7
 65
   257
 75
     1
175
     1
 42
179.0
 92
        8
 66
     7
 43
1.0
 76
     1
 77
     6
 78
     2
 67
     7
 79
     3
170
     0
171
     0
290
     0
174
     0
 93
        1
 44
0.0
173
     0
291
     0
 45
0.0
1001
ACAD
1000
AcDbSavedByObjectVersion
1070
     0
  0
VISUALSTYLE
  5
34
102
{ACAD_XDICTIONARY
360
96E
102
}
102
{ACAD_REACTORS
330
29
102
}
330
29
100
AcDbVisualStyle
  2

 70
    11
 71
     2
 72
     2
 73
     0
 90
        0
 40
-0.6
 41
-30.0
 62
     5
 63
     7
 74
     1
 91
        4
 64
     7
 65
   257
 75
     1
175
     1
 42
1.0
 92
        8
 66
     7
 43
1.0
 76
     1
 77
     6
 78
     2
 67
     7
 79
     5
170
     0
171
     0
290
     0
174
     0
 93
        1
 44
-50.0
173
     0
291
     1
 45
0.0
1001
ACAD
1000
AcDbSavedByObjectVersion
1070
     0
  0
VISUALSTYLE
  5
41
102
{ACAD_XDICTIONARY
360
988
102
}
102
{ACAD_REACTORS
330
29
102
}
330
29
100
AcDbVisualStyle
  2

 70
    22
 71
     2
 72
     2
 73
     0
 90
        0
 40
-0.6
 41
-30.0
 62
     5
 63
     7
 74
     1
 91
        4
 64
     7
 65
   257
 75
     1
175
     1
 42
1.0
 92
        8
 66
     7
 43
1.0
 76
     1
 77
     6
 78
     2
 67
     7
 79
     5
170
     0
171
     0
290
     0
174
     0
 93
        1
 44
0.0
173
     0
291
     1
 45
0.0
1001
ACAD
1000
AcDbSavedByObjectVersion
1070
     0
  0
VISUALSTYLE
  5
38
102
{ACAD_XDICTIONARY
360
976
102
}
102
{ACAD_REACTORS
330
29
102
}
330
29
100
AcDbVisualStyle
  2

 70
    15
 71
     2
 72
     2
 73
     0
 90
        0
 40
-0.6
 41
-30.0
 62
     5
 63
     7
 74
     1
 91
        4
 64
     7
 65
   257
 75
     1
175
     1
 42
1.0
 92
        8
 66
     7
 43
1.0
 76
     1
 77
     6
 78
     2
 67
     7
 79
     5
170
     0
171
     0
290
     0
174
     0
 93
        1
 44
0.0
173
     0
291
     1
 45
0.0
1001
ACAD
1000
AcDbSavedByObjectVersion
1070
     0
  0
VISUALSTYLE
  5
2A
102
{ACAD_XDICTIONARY
360
95A
102
}
102
{ACAD_REACTORS
330
29
102
}
330
29
100
AcDbVisualStyle
  2

 70
     0
 71
     2
 72
     1
 73
     1
 90
        2
 40
-0.6
 41
30.0
 62
     5
 63
     7
 74
     0
 91
        0
 64
     7
 65
   257
 75
     1
175
     1
 42
1.0
 92
        8
 66
     7
 43
1.0
 76
     1
 77
     6
 78
     2
 67
     7
 79
     5
170
     0
171
     0
290
     0
174
     0
 93
       13
 44
0.0
173
     0
291
     1
 45
0.0
1001
ACAD
1000
AcDbSavedByObjectVersion
1070
     0
  0
VISUALSTYLE
  5
2B
102
{ACAD_XDICTIONARY
360
95C
102
}
102
{ACAD_REACTORS
330
29
102
}
330
29
100
AcDbVisualStyle
  2

 70
     1
 71
     2
 72
     1
 73
     1
 90
        2
 40
-0.6
 41
30.0
 62
     5
 63
     7
 74
     1
 91
        0
 64
     7
 65
   257
 75
     1
175
     1
 42
1.0
 92
        0
 66
   257
 43
1.0
 76
     1
 77
     6
 78
     2
 67
     7
 79
     5
170
     0
171
     0
290
     0
174
     0
 93
       13
 44
0.0
173
     0
291
     1
 45
0.0
1001
ACAD
1000
AcDbSavedByObjectVersion
1070
     0
  0
VISUALSTYLE
  5
2C
102
{ACAD_XDICTIONARY
360
95E
102
}
102
{ACAD_REACTORS
330
29
102
}
330
29
100
AcDbVisualStyle
  2

 70
     2
 71
     2
 72
     2
 73
     1
 90
        2
 40
-0.6
 41
30.0
 62
     5
 63
     7
 74
     0
 91
        0
 64
     7
 65
   257
 75
     1
175
     1
 42
1.0
 92
        0
 66
     7
 43
1.0
 76
     1
 77
     6
 78
     2
 67
     7
 79
     5
170
     0
171
     0
290
     0
174
     0
 93
       13
 44
0.0
173
     0
291
     1
 45
0.0
1001
ACAD
1000
AcDbSavedByObjectVersion
1070
     0
  0
VISUALSTYLE
  5
2D
102
{ACAD_XDICTIONARY
360
960
102
}
102
{ACAD_REACTORS
330
29
102
}
330
29
100
AcDbVisualStyle
  2

 70
     3
 71
     2
 72
     2
 73
     1
 90
        2
 40
-0.6
 41
30.0
 62
     5
 63
     7
 74
     1
 91
        0
 64
     7
 65
   257
 75
     1
175
     1
 42
1.0
 92
        0
 66
   257
 43
1.0
 76
     1
 77
     6
 78
     2
 67
     7
 79
     5
170
     0
171
     0
290
     0
174
     0
 93
       13
 44
0.0
173
     0
291
     1
 45
0.0
1001
ACAD
1000
AcDbSavedByObjectVersion
1070
     0
  0
VISUALSTYLE
  5
31
102
{ACAD_XDICTIONARY
360
968
102
}
102
{ACAD_REACTORS
330
29
102
}
330
29
100
AcDbVisualStyle
  2

 70
     6
 71
     1
 72
     2
 73
     2
 90
        0
 40
-0.6
 41
-30.0
 62
     5
 63
     7
 74
     2
 91
        2
 64
     7
 65
   257
 75
     2
175
     1
 42
40.0
 92
        0
 66
   257
 43
1.0
 76
     1
 77
     6
 78
     2
 67
     7
 79
     3
170
     0
171
     0
290
     0
174
     0
 93
        1
 44
0.0
173
     0
291
     0
 45
0.0
1001
ACAD
1000
AcDbSavedByObjectVersion
1070
     0
  0
VISUALSTYLE
  5
3F
102
{ACAD_XDICTIONARY
360
984
102
}
102
{ACAD_REACTORS
330
29
102
}
330
29
100
AcDbVisualStyle
  2

 70
    20
 71
     2
 72
     2
 73
     0
 90
        0
 40
-0.6
 41
-30.0
 62
     5
 63
     7
 74
     1
 91
        4
 64
     7
 65
   257
 75
     1
175
     1
 42
1.0
 92
       10
 66
     7
 43
1.0
 76
     1
 77
     6
 78
     2
 67
     7
 79
     5
170
     0
171
     0
290
     0
174
     0
 93
        1
 44
0.0
173
     0
291
     1
 45
0.0
1001
ACAD
1000
AcDbSavedByObjectVersion
1070
     0
  0
VISUALSTYLE
  5
37
102
{ACAD_XDICTIONARY
360
974
102
}
102
{ACAD_REACTORS
330
29
102
}
330
29
100
AcDbVisualStyle
  2

 70
    14
 71
     2
 72
     2
 73
     0
 90
        0
 40
-0.6
 41
-30.0
 62
     5
 63
     7
 74
     1
 91
        4
 64
     7
 65
   257
 75
     7
175
     7
 42
1.0
 92
        8
 66
     7
 43
1.0
 76
     1
 77
     6
 78
     2
 67
     7
 79
     5
170
     0
171
     0
290
     0
174
     0
 93
        1
 44
0.0
173
     0
291
     1
 45
0.0
1001
ACAD
1000
AcDbSavedByObjectVersion
1070
     0
  0
VISUALSTYLE
  5
40
102
{ACAD_XDICTIONARY
360
986
102
}
102
{ACAD_REACTORS
330
29
102
}
330
29
100
AcDbVisualStyle
  2

 70
    21
 71
     2
 72
     2
 73
     0
 90
        0
 40
-0.6
 41
-30.0
 62
     5
 63
     7
 74
     1
 91
        4
 64
     7
 65
   257
 75
     1
175
     1
 42
1.0
 92
        9
 66
     7
 43
1.0
 76
     1
 77
     6
 78
     2
 67
     7
 79
     5
170
     0
171
     0
290
     0
174
     0
 93
        1
 44
0.0
173
     0
291
     1
 45
0.0
1001
ACAD
1000
AcDbSavedByObjectVersion
1070
     0
  0
VISUALSTYLE
  5
33
102
{ACAD_XDICTIONARY
360
96C
102
}
102
{ACAD_REACTORS
330
29
102
}
330
29
100
AcDbVisualStyle
  2

 70
     8
 71
     2
 72
     3
 73
     0
 90
        2
 40
-0.6
 41
30.0
 62
     5
 63
     7
 74
     0
 91
        0
 64
     7
 65
   257
 75
     1
175
     1
 42
1.0
 92
        8
 66
   257
 43
1.0
 76
     1
 77
     6
 78
     2
 67
     7
 79
     3
170
     0
171
     0
290
     0
174
     0
 93
       13
 44
0.0
173
     0
291
     0
 45
0.0
1001
ACAD
1000
AcDbSavedByObjectVersion
1070
     0
  0
VISUALSTYLE
  5
3E
102
{ACAD_XDICTIONARY
360
982
102
}
102
{ACAD_REACTORS
330
29
102
}
330
29
100
AcDbVisualStyle
  2

 70
    27
 71
     2
 72
     2
 73
     1
 90
        2
 40
-0.6
 41
30.0
 62
     5
 63
     7
 74
     0
 91
        4
 64
     7
 65
   257
 75
     1
175
     1
 42
1.0
 92
        8
 66
   257
 43
1.0
 76
     1
 77
     6
 78
     2
 67
     8
 79
     3
170
     0
171
     0
290
     0
174
     0
 93
        5
 44
0.0
173
     0
291
     0
 45
0.0
1001
ACAD
1000
AcDbSavedByObjectVersion
1070
     0
  0
VISUALSTYLE
  5
3D
102
{ACAD_XDICTIONARY
360
980
102
}
102
{ACAD_REACTORS
330
29
102
}
330
29
100
AcDbVisualStyle
  2

 70
    26
 71
     2
 72
     2
 73
     1
 90
        2
 40
-0.6
 41
30.0
 62
     5
 63
     7
 74
     1
 91
       10
 64
     7
 65
   257
 75
     2
175
     1
 42
1.0
 92
        8
 66
   257
 43
1.0
 76
     1
 77
     6
 78
     2
 67
     7
 79
     3
170
     0
171
     0
290
     0
174
     0
 93
        5
 44
0.0
173
     0
291
     0
 45
0.0
1001
ACAD
1000
AcDbSavedByObjectVersion
1070
     0
  0
VISUALSTYLE
  5
3A
102
{ACAD_XDICTIONARY
360
97A
102
}
102
{ACAD_REACTORS
330
29
102
}
330
29
100
AcDbVisualStyle
  2

 70
    23
 71
     2
 72
     2
 73
     3
 90
        0
 40
-0.6
 41
-30.0
 62
     5
 63
     7
 74
     2
 91
        2
 64
     7
 65
     7
 75
     1
175
     1
 42
40.0
 92
        8
 66
     7
 43
1.0
 76
     1
 77
     6
 78
     2
 67
     7
 79
     3
170
     0
171
     0
290
     0
174
     0
 93
        1
 44
0.0
173
     0
291
     0
 45
0.0
1001
ACAD
1000
AcDbSavedByObjectVersion
1070
     0
  0
VISUALSTYLE
  5
3B
102
{ACAD_XDICTIONARY
360
97C
102
}
102
{ACAD_REACTORS
330
29
102
}
330
29
100
AcDbVisualStyle
  2

 70
    24
 71
     1
 72
     2
 73
     2
 90
        0
 40
-0.6
 41
-30.0
 62
     5
 63
     7
 74
     2
 91
        2
 64
     7
 65
     7
 75
     1
175
     1
 42
40.0
 92
       11
 66
     7
 43
1.0
 76
     1
 77
     6
 78
     2
 67
     7
 79
     6
170
     0
171
     0
290
     0
174
     0
 93
        1
 44
0.0
173
     0
291
     0
 45
0.0
1001
ACAD
1000
AcDbSavedByObjectVersion
1070
     0
  0
VISUALSTYLE
  5
36
102
{ACAD_XDICTIONARY
360
972
102
}
102
{ACAD_REACTORS
330
29
102
}
330
29
100
AcDbVisualStyle
  2

 70
    13
 71
     2
 72
     2
 73
     0
 90
        0
 40
-0.6
 41
-30.0
 62
     5
 63
     7
 74
     1
 91
        4
 64
     7
 65
   257
 75
     1
175
     1
 42
1.0
 92
       12
 66
     7
 43
1.0
 76
     1
 77
     6
 78
     2
 67
     7
 79
     5
170
     0
171
     0
290
     0
174
     0
 93
        1
 44
0.0
173
     0
291
     1
 45
0.0
1001
ACAD
1000
AcDbSavedByObjectVersion
1070
     0
  0
VISUALSTYLE
  5
30
102
{ACAD_XDICTIONARY
360
966
102
}
102
{ACAD_REACTORS
330
29
102
}
330
29
100
AcDbVisualStyle
  2

 70
     5
 71
     0
 72
     2
 73
     0
 90
        0
 40
-0.6
 41
-30.0
 62
     5
 63
     7
 74
     1
 91
        4
 64
     7
 65
   257
 75
     1
175
     1
 42
1.0
 92
        0
 66
   257
 43
1.0
 76
     1
 77
     6
 78
     2
 67
     7
 79
     3
170
     0
171
     0
290
     0
174
     0
 93
        1
 44
0.0
173
     0
291
     0
 45
0.0
1001
ACAD
1000
AcDbSavedByObjectVersion
1070
     0
  0
VISUALSTYLE
  5
3C
102
{ACAD_XDICTIONARY
360
97E
102
}
102
{ACAD_REACTORS
330
29
102
}
330
29
100
AcDbVisualStyle
  2

 70
    25
 71
     2
 72
     2
 73
     1
 90
        1
 40
0.5
 41
-30.0
 62
     5
 63
     7
 74
     1
 91
        0
 64
     7
 65
   257
 75
     1
175
     1
 42
1.0
 92
        8
 66
     7
 43
1.0
 76
     1
 77
     6
 78
     2
 67
     7
 79
     3
170
     0
171
     0
290
     0
174
     0
 93
       13
 44
0.0
173
     0
291
     0
 45
0.0
1001
ACAD
1000
AcDbSavedByObjectVersion
1070
     0
  0
DICTIONARYVAR
  5
81
102
{ACAD_REACTORS
330
7C
102
}
330
7C
100
DictionaryVariables
280
     0
  1
1:1
  0
DICTIONARYVAR
  5
7E
102
{ACAD_REACTORS
330
7C
102
}
330
7C
100
DictionaryVariables
280
     0
  1
STANDARD
  0
DICTIONARYVAR
  5
7D
102
{ACAD_REACTORS
330
7C
102
}
330
7C
100
DictionaryVariables
280
     0
  1
STANDARD
  0
DICTIONARYVAR
  5
7F
102
{ACAD_REACTORS
330
7C
102
}
330
7C
100
DictionaryVariables
280
     0
  1
Imperial24
  0
DICTIONARYVAR
  5
80
102
{ACAD_REACTORS
330
7C
102
}
330
7C
100
DictionaryVariables
280
     0
  1
Imperial24
  0
DICTIONARYVAR
  5
6C0
102
{ACAD_REACTORS
330
7C
102
}
330
7C
100
DictionaryVariables
280
     0
  1
2
  0
DICTIONARYVAR
  5
6BF
102
{ACAD_REACTORS
330
7C
102
}
330
7C
100
DictionaryVariables
280
     0
  1
1
  0
DICTIONARYVAR
  5
6BE
102
{ACAD_REACTORS
330
7C
102
}
330
7C
100
DictionaryVariables
280
     0
  1
0
  0
DICTIONARYVAR
  5
953
102
{ACAD_REACTORS
330
7C
102
}
330
7C
100
DictionaryVariables
280
     0
  1
0.000000
  0
DICTIONARYVAR
  5
6BB
102
{ACAD_REACTORS
330
7C
102
}
330
7C
100
DictionaryVariables
280
     0
  1
0
  0
DICTIONARYVAR
  5
6BC
102
{ACAD_REACTORS
330
7C
102
}
330
7C
100
DictionaryVariables
280
     0
  1
0
  0
DICTIONARYVAR
  5
6BA
102
{ACAD_REACTORS
330
7C
102
}
330
7C
100
DictionaryVariables
280
     0
  1
2
  0
DICTIONARYVAR
  5
951
102
{ACAD_REACTORS
330
7C
102
}
330
7C
100
DictionaryVariables
280
     0
  1
1.570796
  0
DICTIONARYVAR
  5
952
102
{ACAD_REACTORS
330
7C
102
}
330
7C
100
DictionaryVariables
280
     0
  1
1.570796
  0
DICTIONARYVAR
  5
954
102
{ACAD_REACTORS
330
7C
102
}
330
7C
100
DictionaryVariables
280
     0
  1
0.000000
  0
DICTIONARYVAR
  5
6B9
102
{ACAD_REACTORS
330
7C
102
}
330
7C
100
DictionaryVariables
280
     0
  1
1
  0
DICTIONARYVAR
  5
6BD
102
{ACAD_REACTORS
330
7C
102
}
330
7C
100
DictionaryVariables
280
     0
  1
127
  0
DICTIONARYVAR
  5
955
102
{ACAD_REACTORS
330
7C
102
}
330
7C
100
DictionaryVariables
280
     0
  1
0
  0
DICTIONARYVAR
  5
956
102
{ACAD_REACTORS
330
7C
102
}
330
7C
100
DictionaryVariables
280
     0
  1
2
  0
XRECORD
  5
37F
102
{ACAD_REACTORS
330
37D
102
}
330
37D
100
AcDbXrecord
280
     1
  1
-2000051
  1
Lines
  1
-2000240
  1
Levels
  1
-2000510
  1
Viewports
  1
-2000515
  1
View Titles
  1
-2000535
  1
Elevations
  1
-2001140
  1
Mechanical Equipment
  1
-2006020
  1
Level Heads
  0
XRECORD
  5
380
102
{ACAD_REACTORS
330
37D
102
}
330
37D
100
AcDbXrecord
280
     1
  1
161512
  1
MEP Hidden
  0
XRECORD
  5
37E
102
{ACAD_REACTORS
330
37D
102
}
330
37D
100
AcDbXrecord
280
     1
  1
27
  1
Level : 1/4" Head
  1
648106
  1
CCCT_-_BAC_-_PFI_-_1_Cell_-_S-Double_Connection_-_RH : PFI-0709N-2D3DS-H1
  1
75910
  1
Elevation : Building Elevation
  1
9835
  1
Viewport : Viewport 1
  0
DICTIONARY
  5
98D
330
70
100
AcDbDictionary
280
     1
281
     1
  3
ACAD_XREC_ROUNDTRIP
360
98E
  0
DICTIONARY
  5
98F
330
74
100
AcDbDictionary
280
     1
281
     1
  3
ACAD_XREC_ROUNDTRIP
360
990
  0
DICTIONARY
  5
1A
330
19
100
AcDbDictionary
280
     1
281
     1
  3
ACAD_XREC_ROUNDTRIP
360
901
  3
BUMPTILE
360
1C
  3
DIFFUSETILE
360
1B
  3
OPACITYTILE
360
1F
  3
REFLECTIONTILE
360
1E
  3
REFRACTIONTILE
360
20
  3
SPECULARTILE
360
1D
  0
DICTIONARY
  5
12
330
11
100
AcDbDictionary
280
     1
281
     1
  3
ACAD_XREC_ROUNDTRIP
360
900
  3
BUMPTILE
360
14
  3
DIFFUSETILE
360
13
  3
OPACITYTILE
360
17
  3
REFLECTIONTILE
360
16
  3
REFRACTIONTILE
360
18
  3
SPECULARTILE
360
15
  0
DICTIONARY
  5
22
330
21
100
AcDbDictionary
280
     1
281
     1
  3
ACAD_XREC_ROUNDTRIP
360
902
  3
BUMPTILE
360
24
  3
DIFFUSETILE
360
23
  3
OPACITYTILE
360
27
  3
REFLECTIONTILE
360
26
  3
REFRACTIONTILE
360
28
  3
SPECULARTILE
360
25
  0
DICTIONARY
  5
98B
330
67
100
AcDbDictionary
280
     1
281
     1
  3
ACAD_XREC_ROUNDTRIP
360
98C
  0
DICTIONARY
  5
385
330
65
100
AcDbDictionary
280
     1
281
     1
  3
ACAD_ROUNDTRIP_2008_TABLESTYLE_CELLSTYLEMAP
360
957
  3
ACAD_XREC_ROUNDTRIP
360
98A
  0
DICTIONARY
  5
964
330
2F
100
AcDbDictionary
280
     1
281
     1
  3
ACAD_XREC_ROUNDTRIP
360
965
  0
DICTIONARY
  5
962
330
2E
100
AcDbDictionary
280
     1
281
     1
  3
ACAD_XREC_ROUNDTRIP
360
963
  0
DICTIONARY
  5
970
330
35
100
AcDbDictionary
280
     1
281
     1
  3
ACAD_XREC_ROUNDTRIP
360
971
  0
DICTIONARY
  5
978
330
39
100
AcDbDictionary
280
     1
281
     1
  3
ACAD_XREC_ROUNDTRIP
360
979
  0
DICTIONARY
  5
96A
330
32
100
AcDbDictionary
280
     1
281
     1
  3
ACAD_XREC_ROUNDTRIP
360
96B
  0
DICTIONARY
  5
96E
330
34
100
AcDbDictionary
280
     1
281
     1
  3
ACAD_XREC_ROUNDTRIP
360
96F
  0
DICTIONARY
  5
988
330
41
100
AcDbDictionary
280
     1
281
     1
  3
ACAD_XREC_ROUNDTRIP
360
989
  0
DICTIONARY
  5
976
330
38
100
AcDbDictionary
280
     1
281
     1
  3
ACAD_XREC_ROUNDTRIP
360
977
  0
DICTIONARY
  5
95A
330
2A
100
AcDbDictionary
280
     1
281
     1
  3
ACAD_XREC_ROUNDTRIP
360
95B
  0
DICTIONARY
  5
95C
330
2B
100
AcDbDictionary
280
     1
281
     1
  3
ACAD_XREC_ROUNDTRIP
360
95D
  0
DICTIONARY
  5
95E
330
2C
100
AcDbDictionary
280
     1
281
     1
  3
ACAD_XREC_ROUNDTRIP
360
95F
  0
DICTIONARY
  5
960
330
2D
100
AcDbDictionary
280
     1
281
     1
  3
ACAD_XREC_ROUNDTRIP
360
961
  0
DICTIONARY
  5
968
330
31
100
AcDbDictionary
280
     1
281
     1
  3
ACAD_XREC_ROUNDTRIP
360
969
  0
DICTIONARY
  5
984
330
3F
100
AcDbDictionary
280
     1
281
     1
  3
ACAD_XREC_ROUNDTRIP
360
985
  0
DICTIONARY
  5
974
330
37
100
AcDbDictionary
280
     1
281
     1
  3
ACAD_XREC_ROUNDTRIP
360
975
  0
DICTIONARY
  5
986
330
40
100
AcDbDictionary
280
     1
281
     1
  3
ACAD_XREC_ROUNDTRIP
360
987
  0
DICTIONARY
  5
96C
330
33
100
AcDbDictionary
280
     1
281
     1
  3
ACAD_XREC_ROUNDTRIP
360
96D
  0
DICTIONARY
  5
982
330
3E
100
AcDbDictionary
280
     1
281
     1
  3
ACAD_XREC_ROUNDTRIP
360
983
  0
DICTIONARY
  5
980
330
3D
100
AcDbDictionary
280
     1
281
     1
  3
ACAD_XREC_ROUNDTRIP
360
981
  0
DICTIONARY
  5
97A
330
3A
100
AcDbDictionary
280
     1
281
     1
  3
ACAD_XREC_ROUNDTRIP
360
97B
  0
DICTIONARY
  5
97C
330
3B
100
AcDbDictionary
280
     1
281
     1
  3
ACAD_XREC_ROUNDTRIP
360
97D
  0
DICTIONARY
  5
972
330
36
100
AcDbDictionary
280
     1
281
     1
  3
ACAD_XREC_ROUNDTRIP
360
973
  0
DICTIONARY
  5
966
330
30
100
AcDbDictionary
280
     1
281
     1
  3
ACAD_XREC_ROUNDTRIP
360
967
  0
DICTIONARY
  5
97E
330
3C
100
AcDbDictionary
280
     1
281
     1
  3
ACAD_XREC_ROUNDTRIP
360
97F
  0
XRECORD
  5
98E
102
{ACAD_REACTORS
330
98D
102
}
330
98D
100
AcDbXrecord
280
     1
102
SHADEPLOT
 70
     0
102
SHADEPLOTRESLEVEL
 70
     2
102
SHADEPLOTCUSTOMDPI
 70
   300
  0
XRECORD
  5
990
102
{ACAD_REACTORS
330
98F
102
}
330
98F
100
AcDbXrecord
280
     1
102
SHADEPLOT
 70
     0
102
SHADEPLOTRESLEVEL
 70
     2
102
SHADEPLOTCUSTOMDPI
 70
   300
  0
XRECORD
  5
901
102
{ACAD_REACTORS
330
1A
102
}
330
1A
100
AcDbXrecord
280
     1
102
MATERIAL
148
0.0
149
0.0
149
0.0
 93
        0
 94
      127
282
     0
 72
     0
 77
     0
171
     0
175
     0
179
     0
273
     0
  0
XRECORD
  5
1C
102
{ACAD_REACTORS
330
1A
102
}
330
1A
100
AcDbXrecord
280
     1
270
     1
271
     1
  0
XRECORD
  5
1B
102
{ACAD_REACTORS
330
1A
102
}
330
1A
100
AcDbXrecord
280
     1
270
     1
271
     1
  0
XRECORD
  5
1F
102
{ACAD_REACTORS
330
1A
102
}
330
1A
100
AcDbXrecord
280
     1
270
     1
271
     1
  0
XRECORD
  5
1E
102
{ACAD_REACTORS
330
1A
102
}
330
1A
100
AcDbXrecord
280
     1
270
     1
271
     1
  0
XRECORD
  5
20
102
{ACAD_REACTORS
330
1A
102
}
330
1A
100
AcDbXrecord
280
     1
270
     1
271
     1
  0
XRECORD
  5
1D
102
{ACAD_REACTORS
330
1A
102
}
330
1A
100
AcDbXrecord
280
     1
270
     1
271
     1
  0
XRECORD
  5
900
102
{ACAD_REACTORS
330
12
102
}
330
12
100
AcDbXrecord
280
     1
102
MATERIAL
148
0.0
149
0.0
149
0.0
 93
        0
 94
      127
282
     0
 72
     0
 77
     0
171
     0
175
     0
179
     0
273
     0
  0
XRECORD
  5
14
102
{ACAD_REACTORS
330
12
102
}
330
12
100
AcDbXrecord
280
     1
270
     1
271
     1
  0
XRECORD
  5
13
102
{ACAD_REACTORS
330
12
102
}
330
12
100
AcDbXrecord
280
     1
270
     1
271
     1
  0
XRECORD
  5
17
102
{ACAD_REACTORS
330
12
102
}
330
12
100
AcDbXrecord
280
     1
270
     1
271
     1
  0
XRECORD
  5
16
102
{ACAD_REACTORS
330
12
102
}
330
12
100
AcDbXrecord
280
     1
270
     1
271
     1
  0
XRECORD
  5
18
102
{ACAD_REACTORS
330
12
102
}
330
12
100
AcDbXrecord
280
     1
270
     1
271
     1
  0
XRECORD
  5
15
102
{ACAD_REACTORS
330
12
102
}
330
12
100
AcDbXrecord
280
     1
270
     1
271
     1
  0
XRECORD
  5
902
102
{ACAD_REACTORS
330
22
102
}
330
22
100
AcDbXrecord
280
     1
102
MATERIAL
148
0.0
149
0.0
149
0.0
 93
        0
 94
      127
282
     0
 72
     0
 77
     0
171
     0
175
     0
179
     0
273
     0
  0
XRECORD
  5
24
102
{ACAD_REACTORS
330
22
102
}
330
22
100
AcDbXrecord
280
     1
270
     1
271
     1
  0
XRECORD
  5
23
102
{ACAD_REACTORS
330
22
102
}
330
22
100
AcDbXrecord
280
     1
270
     1
271
     1
  0
XRECORD
  5
27
102
{ACAD_REACTORS
330
22
102
}
330
22
100
AcDbXrecord
280
     1
270
     1
271
     1
  0
XRECORD
  5
26
102
{ACAD_REACTORS
330
22
102
}
330
22
100
AcDbXrecord
280
     1
270
     1
271
     1
  0
XRECORD
  5
28
102
{ACAD_REACTORS
330
22
102
}
330
22
100
AcDbXrecord
280
     1
270
     1
271
     1
  0
XRECORD
  5
25
102
{ACAD_REACTORS
330
22
102
}
330
22
100
AcDbXrecord
280
     1
270
     1
271
     1
  0
XRECORD
  5
98C
102
{ACAD_REACTORS
330
98B
102
}
330
98B
100
AcDbXrecord
280
     1
102
ACAD_ROUNDTRIP_2012_MLEADER_STYLE
298
     1
  0
CELLSTYLEMAP
  5
957
102
{ACAD_REACTORS
330
385
102
}
330
385
100
AcDbCellStyleMap
 90
        3
300
CELLSTYLE
  1
TABLEFORMAT_BEGIN
 90
        5
170
     1
 91
        0
 92
    32768
 62
   257
 93
        1
300
CONTENTFORMAT
  1
CONTENTFORMAT_BEGIN
 90
        0
 91
        0
 92
      512
 93
        0
300

 40
0.0
140
1.0
 94
        5
 62
     0
340
55
144
0.25
309
CONTENTFORMAT_END
171
     1
301
MARGIN
  1
CELLMARGIN_BEGIN
 40
0.06
 40
0.06
 40
0.06
 40
0.06
 40
0.18
 40
0.18
309
CELLMARGIN_END
 94
        6
 95
        1
302
GRIDFORMAT
  1
GRIDFORMAT_BEGIN
 90
        0
 91
        1
 62
     0
 92
       -2
340
0
 93
        0
 40
0.045
309
GRIDFORMAT_END
 95
        2
302
GRIDFORMAT
  1
GRIDFORMAT_BEGIN
 90
        0
 91
        1
 62
     0
 92
       -2
340
0
 93
        0
 40
0.045
309
GRIDFORMAT_END
 95
        4
302
GRIDFORMAT
  1
GRIDFORMAT_BEGIN
 90
        0
 91
        1
 62
     0
 92
       -2
340
0
 93
        0
 40
0.045
309
GRIDFORMAT_END
 95
        8
302
GRIDFORMAT
  1
GRIDFORMAT_BEGIN
 90
        0
 91
        1
 62
     0
 92
       -2
340
0
 93
        0
 40
0.045
309
GRIDFORMAT_END
 95
       16
302
GRIDFORMAT
  1
GRIDFORMAT_BEGIN
 90
        0
 91
        1
 62
     0
 92
       -2
340
0
 93
        0
 40
0.045
309
GRIDFORMAT_END
 95
       32
302
GRIDFORMAT
  1
GRIDFORMAT_BEGIN
 90
        0
 91
        1
 62
     0
 92
       -2
340
0
 93
        0
 40
0.045
309
GRIDFORMAT_END
309
TABLEFORMAT_END
  1
CELLSTYLE_BEGIN
 90
        1
 91
        1
300
_TITLE
309
CELLSTYLE_END
300
CELLSTYLE
  1
TABLEFORMAT_BEGIN
 90
        5
170
     1
 91
        0
 92
        0
 62
   257
 93
        1
300
CONTENTFORMAT
  1
CONTENTFORMAT_BEGIN
 90
        0
 91
        0
 92
      512
 93
        0
300

 40
0.0
140
1.0
 94
        5
 62
     0
340
55
144
0.18
309
CONTENTFORMAT_END
171
     1
301
MARGIN
  1
CELLMARGIN_BEGIN
 40
0.06
 40
0.06
 40
0.06
 40
0.06
 40
0.18
 40
0.18
309
CELLMARGIN_END
 94
        6
 95
        1
302
GRIDFORMAT
  1
GRIDFORMAT_BEGIN
 90
        0
 91
        1
 62
     0
 92
       -2
340
0
 93
        0
 40
0.045
309
GRIDFORMAT_END
 95
        2
302
GRIDFORMAT
  1
GRIDFORMAT_BEGIN
 90
        0
 91
        1
 62
     0
 92
       -2
340
0
 93
        0
 40
0.045
309
GRIDFORMAT_END
 95
        4
302
GRIDFORMAT
  1
GRIDFORMAT_BEGIN
 90
        0
 91
        1
 62
     0
 92
       -2
340
0
 93
        0
 40
0.045
309
GRIDFORMAT_END
 95
        8
302
GRIDFORMAT
  1
GRIDFORMAT_BEGIN
 90
        0
 91
        1
 62
     0
 92
       -2
340
0
 93
        0
 40
0.045
309
GRIDFORMAT_END
 95
       16
302
GRIDFORMAT
  1
GRIDFORMAT_BEGIN
 90
        0
 91
        1
 62
     0
 92
       -2
340
0
 93
        0
 40
0.045
309
GRIDFORMAT_END
 95
       32
302
GRIDFORMAT
  1
GRIDFORMAT_BEGIN
 90
        0
 91
        1
 62
     0
 92
       -2
340
0
 93
        0
 40
0.045
309
GRIDFORMAT_END
309
TABLEFORMAT_END
  1
CELLSTYLE_BEGIN
 90
        2
 91
        1
300
_HEADER
309
CELLSTYLE_END
300
CELLSTYLE
  1
TABLEFORMAT_BEGIN
 90
        5
170
     1
 91
        0
 92
        0
 62
   257
 93
        1
300
CONTENTFORMAT
  1
CONTENTFORMAT_BEGIN
 90
        0
 91
        0
 92
      512
 93
        0
300

 40
0.0
140
1.0
 94
        2
 62
     0
340
55
144
0.18
309
CONTENTFORMAT_END
171
     1
301
MARGIN
  1
CELLMARGIN_BEGIN
 40
0.06
 40
0.06
 40
0.06
 40
0.06
 40
0.18
 40
0.18
309
CELLMARGIN_END
 94
        6
 95
        1
302
GRIDFORMAT
  1
GRIDFORMAT_BEGIN
 90
        0
 91
        1
 62
     0
 92
       -2
340
0
 93
        0
 40
0.045
309
GRIDFORMAT_END
 95
        2
302
GRIDFORMAT
  1
GRIDFORMAT_BEGIN
 90
        0
 91
        1
 62
     0
 92
       -2
340
0
 93
        0
 40
0.045
309
GRIDFORMAT_END
 95
        4
302
GRIDFORMAT
  1
GRIDFORMAT_BEGIN
 90
        0
 91
        1
 62
     0
 92
       -2
340
0
 93
        0
 40
0.045
309
GRIDFORMAT_END
 95
        8
302
GRIDFORMAT
  1
GRIDFORMAT_BEGIN
 90
        0
 91
        1
 62
     0
 92
       -2
340
0
 93
        0
 40
0.045
309
GRIDFORMAT_END
 95
       16
302
GRIDFORMAT
  1
GRIDFORMAT_BEGIN
 90
        0
 91
        1
 62
     0
 92
       -2
340
0
 93
        0
 40
0.045
309
GRIDFORMAT_END
 95
       32
302
GRIDFORMAT
  1
GRIDFORMAT_BEGIN
 90
        0
 91
        1
 62
     0
 92
       -2
340
0
 93
        0
 40
0.045
309
GRIDFORMAT_END
309
TABLEFORMAT_END
  1
CELLSTYLE_BEGIN
 90
        3
 91
        2
300
_DATA
309
CELLSTYLE_END
  0
XRECORD
  5
98A
102
{ACAD_REACTORS
330
385
102
}
330
385
100
AcDbXrecord
280
     1
102
ACAD_ROUNDTRIP_PRE2007_TABLESTYLE
 90
      512
 91
        0
  1

 92
      512
 93
        0
  2

 94
      512
 95
        0
  3

  0
XRECORD
  5
965
102
{ACAD_REACTORS
330
964
102
}
330
964
100
AcDbXrecord
280
     1
102
RTVSPost2010Prop28
280
     1
102
RTVSPost2010PropOp28
 70
     1
102
RTVSPost2010Prop29
280
     1
102
RTVSPost2010PropOp29
 70
     1
102
RTVSPost2010Prop30
280
     0
102
RTVSPost2010PropOp30
 70
     1
102
RTVSPost2010Prop31
280
     0
102
RTVSPost2010PropOp31
 70
     1
102
RTVSPost2010Prop32
280
     0
102
RTVSPost2010PropOp32
 70
     1
102
RTVSPost2010Prop33
280
     0
102
RTVSPost2010PropOp33
 70
     1
102
RTVSPost2010Prop34
280
     0
102
RTVSPost2010PropOp34
 70
     1
102
RTVSPost2010Prop35
280
     0
102
RTVSPost2010PropOp35
 70
     1
102
RTVSPost2010Prop36
280
     0
102
RTVSPost2010PropOp36
 70
     1
102
RTVSPost2010Prop37
 90
       50
102
RTVSPost2010PropOp37
 70
     1
102
RTVSPost2010Prop38
140
0.0
102
RTVSPost2010PropOp38
 70
     1
102
RTVSPost2010Prop39
140
1.0
102
RTVSPost2010PropOp39
 70
     1
102
RTVSPost2010Prop40
 90
        0
102
RTVSPost2010PropOp40
 70
     1
102
RTVSPost2010Prop41ColorIndex
 90
       18
102
RTVSPost2010Prop41ColorRGB
 90
-16777216
102
RTVSPost2010PropOp41
 70
     1
102
RTVSPost2010Prop42
 90
       50
102
RTVSPost2010PropOp42
 70
     1
102
RTVSPost2010Prop43
 90
        3
102
RTVSPost2010PropOp43
 70
     1
102
RTVSPost2010Prop44ColorIndex
 90
        5
102
RTVSPost2010Prop44ColorRGB
 90
      255
102
RTVSPost2010PropOp44
 70
     1
102
RTVSPost2010Prop45
280
     0
102
RTVSPost2010PropOp45
 70
     1
102
RTVSPost2010Prop46
 90
       50
102
RTVSPost2010PropOp46
 70
     1
102
RTVSPost2010Prop47
 90
       50
102
RTVSPost2010PropOp47
 70
     1
102
RTVSPost2010Prop48
 90
       50
102
RTVSPost2010PropOp48
 70
     1
102
RTVSPost2010Prop49
280
     0
102
RTVSPost2010PropOp49
 70
     1
102
RTVSPost2010Prop50
 90
       50
102
RTVSPost2010PropOp50
 70
     1
102
RTVSPost2010Prop51ColorIndex
 90
      256
102
RTVSPost2010Prop51ColorRGB
 90
-16777216
102
RTVSPost2010PropOp51
 70
     0
102
RTVSPost2010Prop52
140
1.0
102
RTVSPost2010PropOp52
 70
     0
102
RTVSPost2010Prop53
 90
        2
102
RTVSPost2010PropOp53
 70
     1
102
RTVSPost2010Prop54
  1
strokes_ogs.tif
102
RTVSPost2010PropOp54
 70
     1
102
RTVSPost2010Prop55
280
     0
102
RTVSPost2010PropOp55
 70
     1
102
RTVSPost2010Prop56
140
1.0
102
RTVSPost2010PropOp56
 70
     1
102
RTVSPost2010Prop57
140
1.0
102
RTVSPost2010PropOp57
 70
     1
102
RTVSPropertyOp0
 70
     1
102
RTVSPropertyOp1
 70
     1
102
RTVSPropertyOp2
 70
     1
102
RTVSPropertyOp3
 70
     1
102
RTVSPropertyOp4
 70
     1
102
RTVSPropertyOp5
 70
     1
102
RTVSPropertyOp6
 70
     1
102
RTVSPropertyOp7
 70
     1
102
RTVSPropertyOp8
 70
     1
102
RTVSPropertyOp9
 70
     1
102
RTVSPropertyOp10
 70
     1
102
RTVSPropertyOp11
 70
     1
102
RTVSPropertyOp12
 70
     1
102
RTVSPropertyOp13
 70
     1
102
RTVSPropertyOp14
 70
     1
102
RTVSPropertyOp15
 70
     1
102
RTVSPropertyOp16
 70
     1
102
RTVSPropertyOp17
 70
     1
102
RTVSPropertyOp18
 70
     1
102
RTVSPropertyOp19
 70
     1
102
RTVSPropertyOp20
 70
     1
102
RTVSPropertyOp21
 70
     1
102
RTVSPropertyOp22
 70
     1
102
RTVSPropertyOp23
 70
     1
102
RTVSPropertyOp24
 70
     1
102
RTVSPropertyOp25
 70
     1
102
RTVSPropertyOp26
 70
     1
102
RTVSPropertyOp27
 70
     1
102
RTVSPropertyOp28
 70
     1
102
RTVSPropertyOp29
 70
     1
102
RTVSPropertyOp30
 70
     1
102
RTVSPropertyOp31
 70
     1
102
RTVSPropertyOp32
 70
     1
102
RTVSPropertyOp33
 70
     1
102
RTVSPropertyOp34
 70
     1
102
RTVSPropertyOp35
 70
     1
102
RTVSPropertyOp36
 70
     1
102
RTVSPropertyOp37
 70
     1
102
RTVSPropertyOp38
 70
     1
102
RTVSPropertyOp39
 70
     1
102
RTVSPropertyOp40
 70
     1
102
RTVSPropertyOp41
 70
     1
102
RTVSPropertyOp42
 70
     1
102
RTVSPropertyOp43
 70
     1
102
RTVSPropertyOp44
 70
     1
102
RTVSPropertyOp45
 70
     1
102
RTVSPropertyOp46
 70
     1
102
RTVSPropertyOp47
 70
     1
102
RTVSPropertyOp48
 70
     1
102
RTVSPropertyOp49
 70
     1
102
RTVSPropertyOp50
 70
     1
102
RTVSPropertyOp51
 70
     0
102
RTVSPropertyOp52
 70
     0
102
RTVSPropertyOp53
 70
     1
102
RTVSPropertyOp54
 70
     1
102
RTVSPropertyOp55
 70
     1
102
RTVSPropertyOp56
 70
     1
102
RTVSPropertyOp57
 70
     1
102
RTVSPropertyOp58
 70
     1
102
RTVSPropertyOp59
 70
     1
102
RTVSPropertyOp60
 70
     1
102
RTVSPropertyOp61
 70
     1
102
RTVSPropertyOp62
 70
     1
  0
XRECORD
  5
963
102
{ACAD_REACTORS
330
962
102
}
330
962
100
AcDbXrecord
280
     1
102
RTVSPost2010Prop28
280
     0
102
RTVSPost2010PropOp28
 70
     1
102
RTVSPost2010Prop29
280
     1
102
RTVSPost2010PropOp29
 70
     1
102
RTVSPost2010Prop30
280
     1
102
RTVSPost2010PropOp30
 70
     1
102
RTVSPost2010Prop31
280
     0
102
RTVSPost2010PropOp31
 70
     1
102
RTVSPost2010Prop32
280
     0
102
RTVSPost2010PropOp32
 70
     1
102
RTVSPost2010Prop33
280
     0
102
RTVSPost2010PropOp33
 70
     1
102
RTVSPost2010Prop34
280
     0
102
RTVSPost2010PropOp34
 70
     1
102
RTVSPost2010Prop35
280
     0
102
RTVSPost2010PropOp35
 70
     1
102
RTVSPost2010Prop36
280
     0
102
RTVSPost2010PropOp36
 70
     1
102
RTVSPost2010Prop37
 90
       50
102
RTVSPost2010PropOp37
 70
     1
102
RTVSPost2010Prop38
140
0.0
102
RTVSPost2010PropOp38
 70
     1
102
RTVSPost2010Prop39
140
1.0
102
RTVSPost2010PropOp39
 70
     1
102
RTVSPost2010Prop40
 90
        0
102
RTVSPost2010PropOp40
 70
     1
102
RTVSPost2010Prop41ColorIndex
 90
       18
102
RTVSPost2010Prop41ColorRGB
 90
-16777216
102
RTVSPost2010PropOp41
 70
     1
102
RTVSPost2010Prop42
 90
       50
102
RTVSPost2010PropOp42
 70
     1
102
RTVSPost2010Prop43
 90
        3
102
RTVSPost2010PropOp43
 70
     1
102
RTVSPost2010Prop44ColorIndex
 90
        5
102
RTVSPost2010Prop44ColorRGB
 90
      255
102
RTVSPost2010PropOp44
 70
     1
102
RTVSPost2010Prop45
280
     0
102
RTVSPost2010PropOp45
 70
     1
102
RTVSPost2010Prop46
 90
       50
102
RTVSPost2010PropOp46
 70
     1
102
RTVSPost2010Prop47
 90
       50
102
RTVSPost2010PropOp47
 70
     1
102
RTVSPost2010Prop48
 90
       50
102
RTVSPost2010PropOp48
 70
     1
102
RTVSPost2010Prop49
280
     0
102
RTVSPost2010PropOp49
 70
     1
102
RTVSPost2010Prop50
 90
       50
102
RTVSPost2010PropOp50
 70
     1
102
RTVSPost2010Prop51ColorIndex
 90
      256
102
RTVSPost2010Prop51ColorRGB
 90
-16777216
102
RTVSPost2010PropOp51
 70
     0
102
RTVSPost2010Prop52
140
1.0
102
RTVSPost2010PropOp52
 70
     0
102
RTVSPost2010Prop53
 90
        2
102
RTVSPost2010PropOp53
 70
     1
102
RTVSPost2010Prop54
  1
strokes_ogs.tif
102
RTVSPost2010PropOp54
 70
     1
102
RTVSPost2010Prop55
280
     0
102
RTVSPost2010PropOp55
 70
     1
102
RTVSPost2010Prop56
140
1.0
102
RTVSPost2010PropOp56
 70
     1
102
RTVSPost2010Prop57
140
1.0
102
RTVSPost2010PropOp57
 70
     1
102
RTVSPropertyOp0
 70
     1
102
RTVSPropertyOp1
 70
     1
102
RTVSPropertyOp2
 70
     1
102
RTVSPropertyOp3
 70
     1
102
RTVSPropertyOp4
 70
     1
102
RTVSPropertyOp5
 70
     1
102
RTVSPropertyOp6
 70
     1
102
RTVSPropertyOp7
 70
     1
102
RTVSPropertyOp8
 70
     1
102
RTVSPropertyOp9
 70
     1
102
RTVSPropertyOp10
 70
     1
102
RTVSPropertyOp11
 70
     1
102
RTVSPropertyOp12
 70
     1
102
RTVSPropertyOp13
 70
     1
102
RTVSPropertyOp14
 70
     1
102
RTVSPropertyOp15
 70
     1
102
RTVSPropertyOp16
 70
     1
102
RTVSPropertyOp17
 70
     1
102
RTVSPropertyOp18
 70
     1
102
RTVSPropertyOp19
 70
     1
102
RTVSPropertyOp20
 70
     1
102
RTVSPropertyOp21
 70
     1
102
RTVSPropertyOp22
 70
     1
102
RTVSPropertyOp23
 70
     1
102
RTVSPropertyOp24
 70
     1
102
RTVSPropertyOp25
 70
     1
102
RTVSPropertyOp26
 70
     1
102
RTVSPropertyOp27
 70
     1
102
RTVSPropertyOp28
 70
     1
102
RTVSPropertyOp29
 70
     1
102
RTVSPropertyOp30
 70
     1
102
RTVSPropertyOp31
 70
     1
102
RTVSPropertyOp32
 70
     1
102
RTVSPropertyOp33
 70
     1
102
RTVSPropertyOp34
 70
     1
102
RTVSPropertyOp35
 70
     1
102
RTVSPropertyOp36
 70
     1
102
RTVSPropertyOp37
 70
     1
102
RTVSPropertyOp38
 70
     1
102
RTVSPropertyOp39
 70
     1
102
RTVSPropertyOp40
 70
     1
102
RTVSPropertyOp41
 70
     1
102
RTVSPropertyOp42
 70
     1
102
RTVSPropertyOp43
 70
     1
102
RTVSPropertyOp44
 70
     1
102
RTVSPropertyOp45
 70
     1
102
RTVSPropertyOp46
 70
     1
102
RTVSPropertyOp47
 70
     1
102
RTVSPropertyOp48
 70
     1
102
RTVSPropertyOp49
 70
     1
102
RTVSPropertyOp50
 70
     1
102
RTVSPropertyOp51
 70
     0
102
RTVSPropertyOp52
 70
     0
102
RTVSPropertyOp53
 70
     1
102
RTVSPropertyOp54
 70
     1
102
RTVSPropertyOp55
 70
     1
102
RTVSPropertyOp56
 70
     1
102
RTVSPropertyOp57
 70
     1
102
RTVSPropertyOp58
 70
     1
102
RTVSPropertyOp59
 70
     1
102
RTVSPropertyOp60
 70
     1
102
RTVSPropertyOp61
 70
     1
102
RTVSPropertyOp62
 70
     1
  0
XRECORD
  5
971
102
{ACAD_REACTORS
330
970
102
}
330
970
100
AcDbXrecord
280
     1
102
RTVSPost2010Prop28
280
     0
102
RTVSPost2010PropOp28
 70
     1
102
RTVSPost2010Prop29
280
     1
102
RTVSPost2010PropOp29
 70
     1
102
RTVSPost2010Prop30
280
     1
102
RTVSPost2010PropOp30
 70
     1
102
RTVSPost2010Prop31
280
     0
102
RTVSPost2010PropOp31
 70
     1
102
RTVSPost2010Prop32
280
     0
102
RTVSPost2010PropOp32
 70
     1
102
RTVSPost2010Prop33
280
     0
102
RTVSPost2010PropOp33
 70
     1
102
RTVSPost2010Prop34
280
     0
102
RTVSPost2010PropOp34
 70
     1
102
RTVSPost2010Prop35
280
     0
102
RTVSPost2010PropOp35
 70
     1
102
RTVSPost2010Prop36
280
     0
102
RTVSPost2010PropOp36
 70
     1
102
RTVSPost2010Prop37
 90
       50
102
RTVSPost2010PropOp37
 70
     1
102
RTVSPost2010Prop38
140
0.0
102
RTVSPost2010PropOp38
 70
     1
102
RTVSPost2010Prop39
140
1.0
102
RTVSPost2010PropOp39
 70
     1
102
RTVSPost2010Prop40
 90
        0
102
RTVSPost2010PropOp40
 70
     1
102
RTVSPost2010Prop41ColorIndex
 90
       18
102
RTVSPost2010Prop41ColorRGB
 90
-16777216
102
RTVSPost2010PropOp41
 70
     1
102
RTVSPost2010Prop42
 90
       50
102
RTVSPost2010PropOp42
 70
     1
102
RTVSPost2010Prop43
 90
        3
102
RTVSPost2010PropOp43
 70
     1
102
RTVSPost2010Prop44ColorIndex
 90
        5
102
RTVSPost2010Prop44ColorRGB
 90
      255
102
RTVSPost2010PropOp44
 70
     1
102
RTVSPost2010Prop45
280
     0
102
RTVSPost2010PropOp45
 70
     1
102
RTVSPost2010Prop46
 90
       50
102
RTVSPost2010PropOp46
 70
     1
102
RTVSPost2010Prop47
 90
       50
102
RTVSPost2010PropOp47
 70
     1
102
RTVSPost2010Prop48
 90
       50
102
RTVSPost2010PropOp48
 70
     1
102
RTVSPost2010Prop49
280
     0
102
RTVSPost2010PropOp49
 70
     1
102
RTVSPost2010Prop50
 90
       50
102
RTVSPost2010PropOp50
 70
     1
102
RTVSPost2010Prop51ColorIndex
 90
      256
102
RTVSPost2010Prop51ColorRGB
 90
-16777216
102
RTVSPost2010PropOp51
 70
     0
102
RTVSPost2010Prop52
140
1.0
102
RTVSPost2010PropOp52
 70
     0
102
RTVSPost2010Prop53
 90
        2
102
RTVSPost2010PropOp53
 70
     1
102
RTVSPost2010Prop54
  1
strokes_ogs.tif
102
RTVSPost2010PropOp54
 70
     1
102
RTVSPost2010Prop55
280
     0
102
RTVSPost2010PropOp55
 70
     1
102
RTVSPost2010Prop56
140
1.0
102
RTVSPost2010PropOp56
 70
     1
102
RTVSPost2010Prop57
140
1.0
102
RTVSPost2010PropOp57
 70
     1
102
RTVSPropertyOp0
 70
     1
102
RTVSPropertyOp1
 70
     1
102
RTVSPropertyOp2
 70
     1
102
RTVSPropertyOp3
 70
     1
102
RTVSPropertyOp4
 70
     1
102
RTVSPropertyOp5
 70
     1
102
RTVSPropertyOp6
 70
     1
102
RTVSPropertyOp7
 70
     1
102
RTVSPropertyOp8
 70
     1
102
RTVSPropertyOp9
 70
     1
102
RTVSPropertyOp10
 70
     1
102
RTVSPropertyOp11
 70
     1
102
RTVSPropertyOp12
 70
     1
102
RTVSPropertyOp13
 70
     1
102
RTVSPropertyOp14
 70
     1
102
RTVSPropertyOp15
 70
     1
102
RTVSPropertyOp16
 70
     1
102
RTVSPropertyOp17
 70
     1
102
RTVSPropertyOp18
 70
     1
102
RTVSPropertyOp19
 70
     1
102
RTVSPropertyOp20
 70
     1
102
RTVSPropertyOp21
 70
     1
102
RTVSPropertyOp22
 70
     1
102
RTVSPropertyOp23
 70
     1
102
RTVSPropertyOp24
 70
     1
102
RTVSPropertyOp25
 70
     1
102
RTVSPropertyOp26
 70
     1
102
RTVSPropertyOp27
 70
     1
102
RTVSPropertyOp28
 70
     1
102
RTVSPropertyOp29
 70
     1
102
RTVSPropertyOp30
 70
     1
102
RTVSPropertyOp31
 70
     1
102
RTVSPropertyOp32
 70
     1
102
RTVSPropertyOp33
 70
     1
102
RTVSPropertyOp34
 70
     1
102
RTVSPropertyOp35
 70
     1
102
RTVSPropertyOp36
 70
     1
102
RTVSPropertyOp37
 70
     1
102
RTVSPropertyOp38
 70
     1
102
RTVSPropertyOp39
 70
     1
102
RTVSPropertyOp40
 70
     1
102
RTVSPropertyOp41
 70
     1
102
RTVSPropertyOp42
 70
     1
102
RTVSPropertyOp43
 70
     1
102
RTVSPropertyOp44
 70
     1
102
RTVSPropertyOp45
 70
     1
102
RTVSPropertyOp46
 70
     1
102
RTVSPropertyOp47
 70
     1
102
RTVSPropertyOp48
 70
     1
102
RTVSPropertyOp49
 70
     1
102
RTVSPropertyOp50
 70
     1
102
RTVSPropertyOp51
 70
     0
102
RTVSPropertyOp52
 70
     0
102
RTVSPropertyOp53
 70
     1
102
RTVSPropertyOp54
 70
     1
102
RTVSPropertyOp55
 70
     1
102
RTVSPropertyOp56
 70
     1
102
RTVSPropertyOp57
 70
     1
102
RTVSPropertyOp58
 70
     1
102
RTVSPropertyOp59
 70
     1
102
RTVSPropertyOp60
 70
     1
102
RTVSPropertyOp61
 70
     1
102
RTVSPropertyOp62
 70
     1
  0
XRECORD
  5
979
102
{ACAD_REACTORS
330
978
102
}
330
978
100
AcDbXrecord
280
     1
102
RTVSPost2010Prop28
280
     0
102
RTVSPost2010PropOp28
 70
     1
102
RTVSPost2010Prop29
280
     1
102
RTVSPost2010PropOp29
 70
     1
102
RTVSPost2010Prop30
280
     1
102
RTVSPost2010PropOp30
 70
     1
102
RTVSPost2010Prop31
280
     0
102
RTVSPost2010PropOp31
 70
     1
102
RTVSPost2010Prop32
280
     0
102
RTVSPost2010PropOp32
 70
     1
102
RTVSPost2010Prop33
280
     0
102
RTVSPost2010PropOp33
 70
     1
102
RTVSPost2010Prop34
280
     0
102
RTVSPost2010PropOp34
 70
     1
102
RTVSPost2010Prop35
280
     0
102
RTVSPost2010PropOp35
 70
     1
102
RTVSPost2010Prop36
280
     0
102
RTVSPost2010PropOp36
 70
     1
102
RTVSPost2010Prop37
 90
       50
102
RTVSPost2010PropOp37
 70
     1
102
RTVSPost2010Prop38
140
0.0
102
RTVSPost2010PropOp38
 70
     1
102
RTVSPost2010Prop39
140
1.0
102
RTVSPost2010PropOp39
 70
     1
102
RTVSPost2010Prop40
 90
        0
102
RTVSPost2010PropOp40
 70
     1
102
RTVSPost2010Prop41ColorIndex
 90
       18
102
RTVSPost2010Prop41ColorRGB
 90
-16777216
102
RTVSPost2010PropOp41
 70
     1
102
RTVSPost2010Prop42
 90
       50
102
RTVSPost2010PropOp42
 70
     1
102
RTVSPost2010Prop43
 90
        3
102
RTVSPost2010PropOp43
 70
     1
102
RTVSPost2010Prop44ColorIndex
 90
        5
102
RTVSPost2010Prop44ColorRGB
 90
      255
102
RTVSPost2010PropOp44
 70
     1
102
RTVSPost2010Prop45
280
     0
102
RTVSPost2010PropOp45
 70
     1
102
RTVSPost2010Prop46
 90
       50
102
RTVSPost2010PropOp46
 70
     1
102
RTVSPost2010Prop47
 90
       50
102
RTVSPost2010PropOp47
 70
     1
102
RTVSPost2010Prop48
 90
       50
102
RTVSPost2010PropOp48
 70
     1
102
RTVSPost2010Prop49
280
     0
102
RTVSPost2010PropOp49
 70
     1
102
RTVSPost2010Prop50
 90
       50
102
RTVSPost2010PropOp50
 70
     1
102
RTVSPost2010Prop51ColorIndex
 90
      256
102
RTVSPost2010Prop51ColorRGB
 90
-16777216
102
RTVSPost2010PropOp51
 70
     0
102
RTVSPost2010Prop52
140
1.0
102
RTVSPost2010PropOp52
 70
     0
102
RTVSPost2010Prop53
 90
        2
102
RTVSPost2010PropOp53
 70
     1
102
RTVSPost2010Prop54
  1
strokes_ogs.tif
102
RTVSPost2010PropOp54
 70
     1
102
RTVSPost2010Prop55
280
     0
102
RTVSPost2010PropOp55
 70
     1
102
RTVSPost2010Prop56
140
1.0
102
RTVSPost2010PropOp56
 70
     1
102
RTVSPost2010Prop57
140
1.0
102
RTVSPost2010PropOp57
 70
     1
102
RTVSPropertyOp0
 70
     1
102
RTVSPropertyOp1
 70
     1
102
RTVSPropertyOp2
 70
     1
102
RTVSPropertyOp3
 70
     1
102
RTVSPropertyOp4
 70
     1
102
RTVSPropertyOp5
 70
     1
102
RTVSPropertyOp6
 70
     1
102
RTVSPropertyOp7
 70
     1
102
RTVSPropertyOp8
 70
     1
102
RTVSPropertyOp9
 70
     1
102
RTVSPropertyOp10
 70
     1
102
RTVSPropertyOp11
 70
     1
102
RTVSPropertyOp12
 70
     1
102
RTVSPropertyOp13
 70
     1
102
RTVSPropertyOp14
 70
     1
102
RTVSPropertyOp15
 70
     1
102
RTVSPropertyOp16
 70
     1
102
RTVSPropertyOp17
 70
     1
102
RTVSPropertyOp18
 70
     1
102
RTVSPropertyOp19
 70
     1
102
RTVSPropertyOp20
 70
     1
102
RTVSPropertyOp21
 70
     1
102
RTVSPropertyOp22
 70
     1
102
RTVSPropertyOp23
 70
     1
102
RTVSPropertyOp24
 70
     1
102
RTVSPropertyOp25
 70
     1
102
RTVSPropertyOp26
 70
     1
102
RTVSPropertyOp27
 70
     1
102
RTVSPropertyOp28
 70
     1
102
RTVSPropertyOp29
 70
     1
102
RTVSPropertyOp30
 70
     1
102
RTVSPropertyOp31
 70
     1
102
RTVSPropertyOp32
 70
     1
102
RTVSPropertyOp33
 70
     1
102
RTVSPropertyOp34
 70
     1
102
RTVSPropertyOp35
 70
     1
102
RTVSPropertyOp36
 70
     1
102
RTVSPropertyOp37
 70
     1
102
RTVSPropertyOp38
 70
     1
102
RTVSPropertyOp39
 70
     1
102
RTVSPropertyOp40
 70
     1
102
RTVSPropertyOp41
 70
     1
102
RTVSPropertyOp42
 70
     1
102
RTVSPropertyOp43
 70
     1
102
RTVSPropertyOp44
 70
     1
102
RTVSPropertyOp45
 70
     1
102
RTVSPropertyOp46
 70
     1
102
RTVSPropertyOp47
 70
     1
102
RTVSPropertyOp48
 70
     1
102
RTVSPropertyOp49
 70
     1
102
RTVSPropertyOp50
 70
     1
102
RTVSPropertyOp51
 70
     0
102
RTVSPropertyOp52
 70
     0
102
RTVSPropertyOp53
 70
     1
102
RTVSPropertyOp54
 70
     1
102
RTVSPropertyOp55
 70
     1
102
RTVSPropertyOp56
 70
     1
102
RTVSPropertyOp57
 70
     1
102
RTVSPropertyOp58
 70
     1
102
RTVSPropertyOp59
 70
     1
102
RTVSPropertyOp60
 70
     1
102
RTVSPropertyOp61
 70
     1
102
RTVSPropertyOp62
 70
     1
  0
XRECORD
  5
96B
102
{ACAD_REACTORS
330
96A
102
}
330
96A
100
AcDbXrecord
280
     1
102
RTVSPost2010Prop28
280
     0
102
RTVSPost2010PropOp28
 70
     1
102
RTVSPost2010Prop29
280
     1
102
RTVSPost2010PropOp29
 70
     1
102
RTVSPost2010Prop30
280
     1
102
RTVSPost2010PropOp30
 70
     1
102
RTVSPost2010Prop31
280
     0
102
RTVSPost2010PropOp31
 70
     1
102
RTVSPost2010Prop32
280
     0
102
RTVSPost2010PropOp32
 70
     1
102
RTVSPost2010Prop33
280
     0
102
RTVSPost2010PropOp33
 70
     1
102
RTVSPost2010Prop34
280
     0
102
RTVSPost2010PropOp34
 70
     1
102
RTVSPost2010Prop35
280
     0
102
RTVSPost2010PropOp35
 70
     1
102
RTVSPost2010Prop36
280
     0
102
RTVSPost2010PropOp36
 70
     1
102
RTVSPost2010Prop37
 90
       50
102
RTVSPost2010PropOp37
 70
     1
102
RTVSPost2010Prop38
140
0.0
102
RTVSPost2010PropOp38
 70
     1
102
RTVSPost2010Prop39
140
1.0
102
RTVSPost2010PropOp39
 70
     1
102
RTVSPost2010Prop40
 90
        0
102
RTVSPost2010PropOp40
 70
     1
102
RTVSPost2010Prop41ColorIndex
 90
       18
102
RTVSPost2010Prop41ColorRGB
 90
-16777216
102
RTVSPost2010PropOp41
 70
     1
102
RTVSPost2010Prop42
 90
       50
102
RTVSPost2010PropOp42
 70
     1
102
RTVSPost2010Prop43
 90
        3
102
RTVSPost2010PropOp43
 70
     1
102
RTVSPost2010Prop44ColorIndex
 90
        5
102
RTVSPost2010Prop44ColorRGB
 90
      255
102
RTVSPost2010PropOp44
 70
     1
102
RTVSPost2010Prop45
280
     0
102
RTVSPost2010PropOp45
 70
     1
102
RTVSPost2010Prop46
 90
       50
102
RTVSPost2010PropOp46
 70
     1
102
RTVSPost2010Prop47
 90
       50
102
RTVSPost2010PropOp47
 70
     1
102
RTVSPost2010Prop48
 90
       50
102
RTVSPost2010PropOp48
 70
     1
102
RTVSPost2010Prop49
280
     0
102
RTVSPost2010PropOp49
 70
     1
102
RTVSPost2010Prop50
 90
       50
102
RTVSPost2010PropOp50
 70
     1
102
RTVSPost2010Prop51ColorIndex
 90
      256
102
RTVSPost2010Prop51ColorRGB
 90
-16777216
102
RTVSPost2010PropOp51
 70
     0
102
RTVSPost2010Prop52
140
1.0
102
RTVSPost2010PropOp52
 70
     0
102
RTVSPost2010Prop53
 90
        2
102
RTVSPost2010PropOp53
 70
     1
102
RTVSPost2010Prop54
  1
strokes_ogs.tif
102
RTVSPost2010PropOp54
 70
     1
102
RTVSPost2010Prop55
280
     0
102
RTVSPost2010PropOp55
 70
     1
102
RTVSPost2010Prop56
140
1.0
102
RTVSPost2010PropOp56
 70
     1
102
RTVSPost2010Prop57
140
1.0
102
RTVSPost2010PropOp57
 70
     1
102
RTVSPropertyOp0
 70
     1
102
RTVSPropertyOp1
 70
     1
102
RTVSPropertyOp2
 70
     1
102
RTVSPropertyOp3
 70
     1
102
RTVSPropertyOp4
 70
     1
102
RTVSPropertyOp5
 70
     1
102
RTVSPropertyOp6
 70
     1
102
RTVSPropertyOp7
 70
     1
102
RTVSPropertyOp8
 70
     1
102
RTVSPropertyOp9
 70
     1
102
RTVSPropertyOp10
 70
     1
102
RTVSPropertyOp11
 70
     1
102
RTVSPropertyOp12
 70
     1
102
RTVSPropertyOp13
 70
     1
102
RTVSPropertyOp14
 70
     1
102
RTVSPropertyOp15
 70
     1
102
RTVSPropertyOp16
 70
     1
102
RTVSPropertyOp17
 70
     1
102
RTVSPropertyOp18
 70
     1
102
RTVSPropertyOp19
 70
     1
102
RTVSPropertyOp20
 70
     1
102
RTVSPropertyOp21
 70
     1
102
RTVSPropertyOp22
 70
     1
102
RTVSPropertyOp23
 70
     1
102
RTVSPropertyOp24
 70
     1
102
RTVSPropertyOp25
 70
     1
102
RTVSPropertyOp26
 70
     1
102
RTVSPropertyOp27
 70
     1
102
RTVSPropertyOp28
 70
     1
102
RTVSPropertyOp29
 70
     1
102
RTVSPropertyOp30
 70
     1
102
RTVSPropertyOp31
 70
     1
102
RTVSPropertyOp32
 70
     1
102
RTVSPropertyOp33
 70
     1
102
RTVSPropertyOp34
 70
     1
102
RTVSPropertyOp35
 70
     1
102
RTVSPropertyOp36
 70
     1
102
RTVSPropertyOp37
 70
     1
102
RTVSPropertyOp38
 70
     1
102
RTVSPropertyOp39
 70
     1
102
RTVSPropertyOp40
 70
     1
102
RTVSPropertyOp41
 70
     1
102
RTVSPropertyOp42
 70
     1
102
RTVSPropertyOp43
 70
     1
102
RTVSPropertyOp44
 70
     1
102
RTVSPropertyOp45
 70
     1
102
RTVSPropertyOp46
 70
     1
102
RTVSPropertyOp47
 70
     1
102
RTVSPropertyOp48
 70
     1
102
RTVSPropertyOp49
 70
     1
102
RTVSPropertyOp50
 70
     1
102
RTVSPropertyOp51
 70
     0
102
RTVSPropertyOp52
 70
     0
102
RTVSPropertyOp53
 70
     1
102
RTVSPropertyOp54
 70
     1
102
RTVSPropertyOp55
 70
     1
102
RTVSPropertyOp56
 70
     1
102
RTVSPropertyOp57
 70
     1
102
RTVSPropertyOp58
 70
     1
102
RTVSPropertyOp59
 70
     1
102
RTVSPropertyOp60
 70
     1
102
RTVSPropertyOp61
 70
     1
102
RTVSPropertyOp62
 70
     1
  0
XRECORD
  5
96F
102
{ACAD_REACTORS
330
96E
102
}
330
96E
100
AcDbXrecord
280
     1
102
RTVSPost2010Prop28
280
     0
102
RTVSPost2010PropOp28
 70
     1
102
RTVSPost2010Prop29
280
     1
102
RTVSPost2010PropOp29
 70
     1
102
RTVSPost2010Prop30
280
     1
102
RTVSPost2010PropOp30
 70
     1
102
RTVSPost2010Prop31
280
     0
102
RTVSPost2010PropOp31
 70
     1
102
RTVSPost2010Prop32
280
     0
102
RTVSPost2010PropOp32
 70
     1
102
RTVSPost2010Prop33
280
     0
102
RTVSPost2010PropOp33
 70
     1
102
RTVSPost2010Prop34
280
     0
102
RTVSPost2010PropOp34
 70
     1
102
RTVSPost2010Prop35
280
     0
102
RTVSPost2010PropOp35
 70
     1
102
RTVSPost2010Prop36
280
     0
102
RTVSPost2010PropOp36
 70
     1
102
RTVSPost2010Prop37
 90
       50
102
RTVSPost2010PropOp37
 70
     1
102
RTVSPost2010Prop38
140
0.0
102
RTVSPost2010PropOp38
 70
     1
102
RTVSPost2010Prop39
140
1.0
102
RTVSPost2010PropOp39
 70
     1
102
RTVSPost2010Prop40
 90
        0
102
RTVSPost2010PropOp40
 70
     1
102
RTVSPost2010Prop41ColorIndex
 90
       18
102
RTVSPost2010Prop41ColorRGB
 90
-16777216
102
RTVSPost2010PropOp41
 70
     1
102
RTVSPost2010Prop42
 90
       50
102
RTVSPost2010PropOp42
 70
     1
102
RTVSPost2010Prop43
 90
        3
102
RTVSPost2010PropOp43
 70
     1
102
RTVSPost2010Prop44ColorIndex
 90
        5
102
RTVSPost2010Prop44ColorRGB
 90
      255
102
RTVSPost2010PropOp44
 70
     1
102
RTVSPost2010Prop45
280
     0
102
RTVSPost2010PropOp45
 70
     1
102
RTVSPost2010Prop46
 90
       50
102
RTVSPost2010PropOp46
 70
     1
102
RTVSPost2010Prop47
 90
       50
102
RTVSPost2010PropOp47
 70
     1
102
RTVSPost2010Prop48
 90
       50
102
RTVSPost2010PropOp48
 70
     1
102
RTVSPost2010Prop49
280
     0
102
RTVSPost2010PropOp49
 70
     1
102
RTVSPost2010Prop50
 90
       50
102
RTVSPost2010PropOp50
 70
     1
102
RTVSPost2010Prop51ColorIndex
 90
      256
102
RTVSPost2010Prop51ColorRGB
 90
-16777216
102
RTVSPost2010PropOp51
 70
     0
102
RTVSPost2010Prop52
140
1.0
102
RTVSPost2010PropOp52
 70
     0
102
RTVSPost2010Prop53
 90
        2
102
RTVSPost2010PropOp53
 70
     1
102
RTVSPost2010Prop54
  1
strokes_ogs.tif
102
RTVSPost2010PropOp54
 70
     1
102
RTVSPost2010Prop55
280
     0
102
RTVSPost2010PropOp55
 70
     1
102
RTVSPost2010Prop56
140
1.0
102
RTVSPost2010PropOp56
 70
     1
102
RTVSPost2010Prop57
140
1.0
102
RTVSPost2010PropOp57
 70
     1
102
RTVSPropertyOp0
 70
     1
102
RTVSPropertyOp1
 70
     1
102
RTVSPropertyOp2
 70
     1
102
RTVSPropertyOp3
 70
     1
102
RTVSPropertyOp4
 70
     1
102
RTVSPropertyOp5
 70
     1
102
RTVSPropertyOp6
 70
     1
102
RTVSPropertyOp7
 70
     1
102
RTVSPropertyOp8
 70
     1
102
RTVSPropertyOp9
 70
     1
102
RTVSPropertyOp10
 70
     1
102
RTVSPropertyOp11
 70
     1
102
RTVSPropertyOp12
 70
     1
102
RTVSPropertyOp13
 70
     1
102
RTVSPropertyOp14
 70
     1
102
RTVSPropertyOp15
 70
     1
102
RTVSPropertyOp16
 70
     1
102
RTVSPropertyOp17
 70
     1
102
RTVSPropertyOp18
 70
     1
102
RTVSPropertyOp19
 70
     1
102
RTVSPropertyOp20
 70
     1
102
RTVSPropertyOp21
 70
     1
102
RTVSPropertyOp22
 70
     1
102
RTVSPropertyOp23
 70
     1
102
RTVSPropertyOp24
 70
     1
102
RTVSPropertyOp25
 70
     1
102
RTVSPropertyOp26
 70
     1
102
RTVSPropertyOp27
 70
     1
102
RTVSPropertyOp28
 70
     1
102
RTVSPropertyOp29
 70
     1
102
RTVSPropertyOp30
 70
     1
102
RTVSPropertyOp31
 70
     1
102
RTVSPropertyOp32
 70
     1
102
RTVSPropertyOp33
 70
     1
102
RTVSPropertyOp34
 70
     1
102
RTVSPropertyOp35
 70
     1
102
RTVSPropertyOp36
 70
     1
102
RTVSPropertyOp37
 70
     1
102
RTVSPropertyOp38
 70
     1
102
RTVSPropertyOp39
 70
     1
102
RTVSPropertyOp40
 70
     1
102
RTVSPropertyOp41
 70
     1
102
RTVSPropertyOp42
 70
     1
102
RTVSPropertyOp43
 70
     1
102
RTVSPropertyOp44
 70
     1
102
RTVSPropertyOp45
 70
     1
102
RTVSPropertyOp46
 70
     1
102
RTVSPropertyOp47
 70
     1
102
RTVSPropertyOp48
 70
     1
102
RTVSPropertyOp49
 70
     1
102
RTVSPropertyOp50
 70
     1
102
RTVSPropertyOp51
 70
     0
102
RTVSPropertyOp52
 70
     0
102
RTVSPropertyOp53
 70
     1
102
RTVSPropertyOp54
 70
     1
102
RTVSPropertyOp55
 70
     1
102
RTVSPropertyOp56
 70
     1
102
RTVSPropertyOp57
 70
     1
102
RTVSPropertyOp58
 70
     1
102
RTVSPropertyOp59
 70
     1
102
RTVSPropertyOp60
 70
     1
102
RTVSPropertyOp61
 70
     1
102
RTVSPropertyOp62
 70
     1
  0
XRECORD
  5
989
102
{ACAD_REACTORS
330
988
102
}
330
988
100
AcDbXrecord
280
     1
102
RTVSPost2010Prop28
280
     0
102
RTVSPost2010PropOp28
 70
     0
102
RTVSPost2010Prop29
280
     1
102
RTVSPost2010PropOp29
 70
     0
102
RTVSPost2010Prop30
280
     1
102
RTVSPost2010PropOp30
 70
     0
102
RTVSPost2010Prop31
280
     0
102
RTVSPost2010PropOp31
 70
     0
102
RTVSPost2010Prop32
280
     0
102
RTVSPost2010PropOp32
 70
     0
102
RTVSPost2010Prop33
280
     0
102
RTVSPost2010PropOp33
 70
     0
102
RTVSPost2010Prop34
280
     0
102
RTVSPost2010PropOp34
 70
     0
102
RTVSPost2010Prop35
280
     0
102
RTVSPost2010PropOp35
 70
     0
102
RTVSPost2010Prop36
280
     0
102
RTVSPost2010PropOp36
 70
     0
102
RTVSPost2010Prop37
 90
       50
102
RTVSPost2010PropOp37
 70
     0
102
RTVSPost2010Prop38
140
0.0
102
RTVSPost2010PropOp38
 70
     0
102
RTVSPost2010Prop39
140
1.0
102
RTVSPost2010PropOp39
 70
     0
102
RTVSPost2010Prop40
 90
        0
102
RTVSPost2010PropOp40
 70
     0
102
RTVSPost2010Prop41ColorIndex
 90
       18
102
RTVSPost2010Prop41ColorRGB
 90
-16777216
102
RTVSPost2010PropOp41
 70
     0
102
RTVSPost2010Prop42
 90
       50
102
RTVSPost2010PropOp42
 70
     0
102
RTVSPost2010Prop43
 90
        3
102
RTVSPost2010PropOp43
 70
     0
102
RTVSPost2010Prop44ColorIndex
 90
        5
102
RTVSPost2010Prop44ColorRGB
 90
      255
102
RTVSPost2010PropOp44
 70
     0
102
RTVSPost2010Prop45
280
     0
102
RTVSPost2010PropOp45
 70
     0
102
RTVSPost2010Prop46
 90
       50
102
RTVSPost2010PropOp46
 70
     0
102
RTVSPost2010Prop47
 90
       50
102
RTVSPost2010PropOp47
 70
     0
102
RTVSPost2010Prop48
 90
       50
102
RTVSPost2010PropOp48
 70
     0
102
RTVSPost2010Prop49
280
     0
102
RTVSPost2010PropOp49
 70
     0
102
RTVSPost2010Prop50
 90
       50
102
RTVSPost2010PropOp50
 70
     0
102
RTVSPost2010Prop51ColorIndex
 90
      256
102
RTVSPost2010Prop51ColorRGB
 90
-16777216
102
RTVSPost2010PropOp51
 70
     0
102
RTVSPost2010Prop52
140
1.0
102
RTVSPost2010PropOp52
 70
     0
102
RTVSPost2010Prop53
 90
        2
102
RTVSPost2010PropOp53
 70
     0
102
RTVSPost2010Prop54
  1
strokes_ogs.tif
102
RTVSPost2010PropOp54
 70
     0
102
RTVSPost2010Prop55
280
     0
102
RTVSPost2010PropOp55
 70
     0
102
RTVSPost2010Prop56
140
1.0
102
RTVSPost2010PropOp56
 70
     0
102
RTVSPost2010Prop57
140
1.0
102
RTVSPost2010PropOp57
 70
     0
102
RTVSPropertyOp0
 70
     0
102
RTVSPropertyOp1
 70
     0
102
RTVSPropertyOp2
 70
     0
102
RTVSPropertyOp3
 70
     0
102
RTVSPropertyOp4
 70
     0
102
RTVSPropertyOp5
 70
     0
102
RTVSPropertyOp6
 70
     0
102
RTVSPropertyOp7
 70
     0
102
RTVSPropertyOp8
 70
     0
102
RTVSPropertyOp9
 70
     0
102
RTVSPropertyOp10
 70
     0
102
RTVSPropertyOp11
 70
     0
102
RTVSPropertyOp12
 70
     0
102
RTVSPropertyOp13
 70
     0
102
RTVSPropertyOp14
 70
     2
102
RTVSPropertyOp15
 70
     0
102
RTVSPropertyOp16
 70
     0
102
RTVSPropertyOp17
 70
     0
102
RTVSPropertyOp18
 70
     0
102
RTVSPropertyOp19
 70
     0
102
RTVSPropertyOp20
 70
     0
102
RTVSPropertyOp21
 70
     0
102
RTVSPropertyOp22
 70
     0
102
RTVSPropertyOp23
 70
     0
102
RTVSPropertyOp24
 70
     0
102
RTVSPropertyOp25
 70
     0
102
RTVSPropertyOp26
 70
     0
102
RTVSPropertyOp27
 70
     0
102
RTVSPropertyOp28
 70
     0
102
RTVSPropertyOp29
 70
     0
102
RTVSPropertyOp30
 70
     0
102
RTVSPropertyOp31
 70
     0
102
RTVSPropertyOp32
 70
     0
102
RTVSPropertyOp33
 70
     0
102
RTVSPropertyOp34
 70
     0
102
RTVSPropertyOp35
 70
     0
102
RTVSPropertyOp36
 70
     0
102
RTVSPropertyOp37
 70
     0
102
RTVSPropertyOp38
 70
     0
102
RTVSPropertyOp39
 70
     0
102
RTVSPropertyOp40
 70
     0
102
RTVSPropertyOp41
 70
     0
102
RTVSPropertyOp42
 70
     0
102
RTVSPropertyOp43
 70
     0
102
RTVSPropertyOp44
 70
     0
102
RTVSPropertyOp45
 70
     0
102
RTVSPropertyOp46
 70
     0
102
RTVSPropertyOp47
 70
     0
102
RTVSPropertyOp48
 70
     0
102
RTVSPropertyOp49
 70
     0
102
RTVSPropertyOp50
 70
     0
102
RTVSPropertyOp51
 70
     0
102
RTVSPropertyOp52
 70
     0
102
RTVSPropertyOp53
 70
     0
102
RTVSPropertyOp54
 70
     0
102
RTVSPropertyOp55
 70
     0
102
RTVSPropertyOp56
 70
     0
102
RTVSPropertyOp57
 70
     0
102
RTVSPropertyOp58
 70
     1
102
RTVSPropertyOp59
 70
     1
102
RTVSPropertyOp60
 70
     1
102
RTVSPropertyOp61
 70
     1
102
RTVSPropertyOp62
 70
     1
  0
XRECORD
  5
977
102
{ACAD_REACTORS
330
976
102
}
330
976
100
AcDbXrecord
280
     1
102
RTVSPost2010Prop28
280
     0
102
RTVSPost2010PropOp28
 70
     1
102
RTVSPost2010Prop29
280
     1
102
RTVSPost2010PropOp29
 70
     1
102
RTVSPost2010Prop30
280
     1
102
RTVSPost2010PropOp30
 70
     1
102
RTVSPost2010Prop31
280
     0
102
RTVSPost2010PropOp31
 70
     1
102
RTVSPost2010Prop32
280
     0
102
RTVSPost2010PropOp32
 70
     1
102
RTVSPost2010Prop33
280
     0
102
RTVSPost2010PropOp33
 70
     1
102
RTVSPost2010Prop34
280
     0
102
RTVSPost2010PropOp34
 70
     1
102
RTVSPost2010Prop35
280
     0
102
RTVSPost2010PropOp35
 70
     1
102
RTVSPost2010Prop36
280
     0
102
RTVSPost2010PropOp36
 70
     1
102
RTVSPost2010Prop37
 90
       50
102
RTVSPost2010PropOp37
 70
     1
102
RTVSPost2010Prop38
140
0.0
102
RTVSPost2010PropOp38
 70
     1
102
RTVSPost2010Prop39
140
1.0
102
RTVSPost2010PropOp39
 70
     1
102
RTVSPost2010Prop40
 90
        0
102
RTVSPost2010PropOp40
 70
     1
102
RTVSPost2010Prop41ColorIndex
 90
       18
102
RTVSPost2010Prop41ColorRGB
 90
-16777216
102
RTVSPost2010PropOp41
 70
     1
102
RTVSPost2010Prop42
 90
       50
102
RTVSPost2010PropOp42
 70
     1
102
RTVSPost2010Prop43
 90
        3
102
RTVSPost2010PropOp43
 70
     1
102
RTVSPost2010Prop44ColorIndex
 90
        5
102
RTVSPost2010Prop44ColorRGB
 90
      255
102
RTVSPost2010PropOp44
 70
     1
102
RTVSPost2010Prop45
280
     0
102
RTVSPost2010PropOp45
 70
     1
102
RTVSPost2010Prop46
 90
       50
102
RTVSPost2010PropOp46
 70
     1
102
RTVSPost2010Prop47
 90
       50
102
RTVSPost2010PropOp47
 70
     1
102
RTVSPost2010Prop48
 90
       50
102
RTVSPost2010PropOp48
 70
     1
102
RTVSPost2010Prop49
280
     0
102
RTVSPost2010PropOp49
 70
     1
102
RTVSPost2010Prop50
 90
       50
102
RTVSPost2010PropOp50
 70
     1
102
RTVSPost2010Prop51ColorIndex
 90
      256
102
RTVSPost2010Prop51ColorRGB
 90
-16777216
102
RTVSPost2010PropOp51
 70
     0
102
RTVSPost2010Prop52
140
1.0
102
RTVSPost2010PropOp52
 70
     0
102
RTVSPost2010Prop53
 90
        2
102
RTVSPost2010PropOp53
 70
     1
102
RTVSPost2010Prop54
  1
strokes_ogs.tif
102
RTVSPost2010PropOp54
 70
     1
102
RTVSPost2010Prop55
280
     0
102
RTVSPost2010PropOp55
 70
     1
102
RTVSPost2010Prop56
140
1.0
102
RTVSPost2010PropOp56
 70
     1
102
RTVSPost2010Prop57
140
1.0
102
RTVSPost2010PropOp57
 70
     1
102
RTVSPropertyOp0
 70
     1
102
RTVSPropertyOp1
 70
     1
102
RTVSPropertyOp2
 70
     1
102
RTVSPropertyOp3
 70
     1
102
RTVSPropertyOp4
 70
     1
102
RTVSPropertyOp5
 70
     1
102
RTVSPropertyOp6
 70
     1
102
RTVSPropertyOp7
 70
     1
102
RTVSPropertyOp8
 70
     1
102
RTVSPropertyOp9
 70
     1
102
RTVSPropertyOp10
 70
     1
102
RTVSPropertyOp11
 70
     1
102
RTVSPropertyOp12
 70
     1
102
RTVSPropertyOp13
 70
     1
102
RTVSPropertyOp14
 70
     1
102
RTVSPropertyOp15
 70
     1
102
RTVSPropertyOp16
 70
     1
102
RTVSPropertyOp17
 70
     1
102
RTVSPropertyOp18
 70
     1
102
RTVSPropertyOp19
 70
     1
102
RTVSPropertyOp20
 70
     1
102
RTVSPropertyOp21
 70
     1
102
RTVSPropertyOp22
 70
     1
102
RTVSPropertyOp23
 70
     1
102
RTVSPropertyOp24
 70
     1
102
RTVSPropertyOp25
 70
     1
102
RTVSPropertyOp26
 70
     1
102
RTVSPropertyOp27
 70
     1
102
RTVSPropertyOp28
 70
     1
102
RTVSPropertyOp29
 70
     1
102
RTVSPropertyOp30
 70
     1
102
RTVSPropertyOp31
 70
     1
102
RTVSPropertyOp32
 70
     1
102
RTVSPropertyOp33
 70
     1
102
RTVSPropertyOp34
 70
     1
102
RTVSPropertyOp35
 70
     1
102
RTVSPropertyOp36
 70
     1
102
RTVSPropertyOp37
 70
     1
102
RTVSPropertyOp38
 70
     1
102
RTVSPropertyOp39
 70
     1
102
RTVSPropertyOp40
 70
     1
102
RTVSPropertyOp41
 70
     1
102
RTVSPropertyOp42
 70
     1
102
RTVSPropertyOp43
 70
     1
102
RTVSPropertyOp44
 70
     1
102
RTVSPropertyOp45
 70
     1
102
RTVSPropertyOp46
 70
     1
102
RTVSPropertyOp47
 70
     1
102
RTVSPropertyOp48
 70
     1
102
RTVSPropertyOp49
 70
     1
102
RTVSPropertyOp50
 70
     1
102
RTVSPropertyOp51
 70
     0
102
RTVSPropertyOp52
 70
     0
102
RTVSPropertyOp53
 70
     1
102
RTVSPropertyOp54
 70
     1
102
RTVSPropertyOp55
 70
     1
102
RTVSPropertyOp56
 70
     1
102
RTVSPropertyOp57
 70
     1
102
RTVSPropertyOp58
 70
     1
102
RTVSPropertyOp59
 70
     1
102
RTVSPropertyOp60
 70
     1
102
RTVSPropertyOp61
 70
     1
102
RTVSPropertyOp62
 70
     1
  0
XRECORD
  5
95B
102
{ACAD_REACTORS
330
95A
102
}
330
95A
100
AcDbXrecord
280
     1
102
RTVSPost2010Prop28
280
     0
102
RTVSPost2010PropOp28
 70
     1
102
RTVSPost2010Prop29
280
     1
102
RTVSPost2010PropOp29
 70
     1
102
RTVSPost2010Prop30
280
     1
102
RTVSPost2010PropOp30
 70
     1
102
RTVSPost2010Prop31
280
     0
102
RTVSPost2010PropOp31
 70
     1
102
RTVSPost2010Prop32
280
     0
102
RTVSPost2010PropOp32
 70
     1
102
RTVSPost2010Prop33
280
     0
102
RTVSPost2010PropOp33
 70
     1
102
RTVSPost2010Prop34
280
     0
102
RTVSPost2010PropOp34
 70
     1
102
RTVSPost2010Prop35
280
     0
102
RTVSPost2010PropOp35
 70
     1
102
RTVSPost2010Prop36
280
     0
102
RTVSPost2010PropOp36
 70
     1
102
RTVSPost2010Prop37
 90
       50
102
RTVSPost2010PropOp37
 70
     1
102
RTVSPost2010Prop38
140
0.0
102
RTVSPost2010PropOp38
 70
     1
102
RTVSPost2010Prop39
140
1.0
102
RTVSPost2010PropOp39
 70
     1
102
RTVSPost2010Prop40
 90
        0
102
RTVSPost2010PropOp40
 70
     1
102
RTVSPost2010Prop41ColorIndex
 90
       18
102
RTVSPost2010Prop41ColorRGB
 90
-16777216
102
RTVSPost2010PropOp41
 70
     1
102
RTVSPost2010Prop42
 90
       50
102
RTVSPost2010PropOp42
 70
     1
102
RTVSPost2010Prop43
 90
        3
102
RTVSPost2010PropOp43
 70
     1
102
RTVSPost2010Prop44ColorIndex
 90
        5
102
RTVSPost2010Prop44ColorRGB
 90
      255
102
RTVSPost2010PropOp44
 70
     1
102
RTVSPost2010Prop45
280
     0
102
RTVSPost2010PropOp45
 70
     1
102
RTVSPost2010Prop46
 90
       50
102
RTVSPost2010PropOp46
 70
     1
102
RTVSPost2010Prop47
 90
       50
102
RTVSPost2010PropOp47
 70
     1
102
RTVSPost2010Prop48
 90
       50
102
RTVSPost2010PropOp48
 70
     1
102
RTVSPost2010Prop49
280
     0
102
RTVSPost2010PropOp49
 70
     1
102
RTVSPost2010Prop50
 90
       50
102
RTVSPost2010PropOp50
 70
     1
102
RTVSPost2010Prop51ColorIndex
 90
      256
102
RTVSPost2010Prop51ColorRGB
 90
-16777216
102
RTVSPost2010PropOp51
 70
     0
102
RTVSPost2010Prop52
140
1.0
102
RTVSPost2010PropOp52
 70
     0
102
RTVSPost2010Prop53
 90
        2
102
RTVSPost2010PropOp53
 70
     1
102
RTVSPost2010Prop54
  1
strokes_ogs.tif
102
RTVSPost2010PropOp54
 70
     1
102
RTVSPost2010Prop55
280
     0
102
RTVSPost2010PropOp55
 70
     1
102
RTVSPost2010Prop56
140
1.0
102
RTVSPost2010PropOp56
 70
     1
102
RTVSPost2010Prop57
140
1.0
102
RTVSPost2010PropOp57
 70
     1
102
RTVSPropertyOp0
 70
     1
102
RTVSPropertyOp1
 70
     1
102
RTVSPropertyOp2
 70
     1
102
RTVSPropertyOp3
 70
     1
102
RTVSPropertyOp4
 70
     1
102
RTVSPropertyOp5
 70
     1
102
RTVSPropertyOp6
 70
     1
102
RTVSPropertyOp7
 70
     1
102
RTVSPropertyOp8
 70
     1
102
RTVSPropertyOp9
 70
     1
102
RTVSPropertyOp10
 70
     1
102
RTVSPropertyOp11
 70
     1
102
RTVSPropertyOp12
 70
     1
102
RTVSPropertyOp13
 70
     1
102
RTVSPropertyOp14
 70
     1
102
RTVSPropertyOp15
 70
     1
102
RTVSPropertyOp16
 70
     1
102
RTVSPropertyOp17
 70
     1
102
RTVSPropertyOp18
 70
     1
102
RTVSPropertyOp19
 70
     1
102
RTVSPropertyOp20
 70
     1
102
RTVSPropertyOp21
 70
     1
102
RTVSPropertyOp22
 70
     1
102
RTVSPropertyOp23
 70
     1
102
RTVSPropertyOp24
 70
     1
102
RTVSPropertyOp25
 70
     1
102
RTVSPropertyOp26
 70
     1
102
RTVSPropertyOp27
 70
     1
102
RTVSPropertyOp28
 70
     1
102
RTVSPropertyOp29
 70
     1
102
RTVSPropertyOp30
 70
     1
102
RTVSPropertyOp31
 70
     1
102
RTVSPropertyOp32
 70
     1
102
RTVSPropertyOp33
 70
     1
102
RTVSPropertyOp34
 70
     1
102
RTVSPropertyOp35
 70
     1
102
RTVSPropertyOp36
 70
     1
102
RTVSPropertyOp37
 70
     1
102
RTVSPropertyOp38
 70
     1
102
RTVSPropertyOp39
 70
     1
102
RTVSPropertyOp40
 70
     1
102
RTVSPropertyOp41
 70
     1
102
RTVSPropertyOp42
 70
     1
102
RTVSPropertyOp43
 70
     1
102
RTVSPropertyOp44
 70
     1
102
RTVSPropertyOp45
 70
     1
102
RTVSPropertyOp46
 70
     1
102
RTVSPropertyOp47
 70
     1
102
RTVSPropertyOp48
 70
     1
102
RTVSPropertyOp49
 70
     1
102
RTVSPropertyOp50
 70
     1
102
RTVSPropertyOp51
 70
     0
102
RTVSPropertyOp52
 70
     0
102
RTVSPropertyOp53
 70
     1
102
RTVSPropertyOp54
 70
     1
102
RTVSPropertyOp55
 70
     1
102
RTVSPropertyOp56
 70
     1
102
RTVSPropertyOp57
 70
     1
102
RTVSPropertyOp58
 70
     1
102
RTVSPropertyOp59
 70
     1
102
RTVSPropertyOp60
 70
     1
102
RTVSPropertyOp61
 70
     1
102
RTVSPropertyOp62
 70
     1
  0
XRECORD
  5
95D
102
{ACAD_REACTORS
330
95C
102
}
330
95C
100
AcDbXrecord
280
     1
102
RTVSPost2010Prop28
280
     0
102
RTVSPost2010PropOp28
 70
     1
102
RTVSPost2010Prop29
280
     1
102
RTVSPost2010PropOp29
 70
     1
102
RTVSPost2010Prop30
280
     1
102
RTVSPost2010PropOp30
 70
     1
102
RTVSPost2010Prop31
280
     0
102
RTVSPost2010PropOp31
 70
     1
102
RTVSPost2010Prop32
280
     0
102
RTVSPost2010PropOp32
 70
     1
102
RTVSPost2010Prop33
280
     0
102
RTVSPost2010PropOp33
 70
     1
102
RTVSPost2010Prop34
280
     0
102
RTVSPost2010PropOp34
 70
     1
102
RTVSPost2010Prop35
280
     0
102
RTVSPost2010PropOp35
 70
     1
102
RTVSPost2010Prop36
280
     0
102
RTVSPost2010PropOp36
 70
     1
102
RTVSPost2010Prop37
 90
       50
102
RTVSPost2010PropOp37
 70
     1
102
RTVSPost2010Prop38
140
0.0
102
RTVSPost2010PropOp38
 70
     1
102
RTVSPost2010Prop39
140
1.0
102
RTVSPost2010PropOp39
 70
     1
102
RTVSPost2010Prop40
 90
        0
102
RTVSPost2010PropOp40
 70
     1
102
RTVSPost2010Prop41ColorIndex
 90
       18
102
RTVSPost2010Prop41ColorRGB
 90
-16777216
102
RTVSPost2010PropOp41
 70
     1
102
RTVSPost2010Prop42
 90
       50
102
RTVSPost2010PropOp42
 70
     1
102
RTVSPost2010Prop43
 90
        3
102
RTVSPost2010PropOp43
 70
     1
102
RTVSPost2010Prop44ColorIndex
 90
        5
102
RTVSPost2010Prop44ColorRGB
 90
      255
102
RTVSPost2010PropOp44
 70
     1
102
RTVSPost2010Prop45
280
     0
102
RTVSPost2010PropOp45
 70
     1
102
RTVSPost2010Prop46
 90
       50
102
RTVSPost2010PropOp46
 70
     1
102
RTVSPost2010Prop47
 90
       50
102
RTVSPost2010PropOp47
 70
     1
102
RTVSPost2010Prop48
 90
       50
102
RTVSPost2010PropOp48
 70
     1
102
RTVSPost2010Prop49
280
     0
102
RTVSPost2010PropOp49
 70
     1
102
RTVSPost2010Prop50
 90
       50
102
RTVSPost2010PropOp50
 70
     1
102
RTVSPost2010Prop51ColorIndex
 90
      256
102
RTVSPost2010Prop51ColorRGB
 90
-16777216
102
RTVSPost2010PropOp51
 70
     0
102
RTVSPost2010Prop52
140
1.0
102
RTVSPost2010PropOp52
 70
     0
102
RTVSPost2010Prop53
 90
        2
102
RTVSPost2010PropOp53
 70
     1
102
RTVSPost2010Prop54
  1
strokes_ogs.tif
102
RTVSPost2010PropOp54
 70
     1
102
RTVSPost2010Prop55
280
     0
102
RTVSPost2010PropOp55
 70
     1
102
RTVSPost2010Prop56
140
1.0
102
RTVSPost2010PropOp56
 70
     1
102
RTVSPost2010Prop57
140
1.0
102
RTVSPost2010PropOp57
 70
     1
102
RTVSPropertyOp0
 70
     1
102
RTVSPropertyOp1
 70
     1
102
RTVSPropertyOp2
 70
     1
102
RTVSPropertyOp3
 70
     1
102
RTVSPropertyOp4
 70
     1
102
RTVSPropertyOp5
 70
     1
102
RTVSPropertyOp6
 70
     1
102
RTVSPropertyOp7
 70
     1
102
RTVSPropertyOp8
 70
     1
102
RTVSPropertyOp9
 70
     1
102
RTVSPropertyOp10
 70
     1
102
RTVSPropertyOp11
 70
     1
102
RTVSPropertyOp12
 70
     1
102
RTVSPropertyOp13
 70
     1
102
RTVSPropertyOp14
 70
     1
102
RTVSPropertyOp15
 70
     1
102
RTVSPropertyOp16
 70
     1
102
RTVSPropertyOp17
 70
     1
102
RTVSPropertyOp18
 70
     1
102
RTVSPropertyOp19
 70
     1
102
RTVSPropertyOp20
 70
     1
102
RTVSPropertyOp21
 70
     1
102
RTVSPropertyOp22
 70
     1
102
RTVSPropertyOp23
 70
     1
102
RTVSPropertyOp24
 70
     1
102
RTVSPropertyOp25
 70
     1
102
RTVSPropertyOp26
 70
     1
102
RTVSPropertyOp27
 70
     1
102
RTVSPropertyOp28
 70
     1
102
RTVSPropertyOp29
 70
     1
102
RTVSPropertyOp30
 70
     1
102
RTVSPropertyOp31
 70
     1
102
RTVSPropertyOp32
 70
     1
102
RTVSPropertyOp33
 70
     1
102
RTVSPropertyOp34
 70
     1
102
RTVSPropertyOp35
 70
     1
102
RTVSPropertyOp36
 70
     1
102
RTVSPropertyOp37
 70
     1
102
RTVSPropertyOp38
 70
     1
102
RTVSPropertyOp39
 70
     1
102
RTVSPropertyOp40
 70
     1
102
RTVSPropertyOp41
 70
     1
102
RTVSPropertyOp42
 70
     1
102
RTVSPropertyOp43
 70
     1
102
RTVSPropertyOp44
 70
     1
102
RTVSPropertyOp45
 70
     1
102
RTVSPropertyOp46
 70
     1
102
RTVSPropertyOp47
 70
     1
102
RTVSPropertyOp48
 70
     1
102
RTVSPropertyOp49
 70
     1
102
RTVSPropertyOp50
 70
     1
102
RTVSPropertyOp51
 70
     0
102
RTVSPropertyOp52
 70
     0
102
RTVSPropertyOp53
 70
     1
102
RTVSPropertyOp54
 70
     1
102
RTVSPropertyOp55
 70
     1
102
RTVSPropertyOp56
 70
     1
102
RTVSPropertyOp57
 70
     1
102
RTVSPropertyOp58
 70
     1
102
RTVSPropertyOp59
 70
     1
102
RTVSPropertyOp60
 70
     1
102
RTVSPropertyOp61
 70
     1
102
RTVSPropertyOp62
 70
     1
  0
XRECORD
  5
95F
102
{ACAD_REACTORS
330
95E
102
}
330
95E
100
AcDbXrecord
280
     1
102
RTVSPost2010Prop28
280
     0
102
RTVSPost2010PropOp28
 70
     1
102
RTVSPost2010Prop29
280
     1
102
RTVSPost2010PropOp29
 70
     1
102
RTVSPost2010Prop30
280
     1
102
RTVSPost2010PropOp30
 70
     1
102
RTVSPost2010Prop31
280
     0
102
RTVSPost2010PropOp31
 70
     1
102
RTVSPost2010Prop32
280
     0
102
RTVSPost2010PropOp32
 70
     1
102
RTVSPost2010Prop33
280
     0
102
RTVSPost2010PropOp33
 70
     1
102
RTVSPost2010Prop34
280
     0
102
RTVSPost2010PropOp34
 70
     1
102
RTVSPost2010Prop35
280
     0
102
RTVSPost2010PropOp35
 70
     1
102
RTVSPost2010Prop36
280
     0
102
RTVSPost2010PropOp36
 70
     1
102
RTVSPost2010Prop37
 90
       50
102
RTVSPost2010PropOp37
 70
     1
102
RTVSPost2010Prop38
140
0.0
102
RTVSPost2010PropOp38
 70
     1
102
RTVSPost2010Prop39
140
1.0
102
RTVSPost2010PropOp39
 70
     1
102
RTVSPost2010Prop40
 90
        0
102
RTVSPost2010PropOp40
 70
     1
102
RTVSPost2010Prop41ColorIndex
 90
       18
102
RTVSPost2010Prop41ColorRGB
 90
-16777216
102
RTVSPost2010PropOp41
 70
     1
102
RTVSPost2010Prop42
 90
       50
102
RTVSPost2010PropOp42
 70
     1
102
RTVSPost2010Prop43
 90
        3
102
RTVSPost2010PropOp43
 70
     1
102
RTVSPost2010Prop44ColorIndex
 90
        5
102
RTVSPost2010Prop44ColorRGB
 90
      255
102
RTVSPost2010PropOp44
 70
     1
102
RTVSPost2010Prop45
280
     0
102
RTVSPost2010PropOp45
 70
     1
102
RTVSPost2010Prop46
 90
       50
102
RTVSPost2010PropOp46
 70
     1
102
RTVSPost2010Prop47
 90
       50
102
RTVSPost2010PropOp47
 70
     1
102
RTVSPost2010Prop48
 90
       50
102
RTVSPost2010PropOp48
 70
     1
102
RTVSPost2010Prop49
280
     0
102
RTVSPost2010PropOp49
 70
     1
102
RTVSPost2010Prop50
 90
       50
102
RTVSPost2010PropOp50
 70
     1
102
RTVSPost2010Prop51ColorIndex
 90
      256
102
RTVSPost2010Prop51ColorRGB
 90
-16777216
102
RTVSPost2010PropOp51
 70
     0
102
RTVSPost2010Prop52
140
1.0
102
RTVSPost2010PropOp52
 70
     0
102
RTVSPost2010Prop53
 90
        2
102
RTVSPost2010PropOp53
 70
     1
102
RTVSPost2010Prop54
  1
strokes_ogs.tif
102
RTVSPost2010PropOp54
 70
     1
102
RTVSPost2010Prop55
280
     0
102
RTVSPost2010PropOp55
 70
     1
102
RTVSPost2010Prop56
140
1.0
102
RTVSPost2010PropOp56
 70
     1
102
RTVSPost2010Prop57
140
1.0
102
RTVSPost2010PropOp57
 70
     1
102
RTVSPropertyOp0
 70
     1
102
RTVSPropertyOp1
 70
     1
102
RTVSPropertyOp2
 70
     1
102
RTVSPropertyOp3
 70
     1
102
RTVSPropertyOp4
 70
     1
102
RTVSPropertyOp5
 70
     1
102
RTVSPropertyOp6
 70
     1
102
RTVSPropertyOp7
 70
     1
102
RTVSPropertyOp8
 70
     1
102
RTVSPropertyOp9
 70
     1
102
RTVSPropertyOp10
 70
     1
102
RTVSPropertyOp11
 70
     1
102
RTVSPropertyOp12
 70
     1
102
RTVSPropertyOp13
 70
     1
102
RTVSPropertyOp14
 70
     1
102
RTVSPropertyOp15
 70
     1
102
RTVSPropertyOp16
 70
     1
102
RTVSPropertyOp17
 70
     1
102
RTVSPropertyOp18
 70
     1
102
RTVSPropertyOp19
 70
     1
102
RTVSPropertyOp20
 70
     1
102
RTVSPropertyOp21
 70
     1
102
RTVSPropertyOp22
 70
     1
102
RTVSPropertyOp23
 70
     1
102
RTVSPropertyOp24
 70
     1
102
RTVSPropertyOp25
 70
     1
102
RTVSPropertyOp26
 70
     1
102
RTVSPropertyOp27
 70
     1
102
RTVSPropertyOp28
 70
     1
102
RTVSPropertyOp29
 70
     1
102
RTVSPropertyOp30
 70
     1
102
RTVSPropertyOp31
 70
     1
102
RTVSPropertyOp32
 70
     1
102
RTVSPropertyOp33
 70
     1
102
RTVSPropertyOp34
 70
     1
102
RTVSPropertyOp35
 70
     1
102
RTVSPropertyOp36
 70
     1
102
RTVSPropertyOp37
 70
     1
102
RTVSPropertyOp38
 70
     1
102
RTVSPropertyOp39
 70
     1
102
RTVSPropertyOp40
 70
     1
102
RTVSPropertyOp41
 70
     1
102
RTVSPropertyOp42
 70
     1
102
RTVSPropertyOp43
 70
     1
102
RTVSPropertyOp44
 70
     1
102
RTVSPropertyOp45
 70
     1
102
RTVSPropertyOp46
 70
     1
102
RTVSPropertyOp47
 70
     1
102
RTVSPropertyOp48
 70
     1
102
RTVSPropertyOp49
 70
     1
102
RTVSPropertyOp50
 70
     1
102
RTVSPropertyOp51
 70
     0
102
RTVSPropertyOp52
 70
     0
102
RTVSPropertyOp53
 70
     1
102
RTVSPropertyOp54
 70
     1
102
RTVSPropertyOp55
 70
     1
102
RTVSPropertyOp56
 70
     1
102
RTVSPropertyOp57
 70
     1
102
RTVSPropertyOp58
 70
     1
102
RTVSPropertyOp59
 70
     1
102
RTVSPropertyOp60
 70
     1
102
RTVSPropertyOp61
 70
     1
102
RTVSPropertyOp62
 70
     1
  0
XRECORD
  5
961
102
{ACAD_REACTORS
330
960
102
}
330
960
100
AcDbXrecord
280
     1
102
RTVSPost2010Prop28
280
     0
102
RTVSPost2010PropOp28
 70
     1
102
RTVSPost2010Prop29
280
     1
102
RTVSPost2010PropOp29
 70
     1
102
RTVSPost2010Prop30
280
     1
102
RTVSPost2010PropOp30
 70
     1
102
RTVSPost2010Prop31
280
     0
102
RTVSPost2010PropOp31
 70
     1
102
RTVSPost2010Prop32
280
     0
102
RTVSPost2010PropOp32
 70
     1
102
RTVSPost2010Prop33
280
     0
102
RTVSPost2010PropOp33
 70
     1
102
RTVSPost2010Prop34
280
     0
102
RTVSPost2010PropOp34
 70
     1
102
RTVSPost2010Prop35
280
     0
102
RTVSPost2010PropOp35
 70
     1
102
RTVSPost2010Prop36
280
     0
102
RTVSPost2010PropOp36
 70
     1
102
RTVSPost2010Prop37
 90
       50
102
RTVSPost2010PropOp37
 70
     1
102
RTVSPost2010Prop38
140
0.0
102
RTVSPost2010PropOp38
 70
     1
102
RTVSPost2010Prop39
140
1.0
102
RTVSPost2010PropOp39
 70
     1
102
RTVSPost2010Prop40
 90
        0
102
RTVSPost2010PropOp40
 70
     1
102
RTVSPost2010Prop41ColorIndex
 90
       18
102
RTVSPost2010Prop41ColorRGB
 90
-16777216
102
RTVSPost2010PropOp41
 70
     1
102
RTVSPost2010Prop42
 90
       50
102
RTVSPost2010PropOp42
 70
     1
102
RTVSPost2010Prop43
 90
        3
102
RTVSPost2010PropOp43
 70
     1
102
RTVSPost2010Prop44ColorIndex
 90
        5
102
RTVSPost2010Prop44ColorRGB
 90
      255
102
RTVSPost2010PropOp44
 70
     1
102
RTVSPost2010Prop45
280
     0
102
RTVSPost2010PropOp45
 70
     1
102
RTVSPost2010Prop46
 90
       50
102
RTVSPost2010PropOp46
 70
     1
102
RTVSPost2010Prop47
 90
       50
102
RTVSPost2010PropOp47
 70
     1
102
RTVSPost2010Prop48
 90
       50
102
RTVSPost2010PropOp48
 70
     1
102
RTVSPost2010Prop49
280
     0
102
RTVSPost2010PropOp49
 70
     1
102
RTVSPost2010Prop50
 90
       50
102
RTVSPost2010PropOp50
 70
     1
102
RTVSPost2010Prop51ColorIndex
 90
      256
102
RTVSPost2010Prop51ColorRGB
 90
-16777216
102
RTVSPost2010PropOp51
 70
     0
102
RTVSPost2010Prop52
140
1.0
102
RTVSPost2010PropOp52
 70
     0
102
RTVSPost2010Prop53
 90
        2
102
RTVSPost2010PropOp53
 70
     1
102
RTVSPost2010Prop54
  1
strokes_ogs.tif
102
RTVSPost2010PropOp54
 70
     1
102
RTVSPost2010Prop55
280
     0
102
RTVSPost2010PropOp55
 70
     1
102
RTVSPost2010Prop56
140
1.0
102
RTVSPost2010PropOp56
 70
     1
102
RTVSPost2010Prop57
140
1.0
102
RTVSPost2010PropOp57
 70
     1
102
RTVSPropertyOp0
 70
     1
102
RTVSPropertyOp1
 70
     1
102
RTVSPropertyOp2
 70
     1
102
RTVSPropertyOp3
 70
     1
102
RTVSPropertyOp4
 70
     1
102
RTVSPropertyOp5
 70
     1
102
RTVSPropertyOp6
 70
     1
102
RTVSPropertyOp7
 70
     1
102
RTVSPropertyOp8
 70
     1
102
RTVSPropertyOp9
 70
     1
102
RTVSPropertyOp10
 70
     1
102
RTVSPropertyOp11
 70
     1
102
RTVSPropertyOp12
 70
     1
102
RTVSPropertyOp13
 70
     1
102
RTVSPropertyOp14
 70
     1
102
RTVSPropertyOp15
 70
     1
102
RTVSPropertyOp16
 70
     1
102
RTVSPropertyOp17
 70
     1
102
RTVSPropertyOp18
 70
     1
102
RTVSPropertyOp19
 70
     1
102
RTVSPropertyOp20
 70
     1
102
RTVSPropertyOp21
 70
     1
102
RTVSPropertyOp22
 70
     1
102
RTVSPropertyOp23
 70
     1
102
RTVSPropertyOp24
 70
     1
102
RTVSPropertyOp25
 70
     1
102
RTVSPropertyOp26
 70
     1
102
RTVSPropertyOp27
 70
     1
102
RTVSPropertyOp28
 70
     1
102
RTVSPropertyOp29
 70
     1
102
RTVSPropertyOp30
 70
     1
102
RTVSPropertyOp31
 70
     1
102
RTVSPropertyOp32
 70
     1
102
RTVSPropertyOp33
 70
     1
102
RTVSPropertyOp34
 70
     1
102
RTVSPropertyOp35
 70
     1
102
RTVSPropertyOp36
 70
     1
102
RTVSPropertyOp37
 70
     1
102
RTVSPropertyOp38
 70
     1
102
RTVSPropertyOp39
 70
     1
102
RTVSPropertyOp40
 70
     1
102
RTVSPropertyOp41
 70
     1
102
RTVSPropertyOp42
 70
     1
102
RTVSPropertyOp43
 70
     1
102
RTVSPropertyOp44
 70
     1
102
RTVSPropertyOp45
 70
     1
102
RTVSPropertyOp46
 70
     1
102
RTVSPropertyOp47
 70
     1
102
RTVSPropertyOp48
 70
     1
102
RTVSPropertyOp49
 70
     1
102
RTVSPropertyOp50
 70
     1
102
RTVSPropertyOp51
 70
     0
102
RTVSPropertyOp52
 70
     0
102
RTVSPropertyOp53
 70
     1
102
RTVSPropertyOp54
 70
     1
102
RTVSPropertyOp55
 70
     1
102
RTVSPropertyOp56
 70
     1
102
RTVSPropertyOp57
 70
     1
102
RTVSPropertyOp58
 70
     1
102
RTVSPropertyOp59
 70
     1
102
RTVSPropertyOp60
 70
     1
102
RTVSPropertyOp61
 70
     1
102
RTVSPropertyOp62
 70
     1
  0
XRECORD
  5
969
102
{ACAD_REACTORS
330
968
102
}
330
968
100
AcDbXrecord
280
     1
102
RTVSPost2010Prop28
280
     0
102
RTVSPost2010PropOp28
 70
     1
102
RTVSPost2010Prop29
280
     1
102
RTVSPost2010PropOp29
 70
     1
102
RTVSPost2010Prop30
280
     1
102
RTVSPost2010PropOp30
 70
     1
102
RTVSPost2010Prop31
280
     0
102
RTVSPost2010PropOp31
 70
     1
102
RTVSPost2010Prop32
280
     0
102
RTVSPost2010PropOp32
 70
     1
102
RTVSPost2010Prop33
280
     0
102
RTVSPost2010PropOp33
 70
     1
102
RTVSPost2010Prop34
280
     0
102
RTVSPost2010PropOp34
 70
     1
102
RTVSPost2010Prop35
280
     0
102
RTVSPost2010PropOp35
 70
     1
102
RTVSPost2010Prop36
280
     0
102
RTVSPost2010PropOp36
 70
     1
102
RTVSPost2010Prop37
 90
       50
102
RTVSPost2010PropOp37
 70
     1
102
RTVSPost2010Prop38
140
0.0
102
RTVSPost2010PropOp38
 70
     1
102
RTVSPost2010Prop39
140
1.0
102
RTVSPost2010PropOp39
 70
     1
102
RTVSPost2010Prop40
 90
        0
102
RTVSPost2010PropOp40
 70
     1
102
RTVSPost2010Prop41ColorIndex
 90
       18
102
RTVSPost2010Prop41ColorRGB
 90
-16777216
102
RTVSPost2010PropOp41
 70
     1
102
RTVSPost2010Prop42
 90
       50
102
RTVSPost2010PropOp42
 70
     1
102
RTVSPost2010Prop43
 90
        3
102
RTVSPost2010PropOp43
 70
     1
102
RTVSPost2010Prop44ColorIndex
 90
        5
102
RTVSPost2010Prop44ColorRGB
 90
      255
102
RTVSPost2010PropOp44
 70
     1
102
RTVSPost2010Prop45
280
     0
102
RTVSPost2010PropOp45
 70
     1
102
RTVSPost2010Prop46
 90
       50
102
RTVSPost2010PropOp46
 70
     1
102
RTVSPost2010Prop47
 90
       50
102
RTVSPost2010PropOp47
 70
     1
102
RTVSPost2010Prop48
 90
       50
102
RTVSPost2010PropOp48
 70
     1
102
RTVSPost2010Prop49
280
     0
102
RTVSPost2010PropOp49
 70
     1
102
RTVSPost2010Prop50
 90
       50
102
RTVSPost2010PropOp50
 70
     1
102
RTVSPost2010Prop51ColorIndex
 90
      256
102
RTVSPost2010Prop51ColorRGB
 90
-16777216
102
RTVSPost2010PropOp51
 70
     0
102
RTVSPost2010Prop52
140
1.0
102
RTVSPost2010PropOp52
 70
     0
102
RTVSPost2010Prop53
 90
        2
102
RTVSPost2010PropOp53
 70
     1
102
RTVSPost2010Prop54
  1
strokes_ogs.tif
102
RTVSPost2010PropOp54
 70
     1
102
RTVSPost2010Prop55
280
     0
102
RTVSPost2010PropOp55
 70
     1
102
RTVSPost2010Prop56
140
1.0
102
RTVSPost2010PropOp56
 70
     1
102
RTVSPost2010Prop57
140
1.0
102
RTVSPost2010PropOp57
 70
     1
102
RTVSPropertyOp0
 70
     1
102
RTVSPropertyOp1
 70
     1
102
RTVSPropertyOp2
 70
     1
102
RTVSPropertyOp3
 70
     1
102
RTVSPropertyOp4
 70
     1
102
RTVSPropertyOp5
 70
     1
102
RTVSPropertyOp6
 70
     1
102
RTVSPropertyOp7
 70
     1
102
RTVSPropertyOp8
 70
     1
102
RTVSPropertyOp9
 70
     1
102
RTVSPropertyOp10
 70
     1
102
RTVSPropertyOp11
 70
     1
102
RTVSPropertyOp12
 70
     1
102
RTVSPropertyOp13
 70
     1
102
RTVSPropertyOp14
 70
     1
102
RTVSPropertyOp15
 70
     1
102
RTVSPropertyOp16
 70
     1
102
RTVSPropertyOp17
 70
     1
102
RTVSPropertyOp18
 70
     1
102
RTVSPropertyOp19
 70
     1
102
RTVSPropertyOp20
 70
     1
102
RTVSPropertyOp21
 70
     1
102
RTVSPropertyOp22
 70
     1
102
RTVSPropertyOp23
 70
     1
102
RTVSPropertyOp24
 70
     1
102
RTVSPropertyOp25
 70
     1
102
RTVSPropertyOp26
 70
     1
102
RTVSPropertyOp27
 70
     1
102
RTVSPropertyOp28
 70
     1
102
RTVSPropertyOp29
 70
     1
102
RTVSPropertyOp30
 70
     1
102
RTVSPropertyOp31
 70
     1
102
RTVSPropertyOp32
 70
     1
102
RTVSPropertyOp33
 70
     1
102
RTVSPropertyOp34
 70
     1
102
RTVSPropertyOp35
 70
     1
102
RTVSPropertyOp36
 70
     1
102
RTVSPropertyOp37
 70
     1
102
RTVSPropertyOp38
 70
     1
102
RTVSPropertyOp39
 70
     1
102
RTVSPropertyOp40
 70
     1
102
RTVSPropertyOp41
 70
     1
102
RTVSPropertyOp42
 70
     1
102
RTVSPropertyOp43
 70
     1
102
RTVSPropertyOp44
 70
     1
102
RTVSPropertyOp45
 70
     1
102
RTVSPropertyOp46
 70
     1
102
RTVSPropertyOp47
 70
     1
102
RTVSPropertyOp48
 70
     1
102
RTVSPropertyOp49
 70
     1
102
RTVSPropertyOp50
 70
     1
102
RTVSPropertyOp51
 70
     0
102
RTVSPropertyOp52
 70
     0
102
RTVSPropertyOp53
 70
     1
102
RTVSPropertyOp54
 70
     1
102
RTVSPropertyOp55
 70
     1
102
RTVSPropertyOp56
 70
     1
102
RTVSPropertyOp57
 70
     1
102
RTVSPropertyOp58
 70
     1
102
RTVSPropertyOp59
 70
     1
102
RTVSPropertyOp60
 70
     1
102
RTVSPropertyOp61
 70
     1
102
RTVSPropertyOp62
 70
     1
  0
XRECORD
  5
985
102
{ACAD_REACTORS
330
984
102
}
330
984
100
AcDbXrecord
280
     1
102
RTVSPost2010Prop28
280
     0
102
RTVSPost2010PropOp28
 70
     0
102
RTVSPost2010Prop29
280
     1
102
RTVSPost2010PropOp29
 70
     0
102
RTVSPost2010Prop30
280
     1
102
RTVSPost2010PropOp30
 70
     0
102
RTVSPost2010Prop31
280
     0
102
RTVSPost2010PropOp31
 70
     0
102
RTVSPost2010Prop32
280
     0
102
RTVSPost2010PropOp32
 70
     0
102
RTVSPost2010Prop33
280
     0
102
RTVSPost2010PropOp33
 70
     0
102
RTVSPost2010Prop34
280
     0
102
RTVSPost2010PropOp34
 70
     0
102
RTVSPost2010Prop35
280
     0
102
RTVSPost2010PropOp35
 70
     0
102
RTVSPost2010Prop36
280
     0
102
RTVSPost2010PropOp36
 70
     0
102
RTVSPost2010Prop37
 90
       50
102
RTVSPost2010PropOp37
 70
     0
102
RTVSPost2010Prop38
140
0.0
102
RTVSPost2010PropOp38
 70
     0
102
RTVSPost2010Prop39
140
1.0
102
RTVSPost2010PropOp39
 70
     0
102
RTVSPost2010Prop40
 90
        0
102
RTVSPost2010PropOp40
 70
     0
102
RTVSPost2010Prop41ColorIndex
 90
       18
102
RTVSPost2010Prop41ColorRGB
 90
-16777216
102
RTVSPost2010PropOp41
 70
     0
102
RTVSPost2010Prop42
 90
       50
102
RTVSPost2010PropOp42
 70
     0
102
RTVSPost2010Prop43
 90
        3
102
RTVSPost2010PropOp43
 70
     0
102
RTVSPost2010Prop44ColorIndex
 90
        5
102
RTVSPost2010Prop44ColorRGB
 90
      255
102
RTVSPost2010PropOp44
 70
     0
102
RTVSPost2010Prop45
280
     0
102
RTVSPost2010PropOp45
 70
     0
102
RTVSPost2010Prop46
 90
       50
102
RTVSPost2010PropOp46
 70
     0
102
RTVSPost2010Prop47
 90
       50
102
RTVSPost2010PropOp47
 70
     0
102
RTVSPost2010Prop48
 90
       50
102
RTVSPost2010PropOp48
 70
     0
102
RTVSPost2010Prop49
280
     0
102
RTVSPost2010PropOp49
 70
     0
102
RTVSPost2010Prop50
 90
       50
102
RTVSPost2010PropOp50
 70
     0
102
RTVSPost2010Prop51ColorIndex
 90
      256
102
RTVSPost2010Prop51ColorRGB
 90
-16777216
102
RTVSPost2010PropOp51
 70
     0
102
RTVSPost2010Prop52
140
1.0
102
RTVSPost2010PropOp52
 70
     0
102
RTVSPost2010Prop53
 90
        2
102
RTVSPost2010PropOp53
 70
     0
102
RTVSPost2010Prop54
  1
strokes_ogs.tif
102
RTVSPost2010PropOp54
 70
     0
102
RTVSPost2010Prop55
280
     0
102
RTVSPost2010PropOp55
 70
     0
102
RTVSPost2010Prop56
140
1.0
102
RTVSPost2010PropOp56
 70
     0
102
RTVSPost2010Prop57
140
1.0
102
RTVSPost2010PropOp57
 70
     0
102
RTVSPropertyOp0
 70
     0
102
RTVSPropertyOp1
 70
     0
102
RTVSPropertyOp2
 70
     0
102
RTVSPropertyOp3
 70
     0
102
RTVSPropertyOp4
 70
     0
102
RTVSPropertyOp5
 70
     0
102
RTVSPropertyOp6
 70
     0
102
RTVSPropertyOp7
 70
     0
102
RTVSPropertyOp8
 70
     0
102
RTVSPropertyOp9
 70
     0
102
RTVSPropertyOp10
 70
     0
102
RTVSPropertyOp11
 70
     0
102
RTVSPropertyOp12
 70
     0
102
RTVSPropertyOp13
 70
     0
102
RTVSPropertyOp14
 70
     2
102
RTVSPropertyOp15
 70
     0
102
RTVSPropertyOp16
 70
     0
102
RTVSPropertyOp17
 70
     0
102
RTVSPropertyOp18
 70
     0
102
RTVSPropertyOp19
 70
     0
102
RTVSPropertyOp20
 70
     0
102
RTVSPropertyOp21
 70
     0
102
RTVSPropertyOp22
 70
     0
102
RTVSPropertyOp23
 70
     0
102
RTVSPropertyOp24
 70
     0
102
RTVSPropertyOp25
 70
     0
102
RTVSPropertyOp26
 70
     0
102
RTVSPropertyOp27
 70
     0
102
RTVSPropertyOp28
 70
     0
102
RTVSPropertyOp29
 70
     0
102
RTVSPropertyOp30
 70
     0
102
RTVSPropertyOp31
 70
     0
102
RTVSPropertyOp32
 70
     0
102
RTVSPropertyOp33
 70
     0
102
RTVSPropertyOp34
 70
     0
102
RTVSPropertyOp35
 70
     0
102
RTVSPropertyOp36
 70
     0
102
RTVSPropertyOp37
 70
     0
102
RTVSPropertyOp38
 70
     0
102
RTVSPropertyOp39
 70
     0
102
RTVSPropertyOp40
 70
     0
102
RTVSPropertyOp41
 70
     0
102
RTVSPropertyOp42
 70
     0
102
RTVSPropertyOp43
 70
     0
102
RTVSPropertyOp44
 70
     0
102
RTVSPropertyOp45
 70
     0
102
RTVSPropertyOp46
 70
     0
102
RTVSPropertyOp47
 70
     0
102
RTVSPropertyOp48
 70
     0
102
RTVSPropertyOp49
 70
     0
102
RTVSPropertyOp50
 70
     0
102
RTVSPropertyOp51
 70
     0
102
RTVSPropertyOp52
 70
     0
102
RTVSPropertyOp53
 70
     0
102
RTVSPropertyOp54
 70
     0
102
RTVSPropertyOp55
 70
     0
102
RTVSPropertyOp56
 70
     0
102
RTVSPropertyOp57
 70
     0
102
RTVSPropertyOp58
 70
     1
102
RTVSPropertyOp59
 70
     1
102
RTVSPropertyOp60
 70
     1
102
RTVSPropertyOp61
 70
     1
102
RTVSPropertyOp62
 70
     1
  0
XRECORD
  5
975
102
{ACAD_REACTORS
330
974
102
}
330
974
100
AcDbXrecord
280
     1
102
RTVSPost2010Prop28
280
     0
102
RTVSPost2010PropOp28
 70
     1
102
RTVSPost2010Prop29
280
     1
102
RTVSPost2010PropOp29
 70
     1
102
RTVSPost2010Prop30
280
     1
102
RTVSPost2010PropOp30
 70
     1
102
RTVSPost2010Prop31
280
     0
102
RTVSPost2010PropOp31
 70
     1
102
RTVSPost2010Prop32
280
     0
102
RTVSPost2010PropOp32
 70
     1
102
RTVSPost2010Prop33
280
     0
102
RTVSPost2010PropOp33
 70
     1
102
RTVSPost2010Prop34
280
     0
102
RTVSPost2010PropOp34
 70
     1
102
RTVSPost2010Prop35
280
     0
102
RTVSPost2010PropOp35
 70
     1
102
RTVSPost2010Prop36
280
     0
102
RTVSPost2010PropOp36
 70
     1
102
RTVSPost2010Prop37
 90
       50
102
RTVSPost2010PropOp37
 70
     1
102
RTVSPost2010Prop38
140
0.0
102
RTVSPost2010PropOp38
 70
     1
102
RTVSPost2010Prop39
140
1.0
102
RTVSPost2010PropOp39
 70
     1
102
RTVSPost2010Prop40
 90
        0
102
RTVSPost2010PropOp40
 70
     1
102
RTVSPost2010Prop41ColorIndex
 90
       18
102
RTVSPost2010Prop41ColorRGB
 90
-16777216
102
RTVSPost2010PropOp41
 70
     1
102
RTVSPost2010Prop42
 90
       50
102
RTVSPost2010PropOp42
 70
     1
102
RTVSPost2010Prop43
 90
        3
102
RTVSPost2010PropOp43
 70
     1
102
RTVSPost2010Prop44ColorIndex
 90
        5
102
RTVSPost2010Prop44ColorRGB
 90
      255
102
RTVSPost2010PropOp44
 70
     1
102
RTVSPost2010Prop45
280
     0
102
RTVSPost2010PropOp45
 70
     1
102
RTVSPost2010Prop46
 90
       50
102
RTVSPost2010PropOp46
 70
     1
102
RTVSPost2010Prop47
 90
       50
102
RTVSPost2010PropOp47
 70
     1
102
RTVSPost2010Prop48
 90
       50
102
RTVSPost2010PropOp48
 70
     1
102
RTVSPost2010Prop49
280
     0
102
RTVSPost2010PropOp49
 70
     1
102
RTVSPost2010Prop50
 90
       50
102
RTVSPost2010PropOp50
 70
     1
102
RTVSPost2010Prop51ColorIndex
 90
      256
102
RTVSPost2010Prop51ColorRGB
 90
-16777216
102
RTVSPost2010PropOp51
 70
     0
102
RTVSPost2010Prop52
140
1.0
102
RTVSPost2010PropOp52
 70
     0
102
RTVSPost2010Prop53
 90
        2
102
RTVSPost2010PropOp53
 70
     1
102
RTVSPost2010Prop54
  1
strokes_ogs.tif
102
RTVSPost2010PropOp54
 70
     1
102
RTVSPost2010Prop55
280
     0
102
RTVSPost2010PropOp55
 70
     1
102
RTVSPost2010Prop56
140
1.0
102
RTVSPost2010PropOp56
 70
     1
102
RTVSPost2010Prop57
140
1.0
102
RTVSPost2010PropOp57
 70
     1
102
RTVSPropertyOp0
 70
     1
102
RTVSPropertyOp1
 70
     1
102
RTVSPropertyOp2
 70
     1
102
RTVSPropertyOp3
 70
     1
102
RTVSPropertyOp4
 70
     1
102
RTVSPropertyOp5
 70
     1
102
RTVSPropertyOp6
 70
     1
102
RTVSPropertyOp7
 70
     1
102
RTVSPropertyOp8
 70
     1
102
RTVSPropertyOp9
 70
     1
102
RTVSPropertyOp10
 70
     1
102
RTVSPropertyOp11
 70
     1
102
RTVSPropertyOp12
 70
     1
102
RTVSPropertyOp13
 70
     1
102
RTVSPropertyOp14
 70
     1
102
RTVSPropertyOp15
 70
     1
102
RTVSPropertyOp16
 70
     1
102
RTVSPropertyOp17
 70
     1
102
RTVSPropertyOp18
 70
     1
102
RTVSPropertyOp19
 70
     1
102
RTVSPropertyOp20
 70
     1
102
RTVSPropertyOp21
 70
     1
102
RTVSPropertyOp22
 70
     1
102
RTVSPropertyOp23
 70
     1
102
RTVSPropertyOp24
 70
     1
102
RTVSPropertyOp25
 70
     1
102
RTVSPropertyOp26
 70
     1
102
RTVSPropertyOp27
 70
     1
102
RTVSPropertyOp28
 70
     1
102
RTVSPropertyOp29
 70
     1
102
RTVSPropertyOp30
 70
     1
102
RTVSPropertyOp31
 70
     1
102
RTVSPropertyOp32
 70
     1
102
RTVSPropertyOp33
 70
     1
102
RTVSPropertyOp34
 70
     1
102
RTVSPropertyOp35
 70
     1
102
RTVSPropertyOp36
 70
     1
102
RTVSPropertyOp37
 70
     1
102
RTVSPropertyOp38
 70
     1
102
RTVSPropertyOp39
 70
     1
102
RTVSPropertyOp40
 70
     1
102
RTVSPropertyOp41
 70
     1
102
RTVSPropertyOp42
 70
     1
102
RTVSPropertyOp43
 70
     1
102
RTVSPropertyOp44
 70
     1
102
RTVSPropertyOp45
 70
     1
102
RTVSPropertyOp46
 70
     1
102
RTVSPropertyOp47
 70
     1
102
RTVSPropertyOp48
 70
     1
102
RTVSPropertyOp49
 70
     1
102
RTVSPropertyOp50
 70
     1
102
RTVSPropertyOp51
 70
     0
102
RTVSPropertyOp52
 70
     0
102
RTVSPropertyOp53
 70
     1
102
RTVSPropertyOp54
 70
     1
102
RTVSPropertyOp55
 70
     1
102
RTVSPropertyOp56
 70
     1
102
RTVSPropertyOp57
 70
     1
102
RTVSPropertyOp58
 70
     1
102
RTVSPropertyOp59
 70
     1
102
RTVSPropertyOp60
 70
     1
102
RTVSPropertyOp61
 70
     1
102
RTVSPropertyOp62
 70
     1
  0
XRECORD
  5
987
102
{ACAD_REACTORS
330
986
102
}
330
986
100
AcDbXrecord
280
     1
102
RTVSPost2010Prop28
280
     0
102
RTVSPost2010PropOp28
 70
     0
102
RTVSPost2010Prop29
280
     1
102
RTVSPost2010PropOp29
 70
     0
102
RTVSPost2010Prop30
280
     1
102
RTVSPost2010PropOp30
 70
     0
102
RTVSPost2010Prop31
280
     0
102
RTVSPost2010PropOp31
 70
     0
102
RTVSPost2010Prop32
280
     0
102
RTVSPost2010PropOp32
 70
     0
102
RTVSPost2010Prop33
280
     0
102
RTVSPost2010PropOp33
 70
     0
102
RTVSPost2010Prop34
280
     0
102
RTVSPost2010PropOp34
 70
     0
102
RTVSPost2010Prop35
280
     0
102
RTVSPost2010PropOp35
 70
     0
102
RTVSPost2010Prop36
280
     0
102
RTVSPost2010PropOp36
 70
     0
102
RTVSPost2010Prop37
 90
       50
102
RTVSPost2010PropOp37
 70
     0
102
RTVSPost2010Prop38
140
0.0
102
RTVSPost2010PropOp38
 70
     0
102
RTVSPost2010Prop39
140
1.0
102
RTVSPost2010PropOp39
 70
     0
102
RTVSPost2010Prop40
 90
        0
102
RTVSPost2010PropOp40
 70
     0
102
RTVSPost2010Prop41ColorIndex
 90
       18
102
RTVSPost2010Prop41ColorRGB
 90
-16777216
102
RTVSPost2010PropOp41
 70
     0
102
RTVSPost2010Prop42
 90
       50
102
RTVSPost2010PropOp42
 70
     0
102
RTVSPost2010Prop43
 90
        3
102
RTVSPost2010PropOp43
 70
     0
102
RTVSPost2010Prop44ColorIndex
 90
        5
102
RTVSPost2010Prop44ColorRGB
 90
      255
102
RTVSPost2010PropOp44
 70
     0
102
RTVSPost2010Prop45
280
     0
102
RTVSPost2010PropOp45
 70
     0
102
RTVSPost2010Prop46
 90
       50
102
RTVSPost2010PropOp46
 70
     0
102
RTVSPost2010Prop47
 90
       50
102
RTVSPost2010PropOp47
 70
     0
102
RTVSPost2010Prop48
 90
       50
102
RTVSPost2010PropOp48
 70
     0
102
RTVSPost2010Prop49
280
     0
102
RTVSPost2010PropOp49
 70
     0
102
RTVSPost2010Prop50
 90
       50
102
RTVSPost2010PropOp50
 70
     0
102
RTVSPost2010Prop51ColorIndex
 90
      256
102
RTVSPost2010Prop51ColorRGB
 90
-16777216
102
RTVSPost2010PropOp51
 70
     0
102
RTVSPost2010Prop52
140
1.0
102
RTVSPost2010PropOp52
 70
     0
102
RTVSPost2010Prop53
 90
        2
102
RTVSPost2010PropOp53
 70
     0
102
RTVSPost2010Prop54
  1
strokes_ogs.tif
102
RTVSPost2010PropOp54
 70
     0
102
RTVSPost2010Prop55
280
     0
102
RTVSPost2010PropOp55
 70
     0
102
RTVSPost2010Prop56
140
1.0
102
RTVSPost2010PropOp56
 70
     0
102
RTVSPost2010Prop57
140
1.0
102
RTVSPost2010PropOp57
 70
     0
102
RTVSPropertyOp0
 70
     0
102
RTVSPropertyOp1
 70
     0
102
RTVSPropertyOp2
 70
     0
102
RTVSPropertyOp3
 70
     0
102
RTVSPropertyOp4
 70
     0
102
RTVSPropertyOp5
 70
     0
102
RTVSPropertyOp6
 70
     0
102
RTVSPropertyOp7
 70
     0
102
RTVSPropertyOp8
 70
     0
102
RTVSPropertyOp9
 70
     0
102
RTVSPropertyOp10
 70
     0
102
RTVSPropertyOp11
 70
     0
102
RTVSPropertyOp12
 70
     0
102
RTVSPropertyOp13
 70
     0
102
RTVSPropertyOp14
 70
     2
102
RTVSPropertyOp15
 70
     0
102
RTVSPropertyOp16
 70
     0
102
RTVSPropertyOp17
 70
     0
102
RTVSPropertyOp18
 70
     0
102
RTVSPropertyOp19
 70
     0
102
RTVSPropertyOp20
 70
     0
102
RTVSPropertyOp21
 70
     0
102
RTVSPropertyOp22
 70
     0
102
RTVSPropertyOp23
 70
     0
102
RTVSPropertyOp24
 70
     0
102
RTVSPropertyOp25
 70
     0
102
RTVSPropertyOp26
 70
     0
102
RTVSPropertyOp27
 70
     0
102
RTVSPropertyOp28
 70
     0
102
RTVSPropertyOp29
 70
     0
102
RTVSPropertyOp30
 70
     0
102
RTVSPropertyOp31
 70
     0
102
RTVSPropertyOp32
 70
     0
102
RTVSPropertyOp33
 70
     0
102
RTVSPropertyOp34
 70
     0
102
RTVSPropertyOp35
 70
     0
102
RTVSPropertyOp36
 70
     0
102
RTVSPropertyOp37
 70
     0
102
RTVSPropertyOp38
 70
     0
102
RTVSPropertyOp39
 70
     0
102
RTVSPropertyOp40
 70
     0
102
RTVSPropertyOp41
 70
     0
102
RTVSPropertyOp42
 70
     0
102
RTVSPropertyOp43
 70
     0
102
RTVSPropertyOp44
 70
     0
102
RTVSPropertyOp45
 70
     0
102
RTVSPropertyOp46
 70
     0
102
RTVSPropertyOp47
 70
     0
102
RTVSPropertyOp48
 70
     0
102
RTVSPropertyOp49
 70
     0
102
RTVSPropertyOp50
 70
     0
102
RTVSPropertyOp51
 70
     0
102
RTVSPropertyOp52
 70
     0
102
RTVSPropertyOp53
 70
     0
102
RTVSPropertyOp54
 70
     0
102
RTVSPropertyOp55
 70
     0
102
RTVSPropertyOp56
 70
     0
102
RTVSPropertyOp57
 70
     0
102
RTVSPropertyOp58
 70
     1
102
RTVSPropertyOp59
 70
     1
102
RTVSPropertyOp60
 70
     1
102
RTVSPropertyOp61
 70
     1
102
RTVSPropertyOp62
 70
     1
  0
XRECORD
  5
96D
102
{ACAD_REACTORS
330
96C
102
}
330
96C
100
AcDbXrecord
280
     1
102
RTVSPost2010Prop28
280
     0
102
RTVSPost2010PropOp28
 70
     1
102
RTVSPost2010Prop29
280
     1
102
RTVSPost2010PropOp29
 70
     1
102
RTVSPost2010Prop30
280
     1
102
RTVSPost2010PropOp30
 70
     1
102
RTVSPost2010Prop31
280
     0
102
RTVSPost2010PropOp31
 70
     1
102
RTVSPost2010Prop32
280
     0
102
RTVSPost2010PropOp32
 70
     1
102
RTVSPost2010Prop33
280
     0
102
RTVSPost2010PropOp33
 70
     1
102
RTVSPost2010Prop34
280
     0
102
RTVSPost2010PropOp34
 70
     1
102
RTVSPost2010Prop35
280
     0
102
RTVSPost2010PropOp35
 70
     1
102
RTVSPost2010Prop36
280
     0
102
RTVSPost2010PropOp36
 70
     1
102
RTVSPost2010Prop37
 90
       50
102
RTVSPost2010PropOp37
 70
     1
102
RTVSPost2010Prop38
140
0.0
102
RTVSPost2010PropOp38
 70
     1
102
RTVSPost2010Prop39
140
1.0
102
RTVSPost2010PropOp39
 70
     1
102
RTVSPost2010Prop40
 90
        0
102
RTVSPost2010PropOp40
 70
     1
102
RTVSPost2010Prop41ColorIndex
 90
       18
102
RTVSPost2010Prop41ColorRGB
 90
-16777216
102
RTVSPost2010PropOp41
 70
     1
102
RTVSPost2010Prop42
 90
       50
102
RTVSPost2010PropOp42
 70
     1
102
RTVSPost2010Prop43
 90
        3
102
RTVSPost2010PropOp43
 70
     1
102
RTVSPost2010Prop44ColorIndex
 90
        5
102
RTVSPost2010Prop44ColorRGB
 90
      255
102
RTVSPost2010PropOp44
 70
     1
102
RTVSPost2010Prop45
280
     0
102
RTVSPost2010PropOp45
 70
     1
102
RTVSPost2010Prop46
 90
       50
102
RTVSPost2010PropOp46
 70
     1
102
RTVSPost2010Prop47
 90
       50
102
RTVSPost2010PropOp47
 70
     1
102
RTVSPost2010Prop48
 90
       50
102
RTVSPost2010PropOp48
 70
     1
102
RTVSPost2010Prop49
280
     0
102
RTVSPost2010PropOp49
 70
     1
102
RTVSPost2010Prop50
 90
       50
102
RTVSPost2010PropOp50
 70
     1
102
RTVSPost2010Prop51ColorIndex
 90
      256
102
RTVSPost2010Prop51ColorRGB
 90
-16777216
102
RTVSPost2010PropOp51
 70
     0
102
RTVSPost2010Prop52
140
1.0
102
RTVSPost2010PropOp52
 70
     0
102
RTVSPost2010Prop53
 90
        2
102
RTVSPost2010PropOp53
 70
     1
102
RTVSPost2010Prop54
  1
strokes_ogs.tif
102
RTVSPost2010PropOp54
 70
     1
102
RTVSPost2010Prop55
280
     0
102
RTVSPost2010PropOp55
 70
     1
102
RTVSPost2010Prop56
140
1.0
102
RTVSPost2010PropOp56
 70
     1
102
RTVSPost2010Prop57
140
1.0
102
RTVSPost2010PropOp57
 70
     1
102
RTVSPropertyOp0
 70
     1
102
RTVSPropertyOp1
 70
     1
102
RTVSPropertyOp2
 70
     1
102
RTVSPropertyOp3
 70
     1
102
RTVSPropertyOp4
 70
     1
102
RTVSPropertyOp5
 70
     1
102
RTVSPropertyOp6
 70
     1
102
RTVSPropertyOp7
 70
     1
102
RTVSPropertyOp8
 70
     1
102
RTVSPropertyOp9
 70
     1
102
RTVSPropertyOp10
 70
     1
102
RTVSPropertyOp11
 70
     1
102
RTVSPropertyOp12
 70
     1
102
RTVSPropertyOp13
 70
     1
102
RTVSPropertyOp14
 70
     1
102
RTVSPropertyOp15
 70
     1
102
RTVSPropertyOp16
 70
     1
102
RTVSPropertyOp17
 70
     1
102
RTVSPropertyOp18
 70
     1
102
RTVSPropertyOp19
 70
     1
102
RTVSPropertyOp20
 70
     1
102
RTVSPropertyOp21
 70
     1
102
RTVSPropertyOp22
 70
     1
102
RTVSPropertyOp23
 70
     1
102
RTVSPropertyOp24
 70
     1
102
RTVSPropertyOp25
 70
     1
102
RTVSPropertyOp26
 70
     1
102
RTVSPropertyOp27
 70
     1
102
RTVSPropertyOp28
 70
     1
102
RTVSPropertyOp29
 70
     1
102
RTVSPropertyOp30
 70
     1
102
RTVSPropertyOp31
 70
     1
102
RTVSPropertyOp32
 70
     1
102
RTVSPropertyOp33
 70
     1
102
RTVSPropertyOp34
 70
     1
102
RTVSPropertyOp35
 70
     1
102
RTVSPropertyOp36
 70
     1
102
RTVSPropertyOp37
 70
     1
102
RTVSPropertyOp38
 70
     1
102
RTVSPropertyOp39
 70
     1
102
RTVSPropertyOp40
 70
     1
102
RTVSPropertyOp41
 70
     1
102
RTVSPropertyOp42
 70
     1
102
RTVSPropertyOp43
 70
     1
102
RTVSPropertyOp44
 70
     1
102
RTVSPropertyOp45
 70
     1
102
RTVSPropertyOp46
 70
     1
102
RTVSPropertyOp47
 70
     1
102
RTVSPropertyOp48
 70
     1
102
RTVSPropertyOp49
 70
     1
102
RTVSPropertyOp50
 70
     1
102
RTVSPropertyOp51
 70
     0
102
RTVSPropertyOp52
 70
     0
102
RTVSPropertyOp53
 70
     1
102
RTVSPropertyOp54
 70
     1
102
RTVSPropertyOp55
 70
     1
102
RTVSPropertyOp56
 70
     1
102
RTVSPropertyOp57
 70
     1
102
RTVSPropertyOp58
 70
     1
102
RTVSPropertyOp59
 70
     1
102
RTVSPropertyOp60
 70
     1
102
RTVSPropertyOp61
 70
     1
102
RTVSPropertyOp62
 70
     1
  0
XRECORD
  5
983
102
{ACAD_REACTORS
330
982
102
}
330
982
100
AcDbXrecord
280
     1
102
RTVSPost2010Prop28
280
     0
102
RTVSPost2010PropOp28
 70
     1
102
RTVSPost2010Prop29
280
     1
102
RTVSPost2010PropOp29
 70
     1
102
RTVSPost2010Prop30
280
     1
102
RTVSPost2010PropOp30
 70
     1
102
RTVSPost2010Prop31
280
     0
102
RTVSPost2010PropOp31
 70
     1
102
RTVSPost2010Prop32
280
     0
102
RTVSPost2010PropOp32
 70
     1
102
RTVSPost2010Prop33
280
     0
102
RTVSPost2010PropOp33
 70
     1
102
RTVSPost2010Prop34
280
     0
102
RTVSPost2010PropOp34
 70
     1
102
RTVSPost2010Prop35
280
     0
102
RTVSPost2010PropOp35
 70
     1
102
RTVSPost2010Prop36
280
     0
102
RTVSPost2010PropOp36
 70
     1
102
RTVSPost2010Prop37
 90
       50
102
RTVSPost2010PropOp37
 70
     1
102
RTVSPost2010Prop38
140
0.0
102
RTVSPost2010PropOp38
 70
     1
102
RTVSPost2010Prop39
140
1.0
102
RTVSPost2010PropOp39
 70
     1
102
RTVSPost2010Prop40
 90
        0
102
RTVSPost2010PropOp40
 70
     1
102
RTVSPost2010Prop41ColorIndex
 90
       18
102
RTVSPost2010Prop41ColorRGB
 90
-16777216
102
RTVSPost2010PropOp41
 70
     1
102
RTVSPost2010Prop42
 90
       50
102
RTVSPost2010PropOp42
 70
     1
102
RTVSPost2010Prop43
 90
        3
102
RTVSPost2010PropOp43
 70
     1
102
RTVSPost2010Prop44ColorIndex
 90
        5
102
RTVSPost2010Prop44ColorRGB
 90
      255
102
RTVSPost2010PropOp44
 70
     1
102
RTVSPost2010Prop45
280
     0
102
RTVSPost2010PropOp45
 70
     1
102
RTVSPost2010Prop46
 90
       50
102
RTVSPost2010PropOp46
 70
     1
102
RTVSPost2010Prop47
 90
       50
102
RTVSPost2010PropOp47
 70
     1
102
RTVSPost2010Prop48
 90
       50
102
RTVSPost2010PropOp48
 70
     1
102
RTVSPost2010Prop49
280
     0
102
RTVSPost2010PropOp49
 70
     1
102
RTVSPost2010Prop50
 90
       50
102
RTVSPost2010PropOp50
 70
     1
102
RTVSPost2010Prop51ColorIndex
 90
      256
102
RTVSPost2010Prop51ColorRGB
 90
-16777216
102
RTVSPost2010PropOp51
 70
     0
102
RTVSPost2010Prop52
140
1.0
102
RTVSPost2010PropOp52
 70
     0
102
RTVSPost2010Prop53
 90
        2
102
RTVSPost2010PropOp53
 70
     1
102
RTVSPost2010Prop54
  1
strokes_ogs.tif
102
RTVSPost2010PropOp54
 70
     1
102
RTVSPost2010Prop55
280
     0
102
RTVSPost2010PropOp55
 70
     1
102
RTVSPost2010Prop56
140
1.0
102
RTVSPost2010PropOp56
 70
     1
102
RTVSPost2010Prop57
140
1.0
102
RTVSPost2010PropOp57
 70
     1
102
RTVSPropertyOp0
 70
     1
102
RTVSPropertyOp1
 70
     1
102
RTVSPropertyOp2
 70
     1
102
RTVSPropertyOp3
 70
     1
102
RTVSPropertyOp4
 70
     1
102
RTVSPropertyOp5
 70
     1
102
RTVSPropertyOp6
 70
     1
102
RTVSPropertyOp7
 70
     1
102
RTVSPropertyOp8
 70
     1
102
RTVSPropertyOp9
 70
     1
102
RTVSPropertyOp10
 70
     1
102
RTVSPropertyOp11
 70
     1
102
RTVSPropertyOp12
 70
     1
102
RTVSPropertyOp13
 70
     1
102
RTVSPropertyOp14
 70
     1
102
RTVSPropertyOp15
 70
     1
102
RTVSPropertyOp16
 70
     1
102
RTVSPropertyOp17
 70
     1
102
RTVSPropertyOp18
 70
     1
102
RTVSPropertyOp19
 70
     1
102
RTVSPropertyOp20
 70
     1
102
RTVSPropertyOp21
 70
     1
102
RTVSPropertyOp22
 70
     1
102
RTVSPropertyOp23
 70
     1
102
RTVSPropertyOp24
 70
     1
102
RTVSPropertyOp25
 70
     1
102
RTVSPropertyOp26
 70
     1
102
RTVSPropertyOp27
 70
     1
102
RTVSPropertyOp28
 70
     1
102
RTVSPropertyOp29
 70
     1
102
RTVSPropertyOp30
 70
     1
102
RTVSPropertyOp31
 70
     1
102
RTVSPropertyOp32
 70
     1
102
RTVSPropertyOp33
 70
     1
102
RTVSPropertyOp34
 70
     1
102
RTVSPropertyOp35
 70
     1
102
RTVSPropertyOp36
 70
     1
102
RTVSPropertyOp37
 70
     1
102
RTVSPropertyOp38
 70
     1
102
RTVSPropertyOp39
 70
     1
102
RTVSPropertyOp40
 70
     1
102
RTVSPropertyOp41
 70
     1
102
RTVSPropertyOp42
 70
     1
102
RTVSPropertyOp43
 70
     1
102
RTVSPropertyOp44
 70
     1
102
RTVSPropertyOp45
 70
     1
102
RTVSPropertyOp46
 70
     1
102
RTVSPropertyOp47
 70
     1
102
RTVSPropertyOp48
 70
     1
102
RTVSPropertyOp49
 70
     1
102
RTVSPropertyOp50
 70
     1
102
RTVSPropertyOp51
 70
     0
102
RTVSPropertyOp52
 70
     0
102
RTVSPropertyOp53
 70
     1
102
RTVSPropertyOp54
 70
     1
102
RTVSPropertyOp55
 70
     1
102
RTVSPropertyOp56
 70
     1
102
RTVSPropertyOp57
 70
     1
102
RTVSPropertyOp58
 70
     1
102
RTVSPropertyOp59
 70
     1
102
RTVSPropertyOp60
 70
     1
102
RTVSPropertyOp61
 70
     1
102
RTVSPropertyOp62
 70
     1
  0
XRECORD
  5
981
102
{ACAD_REACTORS
330
980
102
}
330
980
100
AcDbXrecord
280
     1
102
RTVSPost2010Prop28
280
     0
102
RTVSPost2010PropOp28
 70
     1
102
RTVSPost2010Prop29
280
     1
102
RTVSPost2010PropOp29
 70
     1
102
RTVSPost2010Prop30
280
     1
102
RTVSPost2010PropOp30
 70
     1
102
RTVSPost2010Prop31
280
     0
102
RTVSPost2010PropOp31
 70
     1
102
RTVSPost2010Prop32
280
     0
102
RTVSPost2010PropOp32
 70
     1
102
RTVSPost2010Prop33
280
     0
102
RTVSPost2010PropOp33
 70
     1
102
RTVSPost2010Prop34
280
     0
102
RTVSPost2010PropOp34
 70
     1
102
RTVSPost2010Prop35
280
     0
102
RTVSPost2010PropOp35
 70
     1
102
RTVSPost2010Prop36
280
     0
102
RTVSPost2010PropOp36
 70
     1
102
RTVSPost2010Prop37
 90
       50
102
RTVSPost2010PropOp37
 70
     1
102
RTVSPost2010Prop38
140
0.0
102
RTVSPost2010PropOp38
 70
     1
102
RTVSPost2010Prop39
140
1.0
102
RTVSPost2010PropOp39
 70
     1
102
RTVSPost2010Prop40
 90
        0
102
RTVSPost2010PropOp40
 70
     1
102
RTVSPost2010Prop41ColorIndex
 90
       18
102
RTVSPost2010Prop41ColorRGB
 90
-16777216
102
RTVSPost2010PropOp41
 70
     1
102
RTVSPost2010Prop42
 90
       50
102
RTVSPost2010PropOp42
 70
     1
102
RTVSPost2010Prop43
 90
        3
102
RTVSPost2010PropOp43
 70
     1
102
RTVSPost2010Prop44ColorIndex
 90
        5
102
RTVSPost2010Prop44ColorRGB
 90
      255
102
RTVSPost2010PropOp44
 70
     1
102
RTVSPost2010Prop45
280
     0
102
RTVSPost2010PropOp45
 70
     1
102
RTVSPost2010Prop46
 90
       50
102
RTVSPost2010PropOp46
 70
     1
102
RTVSPost2010Prop47
 90
       50
102
RTVSPost2010PropOp47
 70
     1
102
RTVSPost2010Prop48
 90
       50
102
RTVSPost2010PropOp48
 70
     1
102
RTVSPost2010Prop49
280
     0
102
RTVSPost2010PropOp49
 70
     1
102
RTVSPost2010Prop50
 90
       50
102
RTVSPost2010PropOp50
 70
     1
102
RTVSPost2010Prop51ColorIndex
 90
      256
102
RTVSPost2010Prop51ColorRGB
 90
-16777216
102
RTVSPost2010PropOp51
 70
     0
102
RTVSPost2010Prop52
140
1.0
102
RTVSPost2010PropOp52
 70
     0
102
RTVSPost2010Prop53
 90
        2
102
RTVSPost2010PropOp53
 70
     1
102
RTVSPost2010Prop54
  1
strokes_ogs.tif
102
RTVSPost2010PropOp54
 70
     1
102
RTVSPost2010Prop55
280
     0
102
RTVSPost2010PropOp55
 70
     1
102
RTVSPost2010Prop56
140
1.0
102
RTVSPost2010PropOp56
 70
     1
102
RTVSPost2010Prop57
140
1.0
102
RTVSPost2010PropOp57
 70
     1
102
RTVSPropertyOp0
 70
     1
102
RTVSPropertyOp1
 70
     1
102
RTVSPropertyOp2
 70
     1
102
RTVSPropertyOp3
 70
     1
102
RTVSPropertyOp4
 70
     1
102
RTVSPropertyOp5
 70
     1
102
RTVSPropertyOp6
 70
     1
102
RTVSPropertyOp7
 70
     1
102
RTVSPropertyOp8
 70
     1
102
RTVSPropertyOp9
 70
     1
102
RTVSPropertyOp10
 70
     1
102
RTVSPropertyOp11
 70
     1
102
RTVSPropertyOp12
 70
     1
102
RTVSPropertyOp13
 70
     1
102
RTVSPropertyOp14
 70
     1
102
RTVSPropertyOp15
 70
     1
102
RTVSPropertyOp16
 70
     1
102
RTVSPropertyOp17
 70
     1
102
RTVSPropertyOp18
 70
     1
102
RTVSPropertyOp19
 70
     1
102
RTVSPropertyOp20
 70
     1
102
RTVSPropertyOp21
 70
     1
102
RTVSPropertyOp22
 70
     1
102
RTVSPropertyOp23
 70
     1
102
RTVSPropertyOp24
 70
     1
102
RTVSPropertyOp25
 70
     1
102
RTVSPropertyOp26
 70
     1
102
RTVSPropertyOp27
 70
     1
102
RTVSPropertyOp28
 70
     1
102
RTVSPropertyOp29
 70
     1
102
RTVSPropertyOp30
 70
     1
102
RTVSPropertyOp31
 70
     1
102
RTVSPropertyOp32
 70
     1
102
RTVSPropertyOp33
 70
     1
102
RTVSPropertyOp34
 70
     1
102
RTVSPropertyOp35
 70
     1
102
RTVSPropertyOp36
 70
     1
102
RTVSPropertyOp37
 70
     1
102
RTVSPropertyOp38
 70
     1
102
RTVSPropertyOp39
 70
     1
102
RTVSPropertyOp40
 70
     1
102
RTVSPropertyOp41
 70
     1
102
RTVSPropertyOp42
 70
     1
102
RTVSPropertyOp43
 70
     1
102
RTVSPropertyOp44
 70
     1
102
RTVSPropertyOp45
 70
     1
102
RTVSPropertyOp46
 70
     1
102
RTVSPropertyOp47
 70
     1
102
RTVSPropertyOp48
 70
     1
102
RTVSPropertyOp49
 70
     1
102
RTVSPropertyOp50
 70
     1
102
RTVSPropertyOp51
 70
     0
102
RTVSPropertyOp52
 70
     0
102
RTVSPropertyOp53
 70
     1
102
RTVSPropertyOp54
 70
     1
102
RTVSPropertyOp55
 70
     1
102
RTVSPropertyOp56
 70
     1
102
RTVSPropertyOp57
 70
     1
102
RTVSPropertyOp58
 70
     1
102
RTVSPropertyOp59
 70
     1
102
RTVSPropertyOp60
 70
     1
102
RTVSPropertyOp61
 70
     1
102
RTVSPropertyOp62
 70
     1
  0
XRECORD
  5
97B
102
{ACAD_REACTORS
330
97A
102
}
330
97A
100
AcDbXrecord
280
     1
102
RTVSPost2010Prop28
280
     0
102
RTVSPost2010PropOp28
 70
     1
102
RTVSPost2010Prop29
280
     1
102
RTVSPost2010PropOp29
 70
     1
102
RTVSPost2010Prop30
280
     1
102
RTVSPost2010PropOp30
 70
     1
102
RTVSPost2010Prop31
280
     0
102
RTVSPost2010PropOp31
 70
     1
102
RTVSPost2010Prop32
280
     0
102
RTVSPost2010PropOp32
 70
     1
102
RTVSPost2010Prop33
280
     0
102
RTVSPost2010PropOp33
 70
     1
102
RTVSPost2010Prop34
280
     0
102
RTVSPost2010PropOp34
 70
     1
102
RTVSPost2010Prop35
280
     0
102
RTVSPost2010PropOp35
 70
     1
102
RTVSPost2010Prop36
280
     0
102
RTVSPost2010PropOp36
 70
     1
102
RTVSPost2010Prop37
 90
       50
102
RTVSPost2010PropOp37
 70
     1
102
RTVSPost2010Prop38
140
0.0
102
RTVSPost2010PropOp38
 70
     1
102
RTVSPost2010Prop39
140
1.0
102
RTVSPost2010PropOp39
 70
     1
102
RTVSPost2010Prop40
 90
        0
102
RTVSPost2010PropOp40
 70
     1
102
RTVSPost2010Prop41ColorIndex
 90
       18
102
RTVSPost2010Prop41ColorRGB
 90
-16777216
102
RTVSPost2010PropOp41
 70
     1
102
RTVSPost2010Prop42
 90
       50
102
RTVSPost2010PropOp42
 70
     1
102
RTVSPost2010Prop43
 90
        3
102
RTVSPost2010PropOp43
 70
     1
102
RTVSPost2010Prop44ColorIndex
 90
        5
102
RTVSPost2010Prop44ColorRGB
 90
      255
102
RTVSPost2010PropOp44
 70
     1
102
RTVSPost2010Prop45
280
     0
102
RTVSPost2010PropOp45
 70
     1
102
RTVSPost2010Prop46
 90
       50
102
RTVSPost2010PropOp46
 70
     1
102
RTVSPost2010Prop47
 90
       50
102
RTVSPost2010PropOp47
 70
     1
102
RTVSPost2010Prop48
 90
       50
102
RTVSPost2010PropOp48
 70
     1
102
RTVSPost2010Prop49
280
     0
102
RTVSPost2010PropOp49
 70
     1
102
RTVSPost2010Prop50
 90
       50
102
RTVSPost2010PropOp50
 70
     1
102
RTVSPost2010Prop51ColorIndex
 90
      256
102
RTVSPost2010Prop51ColorRGB
 90
-16777216
102
RTVSPost2010PropOp51
 70
     0
102
RTVSPost2010Prop52
140
1.0
102
RTVSPost2010PropOp52
 70
     0
102
RTVSPost2010Prop53
 90
        2
102
RTVSPost2010PropOp53
 70
     1
102
RTVSPost2010Prop54
  1
strokes_ogs.tif
102
RTVSPost2010PropOp54
 70
     1
102
RTVSPost2010Prop55
280
     0
102
RTVSPost2010PropOp55
 70
     1
102
RTVSPost2010Prop56
140
1.0
102
RTVSPost2010PropOp56
 70
     1
102
RTVSPost2010Prop57
140
1.0
102
RTVSPost2010PropOp57
 70
     1
102
RTVSPropertyOp0
 70
     1
102
RTVSPropertyOp1
 70
     1
102
RTVSPropertyOp2
 70
     1
102
RTVSPropertyOp3
 70
     1
102
RTVSPropertyOp4
 70
     1
102
RTVSPropertyOp5
 70
     1
102
RTVSPropertyOp6
 70
     1
102
RTVSPropertyOp7
 70
     1
102
RTVSPropertyOp8
 70
     1
102
RTVSPropertyOp9
 70
     1
102
RTVSPropertyOp10
 70
     1
102
RTVSPropertyOp11
 70
     1
102
RTVSPropertyOp12
 70
     1
102
RTVSPropertyOp13
 70
     1
102
RTVSPropertyOp14
 70
     1
102
RTVSPropertyOp15
 70
     1
102
RTVSPropertyOp16
 70
     1
102
RTVSPropertyOp17
 70
     1
102
RTVSPropertyOp18
 70
     1
102
RTVSPropertyOp19
 70
     1
102
RTVSPropertyOp20
 70
     1
102
RTVSPropertyOp21
 70
     1
102
RTVSPropertyOp22
 70
     1
102
RTVSPropertyOp23
 70
     1
102
RTVSPropertyOp24
 70
     1
102
RTVSPropertyOp25
 70
     1
102
RTVSPropertyOp26
 70
     1
102
RTVSPropertyOp27
 70
     1
102
RTVSPropertyOp28
 70
     1
102
RTVSPropertyOp29
 70
     1
102
RTVSPropertyOp30
 70
     1
102
RTVSPropertyOp31
 70
     1
102
RTVSPropertyOp32
 70
     1
102
RTVSPropertyOp33
 70
     1
102
RTVSPropertyOp34
 70
     1
102
RTVSPropertyOp35
 70
     1
102
RTVSPropertyOp36
 70
     1
102
RTVSPropertyOp37
 70
     1
102
RTVSPropertyOp38
 70
     1
102
RTVSPropertyOp39
 70
     1
102
RTVSPropertyOp40
 70
     1
102
RTVSPropertyOp41
 70
     1
102
RTVSPropertyOp42
 70
     1
102
RTVSPropertyOp43
 70
     1
102
RTVSPropertyOp44
 70
     1
102
RTVSPropertyOp45
 70
     1
102
RTVSPropertyOp46
 70
     1
102
RTVSPropertyOp47
 70
     1
102
RTVSPropertyOp48
 70
     1
102
RTVSPropertyOp49
 70
     1
102
RTVSPropertyOp50
 70
     1
102
RTVSPropertyOp51
 70
     0
102
RTVSPropertyOp52
 70
     0
102
RTVSPropertyOp53
 70
     1
102
RTVSPropertyOp54
 70
     1
102
RTVSPropertyOp55
 70
     1
102
RTVSPropertyOp56
 70
     1
102
RTVSPropertyOp57
 70
     1
102
RTVSPropertyOp58
 70
     1
102
RTVSPropertyOp59
 70
     1
102
RTVSPropertyOp60
 70
     1
102
RTVSPropertyOp61
 70
     1
102
RTVSPropertyOp62
 70
     1
  0
XRECORD
  5
97D
102
{ACAD_REACTORS
330
97C
102
}
330
97C
100
AcDbXrecord
280
     1
102
RTVSPost2010Prop28
280
     0
102
RTVSPost2010PropOp28
 70
     1
102
RTVSPost2010Prop29
280
     1
102
RTVSPost2010PropOp29
 70
     1
102
RTVSPost2010Prop30
280
     1
102
RTVSPost2010PropOp30
 70
     1
102
RTVSPost2010Prop31
280
     0
102
RTVSPost2010PropOp31
 70
     1
102
RTVSPost2010Prop32
280
     0
102
RTVSPost2010PropOp32
 70
     1
102
RTVSPost2010Prop33
280
     0
102
RTVSPost2010PropOp33
 70
     1
102
RTVSPost2010Prop34
280
     0
102
RTVSPost2010PropOp34
 70
     1
102
RTVSPost2010Prop35
280
     0
102
RTVSPost2010PropOp35
 70
     1
102
RTVSPost2010Prop36
280
     0
102
RTVSPost2010PropOp36
 70
     1
102
RTVSPost2010Prop37
 90
       50
102
RTVSPost2010PropOp37
 70
     1
102
RTVSPost2010Prop38
140
0.0
102
RTVSPost2010PropOp38
 70
     1
102
RTVSPost2010Prop39
140
1.0
102
RTVSPost2010PropOp39
 70
     1
102
RTVSPost2010Prop40
 90
        0
102
RTVSPost2010PropOp40
 70
     1
102
RTVSPost2010Prop41ColorIndex
 90
       18
102
RTVSPost2010Prop41ColorRGB
 90
-16777216
102
RTVSPost2010PropOp41
 70
     1
102
RTVSPost2010Prop42
 90
       50
102
RTVSPost2010PropOp42
 70
     1
102
RTVSPost2010Prop43
 90
        3
102
RTVSPost2010PropOp43
 70
     1
102
RTVSPost2010Prop44ColorIndex
 90
        5
102
RTVSPost2010Prop44ColorRGB
 90
      255
102
RTVSPost2010PropOp44
 70
     1
102
RTVSPost2010Prop45
280
     0
102
RTVSPost2010PropOp45
 70
     1
102
RTVSPost2010Prop46
 90
       50
102
RTVSPost2010PropOp46
 70
     1
102
RTVSPost2010Prop47
 90
       50
102
RTVSPost2010PropOp47
 70
     1
102
RTVSPost2010Prop48
 90
       50
102
RTVSPost2010PropOp48
 70
     1
102
RTVSPost2010Prop49
280
     0
102
RTVSPost2010PropOp49
 70
     1
102
RTVSPost2010Prop50
 90
       50
102
RTVSPost2010PropOp50
 70
     1
102
RTVSPost2010Prop51ColorIndex
 90
      256
102
RTVSPost2010Prop51ColorRGB
 90
-16777216
102
RTVSPost2010PropOp51
 70
     0
102
RTVSPost2010Prop52
140
1.0
102
RTVSPost2010PropOp52
 70
     0
102
RTVSPost2010Prop53
 90
        2
102
RTVSPost2010PropOp53
 70
     1
102
RTVSPost2010Prop54
  1
strokes_ogs.tif
102
RTVSPost2010PropOp54
 70
     1
102
RTVSPost2010Prop55
280
     0
102
RTVSPost2010PropOp55
 70
     1
102
RTVSPost2010Prop56
140
1.0
102
RTVSPost2010PropOp56
 70
     1
102
RTVSPost2010Prop57
140
1.0
102
RTVSPost2010PropOp57
 70
     1
102
RTVSPropertyOp0
 70
     1
102
RTVSPropertyOp1
 70
     1
102
RTVSPropertyOp2
 70
     1
102
RTVSPropertyOp3
 70
     1
102
RTVSPropertyOp4
 70
     1
102
RTVSPropertyOp5
 70
     1
102
RTVSPropertyOp6
 70
     1
102
RTVSPropertyOp7
 70
     1
102
RTVSPropertyOp8
 70
     1
102
RTVSPropertyOp9
 70
     1
102
RTVSPropertyOp10
 70
     1
102
RTVSPropertyOp11
 70
     1
102
RTVSPropertyOp12
 70
     1
102
RTVSPropertyOp13
 70
     1
102
RTVSPropertyOp14
 70
     1
102
RTVSPropertyOp15
 70
     1
102
RTVSPropertyOp16
 70
     1
102
RTVSPropertyOp17
 70
     1
102
RTVSPropertyOp18
 70
     1
102
RTVSPropertyOp19
 70
     1
102
RTVSPropertyOp20
 70
     1
102
RTVSPropertyOp21
 70
     1
102
RTVSPropertyOp22
 70
     1
102
RTVSPropertyOp23
 70
     1
102
RTVSPropertyOp24
 70
     1
102
RTVSPropertyOp25
 70
     1
102
RTVSPropertyOp26
 70
     1
102
RTVSPropertyOp27
 70
     1
102
RTVSPropertyOp28
 70
     1
102
RTVSPropertyOp29
 70
     1
102
RTVSPropertyOp30
 70
     1
102
RTVSPropertyOp31
 70
     1
102
RTVSPropertyOp32
 70
     1
102
RTVSPropertyOp33
 70
     1
102
RTVSPropertyOp34
 70
     1
102
RTVSPropertyOp35
 70
     1
102
RTVSPropertyOp36
 70
     1
102
RTVSPropertyOp37
 70
     1
102
RTVSPropertyOp38
 70
     1
102
RTVSPropertyOp39
 70
     1
102
RTVSPropertyOp40
 70
     1
102
RTVSPropertyOp41
 70
     1
102
RTVSPropertyOp42
 70
     1
102
RTVSPropertyOp43
 70
     1
102
RTVSPropertyOp44
 70
     1
102
RTVSPropertyOp45
 70
     1
102
RTVSPropertyOp46
 70
     1
102
RTVSPropertyOp47
 70
     1
102
RTVSPropertyOp48
 70
     1
102
RTVSPropertyOp49
 70
     1
102
RTVSPropertyOp50
 70
     1
102
RTVSPropertyOp51
 70
     0
102
RTVSPropertyOp52
 70
     0
102
RTVSPropertyOp53
 70
     1
102
RTVSPropertyOp54
 70
     1
102
RTVSPropertyOp55
 70
     1
102
RTVSPropertyOp56
 70
     1
102
RTVSPropertyOp57
 70
     1
102
RTVSPropertyOp58
 70
     1
102
RTVSPropertyOp59
 70
     1
102
RTVSPropertyOp60
 70
     1
102
RTVSPropertyOp61
 70
     1
102
RTVSPropertyOp62
 70
     1
  0
XRECORD
  5
973
102
{ACAD_REACTORS
330
972
102
}
330
972
100
AcDbXrecord
280
     1
102
RTVSPost2010Prop28
280
     0
102
RTVSPost2010PropOp28
 70
     1
102
RTVSPost2010Prop29
280
     1
102
RTVSPost2010PropOp29
 70
     1
102
RTVSPost2010Prop30
280
     1
102
RTVSPost2010PropOp30
 70
     1
102
RTVSPost2010Prop31
280
     0
102
RTVSPost2010PropOp31
 70
     1
102
RTVSPost2010Prop32
280
     0
102
RTVSPost2010PropOp32
 70
     1
102
RTVSPost2010Prop33
280
     0
102
RTVSPost2010PropOp33
 70
     1
102
RTVSPost2010Prop34
280
     0
102
RTVSPost2010PropOp34
 70
     1
102
RTVSPost2010Prop35
280
     0
102
RTVSPost2010PropOp35
 70
     1
102
RTVSPost2010Prop36
280
     0
102
RTVSPost2010PropOp36
 70
     1
102
RTVSPost2010Prop37
 90
       50
102
RTVSPost2010PropOp37
 70
     1
102
RTVSPost2010Prop38
140
0.0
102
RTVSPost2010PropOp38
 70
     1
102
RTVSPost2010Prop39
140
1.0
102
RTVSPost2010PropOp39
 70
     1
102
RTVSPost2010Prop40
 90
        0
102
RTVSPost2010PropOp40
 70
     1
102
RTVSPost2010Prop41ColorIndex
 90
       18
102
RTVSPost2010Prop41ColorRGB
 90
-16777216
102
RTVSPost2010PropOp41
 70
     1
102
RTVSPost2010Prop42
 90
       50
102
RTVSPost2010PropOp42
 70
     1
102
RTVSPost2010Prop43
 90
        3
102
RTVSPost2010PropOp43
 70
     1
102
RTVSPost2010Prop44ColorIndex
 90
        5
102
RTVSPost2010Prop44ColorRGB
 90
      255
102
RTVSPost2010PropOp44
 70
     1
102
RTVSPost2010Prop45
280
     0
102
RTVSPost2010PropOp45
 70
     1
102
RTVSPost2010Prop46
 90
       50
102
RTVSPost2010PropOp46
 70
     1
102
RTVSPost2010Prop47
 90
       50
102
RTVSPost2010PropOp47
 70
     1
102
RTVSPost2010Prop48
 90
       50
102
RTVSPost2010PropOp48
 70
     1
102
RTVSPost2010Prop49
280
     0
102
RTVSPost2010PropOp49
 70
     1
102
RTVSPost2010Prop50
 90
       50
102
RTVSPost2010PropOp50
 70
     1
102
RTVSPost2010Prop51ColorIndex
 90
      256
102
RTVSPost2010Prop51ColorRGB
 90
-16777216
102
RTVSPost2010PropOp51
 70
     0
102
RTVSPost2010Prop52
140
1.0
102
RTVSPost2010PropOp52
 70
     0
102
RTVSPost2010Prop53
 90
        2
102
RTVSPost2010PropOp53
 70
     1
102
RTVSPost2010Prop54
  1
strokes_ogs.tif
102
RTVSPost2010PropOp54
 70
     1
102
RTVSPost2010Prop55
280
     0
102
RTVSPost2010PropOp55
 70
     1
102
RTVSPost2010Prop56
140
1.0
102
RTVSPost2010PropOp56
 70
     1
102
RTVSPost2010Prop57
140
1.0
102
RTVSPost2010PropOp57
 70
     1
102
RTVSPropertyOp0
 70
     1
102
RTVSPropertyOp1
 70
     1
102
RTVSPropertyOp2
 70
     1
102
RTVSPropertyOp3
 70
     1
102
RTVSPropertyOp4
 70
     1
102
RTVSPropertyOp5
 70
     1
102
RTVSPropertyOp6
 70
     1
102
RTVSPropertyOp7
 70
     1
102
RTVSPropertyOp8
 70
     1
102
RTVSPropertyOp9
 70
     1
102
RTVSPropertyOp10
 70
     1
102
RTVSPropertyOp11
 70
     1
102
RTVSPropertyOp12
 70
     1
102
RTVSPropertyOp13
 70
     1
102
RTVSPropertyOp14
 70
     1
102
RTVSPropertyOp15
 70
     1
102
RTVSPropertyOp16
 70
     1
102
RTVSPropertyOp17
 70
     1
102
RTVSPropertyOp18
 70
     1
102
RTVSPropertyOp19
 70
     1
102
RTVSPropertyOp20
 70
     1
102
RTVSPropertyOp21
 70
     1
102
RTVSPropertyOp22
 70
     1
102
RTVSPropertyOp23
 70
     1
102
RTVSPropertyOp24
 70
     1
102
RTVSPropertyOp25
 70
     1
102
RTVSPropertyOp26
 70
     1
102
RTVSPropertyOp27
 70
     1
102
RTVSPropertyOp28
 70
     1
102
RTVSPropertyOp29
 70
     1
102
RTVSPropertyOp30
 70
     1
102
RTVSPropertyOp31
 70
     1
102
RTVSPropertyOp32
 70
     1
102
RTVSPropertyOp33
 70
     1
102
RTVSPropertyOp34
 70
     1
102
RTVSPropertyOp35
 70
     1
102
RTVSPropertyOp36
 70
     1
102
RTVSPropertyOp37
 70
     1
102
RTVSPropertyOp38
 70
     1
102
RTVSPropertyOp39
 70
     1
102
RTVSPropertyOp40
 70
     1
102
RTVSPropertyOp41
 70
     1
102
RTVSPropertyOp42
 70
     1
102
RTVSPropertyOp43
 70
     1
102
RTVSPropertyOp44
 70
     1
102
RTVSPropertyOp45
 70
     1
102
RTVSPropertyOp46
 70
     1
102
RTVSPropertyOp47
 70
     1
102
RTVSPropertyOp48
 70
     1
102
RTVSPropertyOp49
 70
     1
102
RTVSPropertyOp50
 70
     1
102
RTVSPropertyOp51
 70
     0
102
RTVSPropertyOp52
 70
     0
102
RTVSPropertyOp53
 70
     1
102
RTVSPropertyOp54
 70
     1
102
RTVSPropertyOp55
 70
     1
102
RTVSPropertyOp56
 70
     1
102
RTVSPropertyOp57
 70
     1
102
RTVSPropertyOp58
 70
     1
102
RTVSPropertyOp59
 70
     1
102
RTVSPropertyOp60
 70
     1
102
RTVSPropertyOp61
 70
     1
102
RTVSPropertyOp62
 70
     1
  0
XRECORD
  5
967
102
{ACAD_REACTORS
330
966
102
}
330
966
100
AcDbXrecord
280
     1
102
RTVSPost2010Prop28
280
     0
102
RTVSPost2010PropOp28
 70
     1
102
RTVSPost2010Prop29
280
     1
102
RTVSPost2010PropOp29
 70
     1
102
RTVSPost2010Prop30
280
     1
102
RTVSPost2010PropOp30
 70
     1
102
RTVSPost2010Prop31
280
     0
102
RTVSPost2010PropOp31
 70
     1
102
RTVSPost2010Prop32
280
     0
102
RTVSPost2010PropOp32
 70
     1
102
RTVSPost2010Prop33
280
     0
102
RTVSPost2010PropOp33
 70
     1
102
RTVSPost2010Prop34
280
     0
102
RTVSPost2010PropOp34
 70
     1
102
RTVSPost2010Prop35
280
     0
102
RTVSPost2010PropOp35
 70
     1
102
RTVSPost2010Prop36
280
     0
102
RTVSPost2010PropOp36
 70
     1
102
RTVSPost2010Prop37
 90
       50
102
RTVSPost2010PropOp37
 70
     1
102
RTVSPost2010Prop38
140
0.0
102
RTVSPost2010PropOp38
 70
     1
102
RTVSPost2010Prop39
140
1.0
102
RTVSPost2010PropOp39
 70
     1
102
RTVSPost2010Prop40
 90
        0
102
RTVSPost2010PropOp40
 70
     1
102
RTVSPost2010Prop41ColorIndex
 90
       18
102
RTVSPost2010Prop41ColorRGB
 90
-16777216
102
RTVSPost2010PropOp41
 70
     1
102
RTVSPost2010Prop42
 90
       50
102
RTVSPost2010PropOp42
 70
     1
102
RTVSPost2010Prop43
 90
        3
102
RTVSPost2010PropOp43
 70
     1
102
RTVSPost2010Prop44ColorIndex
 90
        5
102
RTVSPost2010Prop44ColorRGB
 90
      255
102
RTVSPost2010PropOp44
 70
     1
102
RTVSPost2010Prop45
280
     0
102
RTVSPost2010PropOp45
 70
     1
102
RTVSPost2010Prop46
 90
       50
102
RTVSPost2010PropOp46
 70
     1
102
RTVSPost2010Prop47
 90
       50
102
RTVSPost2010PropOp47
 70
     1
102
RTVSPost2010Prop48
 90
       50
102
RTVSPost2010PropOp48
 70
     1
102
RTVSPost2010Prop49
280
     0
102
RTVSPost2010PropOp49
 70
     1
102
RTVSPost2010Prop50
 90
       50
102
RTVSPost2010PropOp50
 70
     1
102
RTVSPost2010Prop51ColorIndex
 90
      256
102
RTVSPost2010Prop51ColorRGB
 90
-16777216
102
RTVSPost2010PropOp51
 70
     0
102
RTVSPost2010Prop52
140
1.0
102
RTVSPost2010PropOp52
 70
     0
102
RTVSPost2010Prop53
 90
        2
102
RTVSPost2010PropOp53
 70
     1
102
RTVSPost2010Prop54
  1
strokes_ogs.tif
102
RTVSPost2010PropOp54
 70
     1
102
RTVSPost2010Prop55
280
     0
102
RTVSPost2010PropOp55
 70
     1
102
RTVSPost2010Prop56
140
1.0
102
RTVSPost2010PropOp56
 70
     1
102
RTVSPost2010Prop57
140
1.0
102
RTVSPost2010PropOp57
 70
     1
102
RTVSPropertyOp0
 70
     1
102
RTVSPropertyOp1
 70
     1
102
RTVSPropertyOp2
 70
     1
102
RTVSPropertyOp3
 70
     1
102
RTVSPropertyOp4
 70
     1
102
RTVSPropertyOp5
 70
     1
102
RTVSPropertyOp6
 70
     1
102
RTVSPropertyOp7
 70
     1
102
RTVSPropertyOp8
 70
     1
102
RTVSPropertyOp9
 70
     1
102
RTVSPropertyOp10
 70
     1
102
RTVSPropertyOp11
 70
     1
102
RTVSPropertyOp12
 70
     1
102
RTVSPropertyOp13
 70
     1
102
RTVSPropertyOp14
 70
     1
102
RTVSPropertyOp15
 70
     1
102
RTVSPropertyOp16
 70
     1
102
RTVSPropertyOp17
 70
     1
102
RTVSPropertyOp18
 70
     1
102
RTVSPropertyOp19
 70
     1
102
RTVSPropertyOp20
 70
     1
102
RTVSPropertyOp21
 70
     1
102
RTVSPropertyOp22
 70
     1
102
RTVSPropertyOp23
 70
     1
102
RTVSPropertyOp24
 70
     1
102
RTVSPropertyOp25
 70
     1
102
RTVSPropertyOp26
 70
     1
102
RTVSPropertyOp27
 70
     1
102
RTVSPropertyOp28
 70
     1
102
RTVSPropertyOp29
 70
     1
102
RTVSPropertyOp30
 70
     1
102
RTVSPropertyOp31
 70
     1
102
RTVSPropertyOp32
 70
     1
102
RTVSPropertyOp33
 70
     1
102
RTVSPropertyOp34
 70
     1
102
RTVSPropertyOp35
 70
     1
102
RTVSPropertyOp36
 70
     1
102
RTVSPropertyOp37
 70
     1
102
RTVSPropertyOp38
 70
     1
102
RTVSPropertyOp39
 70
     1
102
RTVSPropertyOp40
 70
     1
102
RTVSPropertyOp41
 70
     1
102
RTVSPropertyOp42
 70
     1
102
RTVSPropertyOp43
 70
     1
102
RTVSPropertyOp44
 70
     1
102
RTVSPropertyOp45
 70
     1
102
RTVSPropertyOp46
 70
     1
102
RTVSPropertyOp47
 70
     1
102
RTVSPropertyOp48
 70
     1
102
RTVSPropertyOp49
 70
     1
102
RTVSPropertyOp50
 70
     1
102
RTVSPropertyOp51
 70
     0
102
RTVSPropertyOp52
 70
     0
102
RTVSPropertyOp53
 70
     1
102
RTVSPropertyOp54
 70
     1
102
RTVSPropertyOp55
 70
     1
102
RTVSPropertyOp56
 70
     1
102
RTVSPropertyOp57
 70
     1
102
RTVSPropertyOp58
 70
     1
102
RTVSPropertyOp59
 70
     1
102
RTVSPropertyOp60
 70
     1
102
RTVSPropertyOp61
 70
     1
102
RTVSPropertyOp62
 70
     1
  0
XRECORD
  5
97F
102
{ACAD_REACTORS
330
97E
102
}
330
97E
100
AcDbXrecord
280
     1
102
RTVSPost2010Prop28
280
     0
102
RTVSPost2010PropOp28
 70
     1
102
RTVSPost2010Prop29
280
     1
102
RTVSPost2010PropOp29
 70
     1
102
RTVSPost2010Prop30
280
     1
102
RTVSPost2010PropOp30
 70
     1
102
RTVSPost2010Prop31
280
     0
102
RTVSPost2010PropOp31
 70
     1
102
RTVSPost2010Prop32
280
     0
102
RTVSPost2010PropOp32
 70
     1
102
RTVSPost2010Prop33
280
     0
102
RTVSPost2010PropOp33
 70
     1
102
RTVSPost2010Prop34
280
     0
102
RTVSPost2010PropOp34
 70
     1
102
RTVSPost2010Prop35
280
     0
102
RTVSPost2010PropOp35
 70
     1
102
RTVSPost2010Prop36
280
     0
102
RTVSPost2010PropOp36
 70
     1
102
RTVSPost2010Prop37
 90
       50
102
RTVSPost2010PropOp37
 70
     1
102
RTVSPost2010Prop38
140
0.0
102
RTVSPost2010PropOp38
 70
     1
102
RTVSPost2010Prop39
140
1.0
102
RTVSPost2010PropOp39
 70
     1
102
RTVSPost2010Prop40
 90
        0
102
RTVSPost2010PropOp40
 70
     1
102
RTVSPost2010Prop41ColorIndex
 90
       18
102
RTVSPost2010Prop41ColorRGB
 90
-16777216
102
RTVSPost2010PropOp41
 70
     1
102
RTVSPost2010Prop42
 90
       50
102
RTVSPost2010PropOp42
 70
     1
102
RTVSPost2010Prop43
 90
        3
102
RTVSPost2010PropOp43
 70
     1
102
RTVSPost2010Prop44ColorIndex
 90
        5
102
RTVSPost2010Prop44ColorRGB
 90
      255
102
RTVSPost2010PropOp44
 70
     1
102
RTVSPost2010Prop45
280
     0
102
RTVSPost2010PropOp45
 70
     1
102
RTVSPost2010Prop46
 90
       50
102
RTVSPost2010PropOp46
 70
     1
102
RTVSPost2010Prop47
 90
       50
102
RTVSPost2010PropOp47
 70
     1
102
RTVSPost2010Prop48
 90
       50
102
RTVSPost2010PropOp48
 70
     1
102
RTVSPost2010Prop49
280
     0
102
RTVSPost2010PropOp49
 70
     1
102
RTVSPost2010Prop50
 90
       50
102
RTVSPost2010PropOp50
 70
     1
102
RTVSPost2010Prop51ColorIndex
 90
      256
102
RTVSPost2010Prop51ColorRGB
 90
-16777216
102
RTVSPost2010PropOp51
 70
     0
102
RTVSPost2010Prop52
140
1.0
102
RTVSPost2010PropOp52
 70
     0
102
RTVSPost2010Prop53
 90
        2
102
RTVSPost2010PropOp53
 70
     1
102
RTVSPost2010Prop54
  1
strokes_ogs.tif
102
RTVSPost2010PropOp54
 70
     1
102
RTVSPost2010Prop55
280
     0
102
RTVSPost2010PropOp55
 70
     1
102
RTVSPost2010Prop56
140
1.0
102
RTVSPost2010PropOp56
 70
     1
102
RTVSPost2010Prop57
140
1.0
102
RTVSPost2010PropOp57
 70
     1
102
RTVSPropertyOp0
 70
     1
102
RTVSPropertyOp1
 70
     1
102
RTVSPropertyOp2
 70
     1
102
RTVSPropertyOp3
 70
     1
102
RTVSPropertyOp4
 70
     1
102
RTVSPropertyOp5
 70
     1
102
RTVSPropertyOp6
 70
     1
102
RTVSPropertyOp7
 70
     1
102
RTVSPropertyOp8
 70
     1
102
RTVSPropertyOp9
 70
     1
102
RTVSPropertyOp10
 70
     1
102
RTVSPropertyOp11
 70
     1
102
RTVSPropertyOp12
 70
     1
102
RTVSPropertyOp13
 70
     1
102
RTVSPropertyOp14
 70
     1
102
RTVSPropertyOp15
 70
     1
102
RTVSPropertyOp16
 70
     1
102
RTVSPropertyOp17
 70
     1
102
RTVSPropertyOp18
 70
     1
102
RTVSPropertyOp19
 70
     1
102
RTVSPropertyOp20
 70
     1
102
RTVSPropertyOp21
 70
     1
102
RTVSPropertyOp22
 70
     1
102
RTVSPropertyOp23
 70
     1
102
RTVSPropertyOp24
 70
     1
102
RTVSPropertyOp25
 70
     1
102
RTVSPropertyOp26
 70
     1
102
RTVSPropertyOp27
 70
     1
102
RTVSPropertyOp28
 70
     1
102
RTVSPropertyOp29
 70
     1
102
RTVSPropertyOp30
 70
     1
102
RTVSPropertyOp31
 70
     1
102
RTVSPropertyOp32
 70
     1
102
RTVSPropertyOp33
 70
     1
102
RTVSPropertyOp34
 70
     1
102
RTVSPropertyOp35
 70
     1
102
RTVSPropertyOp36
 70
     1
102
RTVSPropertyOp37
 70
     1
102
RTVSPropertyOp38
 70
     1
102
RTVSPropertyOp39
 70
     1
102
RTVSPropertyOp40
 70
     1
102
RTVSPropertyOp41
 70
     1
102
RTVSPropertyOp42
 70
     1
102
RTVSPropertyOp43
 70
     1
102
RTVSPropertyOp44
 70
     1
102
RTVSPropertyOp45
 70
     1
102
RTVSPropertyOp46
 70
     1
102
RTVSPropertyOp47
 70
     1
102
RTVSPropertyOp48
 70
     1
102
RTVSPropertyOp49
 70
     1
102
RTVSPropertyOp50
 70
     1
102
RTVSPropertyOp51
 70
     0
102
RTVSPropertyOp52
 70
     0
102
RTVSPropertyOp53
 70
     1
102
RTVSPropertyOp54
 70
     1
102
RTVSPropertyOp55
 70
     1
102
RTVSPropertyOp56
 70
     1
102
RTVSPropertyOp57
 70
     1
102
RTVSPropertyOp58
 70
     1
102
RTVSPropertyOp59
 70
     1
102
RTVSPropertyOp60
 70
     1
102
RTVSPropertyOp61
 70
     1
102
RTVSPropertyOp62
 70
     1
  0
ENDSEC
  0
EOF
