  0
SECTION
  2
HEADER
  9
$ACADVER
  1
AC1009
  9
$INSBASE
 10
0.0
 20
0.0
 30
0.0
  9
$EXTMIN
 10
-0.0062323550948804
 20
-0.0049857096373671
 30
-0.0015258207003583
  9
$EXTMAX
 10
204.2436268936772
 20
163.3891849025581
 30
0.0000000349246037
  9
$LIMMIN
 10
0.0
 20
0.0
  9
$LIMMAX
 10
12.0
 20
9.0
  9
$ORTHOMODE
 70
     0
  9
$REGENMODE
 70
     1
  9
$FILLMODE
 70
     1
  9
$QTEXTMODE
 70
     0
  9
$MIRRTEXT
 70
     0
  9
$DRAGMODE
 70
     2
  9
$LTSCALE
 40
1.0
  9
$OSMODE
 70
    37
  9
$ATTMODE
 70
     1
  9
$TEXTSIZE
 40
0.2
  9
$TRACEWID
 40
0.05
  9
$TEXTSTYLE
  7
ROMANS
  9
$CLAYER
  8
0
  9
$CELTYPE
  6
BYLAYER
  9
$CECOLOR
 62
   256
  9
$DIMSCALE
 40
1.0
  9
$DIMASZ
 40
0.09375
  9
$DIMEXO
 40
0.0625
  9
$DIMDLI
 40
0.375
  9
$DIMRND
 40
0.0
  9
$DIMDLE
 40
0.0
  9
$DIMEXE
 40
0.03125
  9
$DIMTP
 40
0.0
  9
$DIMTM
 40
0.0
  9
$DIMTXT
 40
0.09375
  9
$DIMCEN
 40
0.09375
  9
$DIMTSZ
 40
0.0
  9
$DIMTOL
 70
     0
  9
$DIMLIM
 70
     0
  9
$DIMTIH
 70
     0
  9
$DIMTOH
 70
     0
  9
$DIMSE1
 70
     0
  9
$DIMSE2
 70
     0
  9
$DIMTAD
 70
     0
  9
$DIMZIN
 70
     0
  9
$DIMBLK
  1

  9
$DIMASO
 70
     1
  9
$DIMSHO
 70
     1
  9
$DIMPOST
  1

  9
$DIMAPOST
  1

  9
$DIMALT
 70
     0
  9
$DIMALTD
 70
     2
  9
$DIMALTF
 40
25.399999999999999
  9
$DIMLFAC
 40
1.0
  9
$DIMTOFL
 70
     0
  9
$DIMTVP
 40
0.0
  9
$DIMTIX
 70
     0
  9
$DIMSOXD
 70
     0
  9
$DIMSAH
 70
     0
  9
$DIMBLK1
  1

  9
$DIMBLK2
  1

  9
$DIMSTYLE
  2
BAC
  9
$DIMCLRD
 70
     0
  9
$DIMCLRE
 70
     6
  9
$DIMCLRT
 70
     0
  9
$DIMTFAC
 40
1.0
  9
$DIMGAP
 40
0.0625
  9
$LUNITS
 70
     5
  9
$LUPREC
 70
     6
  9
$SKETCHINC
 40
0.1
  9
$FILLETRAD
 40
0.5
  9
$AUNITS
 70
     0
  9
$AUPREC
 70
     0
  9
$MENU
  1
.
  9
$ELEVATION
 40
0.0
  9
$PELEVATION
 40
0.0
  9
$THICKNESS
 40
0.0
  9
$LIMCHECK
 70
     0
  9
$BLIPMODE
 70
     0
  9
$CHAMFERA
 40
0.5
  9
$CHAMFERB
 40
0.5
  9
$SKPOLY
 70
     0
  9
$TDCREATE
 40
2456827.6328162728
  9
$TDUPDATE
 40
2456827.633856412
  9
$TDINDWG
 40
0.0010418056
  9
$TDUSRTIMER
 40
0.0010413194
  9
$USRTIMER
 70
     1
  9
$ANGBASE
 50
0.0
  9
$ANGDIR
 70
     0
  9
$PDMODE
 70
     0
  9
$PDSIZE
 40
0.0
  9
$PLINEWID
 40
0.0
  9
$COORDS
 70
     1
  9
$SPLFRAME
 70
     0
  9
$SPLINETYPE
 70
     6
  9
$SPLINESEGS
 70
     8
  9
$ATTDIA
 70
     0
  9
$ATTREQ
 70
     1
  9
$HANDLING
 70
     1
  9
$HANDSEED
  5
5BD
  9
$SURFTAB1
 70
     6
  9
$SURFTAB2
 70
     6
  9
$SURFTYPE
 70
     6
  9
$SURFU
 70
     6
  9
$SURFV
 70
     6
  9
$UCSNAME
  2

  9
$UCSORG
 10
0.0
 20
0.0
 30
0.0
  9
$UCSXDIR
 10
1.0
 20
0.0
 30
0.0
  9
$UCSYDIR
 10
0.0
 20
1.0
 30
0.0
  9
$PUCSNAME
  2

  9
$PUCSORG
 10
0.0
 20
0.0
 30
0.0
  9
$PUCSXDIR
 10
1.0
 20
0.0
 30
0.0
  9
$PUCSYDIR
 10
0.0
 20
1.0
 30
0.0
  9
$USERI1
 70
     0
  9
$USERI2
 70
     0
  9
$USERI3
 70
     0
  9
$USERI4
 70
     0
  9
$USERI5
 70
     0
  9
$USERR1
 40
0.0
  9
$USERR2
 40
0.0
  9
$USERR3
 40
0.0
  9
$USERR4
 40
0.0
  9
$USERR5
 40
0.0
  9
$WORLDVIEW
 70
     1
  9
$SHADEDGE
 70
     3
  9
$SHADEDIF
 70
    70
  9
$TILEMODE
 70
     1
  9
$MAXACTVP
 70
    48
  9
$PLIMCHECK
 70
     0
  9
$PEXTMIN
 10
1.0000000000000000E+020
 20
1.0000000000000000E+020
 30
1.0000000000000000E+020
  9
$PEXTMAX
 10
-1.0000000000000000E+020
 20
-1.0000000000000000E+020
 30
-1.0000000000000000E+020
  9
$PLIMMIN
 10
0.0
 20
0.0
  9
$PLIMMAX
 10
12.0
 20
9.0
  9
$UNITMODE
 70
     0
  9
$VISRETAIN
 70
     1
  9
$PLINEGEN
 70
     0
  9
$PSLTSCALE
 70
     1
  0
ENDSEC
  0
SECTION
  2
TABLES
  0
TABLE
  2
VPORT
 70
     1
  0
VPORT
  2
*ACTIVE
 70
     0
 10
0.0
 20
0.0
 11
1.0
 21
1.0
 12
102.1186972692911
 22
81.692099596460395
 13
0.0
 23
0.0
 14
0.5
 24
0.5
 15
0.5
 25
0.5
 16
0.0
 26
0.0
 36
1.0
 17
0.0
 27
0.0
 37
0.0
 40
164.4810497958687
 41
1.7702552719200879
 42
50.0
 43
0.0
 44
0.0
 50
0.0
 51
0.0
 71
     0
 72
   100
 73
     1
 74
     1
 75
     0
 76
     0
 77
     0
 78
     0
  0
ENDTAB
  0
TABLE
  2
LTYPE
 70
    19
  0
LTYPE
  2
CONTINUOUS
 70
     0
  3
Solid line
 72
    65
 73
     0
 40
0.0
  0
LTYPE
  2
CENTER
 70
     0
  3
Center ____ _ ____ _ ____ _ ____ _ ____ _ ____
 72
    65
 73
     4
 40
2.0
 49
1.25
 49
-0.25
 49
0.25
 49
-0.25
  0
LTYPE
  2
CENTER2
 70
     0
  3
Center (.5x) ___ _ ___ _ ___ _ ___ _ ___ _ ___
 72
    65
 73
     4
 40
1.125
 49
0.75
 49
-0.125
 49
0.125
 49
-0.125
  0
LTYPE
  2
HIDDEN
 70
     0
  3
Hidden __ __ __ __ __ __ __ __ __ __ __ __ __ _
 72
    65
 73
     2
 40
0.375
 49
0.25
 49
-0.125
  0
LTYPE
  2
HIDDEN2
 70
     0
  3
Hidden (.5x) _ _ _ _ _ _ _ _ _ _ _ _ _ _ _ _ _
 72
    65
 73
     2
 40
0.1875
 49
0.125
 49
-0.0625
  0
LTYPE
  2
PHANTOM2
 70
     0
  3
Phantom (.5x) ___ _ _ ___ _ _ ___ _ _ ___ _ _
 72
    65
 73
     6
 40
1.25
 49
0.625
 49
-0.125
 49
0.125
 49
-0.125
 49
0.125
 49
-0.125
  0
LTYPE
  2
AMCONSTR
 70
     0
  3
_______________________
 72
    65
 73
     2
 40
9999.0
 49
9999.0
 49
0.0
  0
LTYPE
  2
AMZIGZAG2
 70
     0
  3
/\/-/\/-/\/-/\/-/\/-/\/
 72
    65
 73
     2
 40
0.4401
 49
0.0001
 49
-0.4400000000000001
  0
LTYPE
  2
ACANSTGB
 70
     0
  3
__ . . __ . .
 72
    65
 73
     6
 40
0.35433070866
 49
0.15748031496
 49
-0.03937007874
 49
0.03937007874
 49
-0.03937007874
 49
0.03937007874
 49
-0.03937007874
  0
LTYPE
  2
ACANSTGL
 70
     0
  3
_ _ _ _ _
 72
    65
 73
     2
 40
0.11811023622
 49
0.07874015748
 49
-0.03937007874
  0
ENDTAB
  0
TABLE
  2
LAYER
 70
     8
  0
LAYER
  2
0
 70
     0
 62
     7
  6
CONTINUOUS
  0
ENDTAB
  0
TABLE
  2
STYLE
 70
    11
  0
STYLE
  2
STANDARD
 70
     0
 40
0.0
 41
1.0
 50
0.0
 71
     0
 42
0.2
  3
txt
  4

  0
STYLE
  2
ROMANS
 70
     0
 40
0.0
 41
0.75
 50
0.0
 71
     0
 42
0.2
  3
romans.shx
  4

  0
STYLE
  2

 70
     1
 40
0.0
 41
1.0
 50
0.0
 71
     0
 42
0.2
  3
genltshp.shx
  4

  0
STYLE
  2
ACANSGDT
 70
     0
 40
0.0
 41
1.0
 50
0.0
 71
     0
 42
0.2
  3
amgdt.shx
  4

  0
ENDTAB
  0
TABLE
  2
VIEW
 70
     0
  0
ENDTAB
  0
TABLE
  2
UCS
 70
     0
  0
ENDTAB
  0
TABLE
  2
APPID
 70
    14
  0
APPID
  2
ACAD
 70
     0
  0
APPID
  2
ACAD_MLEADERVER
 70
     0
  0
APPID
  2
ACAD_DSTYLE_DIMJAG
 70
     0
  0
APPID
  2
ACAD_DSTYLE_DIMTALN
 70
     0
  0
APPID
  2
ACAD_PSEXT
 70
     0
  0
APPID
  2
ACADANNOPO
 70
     0
  0
APPID
  2
MCAD_NO_VIS
 70
     0
  0
APPID
  2
ACAD_TEMP_GRAPHIC
 70
     0
  0
APPID
  2
ACATTRIBSERVICES
 70
     0
  0
APPID
  2
DESIGNERASSEMBLIES
 70
     0
  0
APPID
  2
ACAD_DSTYLE_DIMBREAK
 70
     0
  0
APPID
  2
ACAD_NAV_VCDISPLAY
 70
     0
  0
APPID
  2
GRADIENTCOLOR1ACI
 70
     0
  0
APPID
  2
GRADIENTCOLOR2ACI
 70
     0
  0
ENDTAB
  0
TABLE
  2
DIMSTYLE
 70
    13
  0
DIMSTYLE
  2
BAC
 70
     0
  3

  4

  5

  6

  7

 40
1.0
 41
0.09375
 42
0.0625
 43
0.375
 44
0.03125
 45
0.0
 46
0.0
 47
0.0
 48
0.0
140
0.09375
141
0.09375
142
0.0
143
25.399999999999999
144
1.0
145
0.0
146
1.0
147
0.0625
 71
     0
 72
     0
 73
     0
 74
     0
 75
     0
 76
     0
 77
     0
 78
     0
170
     0
171
     2
172
     0
173
     0
174
     0
175
     0
176
     0
177
     6
178
     0
  0
DIMSTYLE
  2
AM_ANSI
 70
     0
  3

  4
mm
  5

  6

  7

 40
1.0
 41
0.12
 42
0.05
 43
0.5
 44
0.1
 45
0.0
 46
0.0
 47
0.1
 48
0.1
140
0.12
141
0.0
142
0.0
143
25.399999999999999
144
1.0
145
0.0
146
0.71
147
0.06
 71
     0
 72
     0
 73
     1
 74
     1
 75
     0
 76
     0
 77
     0
 78
     7
170
     0
171
     2
172
     0
173
     0
174
     0
175
     0
176
   256
177
   256
178
     2
  0
DIMSTYLE
  2
AM_ANSI$3
 70
     0
  3

  4
mm
  5

  6

  7

 40
1.0
 41
0.12
 42
0.05
 43
0.5
 44
0.1
 45
0.0
 46
0.0
 47
0.1
 48
0.1
140
0.12
141
0.0
142
0.0
143
25.399999999999999
144
1.0
145
0.0
146
0.71
147
0.06
 71
     0
 72
     0
 73
     1
 74
     1
 75
     0
 76
     0
 77
     0
 78
     7
170
     0
171
     2
172
     0
173
     0
174
     0
175
     0
176
   256
177
   256
178
     2
  0
DIMSTYLE
  2
AM_ANSI$4
 70
     0
  3

  4
mm
  5

  6

  7

 40
1.0
 41
0.12
 42
0.05
 43
0.5
 44
0.1
 45
0.0
 46
0.0
 47
0.1
 48
0.1
140
0.12
141
0.0
142
0.0
143
25.399999999999999
144
1.0
145
0.0
146
0.71
147
0.06
 71
     0
 72
     0
 73
     1
 74
     1
 75
     0
 76
     0
 77
     0
 78
     7
170
     0
171
     2
172
     0
173
     0
174
     0
175
     0
176
   256
177
   256
178
     2
  0
DIMSTYLE
  2
AM_ANSI$7
 70
     0
  3

  4
mm
  5

  6

  7

 40
1.0
 41
0.12
 42
0.05
 43
0.5
 44
0.1
 45
0.0
 46
0.0
 47
0.1
 48
0.1
140
0.12
141
0.0
142
0.0
143
25.399999999999999
144
1.0
145
0.0
146
0.71
147
0.06
 71
     0
 72
     0
 73
     1
 74
     1
 75
     0
 76
     0
 77
     0
 78
     7
170
     0
171
     2
172
     0
173
     0
174
     0
175
     0
176
   256
177
   256
178
     2
  0
DIMSTYLE
  2
AM_ANSI$SF
 70
     0
  3

  4
mm
  5

  6

  7

 40
1.0
 41
0.12
 42
0.05
 43
0.5
 44
0.1
 45
0.0
 46
0.0
 47
0.1
 48
0.1
140
0.12
141
0.0
142
0.0
143
25.399999999999999
144
1.0
145
0.0
146
0.71
147
0.06
 71
     0
 72
     0
 73
     1
 74
     1
 75
     1
 76
     1
 77
     0
 78
     7
170
     0
171
     2
172
     0
173
     0
174
     0
175
     0
176
   256
177
   256
178
     2
  0
DIMSTYLE
  2
AM_ANSI$SH
 70
     0
  3

  4
mm
  5

  6
GENAXEH
  7

 40
1.0
 41
0.12
 42
0.05
 43
0.5
 44
0.1
 45
0.0
 46
0.0
 47
0.1
 48
0.1
140
0.12
141
0.0
142
0.0
143
25.399999999999999
144
1.0
145
0.0
146
0.71
147
0.06
 71
     0
 72
     0
 73
     1
 74
     1
 75
     1
 76
     1
 77
     0
 78
     7
170
     0
171
     2
172
     0
173
     1
174
     0
175
     0
176
   256
177
   256
178
     2
  0
DIMSTYLE
  2
STANDARD
 70
     0
  3

  4

  5

  6

  7

 40
1.0
 41
0.18
 42
0.0625
 43
0.38
 44
0.18
 45
0.0
 46
0.0
 47
0.0
 48
0.0
140
0.18
141
0.09
142
0.0
143
25.399999999999999
144
1.0
145
0.0
146
1.0
147
0.09
 71
     0
 72
     0
 73
     1
 74
     1
 75
     0
 76
     0
 77
     0
 78
     0
170
     0
171
     2
172
     0
173
     0
174
     0
175
     0
176
     0
177
     0
178
     0
  0
ENDTAB
  0
ENDSEC
  0
SECTION
  2
BLOCKS
  0
BLOCK
  8
0
  2
$MODEL_SPACE
 70
     0
 10
0.0
 20
0.0
 30
0.0
  3
$MODEL_SPACE
  1

  0
ENDBLK
  5
1A
  8
0
  0
BLOCK
 67
     1
  8
0
  2
$PAPER_SPACE
 70
     0
 10
0.0
 20
0.0
 30
0.0
  3
$PAPER_SPACE
  1

  0
ENDBLK
  5
17
 67
     1
  8
0
  0
BLOCK
  8
0
  2
*U0
 70
     1
 10
0.0
 20
0.0
 30
0.0
  3
*U0
  1

  0
ENDBLK
  5
17A
  8
0
  0
BLOCK
  8
0
  2
GENAXEH
 70
     0
 10
0.0
 20
0.0
 30
0.0
  3
GENAXEH
  1

  0
LINE
  5
1AD
  8
0
 10
-1.0
 20
0.0
 30
0.0
 11
1.0
 21
0.0
 31
0.0
  0
ENDBLK
  5
1AF
  8
0
  0
BLOCK
  8
0
  2
*X3
 70
     1
 10
0.0
 20
0.0
 30
0.0
  3
*X3
  1

  0
LINE
  5
561
  8
0
 62
     0
 10
202.5
 20
4.000000203091278
 30
0.0
 11
202.5
 21
42.500000203091822
 31
0.0
  0
LINE
  5
562
  8
0
 62
     0
 10
201.0
 20
4.0000002030912611
 30
0.0
 11
201.0
 21
42.500000203091808
 31
0.0
  0
LINE
  5
563
  8
0
 62
     0
 10
199.5
 20
4.0000002030912443
 30
0.0
 11
199.5
 21
42.500000203091787
 31
0.0
  0
LINE
  5
564
  8
0
 62
     0
 10
198.0
 20
4.0000002030912274
 30
0.0
 11
198.0
 21
42.500000203091773
 31
0.0
  0
LINE
  5
565
  8
0
 62
     0
 10
196.5
 20
4.0000002030912114
 30
0.0
 11
196.5
 21
42.500000203091751
 31
0.0
  0
LINE
  5
566
  8
0
 62
     0
 10
177.0
 20
4.0000002030910018
 30
0.0
 11
177.0
 21
42.50000020309156
 31
0.0
  0
LINE
  5
567
  8
0
 62
     0
 10
175.5
 20
4.0000002030909867
 30
0.0
 11
175.5
 21
42.500000203091538
 31
0.0
  0
LINE
  5
568
  8
0
 62
     0
 10
174.0
 20
4.0000002030909716
 30
0.0
 11
174.0
 21
42.500000203091517
 31
0.0
  0
LINE
  5
569
  8
0
 62
     0
 10
172.5
 20
4.0000002030909574
 30
0.0
 11
172.5
 21
42.500000203091503
 31
0.0
  0
LINE
  5
56A
  8
0
 62
     0
 10
171.0
 20
4.0000002030909423
 30
0.0
 11
171.0
 21
42.500000203091489
 31
0.0
  0
LINE
  5
56B
  8
0
 62
     0
 10
195.23739358752781
 20
4.5
 30
0.0
 11
202.61239358752761
 21
4.5
 31
0.0
  0
LINE
  5
56C
  8
0
 62
     0
 10
169.86239358752729
 20
4.5
 30
0.0
 11
177.23739358752729
 21
4.5
 31
0.0
  0
LINE
  5
56D
  8
0
 62
     0
 10
195.23739358752781
 20
6.0
 30
0.0
 11
202.61239358752749
 21
6.0
 31
0.0
  0
LINE
  5
56E
  8
0
 62
     0
 10
169.86239358752729
 20
6.0
 30
0.0
 11
177.23739358752729
 21
6.0
 31
0.0
  0
LINE
  5
56F
  8
0
 62
     0
 10
195.23739358752781
 20
7.5
 30
0.0
 11
202.61239358752749
 21
7.5
 31
0.0
  0
LINE
  5
570
  8
0
 62
     0
 10
169.86239358752729
 20
7.5
 30
0.0
 11
177.23739358752729
 21
7.5
 31
0.0
  0
LINE
  5
571
  8
0
 62
     0
 10
195.23739358752781
 20
9.0
 30
0.0
 11
202.61239358752749
 21
9.0
 31
0.0
  0
LINE
  5
572
  8
0
 62
     0
 10
169.86239358752729
 20
9.0
 30
0.0
 11
177.23739358752729
 21
9.0
 31
0.0
  0
LINE
  5
573
  8
0
 62
     0
 10
195.23739358752781
 20
10.5
 30
0.0
 11
202.61239358752749
 21
10.5
 31
0.0
  0
LINE
  5
574
  8
0
 62
     0
 10
169.86239358752729
 20
10.5
 30
0.0
 11
177.23739358752729
 21
10.5
 31
0.0
  0
LINE
  5
575
  8
0
 62
     0
 10
195.23739358752781
 20
12.0
 30
0.0
 11
202.61239358752749
 21
12.0
 31
0.0
  0
LINE
  5
576
  8
0
 62
     0
 10
169.86239358752721
 20
12.0
 30
0.0
 11
177.23739358752729
 21
12.0
 31
0.0
  0
LINE
  5
577
  8
0
 62
     0
 10
195.23739358752781
 20
13.5
 30
0.0
 11
202.61239358752741
 21
13.5
 31
0.0
  0
LINE
  5
578
  8
0
 62
     0
 10
169.86239358752721
 20
13.5
 30
0.0
 11
177.23739358752729
 21
13.5
 31
0.0
  0
LINE
  5
579
  8
0
 62
     0
 10
195.23739358752781
 20
15.0
 30
0.0
 11
202.61239358752741
 21
15.0
 31
0.0
  0
LINE
  5
57A
  8
0
 62
     0
 10
169.86239358752721
 20
15.0
 30
0.0
 11
177.23739358752729
 21
15.0
 31
0.0
  0
LINE
  5
57B
  8
0
 62
     0
 10
195.23739358752781
 20
16.5
 30
0.0
 11
202.61239358752741
 21
16.5
 31
0.0
  0
LINE
  5
57C
  8
0
 62
     0
 10
169.86239358752721
 20
16.5
 30
0.0
 11
177.23739358752729
 21
16.5
 31
0.0
  0
LINE
  5
57D
  8
0
 62
     0
 10
195.23739358752781
 20
18.0
 30
0.0
 11
202.61239358752741
 21
18.0
 31
0.0
  0
LINE
  5
57E
  8
0
 62
     0
 10
169.86239358752721
 20
18.0
 30
0.0
 11
177.23739358752729
 21
18.0
 31
0.0
  0
LINE
  5
57F
  8
0
 62
     0
 10
195.23739358752781
 20
19.5
 30
0.0
 11
202.61239358752741
 21
19.5
 31
0.0
  0
LINE
  5
580
  8
0
 62
     0
 10
169.86239358752721
 20
19.5
 30
0.0
 11
177.23739358752729
 21
19.5
 31
0.0
  0
LINE
  5
581
  8
0
 62
     0
 10
195.23739358752781
 20
21.0
 30
0.0
 11
202.61239358752729
 21
21.0
 31
0.0
  0
LINE
  5
582
  8
0
 62
     0
 10
169.86239358752721
 20
21.0
 30
0.0
 11
177.23739358752729
 21
21.0
 31
0.0
  0
LINE
  5
583
  8
0
 62
     0
 10
195.23739358752781
 20
22.5
 30
0.0
 11
202.61239358752729
 21
22.5
 31
0.0
  0
LINE
  5
584
  8
0
 62
     0
 10
169.86239358752721
 20
22.5
 30
0.0
 11
177.23739358752729
 21
22.5
 31
0.0
  0
LINE
  5
585
  8
0
 62
     0
 10
195.23739358752781
 20
24.0
 30
0.0
 11
202.61239358752729
 21
24.0
 31
0.0
  0
LINE
  5
586
  8
0
 62
     0
 10
169.86239358752721
 20
24.0
 30
0.0
 11
177.23739358752729
 21
24.0
 31
0.0
  0
LINE
  5
587
  8
0
 62
     0
 10
195.23739358752781
 20
25.5
 30
0.0
 11
202.61239358752729
 21
25.5
 31
0.0
  0
LINE
  5
588
  8
0
 62
     0
 10
169.86239358752721
 20
25.5
 30
0.0
 11
177.23739358752729
 21
25.5
 31
0.0
  0
LINE
  5
589
  8
0
 62
     0
 10
195.23739358752781
 20
27.0
 30
0.0
 11
202.61239358752721
 21
27.0
 31
0.0
  0
LINE
  5
58A
  8
0
 62
     0
 10
169.86239358752721
 20
27.0
 30
0.0
 11
177.23739358752729
 21
27.0
 31
0.0
  0
LINE
  5
58B
  8
0
 62
     0
 10
195.23739358752781
 20
28.5
 30
0.0
 11
202.61239358752721
 21
28.5
 31
0.0
  0
LINE
  5
58C
  8
0
 62
     0
 10
169.86239358752721
 20
28.5
 30
0.0
 11
177.23739358752729
 21
28.5
 31
0.0
  0
LINE
  5
58D
  8
0
 62
     0
 10
195.23739358752781
 20
30.0
 30
0.0
 11
202.61239358752721
 21
30.0
 31
0.0
  0
LINE
  5
58E
  8
0
 62
     0
 10
169.86239358752721
 20
30.0
 30
0.0
 11
177.23739358752729
 21
30.0
 31
0.0
  0
LINE
  5
58F
  8
0
 62
     0
 10
195.23739358752781
 20
31.5
 30
0.0
 11
202.61239358752721
 21
31.5
 31
0.0
  0
LINE
  5
590
  8
0
 62
     0
 10
169.86239358752709
 20
31.5
 30
0.0
 11
177.23739358752729
 21
31.5
 31
0.0
  0
LINE
  5
591
  8
0
 62
     0
 10
195.23739358752781
 20
33.0
 30
0.0
 11
202.61239358752721
 21
33.0
 31
0.0
  0
LINE
  5
592
  8
0
 62
     0
 10
169.86239358752709
 20
33.0
 30
0.0
 11
177.23739358752729
 21
33.0
 31
0.0
  0
LINE
  5
593
  8
0
 62
     0
 10
195.23739358752781
 20
34.5
 30
0.0
 11
202.61239358752721
 21
34.5
 31
0.0
  0
LINE
  5
594
  8
0
 62
     0
 10
169.86239358752709
 20
34.5
 30
0.0
 11
177.23739358752729
 21
34.5
 31
0.0
  0
LINE
  5
595
  8
0
 62
     0
 10
195.23739358752781
 20
36.0
 30
0.0
 11
202.61239358752721
 21
36.0
 31
0.0
  0
LINE
  5
596
  8
0
 62
     0
 10
169.86239358752709
 20
36.0
 30
0.0
 11
177.23739358752729
 21
36.0
 31
0.0
  0
LINE
  5
597
  8
0
 62
     0
 10
195.23739358752781
 20
37.5
 30
0.0
 11
202.61239358752721
 21
37.5
 31
0.0
  0
LINE
  5
598
  8
0
 62
     0
 10
169.86239358752709
 20
37.5
 30
0.0
 11
177.23739358752729
 21
37.5
 31
0.0
  0
LINE
  5
599
  8
0
 62
     0
 10
195.23739358752781
 20
39.0
 30
0.0
 11
202.61239358752709
 21
39.0
 31
0.0
  0
LINE
  5
59A
  8
0
 62
     0
 10
169.86239358752709
 20
39.0
 30
0.0
 11
177.23739358752729
 21
39.0
 31
0.0
  0
LINE
  5
59B
  8
0
 62
     0
 10
195.23739358752781
 20
40.499999999999993
 30
0.0
 11
202.61239358752709
 21
40.499999999999993
 31
0.0
  0
LINE
  5
59C
  8
0
 62
     0
 10
169.86239358752709
 20
40.499999999999993
 30
0.0
 11
177.23739358752729
 21
40.499999999999993
 31
0.0
  0
LINE
  5
59D
  8
0
 62
     0
 10
195.23739358752781
 20
42.0
 30
0.0
 11
202.61239358752709
 21
42.0
 31
0.0
  0
LINE
  5
59E
  8
0
 62
     0
 10
169.86239358752709
 20
42.0
 30
0.0
 11
177.23739358752729
 21
42.0
 31
0.0
  0
ENDBLK
  5
5A0
  8
0
  0
BLOCK
  8
0
  2
*X4
 70
     1
 10
0.0
 20
0.0
 30
0.0
  3
*X4
  1

  0
LINE
  5
5A2
  8
0
 62
     0
 10
118.5
 20
129.0091984321038
 30
0.0
 11
118.5
 21
161.7591984321038
 31
0.0
  0
LINE
  5
5A3
  8
0
 62
     0
 10
117.0
 20
129.0091984321038
 30
0.0
 11
117.0
 21
161.7591984321038
 31
0.0
  0
LINE
  5
5A4
  8
0
 62
     0
 10
115.5
 20
129.0091984321038
 30
0.0
 11
115.5
 21
161.7591984321038
 31
0.0
  0
LINE
  5
5A5
  8
0
 62
     0
 10
114.0
 20
129.0091984321038
 30
0.0
 11
114.0
 21
161.7591984321038
 31
0.0
  0
LINE
  5
5A6
  8
0
 62
     0
 10
112.5
 20
129.0091984321038
 30
0.0
 11
112.5
 21
161.7591984321038
 31
0.0
  0
LINE
  5
5A7
  8
0
 62
     0
 10
111.0
 20
129.0091984321038
 30
0.0
 11
111.0
 21
161.7591984321038
 31
0.0
  0
LINE
  5
5A8
  8
0
 62
     0
 10
109.5
 20
129.00919843210389
 30
0.0
 11
109.5
 21
161.75919843210389
 31
0.0
  0
LINE
  5
5A9
  8
0
 62
     0
 10
108.0
 20
129.00919843210389
 30
0.0
 11
108.0
 21
161.75919843210389
 31
0.0
  0
LINE
  5
5AA
  8
0
 62
     0
 10
106.5
 20
129.00919843210389
 30
0.0
 11
106.5
 21
161.75919843210389
 31
0.0
  0
LINE
  5
5AB
  8
0
 62
     0
 10
105.0
 20
129.00919843210389
 30
0.0
 11
105.0
 21
161.75919843210389
 31
0.0
  0
LINE
  5
5AC
  8
0
 62
     0
 10
103.5
 20
129.00919843210389
 30
0.0
 11
103.5
 21
161.75919843210389
 31
0.0
  0
LINE
  5
5AD
  8
0
 62
     0
 10
102.0
 20
129.00919843210389
 30
0.0
 11
102.0
 21
161.75919843210389
 31
0.0
  0
LINE
  5
5AE
  8
0
 62
     0
 10
100.5
 20
129.00919843210389
 30
0.0
 11
100.5
 21
161.75919843210389
 31
0.0
  0
LINE
  5
5AF
  8
0
 62
     0
 10
99.000000000000014
 20
129.00919843210389
 30
0.0
 11
99.000000000000014
 21
161.75919843210389
 31
0.0
  0
LINE
  5
5B0
  8
0
 62
     0
 10
97.500000000000014
 20
129.00919843210389
 30
0.0
 11
97.500000000000014
 21
161.75919843210389
 31
0.0
  0
LINE
  5
5B1
  8
0
 62
     0
 10
96.000000000000014
 20
129.00919843210389
 30
0.0
 11
96.000000000000014
 21
161.75919843210389
 31
0.0
  0
LINE
  5
5B2
  8
0
 62
     0
 10
94.500000000000014
 20
129.00919843210389
 30
0.0
 11
94.500000000000014
 21
161.75919843210389
 31
0.0
  0
LINE
  5
5B3
  8
0
 62
     0
 10
93.000000000000014
 20
129.00919843210389
 30
0.0
 11
93.000000000000014
 21
161.75919843210389
 31
0.0
  0
LINE
  5
5B4
  8
0
 62
     0
 10
91.500000000000014
 20
129.00919843210389
 30
0.0
 11
91.500000000000014
 21
161.75919843210389
 31
0.0
  0
LINE
  5
5B5
  8
0
 62
     0
 10
90.000000000000014
 20
129.00919843210389
 30
0.0
 11
90.000000000000014
 21
161.75919843210389
 31
0.0
  0
LINE
  5
5B6
  8
0
 62
     0
 10
88.500000000000014
 20
129.00919843210389
 30
0.0
 11
88.500000000000014
 21
161.75919843210389
 31
0.0
  0
LINE
  5
5B7
  8
0
 62
     0
 10
87.000000000000014
 20
129.00919843210389
 30
0.0
 11
87.000000000000014
 21
161.75919843210389
 31
0.0
  0
LINE
  5
5B8
  8
0
 62
     0
 10
85.500000000000014
 20
129.00919843210389
 30
0.0
 11
85.500000000000014
 21
161.75919843210389
 31
0.0
  0
LINE
  5
5B9
  8
0
 62
     0
 10
84.000000000000014
 20
129.00919843210389
 30
0.0
 11
84.000000000000014
 21
161.75919843210389
 31
0.0
  0
LINE
  5
5BA
  8
0
 62
     0
 10
82.500000000000014
 20
129.00919843210389
 30
0.0
 11
82.500000000000014
 21
161.75919843210389
 31
0.0
  0
ENDBLK
  5
5BC
  8
0
  0
ENDSEC
  0
SECTION
  2
ENTITIES
  0
LINE
  5
36A
  8
0
 10
80.129917979094671
 20
90.125000203091403
 30
0.0
 11
120.8799179790919
 21
90.125000203091403
 31
0.0
  0
LINE
  5
36B
  8
0
 10
120.8799179790919
 20
44.125000203091552
 30
0.0
 11
80.129917979094671
 21
44.125000203091552
 31
0.0
  0
LINE
  5
36C
  8
0
 10
80.129917979094671
 20
44.125000203091552
 30
0.0
 11
80.129917979094671
 21
90.125000203091403
 31
0.0
  0
LINE
  5
36D
  8
0
 10
120.8799179790919
 20
44.125000203091552
 30
0.0
 11
120.8799179790919
 21
90.125000203091403
 31
0.0
  0
LINE
  5
36E
  8
0
 10
80.129917979095353
 20
44.12500020309151
 30
0.0
 11
127.6299179790953
 21
44.12500020309151
 31
0.0
  0
LINE
  5
36F
  8
0
 10
127.6299179790953
 20
0.0000002030915298
 30
0.0
 11
80.129917979095353
 21
0.0000002030915298
 31
0.0
  0
LINE
  5
370
  8
0
 10
80.129917979095353
 20
44.12500020309151
 30
0.0
 11
80.129917979095353
 21
0.0000002030915298
 31
0.0
  0
LINE
  5
371
  8
0
 10
127.6299179790953
 20
0.0000002030915298
 30
0.0
 11
127.6299179790953
 21
44.12500020309151
 31
0.0
  0
ARC
  5
372
  8
0
 10
100.5049179790951
 20
79.875000203091929
 30
0.0
 40
1.5
 50
359.9999999999992
 51
180.0
  0
ARC
  5
373
  8
0
 10
100.5049179790951
 20
79.875000203091929
 30
0.0
 40
1.500000000000006
 50
180.00000000000031
 51
359.99999999999881
  0
ARC
  5
374
  8
0
 10
110.1299179790949
 20
39.000000203091531
 30
0.0
 40
0.5000000000000036
 50
359.99999999999841
 51
179.99999999999881
  0
ARC
  5
375
  8
0
 10
110.1299179790949
 20
39.000000203091531
 30
0.0
 40
0.4999999999999849
 50
180.00000000000119
 51
359.9999999999992
  0
ARC
  5
376
  8
0
 10
97.379917979094898
 20
26.12500020309152
 30
0.0
 40
1.0
 50
0.0
 51
179.9999999999998
  0
ARC
  5
377
  8
0
 10
97.379917979094898
 20
26.12500020309152
 30
0.0
 40
1.0000000000000151
 50
180.0000000000002
 51
359.99999999999937
  0
ARC
  5
378
  8
0
 10
82.379917979094898
 20
8.3750002030915294
 30
0.0
 40
0.9999999999999925
 50
359.9999999999996
 51
179.9999999999996
  0
ARC
  5
379
  8
0
 10
82.379917979094898
 20
8.3750002030915294
 30
0.0
 40
1.0000000000000071
 50
180.0000000000002
 51
359.9999999999992
  0
ARC
  5
37A
  8
0
 10
84.254917979095126
 20
12.875000203091959
 30
0.0
 40
1.5
 50
359.99999999999937
 51
179.9999999999996
  0
ARC
  5
37B
  8
0
 10
84.254917979095126
 20
12.875000203091959
 30
0.0
 40
1.5000000000000011
 50
180.0000000000004
 51
359.99999999999937
  0
LINE
  5
37C
  8
0
 10
168.23739358753281
 20
90.125000203091403
 30
0.0
 11
204.23739358752749
 21
90.125000203091403
 31
0.0
  0
LINE
  5
37D
  8
0
 10
168.23739358753281
 20
44.125000203091552
 30
0.0
 11
168.23739358753281
 21
90.125000203091403
 31
0.0
  0
LINE
  5
37E
  8
0
 10
204.23739358752749
 20
44.125000203091552
 30
0.0
 11
204.23739358752749
 21
90.125000203091403
 31
0.0
  0
LINE
  5
37F
  8
0
 10
178.23739358752749
 20
5.0000002030919273
 30
0.0
 11
194.23739358752709
 21
5.0000002030920969
 31
0.0
  0
LINE
  5
380
  8
0
 10
178.23739358752729
 20
39.801091239510768
 30
0.0
 11
194.23739358752729
 21
39.801091239510932
 31
0.0
  0
LINE
  5
381
  8
0
 10
194.23739358752769
 20
4.0000002030915844
 30
0.0
 11
194.23739358752769
 21
42.500000203092121
 31
0.0
  0
LINE
  5
382
  8
0
 10
195.23739358752781
 20
42.500000203092121
 30
0.0
 11
195.23739358752781
 21
4.0000002030915844
 31
0.0
  0
LINE
  5
383
  8
0
 10
194.23739358752769
 20
4.0000002030915844
 30
0.0
 11
195.23739358752781
 21
4.0000002030915844
 31
0.0
  0
LINE
  5
384
  8
0
 10
195.23739358752781
 20
42.500000203092121
 30
0.0
 11
194.23739358752769
 21
42.500000203092121
 31
0.0
  0
LINE
  5
385
  8
0
 10
177.23739358752729
 20
4.0000002030916102
 30
0.0
 11
177.23739358752729
 21
42.500000203092164
 31
0.0
  0
LINE
  5
386
  8
0
 10
178.23739358752729
 20
42.500000203092164
 30
0.0
 11
178.23739358752729
 21
4.0000002030916102
 31
0.0
  0
LINE
  5
387
  8
0
 10
177.23739358752729
 20
4.0000002030916102
 30
0.0
 11
178.23739358752729
 21
4.0000002030916102
 31
0.0
  0
LINE
  5
388
  8
0
 10
178.23739358752729
 20
42.500000203092164
 30
0.0
 11
177.23739358752729
 21
42.500000203092164
 31
0.0
  0
LINE
  5
389
  8
0
 10
169.86239358752729
 20
42.500000203092164
 30
0.0
 11
169.86239358752729
 21
4.000000203091524
 31
0.0
  0
LINE
  5
38A
  8
0
 10
169.86239358752729
 20
4.000000203091524
 30
0.0
 11
177.23739358752729
 21
4.000000203091524
 31
0.0
  0
LINE
  5
38B
  8
0
 10
177.23739358752729
 20
4.000000203091524
 30
0.0
 11
177.23739358752729
 21
42.500000203093308
 31
0.0
1001
ACAD
1000
ASC_BOUNDS
1002
{
1070
    19
1005
505
1002
}
  0
LINE
  5
38C
  8
0
 10
177.23739358752729
 20
42.500000203093308
 30
0.0
 11
169.86239358752729
 21
42.500000203092164
 31
0.0
  0
LINE
  5
38D
  8
0
 10
202.61239358752761
 20
42.500000203092142
 30
0.0
 11
195.23739358752781
 21
42.500000203092121
 31
0.0
  0
LINE
  5
38E
  8
0
 10
195.23739358752781
 20
42.500000203092121
 30
0.0
 11
195.23739358752781
 21
4.000000203091524
 31
0.0
1001
ACAD
1000
ASC_BOUNDS
1002
{
1070
    19
1005
505
1002
}
  0
LINE
  5
38F
  8
0
 10
195.23739358752781
 20
4.000000203091524
 30
0.0
 11
202.61239358752729
 21
4.0000002030915311
 31
0.0
  0
LINE
  5
390
  8
0
 10
202.61239358752729
 20
4.0000002030915311
 30
0.0
 11
202.61239358752761
 21
42.500000203092142
 31
0.0
  0
LINE
  5
391
  8
0
 10
168.23739358752781
 20
44.12500020309151
 30
0.0
 11
204.23739358752781
 21
44.12500020309151
 31
0.0
  0
LINE
  5
392
  8
0
 10
204.23739358752781
 20
0.0000002030915298
 30
0.0
 11
168.23739358752781
 21
0.0000002030915298
 31
0.0
  0
LINE
  5
393
  8
0
 10
168.23739358752781
 20
0.0000002030915298
 30
0.0
 11
168.23739358752781
 21
44.12500020309151
 31
0.0
  0
LINE
  5
394
  8
0
 10
169.86239358752729
 20
4.0000002030909343
 30
0.0
 11
169.86239358752709
 21
42.500000203091481
 31
0.0
1001
ACAD
1000
ASC_BOUNDS
1002
{
1070
    19
1005
505
1002
}
  0
LINE
  5
395
  8
0
 10
169.86239358752709
 20
42.500000203091481
 30
0.0
 11
202.61239358752709
 21
42.500000203091822
 31
0.0
1001
ACAD
1000
ASC_BOUNDS
1002
{
1070
    19
1005
505
1005
505
1002
}
  0
LINE
  5
396
  8
0
 10
202.61239358752709
 20
42.500000203091822
 30
0.0
 11
202.61239358752761
 21
4.0000002030912754
 31
0.0
1001
ACAD
1000
ASC_BOUNDS
1002
{
1070
    19
1005
505
1002
}
  0
LINE
  5
397
  8
0
 10
202.61239358752761
 20
4.0000002030912754
 30
0.0
 11
169.86239358752729
 21
4.0000002030909281
 31
0.0
1001
ACAD
1000
ASC_BOUNDS
1002
{
1070
    19
1005
505
1005
505
1002
}
  0
LINE
  5
398
  8
0
 10
204.23739358752781
 20
0.0000002030915298
 30
0.0
 11
204.23739358752781
 21
44.12500020309151
 31
0.0
  0
ARC
  5
399
  8
0
 10
186.23739358752709
 20
60.125000203092668
 30
0.0
 40
8.2500000000000302
 50
179.9999999999996
 51
359.99999999999881
  0
ARC
  5
39A
  8
0
 10
186.23739358752709
 20
60.125000203092668
 30
0.0
 40
8.2500000000000089
 50
359.99999999999949
 51
179.9999999999996
  0
ARC
  5
39B
  8
0
 10
186.23739358752709
 20
60.125000203092668
 30
0.0
 40
7.6874999999999973
 50
0.000000000000687
 51
180.00000000000011
  0
ARC
  5
39C
  8
0
 10
186.23739358752709
 20
60.125000203092668
 30
0.0
 40
7.687499999999992
 50
180.00000000000011
 51
359.9999999999996
  0
LINE
  5
39D
  8
0
 10
191.3598943615147
 20
57.68314435429528
 30
0.0
 11
191.16495388532439
 21
57.234235624136559
 31
0.0
  0
LINE
  5
39E
  8
0
 10
191.16495388532439
 20
57.234235624136559
 30
0.0
 11
190.7140610281815
 21
57.076993560644482
 31
0.0
  0
LINE
  5
39F
  8
0
 10
190.7140610281815
 20
57.076993560644482
 30
0.0
 11
190.3895322583403
 21
57.141229671755603
 31
0.0
  0
LINE
  5
3A0
  8
0
 10
190.3895322583403
 20
57.141229671755603
 30
0.0
 11
190.1540411869118
 21
57.333938005088918
 31
0.0
  0
LINE
  5
3A1
  8
0
 10
190.1540411869118
 20
57.333938005088918
 30
0.0
 11
189.9630689646894
 21
58.091874513025431
 31
0.0
  0
LINE
  5
3A2
  8
0
 10
189.9630689646894
 20
58.091874513025431
 30
0.0
 11
190.14709674246731
 21
58.855763401914309
 31
0.0
  0
LINE
  5
3A3
  8
0
 10
190.14709674246731
 20
58.855763401914309
 30
0.0
 11
190.37688344881639
 21
59.04549554477147
 31
0.0
  0
LINE
  5
3A4
  8
0
 10
190.37688344881639
 20
59.04549554477147
 30
0.0
 11
190.69818801230849
 21
59.108739592390513
 31
0.0
  0
LINE
  5
3A5
  8
0
 10
190.69818801230849
 20
59.108739592390513
 30
0.0
 11
191.16644198056269
 21
58.96538641778735
 31
0.0
  0
LINE
  5
3A6
  8
0
 10
191.16644198056269
 20
58.96538641778735
 30
0.0
 11
191.3598943615147
 21
58.540287211438127
 31
0.0
  0
LINE
  5
3A7
  8
0
 10
191.3598943615147
 20
58.540287211438127
 30
0.0
 11
192.5027515043721
 21
58.540287211438127
 31
0.0
  0
LINE
  5
3A8
  8
0
 10
192.5027515043721
 20
58.540287211438127
 30
0.0
 11
192.3425332504037
 21
59.187980663819083
 31
0.0
  0
LINE
  5
3A9
  8
0
 10
192.3425332504037
 20
59.187980663819083
 30
0.0
 11
191.97497372659419
 21
59.666775306676222
 31
0.0
  0
LINE
  5
3AA
  8
0
 10
191.97497372659419
 20
59.666775306676222
 30
0.0
 11
191.41594594881639
 21
59.962534235247659
 31
0.0
  0
LINE
  5
3AB
  8
0
 10
191.41594594881639
 20
59.962534235247659
 30
0.0
 11
190.6813229329434
 21
60.06112054477147
 31
0.0
  0
LINE
  5
3AC
  8
0
 10
190.6813229329434
 20
60.06112054477147
 30
0.0
 11
189.8833318615147
 21
59.92917610032702
 31
0.0
  0
LINE
  5
3AD
  8
0
 10
189.8833318615147
 20
59.92917610032702
 30
0.0
 11
189.2730888059593
 21
59.533342766993691
 31
0.0
  0
LINE
  5
3AE
  8
0
 10
189.2730888059593
 20
59.533342766993691
 30
0.0
 11
188.88581202024511
 21
58.90933483048574
 31
0.0
  0
LINE
  5
3AF
  8
0
 10
188.88581202024511
 20
58.90933483048574
 30
0.0
 11
188.7567197583403
 21
58.092866576517508
 31
0.0
  0
LINE
  5
3B0
  8
0
 10
188.7567197583403
 20
58.092866576517508
 30
0.0
 11
188.8864320599277
 21
57.274538203501628
 31
0.0
  0
LINE
  5
3B1
  8
0
 10
188.8864320599277
 20
57.274538203501628
 30
0.0
 11
189.2755689646894
 21
56.650902290803209
 31
0.0
  0
LINE
  5
3B2
  8
0
 10
189.2755689646894
 20
56.650902290803209
 30
0.0
 11
189.89089634564169
 21
56.256185028898457
 31
0.0
  0
LINE
  5
3B3
  8
0
 10
189.89089634564169
 20
56.256185028898457
 30
0.0
 11
190.6991800758008
 21
56.124612608263533
 31
0.0
  0
LINE
  5
3B4
  8
0
 10
190.6991800758008
 20
56.124612608263533
 30
0.0
 11
191.42227035357831
 21
56.226795147946049
 31
0.0
  0
LINE
  5
3B5
  8
0
 10
191.42227035357831
 20
56.226795147946049
 30
0.0
 11
191.97844594881639
 21
56.533342766993691
 31
0.0
  0
LINE
  5
3B6
  8
0
 10
191.97844594881639
 20
56.533342766993691
 30
0.0
 11
192.3458814646894
 21
57.025158243184151
 31
0.0
  0
LINE
  5
3B7
  8
0
 10
192.3458814646894
 20
57.025158243184151
 30
0.0
 11
192.5027515043721
 21
57.68314435429528
 31
0.0
  0
LINE
  5
3B8
  8
0
 10
192.5027515043721
 20
57.68314435429528
 30
0.0
 11
191.3598943615147
 21
57.68314435429528
 31
0.0
  0
LINE
  5
3B9
  8
0
 10
184.13816698374711
 20
58.457218543218481
 30
0.0
 11
185.31574634882659
 21
58.457218543218481
 31
0.0
  0
LINE
  5
3BA
  8
0
 10
185.31574634882659
 20
58.457218543218481
 30
0.0
 11
185.46257174565201
 21
58.96515505115498
 31
0.0
  0
LINE
  5
3BB
  8
0
 10
185.46257174565201
 20
58.96515505115498
 30
0.0
 11
186.665944761525
 21
58.96515505115498
 31
0.0
  0
LINE
  5
3BC
  8
0
 10
186.665944761525
 20
58.96515505115498
 30
0.0
 11
186.80780984089
 21
58.457218543218481
 31
0.0
  0
LINE
  5
3BD
  8
0
 10
186.80780984089
 20
58.457218543218481
 30
0.0
 11
188.01118285676301
 21
58.457218543218481
 31
0.0
  0
LINE
  5
3BE
  8
0
 10
188.01118285676301
 20
58.457218543218481
 30
0.0
 11
186.68181777739801
 21
62.266742352742277
 31
0.0
  0
LINE
  5
3BF
  8
0
 10
186.68181777739801
 20
62.266742352742277
 30
0.0
 11
185.45265111073121
 21
62.266742352742277
 31
0.0
  0
LINE
  5
3C0
  8
0
 10
185.45265111073121
 20
62.266742352742277
 30
0.0
 11
184.13816698374711
 21
58.457218543218481
 31
0.0
  0
LINE
  5
3C1
  8
0
 10
185.68280984089
 20
59.79055187655181
 30
0.0
 11
186.0687225393028
 21
61.09412330512324
 31
0.0
  0
LINE
  5
3C2
  8
0
 10
186.0687225393028
 20
61.09412330512324
 30
0.0
 11
186.4457066662869
 21
59.79055187655181
 31
0.0
  0
LINE
  5
3C3
  8
0
 10
186.4457066662869
 20
59.79055187655181
 30
0.0
 11
185.68280984089
 21
59.79055187655181
 31
0.0
  0
LINE
  5
3C4
  8
0
 10
180.3774357934858
 20
60.197606852398764
 30
0.0
 11
182.07684055539059
 21
60.197606852398764
 31
0.0
  0
LINE
  5
3C5
  8
0
 10
182.07684055539059
 20
60.197606852398764
 30
0.0
 11
182.8446976982477
 21
60.23629732858921
 31
0.0
  0
LINE
  5
3C6
  8
0
 10
182.8446976982477
 20
60.23629732858921
 30
0.0
 11
183.25739611094619
 21
60.368241773033667
 31
0.0
  0
LINE
  5
3C7
  8
0
 10
183.25739611094619
 20
60.368241773033667
 30
0.0
 11
183.66563023793029
 21
60.75117828097018
 31
0.0
  0
LINE
  5
3C8
  8
0
 10
183.66563023793029
 20
60.75117828097018
 30
0.0
 11
183.8060072220571
 21
61.338479868271747
 31
0.0
  0
LINE
  5
3C9
  8
0
 10
183.8060072220571
 20
61.338479868271747
 30
0.0
 11
183.66215801570789
 21
61.901475900017793
 31
0.0
  0
LINE
  5
3CA
  8
0
 10
183.66215801570789
 20
61.901475900017793
 30
0.0
 11
183.21870563475571
 21
62.226376693668591
 31
0.0
  0
LINE
  5
3CB
  8
0
 10
183.21870563475571
 20
62.226376693668591
 30
0.0
 11
183.5639437299937
 21
62.5438370111289
 31
0.0
  0
LINE
  5
3CC
  8
0
 10
183.5639437299937
 20
62.5438370111289
 30
0.0
 11
183.67902309507321
 21
62.996217963509871
 31
0.0
  0
LINE
  5
3CD
  8
0
 10
183.67902309507321
 20
62.996217963509871
 30
0.0
 11
183.5252532538031
 21
63.556237804779698
 31
0.0
  0
LINE
  5
3CE
  8
0
 10
183.5252532538031
 20
63.556237804779698
 30
0.0
 11
183.08279293634291
 21
63.896019550811438
 31
0.0
  0
LINE
  5
3CF
  8
0
 10
183.08279293634291
 20
63.896019550811438
 30
0.0
 11
182.68745563475559
 21
63.981337011128907
 31
0.0
  0
LINE
  5
3D0
  8
0
 10
182.68745563475559
 20
63.981337011128907
 30
0.0
 11
181.95382468237469
 21
64.00713066192256
 31
0.0
  0
LINE
  5
3D1
  8
0
 10
181.95382468237469
 20
64.00713066192256
 30
0.0
 11
180.3774357934858
 21
64.007130661922574
 31
0.0
  0
LINE
  5
3D2
  8
0
 10
180.3774357934858
 20
64.007130661922574
 30
0.0
 11
180.3774357934858
 21
60.197606852398764
 31
0.0
  0
LINE
  5
3D3
  8
0
 10
181.5837849998349
 20
61.086495741287649
 30
0.0
 11
181.5837849998349
 21
61.784908439700331
 31
0.0
  0
LINE
  5
3D4
  8
0
 10
181.5837849998349
 20
61.784908439700331
 30
0.0
 11
182.13239611094619
 21
61.784908439700331
 31
0.0
  0
LINE
  5
3D5
  8
0
 10
182.13239611094619
 20
61.784908439700331
 30
0.0
 11
182.54162230142239
 21
61.705543360335263
 31
0.0
  0
LINE
  5
3D6
  8
0
 10
182.54162230142239
 20
61.705543360335263
 30
0.0
 11
182.66315007920019
 21
61.43867828097018
 31
0.0
  0
LINE
  5
3D7
  8
0
 10
182.66315007920019
 20
61.43867828097018
 30
0.0
 11
182.54410246015249
 21
61.168837011128907
 31
0.0
  0
LINE
  5
3D8
  8
0
 10
182.54410246015249
 20
61.168837011128907
 30
0.0
 11
182.14330880935881
 21
61.086495741287649
 31
0.0
  0
LINE
  5
3D9
  8
0
 10
182.14330880935881
 20
61.086495741287649
 30
0.0
 11
181.5837849998349
 21
61.086495741287649
 31
0.0
  0
LINE
  5
3DA
  8
0
 10
181.5837849998349
 20
62.483321138113027
 30
0.0
 11
181.5837849998349
 21
63.118241773033681
 31
0.0
  0
LINE
  5
3DB
  8
0
 10
181.5837849998349
 20
63.118241773033681
 30
0.0
 11
181.9181103966605
 21
63.118241773033681
 31
0.0
  0
LINE
  5
3DC
  8
0
 10
181.9181103966605
 20
63.118241773033681
 30
0.0
 11
182.42654293634291
 21
63.05078145557335
 31
0.0
  0
LINE
  5
3DD
  8
0
 10
182.42654293634291
 20
63.05078145557335
 30
0.0
 11
182.53616595221609
 21
62.800781455573357
 31
0.0
  0
LINE
  5
3DE
  8
0
 10
182.53616595221609
 20
62.800781455573357
 30
0.0
 11
182.43398341253351
 21
62.555741773033681
 31
0.0
  0
LINE
  5
3DF
  8
0
 10
182.43398341253351
 20
62.555741773033681
 30
0.0
 11
182.08180087285081
 21
62.483321138113027
 31
0.0
  0
LINE
  5
3E0
  8
0
 10
182.08180087285081
 20
62.483321138113027
 30
0.0
 11
181.5837849998349
 21
62.483321138113027
 31
0.0
  0
ARC
  5
3E1
  8
0
 10
186.23739358752661
 20
60.125000203093322
 30
0.0
 40
9.0000000000000178
 50
179.99999999999969
 51
359.99999999999881
  0
ARC
  5
3E2
  8
0
 10
186.23739358752661
 20
60.125000203093322
 30
0.0
 40
9.0000000000000089
 50
359.99999999999949
 51
179.99999999999969
  0
LINE
  5
3E3
  8
0
 10
167.98739358752729
 20
78.375000203092029
 30
0.0
 11
168.23739358752729
 21
78.375000203092029
 31
0.0
  0
LINE
  5
3E4
  8
0
 10
168.23739358752729
 20
81.375000203092014
 30
0.0
 11
167.98739358752729
 21
81.375000203092014
 31
0.0
  0
LINE
  5
3E5
  8
0
 10
167.98739358752729
 20
79.875000203091901
 30
0.0
 11
167.98739358752729
 21
80.263228770745684
 31
0.0
  0
LINE
  5
3E6
  8
0
 10
167.98739358752729
 20
80.263229612130047
 30
0.0
 11
167.98739358752729
 21
80.93566037487173
 31
0.0
  0
LINE
  5
3E7
  8
0
 10
167.98739358752729
 20
80.935661707646688
 30
0.0
 11
167.98739358752749
 21
81.323888942525528
 31
0.0
  0
LINE
  5
3E8
  8
0
 10
167.98739358752749
 20
81.323892813393968
 30
0.0
 11
167.98739358752749
 21
81.375000203091943
 31
0.0
  0
LINE
  5
3E9
  8
0
 10
167.98739358752749
 20
78.375000203091943
 30
0.0
 11
167.98739358752749
 21
78.426107592788142
 31
0.0
  0
LINE
  5
3EA
  8
0
 10
167.98739358752749
 20
78.42611146365833
 30
0.0
 11
167.98739358752729
 21
78.814338698536147
 31
0.0
  0
LINE
  5
3EB
  8
0
 10
167.98739358752729
 20
78.814340031312085
 30
0.0
 11
167.98739358752729
 21
79.486770794053029
 31
0.0
  0
LINE
  5
3EC
  8
0
 10
167.98739358752729
 20
79.486771635438117
 30
0.0
 11
167.98739358752729
 21
79.875000203091901
 31
0.0
  0
LINE
  5
3ED
  8
0
 10
167.9873935875269
 20
38.500000203091638
 30
0.0
 11
168.23739358752709
 21
38.500000203091638
 31
0.0
  0
LINE
  5
3EE
  8
0
 10
168.23739358752709
 20
39.500000203091581
 30
0.0
 11
167.9873935875269
 21
39.500000203091581
 31
0.0
  0
LINE
  5
3EF
  8
0
 10
167.98739358752729
 20
25.125000203091531
 30
0.0
 11
168.23739358752729
 21
25.125000203091531
 31
0.0
  0
LINE
  5
3F0
  8
0
 10
168.23739358752729
 20
27.125000203091592
 30
0.0
 11
167.98739358752729
 21
27.125000203091592
 31
0.0
  0
LINE
  5
3F1
  8
0
 10
167.98739358752709
 20
7.3750002030914708
 30
0.0
 11
168.23739358752709
 21
7.3750002030914708
 31
0.0
  0
LINE
  5
3F2
  8
0
 10
168.23739358752709
 20
9.3750002030915276
 30
0.0
 11
167.98739358752709
 21
9.3750002030915276
 31
0.0
  0
LINE
  5
3F3
  8
0
 10
167.98739358752729
 20
39.00000020309151
 30
0.0
 11
167.98739358752729
 21
39.129409725642802
 31
0.0
  0
LINE
  5
3F4
  8
0
 10
167.98739358752729
 20
39.12941000610428
 30
0.0
 11
167.98739358752729
 21
39.249999306578601
 31
0.0
  0
LINE
  5
3F5
  8
0
 10
167.98739358752729
 20
39.250000203091517
 30
0.0
 11
167.98739358752729
 21
39.353553593684786
 31
0.0
  0
LINE
  5
3F6
  8
0
 10
167.98739358752729
 20
39.353554037943432
 30
0.0
 11
167.98739358752729
 21
39.433012904983741
 31
0.0
  0
LINE
  5
3F7
  8
0
 10
167.98739358752729
 20
39.43301324625029
 30
0.0
 11
167.98739358752729
 21
39.48296311623605
 31
0.0
  0
LINE
  5
3F8
  8
0
 10
167.98739358752729
 20
39.482964406525639
 30
0.0
 11
167.98739358752729
 21
39.500000203091531
 31
0.0
  0
LINE
  5
3F9
  8
0
 10
167.98739358752729
 20
38.500000203091531
 30
0.0
 11
167.98739358752729
 21
38.517035999657409
 31
0.0
  0
LINE
  5
3FA
  8
0
 10
167.98739358752729
 20
38.517037289946991
 30
0.0
 11
167.98739358752729
 21
38.566987159932758
 31
0.0
  0
LINE
  5
3FB
  8
0
 10
167.98739358752729
 20
38.566987501199321
 30
0.0
 11
167.98739358752729
 21
38.646446368239602
 31
0.0
  0
LINE
  5
3FC
  8
0
 10
167.98739358752729
 20
38.646446812498247
 30
0.0
 11
167.98739358752729
 21
38.750000203091531
 31
0.0
  0
LINE
  5
3FD
  8
0
 10
167.98739358752729
 20
38.750001099604461
 30
0.0
 11
167.98739358752729
 21
38.870590400078761
 31
0.0
  0
LINE
  5
3FE
  8
0
 10
167.98739358752729
 20
38.870590680540268
 30
0.0
 11
167.98739358752729
 21
39.00000020309151
 31
0.0
  0
LINE
  5
3FF
  8
0
 10
167.98739358752749
 20
26.12500020309152
 30
0.0
 11
167.98739358752749
 21
26.832106813630279
 31
0.0
  0
LINE
  5
400
  8
0
 10
167.98739358752749
 20
26.83210698427807
 30
0.0
 11
167.98739358752749
 21
26.991025250402348
 31
0.0
  0
LINE
  5
401
  8
0
 10
167.98739358752749
 20
26.991025606875962
 30
0.0
 11
167.98739358752749
 21
27.09092602938059
 31
0.0
  0
LINE
  5
402
  8
0
 10
167.98739358752749
 20
27.09092671356235
 30
0.0
 11
167.98739358752749
 21
27.12500020309152
 31
0.0
  0
LINE
  5
403
  8
0
 10
167.98739358752749
 20
25.12500020309152
 30
0.0
 11
167.98739358752749
 21
25.159074376802462
 31
0.0
  0
LINE
  5
404
  8
0
 10
167.98739358752749
 20
25.159074790281959
 30
0.0
 11
167.98739358752749
 21
25.258974799307079
 31
0.0
  0
LINE
  5
405
  8
0
 10
167.98739358752749
 20
25.258975941314759
 30
0.0
 11
167.98739358752749
 21
25.417893421904981
 31
0.0
  0
LINE
  5
406
  8
0
 10
167.98739358752749
 20
25.417894444984871
 30
0.0
 11
167.98739358752749
 21
25.625000203091531
 31
0.0
  0
LINE
  5
407
  8
0
 10
167.98739358752749
 20
25.625001099604191
 30
0.0
 11
167.98739358752749
 21
26.124999238435439
 31
0.0
  0
LINE
  5
408
  8
0
 10
167.98739358752749
 20
8.3750004442555142
 30
0.0
 11
167.98739358752749
 21
8.6338192481940474
 31
0.0
  0
LINE
  5
409
  8
0
 10
167.98739358752749
 20
8.6338193091522673
 30
0.0
 11
167.98739358752749
 21
8.8749999789634071
 31
0.0
  0
LINE
  5
40A
  8
0
 10
167.98739358752749
 20
8.8750002030915258
 30
0.0
 11
167.98739358752781
 21
9.0821069842780737
 31
0.0
  0
LINE
  5
40B
  8
0
 10
167.98739358752781
 20
9.0821073173405047
 30
0.0
 11
167.98739358752781
 21
9.2410256068759615
 31
0.0
  0
LINE
  5
40C
  8
0
 10
167.98739358752781
 20
9.2410256646093512
 30
0.0
 11
167.98739358752781
 21
9.3409260293805954
 31
0.0
  0
LINE
  5
40D
  8
0
 10
167.98739358752781
 20
9.3409262394548982
 30
0.0
 11
167.98739358752781
 21
9.3750002030915294
 31
0.0
  0
LINE
  5
40E
  8
0
 10
167.98739358752781
 20
7.3750002030915276
 30
0.0
 11
167.98739358752781
 21
7.4090736926204137
 31
0.0
  0
LINE
  5
40F
  8
0
 10
167.98739358752781
 20
7.4090743768024598
 30
0.0
 11
167.98739358752781
 21
7.5089744291738763
 31
0.0
  0
LINE
  5
410
  8
0
 10
167.98739358752781
 20
7.5089747993070901
 30
0.0
 11
167.98739358752781
 21
7.6678934219049806
 31
0.0
  0
LINE
  5
411
  8
0
 10
167.98739358752781
 20
7.6678935925527734
 30
0.0
 11
167.98739358752749
 21
8.3750002030915258
 31
0.0
  0
LINE
  5
412
  8
0
 10
167.98739358752729
 20
11.37500020309192
 30
0.0
 11
168.23739358752729
 21
11.37500020309192
 31
0.0
  0
LINE
  5
413
  8
0
 10
168.23739358752729
 20
14.3750002030921
 30
0.0
 11
167.98739358752729
 21
14.3750002030921
 31
0.0
  0
LINE
  5
414
  8
0
 10
167.98739358752781
 20
12.87500020309195
 30
0.0
 11
167.98739358752781
 21
13.26322877074573
 31
0.0
  0
LINE
  5
415
  8
0
 10
167.98739358752781
 20
13.26322911216516
 30
0.0
 11
167.98739358752781
 21
13.62499975483516
 31
0.0
  0
LINE
  5
416
  8
0
 10
167.98739358752781
 20
13.62500020309195
 30
0.0
 11
167.98739358752781
 21
13.93566037487177
 31
0.0
  0
LINE
  5
417
  8
0
 10
167.98739358752781
 20
13.935661152192431
 30
0.0
 11
167.98739358752781
 21
14.17403830876861
 31
0.0
  0
LINE
  5
418
  8
0
 10
167.98739358752781
 20
14.174038707768011
 30
0.0
 11
167.98739358752781
 21
14.323888942525549
 31
0.0
  0
LINE
  5
419
  8
0
 10
167.98739358752781
 20
14.32388902058163
 30
0.0
 11
167.98739358752781
 21
14.375000203091959
 31
0.0
  0
LINE
  5
41A
  8
0
 10
167.98739358752781
 20
11.37500020309195
 30
0.0
 11
167.98739358752781
 21
11.426110911491479
 31
0.0
  0
LINE
  5
41B
  8
0
 10
167.98739358752781
 20
11.42611146365835
 30
0.0
 11
167.98739358752781
 21
11.575962097415299
 31
0.0
  0
LINE
  5
41C
  8
0
 10
167.98739358752781
 20
11.57596223935899
 30
0.0
 11
167.98739358752781
 21
11.8143398094454
 31
0.0
  0
LINE
  5
41D
  8
0
 10
167.98739358752781
 20
11.814340031312129
 30
0.0
 11
167.98739358752781
 21
12.124999681086139
 31
0.0
  0
LINE
  5
41E
  8
0
 10
167.98739358752781
 20
12.125000203091959
 30
0.0
 11
167.98739358752781
 21
12.8749997207634
 31
0.0
  0
CIRCLE
  5
41F
  8
0
 10
18.000000150129608
 20
34.687500203091531
 30
0.0
 40
8.5000000000000053
  0
LINE
  5
420
  8
0
 10
0.0000001501291536
 20
90.125000203091403
 30
0.0
 11
36.000000150123931
 21
90.125000203091403
 31
0.0
  0
LINE
  5
421
  8
0
 10
36.000000150123931
 20
44.125000203091552
 30
0.0
 11
0.0000001501291536
 21
44.125000203091552
 31
0.0
  0
LINE
  5
422
  8
0
 10
0.0000001501291536
 20
90.125000203091403
 30
0.0
 11
0.0000001501291536
 21
44.125000203091552
 31
0.0
  0
LINE
  5
423
  8
0
 10
36.000000150123931
 20
44.125000203091552
 30
0.0
 11
36.000000150123931
 21
90.125000203091403
 31
0.0
  0
LINE
  5
424
  8
0
 10
0.0000001501291536
 20
44.12500020309151
 30
0.0
 11
36.000000150129146
 21
44.12500020309151
 31
0.0
  0
LINE
  5
425
  8
0
 10
36.000000150129146
 20
0.0000002030915298
 30
0.0
 11
0.0000001501291536
 21
0.0000002030915298
 31
0.0
  0
LINE
  5
426
  8
0
 10
36.000000150129146
 20
44.12500020309151
 30
0.0
 11
36.000000150129146
 21
0.0000002030915298
 31
0.0
  0
LINE
  5
427
  8
0
 10
0.0000001501291536
 20
0.0000002030915298
 30
0.0
 11
0.0000001501291536
 21
44.12500020309151
 31
0.0
  0
ARC
  5
428
  8
0
 10
18.000000150130059
 20
60.125000203093322
 30
0.0
 40
8.2500000000000053
 50
179.9999999999996
 51
359.99999999999881
  0
ARC
  5
429
  8
0
 10
18.000000150130059
 20
60.125000203093322
 30
0.0
 40
8.2500000000000053
 50
359.99999999999949
 51
179.9999999999996
  0
ARC
  5
42A
  8
0
 10
18.000000150130059
 20
60.125000203093322
 30
0.0
 40
7.6875000000000018
 50
0.0000000000005789
 51
180.0
  0
ARC
  5
42B
  8
0
 10
18.000000150130059
 20
60.125000203093322
 30
0.0
 40
7.687499999999992
 50
180.00000000000011
 51
359.9999999999996
  0
LINE
  5
42C
  8
0
 10
23.12250092411773
 20
57.683144354295933
 30
0.0
 11
22.927560447927359
 21
57.234235624137213
 31
0.0
  0
LINE
  5
42D
  8
0
 10
22.927560447927359
 20
57.234235624137213
 30
0.0
 11
22.476667590784469
 21
57.076993560645128
 31
0.0
  0
LINE
  5
42E
  8
0
 10
22.476667590784469
 20
57.076993560645128
 30
0.0
 11
22.152138820943261
 21
57.141229671756257
 31
0.0
  0
LINE
  5
42F
  8
0
 10
22.152138820943261
 20
57.141229671756257
 30
0.0
 11
21.916647749514599
 21
57.333938005089571
 31
0.0
  0
LINE
  5
430
  8
0
 10
21.916647749514599
 20
57.333938005089571
 30
0.0
 11
21.72567552729242
 21
58.091874513026099
 31
0.0
  0
LINE
  5
431
  8
0
 10
21.72567552729242
 20
58.091874513026099
 30
0.0
 11
21.909703305070249
 21
58.855763401914977
 31
0.0
  0
LINE
  5
432
  8
0
 10
21.909703305070249
 20
58.855763401914977
 30
0.0
 11
22.139490011419412
 21
59.04549554477213
 31
0.0
  0
LINE
  5
433
  8
0
 10
22.139490011419412
 20
59.04549554477213
 30
0.0
 11
22.460794574911461
 21
59.108739592391167
 31
0.0
  0
LINE
  5
434
  8
0
 10
22.460794574911461
 20
59.108739592391167
 30
0.0
 11
22.92904854316544
 21
58.965386417787997
 31
0.0
  0
LINE
  5
435
  8
0
 10
22.92904854316544
 20
58.965386417787997
 30
0.0
 11
23.12250092411773
 21
58.540287211438788
 31
0.0
  0
LINE
  5
436
  8
0
 10
23.12250092411773
 20
58.540287211438788
 30
0.0
 11
24.265358066975072
 21
58.540287211438788
 31
0.0
  0
LINE
  5
437
  8
0
 10
24.265358066975072
 20
58.540287211438788
 30
0.0
 11
24.105139813006652
 21
59.187980663819737
 31
0.0
  0
LINE
  5
438
  8
0
 10
24.105139813006652
 20
59.187980663819737
 30
0.0
 11
23.73758028919724
 21
59.66677530667689
 31
0.0
  0
LINE
  5
439
  8
0
 10
23.73758028919724
 20
59.66677530667689
 30
0.0
 11
23.178552511419412
 21
59.962534235248313
 31
0.0
  0
LINE
  5
43A
  8
0
 10
23.178552511419412
 20
59.962534235248313
 30
0.0
 11
22.443929495546399
 21
60.06112054477213
 31
0.0
  0
LINE
  5
43B
  8
0
 10
22.443929495546399
 20
60.06112054477213
 30
0.0
 11
21.64593842411773
 21
59.92917610032768
 31
0.0
  0
LINE
  5
43C
  8
0
 10
21.64593842411773
 20
59.92917610032768
 30
0.0
 11
21.035695368562301
 21
59.533342766994338
 31
0.0
  0
LINE
  5
43D
  8
0
 10
21.035695368562301
 20
59.533342766994338
 30
0.0
 11
20.64841858284808
 21
58.909334830486408
 31
0.0
  0
LINE
  5
43E
  8
0
 10
20.64841858284808
 20
58.909334830486408
 30
0.0
 11
20.519326320943261
 21
58.092866576518169
 31
0.0
  0
LINE
  5
43F
  8
0
 10
20.519326320943261
 20
58.092866576518169
 30
0.0
 11
20.649038622530501
 21
57.274538203502281
 31
0.0
  0
LINE
  5
440
  8
0
 10
20.649038622530501
 20
57.274538203502281
 30
0.0
 11
21.038175527292431
 21
56.650902290803877
 31
0.0
  0
LINE
  5
441
  8
0
 10
21.038175527292431
 20
56.650902290803877
 30
0.0
 11
21.653502908244722
 21
56.256185028899111
 31
0.0
  0
LINE
  5
442
  8
0
 10
21.653502908244722
 20
56.256185028899111
 30
0.0
 11
22.46178663840351
 21
56.124612608264179
 31
0.0
  0
LINE
  5
443
  8
0
 10
22.46178663840351
 20
56.124612608264179
 30
0.0
 11
23.184876916181341
 21
56.226795147946717
 31
0.0
  0
LINE
  5
444
  8
0
 10
23.184876916181341
 20
56.226795147946717
 30
0.0
 11
23.741052511419412
 21
56.533342766994352
 31
0.0
  0
LINE
  5
445
  8
0
 10
23.741052511419412
 20
56.533342766994352
 30
0.0
 11
24.108488027292431
 21
57.025158243184812
 31
0.0
  0
LINE
  5
446
  8
0
 10
24.108488027292431
 20
57.025158243184812
 30
0.0
 11
24.265358066975072
 21
57.683144354295933
 31
0.0
  0
LINE
  5
447
  8
0
 10
24.265358066975072
 20
57.683144354295933
 30
0.0
 11
23.12250092411773
 21
57.683144354295933
 31
0.0
  0
LINE
  5
448
  8
0
 10
15.900773546350131
 20
58.457218543219142
 30
0.0
 11
17.07835291142942
 21
58.457218543219142
 31
0.0
  0
LINE
  5
449
  8
0
 10
17.07835291142942
 20
58.457218543219142
 30
0.0
 11
17.22517830825495
 21
58.965155051155641
 31
0.0
  0
LINE
  5
44A
  8
0
 10
17.22517830825495
 20
58.965155051155641
 30
0.0
 11
18.428551324127959
 21
58.965155051155641
 31
0.0
  0
LINE
  5
44B
  8
0
 10
18.428551324127959
 20
58.965155051155641
 30
0.0
 11
18.570416403493031
 21
58.457218543219142
 31
0.0
  0
LINE
  5
44C
  8
0
 10
18.570416403493031
 20
58.457218543219142
 30
0.0
 11
19.77378941936604
 21
58.457218543219142
 31
0.0
  0
LINE
  5
44D
  8
0
 10
19.77378941936604
 20
58.457218543219142
 30
0.0
 11
18.444424340000982
 21
62.266742352742952
 31
0.0
  0
LINE
  5
44E
  8
0
 10
18.444424340000982
 20
62.266742352742952
 30
0.0
 11
17.215257673334229
 21
62.266742352742952
 31
0.0
  0
LINE
  5
44F
  8
0
 10
17.215257673334229
 20
62.266742352742952
 30
0.0
 11
15.900773546350131
 21
58.457218543219142
 31
0.0
  0
LINE
  5
450
  8
0
 10
17.445416403493031
 20
59.79055187655247
 30
0.0
 11
17.831329101905791
 21
61.094123305123887
 31
0.0
  0
LINE
  5
451
  8
0
 10
17.831329101905791
 20
61.094123305123887
 30
0.0
 11
18.208313228889889
 21
59.79055187655247
 31
0.0
  0
LINE
  5
452
  8
0
 10
18.208313228889889
 20
59.79055187655247
 30
0.0
 11
17.445416403493031
 21
59.79055187655247
 31
0.0
  0
LINE
  5
453
  8
0
 10
12.14004235608877
 20
60.197606852399417
 30
0.0
 11
13.839447117993579
 21
60.197606852399417
 31
0.0
  0
LINE
  5
454
  8
0
 10
13.839447117993579
 20
60.197606852399417
 30
0.0
 11
14.6073042608507
 21
60.236297328589892
 31
0.0
  0
LINE
  5
455
  8
0
 10
14.6073042608507
 20
60.236297328589892
 30
0.0
 11
15.02000267354901
 21
60.368241773034327
 31
0.0
  0
LINE
  5
456
  8
0
 10
15.02000267354901
 20
60.368241773034327
 30
0.0
 11
15.42823680053311
 21
60.751178280970848
 31
0.0
  0
LINE
  5
457
  8
0
 10
15.42823680053311
 20
60.751178280970848
 30
0.0
 11
15.568613784660331
 21
61.338479868272422
 31
0.0
  0
LINE
  5
458
  8
0
 10
15.568613784660331
 20
61.338479868272422
 30
0.0
 11
15.42476457831094
 21
61.901475900018461
 31
0.0
  0
LINE
  5
459
  8
0
 10
15.42476457831094
 20
61.901475900018461
 30
0.0
 11
14.981312197358649
 21
62.226376693669259
 31
0.0
  0
LINE
  5
45A
  8
0
 10
14.981312197358649
 20
62.226376693669259
 30
0.0
 11
15.326550292596719
 21
62.543837011129561
 31
0.0
  0
LINE
  5
45B
  8
0
 10
15.326550292596719
 20
62.543837011129561
 30
0.0
 11
15.441629657676
 21
62.996217963510531
 31
0.0
  0
LINE
  5
45C
  8
0
 10
15.441629657676
 20
62.996217963510531
 30
0.0
 11
15.287859816406121
 21
63.556237804780352
 31
0.0
  0
LINE
  5
45D
  8
0
 10
15.287859816406121
 20
63.556237804780352
 30
0.0
 11
14.845399498945881
 21
63.896019550812099
 31
0.0
  0
LINE
  5
45E
  8
0
 10
14.845399498945881
 20
63.896019550812099
 30
0.0
 11
14.450062197358649
 21
63.981337011129568
 31
0.0
  0
LINE
  5
45F
  8
0
 10
14.450062197358649
 20
63.981337011129568
 30
0.0
 11
13.716431244977461
 21
64.007130661923227
 31
0.0
  0
LINE
  5
460
  8
0
 10
13.716431244977461
 20
64.007130661923227
 30
0.0
 11
12.14004235608877
 21
64.007130661923227
 31
0.0
  0
LINE
  5
461
  8
0
 10
12.14004235608877
 20
64.007130661923227
 30
0.0
 11
12.14004235608877
 21
60.197606852399417
 31
0.0
  0
LINE
  5
462
  8
0
 10
13.34639156243793
 20
61.086495741288303
 30
0.0
 11
13.34639156243793
 21
61.784908439700999
 31
0.0
  0
LINE
  5
463
  8
0
 10
13.34639156243793
 20
61.784908439700999
 30
0.0
 11
13.89500267354901
 21
61.784908439700999
 31
0.0
  0
LINE
  5
464
  8
0
 10
13.89500267354901
 20
61.784908439700999
 30
0.0
 11
14.30422886402539
 21
61.705543360335923
 31
0.0
  0
LINE
  5
465
  8
0
 10
14.30422886402539
 20
61.705543360335923
 30
0.0
 11
14.425756641802989
 21
61.438678280970819
 31
0.0
  0
LINE
  5
466
  8
0
 10
14.425756641802989
 20
61.438678280970819
 30
0.0
 11
14.30670902275528
 21
61.168837011129568
 31
0.0
  0
LINE
  5
467
  8
0
 10
14.30670902275528
 20
61.168837011129568
 30
0.0
 11
13.905915371961781
 21
61.086495741288303
 31
0.0
  0
LINE
  5
468
  8
0
 10
13.905915371961781
 20
61.086495741288303
 30
0.0
 11
13.34639156243793
 21
61.086495741288303
 31
0.0
  0
LINE
  5
469
  8
0
 10
13.34639156243793
 20
62.483321138113702
 30
0.0
 11
13.34639156243793
 21
63.118241773034342
 31
0.0
  0
LINE
  5
46A
  8
0
 10
13.34639156243793
 20
63.118241773034342
 30
0.0
 11
13.680716959263229
 21
63.118241773034342
 31
0.0
  0
LINE
  5
46B
  8
0
 10
13.680716959263229
 20
63.118241773034342
 30
0.0
 11
14.189149498945881
 21
63.050781455574011
 31
0.0
  0
LINE
  5
46C
  8
0
 10
14.189149498945881
 20
63.050781455574011
 30
0.0
 11
14.298772514818889
 21
62.800781455574011
 31
0.0
  0
LINE
  5
46D
  8
0
 10
14.298772514818889
 20
62.800781455574011
 30
0.0
 11
14.19658997513625
 21
62.555741773034342
 31
0.0
  0
LINE
  5
46E
  8
0
 10
14.19658997513625
 20
62.555741773034342
 30
0.0
 11
13.84440743545383
 21
62.483321138113702
 31
0.0
  0
LINE
  5
46F
  8
0
 10
13.84440743545383
 20
62.483321138113702
 30
0.0
 11
13.34639156243793
 21
62.483321138113702
 31
0.0
  0
ARC
  5
470
  8
0
 10
18.000000150129608
 20
60.12500020309399
 30
0.0
 40
9.0000000000000178
 50
179.99999999999969
 51
359.99999999999881
  0
ARC
  5
471
  8
0
 10
18.000000150129608
 20
60.12500020309399
 30
0.0
 40
9.0000000000000124
 50
359.99999999999949
 51
179.99999999999969
  0
LINE
  5
472
  8
0
 10
36.000000150129608
 20
78.375000203092029
 30
0.0
 11
36.250000150129608
 21
78.375000203092029
 31
0.0
  0
LINE
  5
473
  8
0
 10
36.250000150129608
 20
81.375000203092014
 30
0.0
 11
36.000000150129608
 21
81.375000203092014
 31
0.0
  0
LINE
  5
474
  8
0
 10
36.250000150129381
 20
81.375000203091943
 30
0.0
 11
36.250000150129381
 21
81.323892813393968
 31
0.0
  0
LINE
  5
475
  8
0
 10
36.250000150129381
 20
81.323888942525528
 30
0.0
 11
36.250000150129381
 21
81.174038308768587
 31
0.0
  0
LINE
  5
476
  8
0
 10
36.250000150129381
 20
81.174036595756661
 30
0.0
 11
36.250000150129381
 21
80.935661707646702
 31
0.0
  0
LINE
  5
477
  8
0
 10
36.250000150129381
 20
80.935660374871759
 30
0.0
 11
36.250000150129381
 21
80.263229612130061
 31
0.0
  0
LINE
  5
478
  8
0
 10
36.250000150129381
 20
80.263228770745727
 30
0.0
 11
36.250000150129381
 21
79.875000203091929
 31
0.0
  0
LINE
  5
479
  8
0
 10
36.250000150129381
 20
79.875000203091901
 30
0.0
 11
36.250000150129381
 21
79.486771635438117
 31
0.0
  0
LINE
  5
47A
  8
0
 10
36.250000150129381
 20
79.486770794053029
 30
0.0
 11
36.250000150129381
 21
78.814340031312085
 31
0.0
  0
LINE
  5
47B
  8
0
 10
36.250000150129381
 20
78.814338698536147
 30
0.0
 11
36.250000150129381
 21
78.5759638104266
 31
0.0
  0
LINE
  5
47C
  8
0
 10
36.250000150129381
 20
78.575962097415257
 30
0.0
 11
36.250000150129381
 21
78.42611146365833
 31
0.0
  0
LINE
  5
47D
  8
0
 10
36.250000150129381
 20
78.426107592788142
 30
0.0
 11
36.250000150129381
 21
78.375000203091943
 31
0.0
  0
LINE
  5
47E
  8
0
 10
36.000000150129608
 20
38.500000203091638
 30
0.0
 11
36.250000150129608
 21
38.500000203091638
 31
0.0
  0
LINE
  5
47F
  8
0
 10
36.250000150129608
 20
39.500000203091581
 30
0.0
 11
36.000000150129608
 21
39.500000203091581
 31
0.0
  0
LINE
  5
480
  8
0
 10
36.000000150129608
 20
25.125000203091531
 30
0.0
 11
36.250000150129608
 21
25.125000203091531
 31
0.0
  0
LINE
  5
481
  8
0
 10
36.250000150129608
 20
27.125000203091592
 30
0.0
 11
36.000000150129608
 21
27.125000203091592
 31
0.0
  0
LINE
  5
482
  8
0
 10
36.000000150129608
 20
7.3750002030914708
 30
0.0
 11
36.250000150129608
 21
7.3750002030914708
 31
0.0
  0
LINE
  5
483
  8
0
 10
36.250000150129608
 20
9.3750002030915276
 30
0.0
 11
36.000000150129608
 21
9.3750002030915276
 31
0.0
  0
LINE
  5
484
  8
0
 10
36.250000150129381
 20
39.500000203091531
 30
0.0
 11
36.250000150129381
 21
39.48296440652566
 31
0.0
  0
LINE
  5
485
  8
0
 10
36.250000150129381
 20
39.48296311623605
 30
0.0
 11
36.250000150129381
 21
39.43301324625029
 31
0.0
  0
LINE
  5
486
  8
0
 10
36.250000150129381
 20
39.433012904983748
 30
0.0
 11
36.250000150129381
 21
39.353554037943447
 31
0.0
  0
LINE
  5
487
  8
0
 10
36.250000150129381
 20
39.353553593684801
 30
0.0
 11
36.250000150129381
 21
39.250000203091517
 31
0.0
  0
LINE
  5
488
  8
0
 10
36.250000150129381
 20
39.249999306578601
 30
0.0
 11
36.250000150129381
 21
39.12941000610428
 31
0.0
  0
LINE
  5
489
  8
0
 10
36.250000150129381
 20
39.129409725642802
 30
0.0
 11
36.250000150129381
 21
39.000000203091531
 31
0.0
  0
LINE
  5
48A
  8
0
 10
36.250000150129381
 20
39.00000020309151
 30
0.0
 11
36.250000150129381
 21
38.870590680540253
 31
0.0
  0
LINE
  5
48B
  8
0
 10
36.250000150129381
 20
38.870590400078761
 30
0.0
 11
36.250000150129381
 21
38.750001099604461
 31
0.0
  0
LINE
  5
48C
  8
0
 10
36.250000150129381
 20
38.750000203091531
 30
0.0
 11
36.250000150129381
 21
38.646446812498247
 31
0.0
  0
LINE
  5
48D
  8
0
 10
36.250000150129381
 20
38.646446368239602
 30
0.0
 11
36.250000150129381
 21
38.5669875011993
 31
0.0
  0
LINE
  5
48E
  8
0
 10
36.250000150129381
 20
38.566987159932758
 30
0.0
 11
36.250000150129381
 21
38.517037289946991
 31
0.0
  0
LINE
  5
48F
  8
0
 10
36.250000150129381
 20
38.517035999657409
 30
0.0
 11
36.250000150129381
 21
38.500000203091531
 31
0.0
  0
LINE
  5
490
  8
0
 10
36.250000150129381
 20
27.12500020309152
 30
0.0
 11
36.250000150129381
 21
27.09092671356235
 31
0.0
  0
LINE
  5
491
  8
0
 10
36.250000150129381
 20
27.09092602938059
 30
0.0
 11
36.250000150129381
 21
26.991025606875962
 31
0.0
  0
LINE
  5
492
  8
0
 10
36.250000150129381
 20
26.991025250402348
 30
0.0
 11
36.250000150129381
 21
26.83210698427807
 31
0.0
  0
LINE
  5
493
  8
0
 10
36.250000150129381
 20
26.832106813630279
 30
0.0
 11
36.250000150129381
 21
26.383819248194051
 31
0.0
  0
LINE
  5
494
  8
0
 10
36.250000150129381
 20
26.383818839105
 30
0.0
 11
36.250000150129381
 21
26.125000203091531
 31
0.0
  0
LINE
  5
495
  8
0
 10
36.250000150129381
 20
26.124999238435439
 30
0.0
 11
36.250000150129381
 21
25.866182498864369
 31
0.0
  0
LINE
  5
496
  8
0
 10
36.250000150129381
 20
25.866181157989001
 30
0.0
 11
36.250000150129381
 21
25.625001099604191
 31
0.0
  0
LINE
  5
497
  8
0
 10
36.250000150129381
 20
25.62500020309152
 30
0.0
 11
36.250000150129381
 21
25.41789444498486
 31
0.0
  0
LINE
  5
498
  8
0
 10
36.250000150129381
 20
25.417893421904981
 30
0.0
 11
36.250000150129381
 21
25.258975941314759
 31
0.0
  0
LINE
  5
499
  8
0
 10
36.250000150129381
 20
25.258974799307079
 30
0.0
 11
36.250000150129381
 21
25.159074790281959
 31
0.0
  0
LINE
  5
49A
  8
0
 10
36.250000150129381
 20
25.159074376802462
 30
0.0
 11
36.250000150129381
 21
25.12500020309152
 31
0.0
  0
LINE
  5
49B
  8
0
 10
36.250000150129381
 20
9.3750002030915294
 30
0.0
 11
36.250000150129381
 21
9.3409262394549035
 31
0.0
  0
LINE
  5
49C
  8
0
 10
36.250000150129381
 20
9.3409260293805971
 30
0.0
 11
36.250000150129381
 21
9.24102566460936
 31
0.0
  0
LINE
  5
49D
  8
0
 10
36.250000150129381
 20
9.2410256068759704
 30
0.0
 11
36.250000150129381
 21
9.0821073173405118
 31
0.0
  0
LINE
  5
49E
  8
0
 10
36.250000150129381
 20
9.0821069842780791
 30
0.0
 11
36.250000150129381
 21
8.8750002030915365
 31
0.0
  0
LINE
  5
49F
  8
0
 10
36.250000150129381
 20
8.8749999789634177
 30
0.0
 11
36.250000150129381
 21
8.6338193091522761
 31
0.0
  0
LINE
  5
4A0
  8
0
 10
36.250000150129381
 20
8.6338192481940563
 30
0.0
 11
36.250000150129381
 21
8.3750004442555266
 31
0.0
  0
LINE
  5
4A1
  8
0
 10
36.250000150129381
 20
8.3750002030915223
 30
0.0
 11
36.250000150129381
 21
7.6678935925527689
 31
0.0
  0
LINE
  5
4A2
  8
0
 10
36.250000150129381
 20
7.667893421904977
 30
0.0
 11
36.250000150129381
 21
7.5089747993070892
 31
0.0
  0
LINE
  5
4A3
  8
0
 10
36.250000150129381
 20
7.5089744291738727
 30
0.0
 11
36.250000150129381
 21
7.4090743768024581
 31
0.0
  0
LINE
  5
4A4
  8
0
 10
36.250000150129381
 20
7.4090736926204128
 30
0.0
 11
36.250000150129381
 21
7.3750002030915276
 31
0.0
  0
LINE
  5
4A5
  8
0
 10
36.000000150129608
 20
11.37500020309192
 30
0.0
 11
36.250000150129608
 21
11.37500020309192
 31
0.0
  0
LINE
  5
4A6
  8
0
 10
36.250000150129608
 20
14.3750002030921
 30
0.0
 11
36.000000150129608
 21
14.3750002030921
 31
0.0
  0
LINE
  5
4A7
  8
0
 10
36.250000150129381
 20
14.375000203091959
 30
0.0
 11
36.250000150129381
 21
14.323889020581641
 31
0.0
  0
LINE
  5
4A8
  8
0
 10
36.250000150129381
 20
14.32388894252556
 30
0.0
 11
36.250000150129381
 21
14.17403870776802
 31
0.0
  0
LINE
  5
4A9
  8
0
 10
36.250000150129381
 20
14.174038308768621
 30
0.0
 11
36.250000150129381
 21
13.93566115219244
 31
0.0
  0
LINE
  5
4AA
  8
0
 10
36.250000150129381
 20
13.93566037487178
 30
0.0
 11
36.250000150129381
 21
13.625000203091959
 31
0.0
  0
LINE
  5
4AB
  8
0
 10
36.250000150129381
 20
13.62499975483518
 30
0.0
 11
36.250000150129381
 21
13.263229112165179
 31
0.0
  0
LINE
  5
4AC
  8
0
 10
36.250000150129381
 20
13.263228770745741
 30
0.0
 11
36.250000150129381
 21
12.87500020309197
 31
0.0
  0
LINE
  5
4AD
  8
0
 10
36.250000150129381
 20
12.87499972076353
 30
0.0
 11
36.250000150129381
 21
12.12500020309195
 31
0.0
  0
LINE
  5
4AE
  8
0
 10
36.250000150129381
 20
12.124999681086139
 30
0.0
 11
36.250000150129381
 21
11.814340031312129
 31
0.0
  0
LINE
  5
4AF
  8
0
 10
36.250000150129381
 20
11.814339809445389
 30
0.0
 11
36.250000150129381
 21
11.42611146365835
 31
0.0
  0
LINE
  5
4B0
  8
0
 10
36.250000150129381
 20
11.426110911491479
 30
0.0
 11
36.250000150129381
 21
11.37500020309195
 31
0.0
  0
LINE
  5
4B1
  8
0
 10
80.129917979094671
 20
163.38419843210369
 30
0.0
 11
80.129917979094671
 21
127.3841984321091
 31
0.0
  0
LINE
  5
4B2
  8
0
 10
80.129917979094671
 20
127.3841984321091
 30
0.0
 11
120.8799179790919
 21
127.384198432109
 31
0.0
  0
LINE
  5
4B3
  8
0
 10
120.8799179790919
 20
127.384198432109
 30
0.0
 11
120.8799179790919
 21
163.38419843210369
 31
0.0
  0
LINE
  5
4B4
  8
0
 10
120.8799179790919
 20
163.38419843210369
 30
0.0
 11
80.129917979094671
 21
163.38419843210369
 31
0.0
  0
LINE
  5
4B5
  8
0
 10
119.2549179790949
 20
161.7591984321038
 30
0.0
 11
119.2549179790946
 21
129.0091984321038
 31
0.0
1001
ACAD
1000
ASC_BOUNDS
1002
{
1070
    19
1005
50E
1002
}
  0
LINE
  5
4B6
  8
0
 10
119.2549179790946
 20
129.0091984321038
 30
0.0
 11
81.754917979094898
 21
129.00919843210389
 31
0.0
1001
ACAD
1000
ASC_BOUNDS
1002
{
1070
    19
1005
50E
1002
}
  0
LINE
  5
4B7
  8
0
 10
81.754917979094898
 20
129.00919843210389
 30
0.0
 11
81.754917979094898
 21
161.75919843210389
 31
0.0
1001
ACAD
1000
ASC_BOUNDS
1002
{
1070
    19
1005
50E
1002
}
  0
LINE
  5
4B8
  8
0
 10
81.754917979094898
 20
161.75919843210389
 30
0.0
 11
119.2549179790949
 21
161.7591984321038
 31
0.0
1001
ACAD
1000
ASC_BOUNDS
1002
{
1070
    19
1005
50E
1002
}
  0
LINE
  5
4B9
  8
0
 10
120.8799179790919
 20
127.3841984321038
 30
0.0
 11
127.6299179790953
 21
127.3841984321038
 31
0.0
  0
LINE
  5
4BA
  8
0
 10
127.6299179790953
 20
127.3841984321038
 30
0.0
 11
127.6299179790953
 21
163.3841984321038
 31
0.0
  0
LINE
  5
4BB
  8
0
 10
127.6299179790953
 20
163.3841984321038
 30
0.0
 11
120.8799179790919
 21
163.3841984321038
 31
0.0
  0
LINE
  5
4BC
  8
0
 10
102.0049179790951
 20
127.1341984321033
 30
0.0
 11
102.0049179790951
 21
127.3841984321034
 31
0.0
  0
LINE
  5
4BD
  8
0
 10
99.004917979095126
 20
127.3841984321034
 30
0.0
 11
99.004917979095126
 21
127.1341984321033
 31
0.0
  0
LINE
  5
4BE
  8
0
 10
102.0049179790949
 20
127.1341984321036
 30
0.0
 11
101.953806796595
 21
127.1341984321036
 31
0.0
  0
LINE
  5
4BF
  8
0
 10
101.9538067185285
 20
127.1341984321036
 30
0.0
 11
101.8039564837779
 21
127.1341984321036
 31
0.0
  0
LINE
  5
4C0
  8
0
 10
101.8039560847717
 20
127.1341984321036
 30
0.0
 11
101.5655789282013
 21
127.1341984321036
 31
0.0
  0
LINE
  5
4C1
  8
0
 10
101.5655781508749
 20
127.1341984321036
 30
0.0
 11
100.8931468881735
 21
127.1341984321036
 31
0.0
  0
LINE
  5
4C2
  8
0
 10
100.8931465467487
 20
127.1341984321036
 30
0.0
 11
100.5049179790949
 21
127.1341984321036
 31
0.0
  0
LINE
  5
4C3
  8
0
 10
100.5049174967719
 20
127.1341984321036
 30
0.0
 11
100.1166895591862
 21
127.1341984321036
 31
0.0
  0
LINE
  5
4C4
  8
0
 10
100.1166894114412
 20
127.1341984321036
 30
0.0
 11
99.754917979094913
 21
127.1341984321036
 31
0.0
  0
LINE
  5
4C5
  8
0
 10
99.754917457094734
 20
127.1341984321036
 30
0.0
 11
99.444257807315125
 21
127.1341984321036
 31
0.0
  0
LINE
  5
4C6
  8
0
 10
99.444257585454352
 20
127.1341984321036
 30
0.0
 11
99.056029536461892
 21
127.1341984321036
 31
0.0
  0
LINE
  5
4C7
  8
0
 10
99.056029239661484
 20
127.1341984321036
 30
0.0
 11
99.004917979094898
 21
127.1341984321036
 31
0.0
  0
LINE
  5
4C8
  8
0
 10
110.6299179790951
 20
127.1341984321033
 30
0.0
 11
110.6299179790951
 21
127.3841984321034
 31
0.0
  0
LINE
  5
4C9
  8
0
 10
109.6299179790949
 20
127.3841984321034
 30
0.0
 11
109.6299179790949
 21
127.1341984321033
 31
0.0
  0
LINE
  5
4CA
  8
0
 10
98.379917979094898
 20
127.1341984321033
 30
0.0
 11
98.379917979094898
 21
127.3841984321034
 31
0.0
  0
LINE
  5
4CB
  8
0
 10
96.379917979094898
 20
127.3841984321034
 30
0.0
 11
96.379917979094898
 21
127.1341984321033
 31
0.0
  0
LINE
  5
4CC
  8
0
 10
81.379917979094898
 20
127.3841984321034
 30
0.0
 11
81.379917979094898
 21
127.1341984321035
 31
0.0
  0
LINE
  5
4CD
  8
0
 10
110.6299179790949
 20
127.1341984321035
 30
0.0
 11
110.6128808922394
 21
127.1341984321035
 31
0.0
  0
LINE
  5
4CE
  8
0
 10
110.6128808472137
 20
127.1341984321035
 30
0.0
 11
110.5629310222598
 21
127.1341984321035
 31
0.0
  0
LINE
  5
4CF
  8
0
 10
110.56293068098709
 20
127.1341984321035
 30
0.0
 11
110.4834713696882
 21
127.1341984321035
 31
0.0
  0
LINE
  5
4D0
  8
0
 10
110.4834710712605
 20
127.1341984321035
 30
0.0
 11
110.3799179790949
 21
127.1341984321035
 31
0.0
  0
LINE
  5
4D1
  8
0
 10
110.3799177549713
 20
127.1341984321035
 30
0.0
 11
110.25932778211261
 21
127.1341984321035
 31
0.0
  0
LINE
  5
4D2
  8
0
 10
110.2593275016461
 20
127.1341984321035
 30
0.0
 11
110.0005084565436
 21
127.1341984321035
 31
0.0
  0
LINE
  5
4D3
  8
0
 10
110.0005081760871
 20
127.1341984321035
 30
0.0
 11
109.8799179790949
 21
127.1341984321035
 31
0.0
  0
LINE
  5
4D4
  8
0
 10
109.8799174570949
 20
127.1341984321035
 30
0.0
 11
109.77636458850149
 21
127.1341984321035
 31
0.0
  0
LINE
  5
4D5
  8
0
 10
109.7763641442486
 20
127.1341984321035
 30
0.0
 11
109.6969052772026
 21
127.1341984321035
 31
0.0
  0
LINE
  5
4D6
  8
0
 10
109.6969049359422
 20
127.1341984321035
 30
0.0
 11
109.64695506595029
 21
127.1341984321035
 31
0.0
  0
LINE
  5
4D7
  8
0
 10
109.64695377567
 20
127.1341984321035
 30
0.0
 11
109.6299179790949
 21
127.1341984321035
 31
0.0
  0
LINE
  5
4D8
  8
0
 10
98.379917979094898
 20
127.1341984321036
 30
0.0
 11
98.245944065418598
 21
127.1341984321036
 31
0.0
  0
LINE
  5
4D9
  8
0
 10
98.245943382879446
 20
127.1341984321036
 30
0.0
 11
98.087025648804001
 21
127.1341984321036
 31
0.0
  0
LINE
  5
4DA
  8
0
 10
98.087024760281565
 20
127.1341984321036
 30
0.0
 11
97.879919023110702
 21
127.1341984321036
 31
0.0
  0
LINE
  5
4DB
  8
0
 10
97.879917979094913
 20
127.1341984321036
 30
0.0
 11
97.638737585125455
 21
127.1341984321036
 31
0.0
  0
LINE
  5
4DC
  8
0
 10
97.638737024197326
 20
127.1341984321036
 30
0.0
 11
97.121098933992471
 21
127.1341984321036
 31
0.0
  0
LINE
  5
4DD
  8
0
 10
97.121098373074346
 20
127.1341984321036
 30
0.0
 11
96.879917979094884
 21
127.1341984321036
 31
0.0
  0
LINE
  5
4DE
  8
0
 10
96.879916935089568
 20
127.1341984321036
 30
0.0
 11
96.672811197908459
 21
127.1341984321036
 31
0.0
  0
LINE
  5
4DF
  8
0
 10
96.672810309396937
 20
127.1341984321036
 30
0.0
 11
96.513892575310365
 21
127.1341984321036
 31
0.0
  0
LINE
  5
4E0
  8
0
 10
96.513891892783704
 20
127.1341984321036
 30
0.0
 11
96.413992152805804
 21
127.1341984321036
 31
0.0
  0
LINE
  5
4E1
  8
0
 10
96.413989572235565
 20
127.1341984321036
 30
0.0
 11
96.379917979094898
 21
127.1341984321036
 31
0.0
  0
LINE
  5
4E2
  8
0
 10
82.758174904193083
 20
127.1341984321036
 30
0.0
 11
82.638737585125682
 21
127.1341984321036
 31
0.0
  0
LINE
  5
4E3
  8
0
 10
82.638737024197326
 20
127.1341984321036
 30
0.0
 11
82.121098933992243
 21
127.1341984321036
 31
0.0
  0
LINE
  5
4E4
  8
0
 10
82.121098373074346
 20
127.1341984321036
 30
0.0
 11
81.879917979094884
 21
127.1341984321036
 31
0.0
  0
LINE
  5
4E5
  8
0
 10
81.879916935089568
 20
127.1341984321036
 30
0.0
 11
81.672811197908231
 21
127.1341984321036
 31
0.0
  0
LINE
  5
4E6
  8
0
 10
81.672810309396937
 20
127.1341984321036
 30
0.0
 11
81.513892575310365
 21
127.1341984321036
 31
0.0
  0
LINE
  5
4E7
  8
0
 10
81.513891892783704
 20
127.1341984321036
 30
0.0
 11
81.413992152805804
 21
127.1341984321036
 31
0.0
  0
LINE
  5
4E8
  8
0
 10
81.413989572235764
 20
127.1341984321036
 30
0.0
 11
81.379917979094898
 21
127.1341984321036
 31
0.0
  0
LINE
  5
4E9
  8
0
 10
85.754917979095126
 20
127.1341984321035
 30
0.0
 11
85.754917979095126
 21
127.3841984321034
 31
0.0
  0
LINE
  5
4EA
  8
0
 10
82.754917979095126
 20
127.3841984321034
 30
0.0
 11
82.754917979095126
 21
127.1341984321035
 31
0.0
  0
LINE
  5
4EB
  8
0
 10
85.754917979095126
 20
127.1341984321036
 30
0.0
 11
85.703806718528767
 21
127.1341984321036
 31
0.0
  0
LINE
  5
4EC
  8
0
 10
85.703806098312498
 20
127.1341984321036
 30
0.0
 11
85.553957108577137
 21
127.1341984321036
 31
0.0
  0
LINE
  5
4ED
  8
0
 10
85.553956084771684
 20
127.1341984321036
 30
0.0
 11
85.315579483655725
 21
127.1341984321036
 31
0.0
  0
LINE
  5
4EE
  8
0
 10
85.315578150874899
 20
127.1341984321036
 30
0.0
 11
84.643147388138445
 21
127.1341984321036
 31
0.0
  0
LINE
  5
4EF
  8
0
 10
84.643146546748994
 20
127.1341984321036
 30
0.0
 11
83.866689411441257
 21
127.1341984321036
 31
0.0
  0
LINE
  5
4F0
  8
0
 10
83.866688570061555
 20
127.1341984321036
 30
0.0
 11
83.194257807315353
 21
127.1341984321036
 31
0.0
  0
LINE
  5
4F1
  8
0
 10
83.194256474544986
 20
127.1341984321036
 30
0.0
 11
82.955879873418553
 21
127.1341984321036
 31
0.0
  0
LINE
  5
4F2
  8
0
 10
82.955878849625151
 20
127.1341984321036
 30
0.0
 11
82.806029859883893
 21
127.1341984321036
 31
0.0
  0
LINE
  5
4F3
  8
0
 10
82.806029239661484
 20
127.1341984321036
 30
0.0
 11
82.754917979095126
 21
127.1341984321036
 31
0.0
  0
INSERT
  5
505
  8
0
  6
CONTINUOUS
  2
*X3
 10
0.0
 20
0.0
 30
0.0
1001
GRADIENTCOLOR1ACI
1070
     5
1001
GRADIENTCOLOR2ACI
1070
     2
1001
ACAD
1000
HATCH
1002
{
1070
    19
1000
NET
1040
12.0
1040
0.0
1000
ASC_BOUNDS
1070
     2
1070
     1
1070
     4
1005
396
1005
397
1005
38E
1005
395
1070
     1
1070
     4
1005
38B
1005
397
1005
394
1005
395
1000
ASC_SEEDPOINT
1011
173.22106369761329
1021
0.0
1031
0.0
1021
33.684994330296831
1031
0.0
1000
R14_HATCH_DATA
1000
505
1011
1.0
1021
0.0
1031
0.0
1021
0.0
1031
0.0
1011
0.0
1021
0.0
1031
0.0
1021
1.0
1031
0.0
1011
0.0
1021
0.0
1031
0.0
1021
0.0
1031
1.0
1040
0.0
1010
0.0
1020
0.0
1030
1.0
1000
NET
1070
     0
1070
     1
1071
        2
1071
        7
1070
     0
1070
     1
1071
        4
1040
177.23739358752729
1040
42.50000020309156
1040
169.86239358752709
1040
42.500000203091481
1040
169.86239358752729
1040
4.0000002030909299
1040
177.23739358752729
1040
4.0000002030910053
1071
        4
1005
395
1005
394
1005
397
1005
38B
1071
        7
1070
     0
1070
     1
1071
        4
1040
202.61239358752709
1040
42.500000203091822
1040
195.23739358752781
1040
42.500000203091737
1040
195.23739358752781
1040
4.0000002030911972
1040
202.61239358752761
1040
4.000000203091278
1071
        4
1005
395
1005
38E
1005
397
1005
396
1070
     1
1070
     1
1040
0.0
1040
12.0
1070
     0
1070
     2
1040
0.0
1040
0.0
1040
0.0
1040
0.0
1040
1.5
1070
     0
1040
1.5707963267948959
1040
0.0
1040
0.0
1040
-1.5
1040
0.0000000000000001
1070
     0
1040
0.0719123640138334
1071
        2
1040
173.22106369761329
1040
33.684994330296831
1040
0.0
1040
199.98537428630971
1040
32.606309020802541
1040
0.0
1002
}
  0
INSERT
  5
50E
  8
0
  6
CONTINUOUS
  2
*X4
 10
0.0
 20
0.0
 30
0.0
1001
GRADIENTCOLOR1ACI
1070
     5
1001
GRADIENTCOLOR2ACI
1070
     2
1001
ACAD
1000
HATCH
1002
{
1070
    19
1000
ANSI31
1040
12.0
1040
0.7853981633974483
1000
ASC_BOUNDS
1070
     1
1070
     1
1070
     4
1005
4B5
1005
4B6
1005
4B7
1005
4B8
1000
ASC_SEEDPOINT
1011
94.568756825699424
1021
0.0
1031
0.0
1021
142.8471400329492
1031
0.0
1000
R14_HATCH_DATA
1000
50E
1011
1.0
1021
0.0
1031
0.0
1021
0.0
1031
0.0
1011
0.0
1021
0.0
1031
0.0
1021
1.0
1031
0.0
1011
0.0
1021
0.0
1031
0.0
1021
0.0
1031
1.0
1040
0.0
1010
0.0
1020
0.0
1030
1.0
1000
ANSI31
1070
     0
1070
     1
1071
        1
1071
        7
1070
     0
1070
     1
1071
        4
1040
119.2549179790949
1040
161.7591984321038
1040
81.754917979094898
1040
161.75919843210389
1040
81.754917979094898
1040
129.00919843210389
1040
119.2549179790946
1040
129.0091984321038
1071
        4
1005
4B8
1005
4B7
1005
4B6
1005
4B5
1070
     1
1070
     1
1040
0.7853981633974483
1040
12.0
1070
     0
1070
     1
1040
1.5707963267948959
1040
0.0
1040
0.0
1040
-1.5
1040
0.0000000000000002
1070
     0
1040
0.1163716118448113
1071
        1
1040
94.568756825699424
1040
142.8471400329492
1040
0.0
1002
}
  0
ENDSEC
  0
EOF
