  0
SECTION
  2
HEADER
  9
$ACADVER
  1
AC1009
  9
$INSBASE
 10
0.0
 20
0.0
 30
0.0
  9
$EXTMIN
 10
27.10736900569907
 20
-0.0183529724638447
 30
-0.0000000349181948
  9
$EXTMAX
 10
447.12487966090038
 20
316.69758771517468
 30
0.0000000814935746
  9
$LIMMIN
 10
0.0
 20
0.0
  9
$LIMMAX
 10
12.0
 20
9.0
  9
$ORTHOMODE
 70
     1
  9
$REGENMODE
 70
     1
  9
$FILLMODE
 70
     1
  9
$QTEXTMODE
 70
     0
  9
$MIRRTEXT
 70
     0
  9
$DRAGMODE
 70
     2
  9
$LTSCALE
 40
1.0
  9
$OSMODE
 70
    37
  9
$ATTMODE
 70
     1
  9
$TEXTSIZE
 40
0.2
  9
$TRACEWID
 40
0.05
  9
$TEXTSTYLE
  7
ROMANS
  9
$CLAYER
  8
0
  9
$CELTYPE
  6
BYLAYER
  9
$CECOLOR
 62
   256
  9
$DIMSCALE
 40
1.0
  9
$DIMASZ
 40
0.09375
  9
$DIMEXO
 40
0.0625
  9
$DIMDLI
 40
0.375
  9
$DIMRND
 40
0.0
  9
$DIMDLE
 40
0.0
  9
$DIMEXE
 40
0.03125
  9
$DIMTP
 40
0.0
  9
$DIMTM
 40
0.0
  9
$DIMTXT
 40
0.09375
  9
$DIMCEN
 40
0.09375
  9
$DIMTSZ
 40
0.0
  9
$DIMTOL
 70
     0
  9
$DIMLIM
 70
     0
  9
$DIMTIH
 70
     0
  9
$DIMTOH
 70
     0
  9
$DIMSE1
 70
     0
  9
$DIMSE2
 70
     0
  9
$DIMTAD
 70
     0
  9
$DIMZIN
 70
     0
  9
$DIMBLK
  1

  9
$DIMASO
 70
     1
  9
$DIMSHO
 70
     1
  9
$DIMPOST
  1

  9
$DIMAPOST
  1

  9
$DIMALT
 70
     0
  9
$DIMALTD
 70
     2
  9
$DIMALTF
 40
25.399999999999999
  9
$DIMLFAC
 40
1.0
  9
$DIMTOFL
 70
     0
  9
$DIMTVP
 40
0.0
  9
$DIMTIX
 70
     0
  9
$DIMSOXD
 70
     0
  9
$DIMSAH
 70
     0
  9
$DIMBLK1
  1

  9
$DIMBLK2
  1

  9
$DIMSTYLE
  2
BAC
  9
$DIMCLRD
 70
     0
  9
$DIMCLRE
 70
     6
  9
$DIMCLRT
 70
     0
  9
$DIMTFAC
 40
1.0
  9
$DIMGAP
 40
0.0625
  9
$LUNITS
 70
     5
  9
$LUPREC
 70
     6
  9
$SKETCHINC
 40
0.1
  9
$FILLETRAD
 40
0.5
  9
$AUNITS
 70
     0
  9
$AUPREC
 70
     0
  9
$MENU
  1
.
  9
$ELEVATION
 40
0.0
  9
$PELEVATION
 40
0.0
  9
$THICKNESS
 40
0.0
  9
$LIMCHECK
 70
     0
  9
$BLIPMODE
 70
     0
  9
$CHAMFERA
 40
0.5
  9
$CHAMFERB
 40
0.5
  9
$SKPOLY
 70
     0
  9
$TDCREATE
 40
2456827.6468038778
  9
$TDUPDATE
 40
2456827.6484296639
  9
$TDINDWG
 40
0.0016274884
  9
$TDUSRTIMER
 40
0.001627037
  9
$USRTIMER
 70
     1
  9
$ANGBASE
 50
0.0
  9
$ANGDIR
 70
     0
  9
$PDMODE
 70
     0
  9
$PDSIZE
 40
0.0
  9
$PLINEWID
 40
0.0
  9
$COORDS
 70
     1
  9
$SPLFRAME
 70
     0
  9
$SPLINETYPE
 70
     6
  9
$SPLINESEGS
 70
     8
  9
$ATTDIA
 70
     0
  9
$ATTREQ
 70
     1
  9
$HANDLING
 70
     1
  9
$HANDSEED
  5
9A1
  9
$SURFTAB1
 70
     6
  9
$SURFTAB2
 70
     6
  9
$SURFTYPE
 70
     6
  9
$SURFU
 70
     6
  9
$SURFV
 70
     6
  9
$UCSNAME
  2

  9
$UCSORG
 10
0.0
 20
0.0
 30
0.0
  9
$UCSXDIR
 10
1.0
 20
0.0
 30
0.0
  9
$UCSYDIR
 10
0.0
 20
1.0
 30
0.0
  9
$PUCSNAME
  2

  9
$PUCSORG
 10
0.0
 20
0.0
 30
0.0
  9
$PUCSXDIR
 10
1.0
 20
0.0
 30
0.0
  9
$PUCSYDIR
 10
0.0
 20
1.0
 30
0.0
  9
$USERI1
 70
     0
  9
$USERI2
 70
     0
  9
$USERI3
 70
     0
  9
$USERI4
 70
     0
  9
$USERI5
 70
     0
  9
$USERR1
 40
0.0
  9
$USERR2
 40
0.0
  9
$USERR3
 40
0.0
  9
$USERR4
 40
0.0
  9
$USERR5
 40
0.0
  9
$WORLDVIEW
 70
     1
  9
$SHADEDGE
 70
     3
  9
$SHADEDIF
 70
    70
  9
$TILEMODE
 70
     1
  9
$MAXACTVP
 70
    48
  9
$PLIMCHECK
 70
     0
  9
$PEXTMIN
 10
1.0000000000000000E+020
 20
1.0000000000000000E+020
 30
1.0000000000000000E+020
  9
$PEXTMAX
 10
-1.0000000000000000E+020
 20
-1.0000000000000000E+020
 30
-1.0000000000000000E+020
  9
$PLIMMIN
 10
0.0
 20
0.0
  9
$PLIMMAX
 10
12.0
 20
9.0
  9
$UNITMODE
 70
     0
  9
$VISRETAIN
 70
     1
  9
$PLINEGEN
 70
     0
  9
$PSLTSCALE
 70
     1
  0
ENDSEC
  0
SECTION
  2
TABLES
  0
TABLE
  2
VPORT
 70
     1
  0
VPORT
  2
*ACTIVE
 70
     0
 10
0.0
 20
0.0
 11
1.0
 21
1.0
 12
-0.0028827095665775
 22
8.999188490986711
 13
0.0
 23
0.0
 14
0.5
 24
0.5
 15
0.5
 25
0.5
 16
0.0
 26
-3.9300144005244131
 36
727.77337050188714
 17
237.11900704286629
 27
149.33594294998011
 37
0.8064219303662412
 40
318.81805018493822
 41
1.7702552719200879
 42
50.0
 43
0.0
 44
0.0
 50
0.0
 51
0.0
 71
     0
 72
   100
 73
     1
 74
     1
 75
     0
 76
     0
 77
     0
 78
     0
  0
ENDTAB
  0
TABLE
  2
LTYPE
 70
    19
  0
LTYPE
  2
CONTINUOUS
 70
     0
  3
Solid line
 72
    65
 73
     0
 40
0.0
  0
LTYPE
  2
CENTER
 70
     0
  3
Center ____ _ ____ _ ____ _ ____ _ ____ _ ____
 72
    65
 73
     4
 40
2.0
 49
1.25
 49
-0.25
 49
0.25
 49
-0.25
  0
LTYPE
  2
CENTER2
 70
     0
  3
Center (.5x) ___ _ ___ _ ___ _ ___ _ ___ _ ___
 72
    65
 73
     4
 40
1.125
 49
0.75
 49
-0.125
 49
0.125
 49
-0.125
  0
LTYPE
  2
HIDDEN
 70
     0
  3
Hidden __ __ __ __ __ __ __ __ __ __ __ __ __ _
 72
    65
 73
     2
 40
0.375
 49
0.25
 49
-0.125
  0
LTYPE
  2
HIDDEN2
 70
     0
  3
Hidden (.5x) _ _ _ _ _ _ _ _ _ _ _ _ _ _ _ _ _
 72
    65
 73
     2
 40
0.1875
 49
0.125
 49
-0.0625
  0
LTYPE
  2
PHANTOM2
 70
     0
  3
Phantom (.5x) ___ _ _ ___ _ _ ___ _ _ ___ _ _
 72
    65
 73
     6
 40
1.25
 49
0.625
 49
-0.125
 49
0.125
 49
-0.125
 49
0.125
 49
-0.125
  0
LTYPE
  2
AMCONSTR
 70
     0
  3
_______________________
 72
    65
 73
     2
 40
9999.0
 49
9999.0
 49
0.0
  0
LTYPE
  2
AMZIGZAG2
 70
     0
  3
/\/-/\/-/\/-/\/-/\/-/\/
 72
    65
 73
     2
 40
0.4401
 49
0.0001
 49
-0.4400000000000001
  0
LTYPE
  2
ACANSTGB
 70
     0
  3
__ . . __ . .
 72
    65
 73
     6
 40
0.35433070866
 49
0.15748031496
 49
-0.03937007874
 49
0.03937007874
 49
-0.03937007874
 49
0.03937007874
 49
-0.03937007874
  0
LTYPE
  2
ACANSTGL
 70
     0
  3
_ _ _ _ _
 72
    65
 73
     2
 40
0.11811023622
 49
0.07874015748
 49
-0.03937007874
  0
ENDTAB
  0
TABLE
  2
LAYER
 70
     8
  0
LAYER
  2
0
 70
     0
 62
     7
  6
CONTINUOUS
  0
ENDTAB
  0
TABLE
  2
STYLE
 70
    11
  0
STYLE
  2
STANDARD
 70
     0
 40
0.0
 41
1.0
 50
0.0
 71
     0
 42
0.2
  3
txt
  4

  0
STYLE
  2
ROMANS
 70
     0
 40
0.0
 41
0.75
 50
0.0
 71
     0
 42
0.2
  3
romans.shx
  4

  0
STYLE
  2

 70
     1
 40
0.0
 41
1.0
 50
0.0
 71
     0
 42
0.2
  3
genltshp.shx
  4

  0
STYLE
  2
ACANSGDT
 70
     0
 40
0.0
 41
1.0
 50
0.0
 71
     0
 42
0.2
  3
amgdt.shx
  4

  0
ENDTAB
  0
TABLE
  2
VIEW
 70
     0
  0
ENDTAB
  0
TABLE
  2
UCS
 70
     0
  0
ENDTAB
  0
TABLE
  2
APPID
 70
    14
  0
APPID
  2
ACAD
 70
     0
  0
APPID
  2
ACAD_MLEADERVER
 70
     0
  0
APPID
  2
ACAD_DSTYLE_DIMJAG
 70
     0
  0
APPID
  2
ACAD_DSTYLE_DIMTALN
 70
     0
  0
APPID
  2
ACAD_PSEXT
 70
     0
  0
APPID
  2
ACADANNOPO
 70
     0
  0
APPID
  2
MCAD_NO_VIS
 70
     0
  0
APPID
  2
ACAD_TEMP_GRAPHIC
 70
     0
  0
APPID
  2
ACATTRIBSERVICES
 70
     0
  0
APPID
  2
DESIGNERASSEMBLIES
 70
     0
  0
APPID
  2
ACAD_DSTYLE_DIMBREAK
 70
     0
  0
APPID
  2
ACAD_NAV_VCDISPLAY
 70
     0
  0
APPID
  2
GRADIENTCOLOR1ACI
 70
     0
  0
APPID
  2
GRADIENTCOLOR2ACI
 70
     0
  0
ENDTAB
  0
TABLE
  2
DIMSTYLE
 70
    13
  0
DIMSTYLE
  2
BAC
 70
     0
  3

  4

  5

  6

  7

 40
1.0
 41
0.09375
 42
0.0625
 43
0.375
 44
0.03125
 45
0.0
 46
0.0
 47
0.0
 48
0.0
140
0.09375
141
0.09375
142
0.0
143
25.399999999999999
144
1.0
145
0.0
146
1.0
147
0.0625
 71
     0
 72
     0
 73
     0
 74
     0
 75
     0
 76
     0
 77
     0
 78
     0
170
     0
171
     2
172
     0
173
     0
174
     0
175
     0
176
     0
177
     6
178
     0
  0
DIMSTYLE
  2
AM_ANSI
 70
     0
  3

  4
mm
  5

  6

  7

 40
1.0
 41
0.12
 42
0.05
 43
0.5
 44
0.1
 45
0.0
 46
0.0
 47
0.1
 48
0.1
140
0.12
141
0.0
142
0.0
143
25.399999999999999
144
1.0
145
0.0
146
0.71
147
0.06
 71
     0
 72
     0
 73
     1
 74
     1
 75
     0
 76
     0
 77
     0
 78
     7
170
     0
171
     2
172
     0
173
     0
174
     0
175
     0
176
   256
177
   256
178
     2
  0
DIMSTYLE
  2
AM_ANSI$3
 70
     0
  3

  4
mm
  5

  6

  7

 40
1.0
 41
0.12
 42
0.05
 43
0.5
 44
0.1
 45
0.0
 46
0.0
 47
0.1
 48
0.1
140
0.12
141
0.0
142
0.0
143
25.399999999999999
144
1.0
145
0.0
146
0.71
147
0.06
 71
     0
 72
     0
 73
     1
 74
     1
 75
     0
 76
     0
 77
     0
 78
     7
170
     0
171
     2
172
     0
173
     0
174
     0
175
     0
176
   256
177
   256
178
     2
  0
DIMSTYLE
  2
AM_ANSI$4
 70
     0
  3

  4
mm
  5

  6

  7

 40
1.0
 41
0.12
 42
0.05
 43
0.5
 44
0.1
 45
0.0
 46
0.0
 47
0.1
 48
0.1
140
0.12
141
0.0
142
0.0
143
25.399999999999999
144
1.0
145
0.0
146
0.71
147
0.06
 71
     0
 72
     0
 73
     1
 74
     1
 75
     0
 76
     0
 77
     0
 78
     7
170
     0
171
     2
172
     0
173
     0
174
     0
175
     0
176
   256
177
   256
178
     2
  0
DIMSTYLE
  2
AM_ANSI$7
 70
     0
  3

  4
mm
  5

  6

  7

 40
1.0
 41
0.12
 42
0.05
 43
0.5
 44
0.1
 45
0.0
 46
0.0
 47
0.1
 48
0.1
140
0.12
141
0.0
142
0.0
143
25.399999999999999
144
1.0
145
0.0
146
0.71
147
0.06
 71
     0
 72
     0
 73
     1
 74
     1
 75
     0
 76
     0
 77
     0
 78
     7
170
     0
171
     2
172
     0
173
     0
174
     0
175
     0
176
   256
177
   256
178
     2
  0
DIMSTYLE
  2
AM_ANSI$SF
 70
     0
  3

  4
mm
  5

  6

  7

 40
1.0
 41
0.12
 42
0.05
 43
0.5
 44
0.1
 45
0.0
 46
0.0
 47
0.1
 48
0.1
140
0.12
141
0.0
142
0.0
143
25.399999999999999
144
1.0
145
0.0
146
0.71
147
0.06
 71
     0
 72
     0
 73
     1
 74
     1
 75
     1
 76
     1
 77
     0
 78
     7
170
     0
171
     2
172
     0
173
     0
174
     0
175
     0
176
   256
177
   256
178
     2
  0
DIMSTYLE
  2
AM_ANSI$SH
 70
     0
  3

  4
mm
  5

  6
GENAXEH
  7

 40
1.0
 41
0.12
 42
0.05
 43
0.5
 44
0.1
 45
0.0
 46
0.0
 47
0.1
 48
0.1
140
0.12
141
0.0
142
0.0
143
25.399999999999999
144
1.0
145
0.0
146
0.71
147
0.06
 71
     0
 72
     0
 73
     1
 74
     1
 75
     1
 76
     1
 77
     0
 78
     7
170
     0
171
     2
172
     0
173
     1
174
     0
175
     0
176
   256
177
   256
178
     2
  0
DIMSTYLE
  2
STANDARD
 70
     0
  3

  4

  5

  6

  7

 40
1.0
 41
0.18
 42
0.0625
 43
0.38
 44
0.18
 45
0.0
 46
0.0
 47
0.0
 48
0.0
140
0.18
141
0.09
142
0.0
143
25.399999999999999
144
1.0
145
0.0
146
1.0
147
0.09
 71
     0
 72
     0
 73
     1
 74
     1
 75
     0
 76
     0
 77
     0
 78
     0
170
     0
171
     2
172
     0
173
     0
174
     0
175
     0
176
     0
177
     0
178
     0
  0
ENDTAB
  0
ENDSEC
  0
SECTION
  2
BLOCKS
  0
BLOCK
  8
0
  2
$MODEL_SPACE
 70
     0
 10
0.0
 20
0.0
 30
0.0
  3
$MODEL_SPACE
  1

  0
ENDBLK
  5
1A
  8
0
  0
BLOCK
 67
     1
  8
0
  2
$PAPER_SPACE
 70
     0
 10
0.0
 20
0.0
 30
0.0
  3
$PAPER_SPACE
  1

  0
ENDBLK
  5
17
 67
     1
  8
0
  0
BLOCK
  8
0
  2
*U0
 70
     1
 10
0.0
 20
0.0
 30
0.0
  3
*U0
  1

  0
ENDBLK
  5
17A
  8
0
  0
BLOCK
  8
0
  2
GENAXEH
 70
     0
 10
0.0
 20
0.0
 30
0.0
  3
GENAXEH
  1

  0
LINE
  5
1AD
  8
0
 10
-1.0
 20
0.0
 30
0.0
 11
1.0
 21
0.0
 31
0.0
  0
ENDBLK
  5
1AF
  8
0
  0
BLOCK
  8
0
  2
*X3
 70
     1
 10
0.0
 20
0.0
 30
0.0
  3
*X3
  1

  0
LINE
  5
88F
  8
0
 62
     0
 10
444.0
 20
4.0000045037580163
 30
0.0
 11
444.0
 21
42.500004503758561
 31
0.0
  0
LINE
  5
890
  8
0
 62
     0
 10
442.49999999999989
 20
4.0000045037580012
 30
0.0
 11
442.49999999999989
 21
42.500004503758547
 31
0.0
  0
LINE
  5
891
  8
0
 62
     0
 10
441.0
 20
4.0000045037579861
 30
0.0
 11
441.0
 21
42.500004503758532
 31
0.0
  0
LINE
  5
892
  8
0
 62
     0
 10
439.5
 20
4.000004503757971
 30
0.0
 11
439.5
 21
42.500004503758518
 31
0.0
  0
LINE
  5
893
  8
0
 62
     0
 10
420.0
 20
4.0000045037577738
 30
0.0
 11
420.0
 21
42.500004503758312
 31
0.0
  0
LINE
  5
894
  8
0
 62
     0
 10
418.5
 20
4.0000045037577578
 30
0.0
 11
418.5
 21
42.500004503758298
 31
0.0
  0
LINE
  5
895
  8
0
 62
     0
 10
417.0
 20
4.0000045037577419
 30
0.0
 11
417.0
 21
42.500004503758277
 31
0.0
  0
LINE
  5
896
  8
0
 62
     0
 10
415.5
 20
4.0000045037577268
 30
0.0
 11
415.5
 21
42.500004503758269
 31
0.0
  0
LINE
  5
897
  8
0
 62
     0
 10
414.0
 20
4.0000045037577108
 30
0.0
 11
414.0
 21
42.500004503758248
 31
0.0
  0
LINE
  5
898
  8
0
 62
     0
 10
412.5
 20
4.0000045037576948
 30
0.0
 11
412.5
 21
42.500004503758241
 31
0.0
  0
LINE
  5
899
  8
0
 62
     0
 10
411.0
 20
4.0000045037576797
 30
0.0
 11
411.0
 21
42.50000450375822
 31
0.0
  0
LINE
  5
89A
  8
0
 62
     0
 10
409.49999999999989
 20
4.0000045037576637
 30
0.0
 11
409.49999999999989
 21
42.500004503758213
 31
0.0
  0
LINE
  5
89B
  8
0
 62
     0
 10
408.0
 20
4.0000045037576477
 30
0.0
 11
408.0
 21
42.500004503758198
 31
0.0
  0
LINE
  5
89C
  8
0
 62
     0
 10
406.5
 20
4.0000045037576326
 30
0.0
 11
406.5
 21
42.50000450375817
 31
0.0
  0
LINE
  5
89D
  8
0
 62
     0
 10
405.0
 20
4.0000045037576166
 30
0.0
 11
405.0
 21
42.500004503758163
 31
0.0
  0
LINE
  5
89E
  8
0
 62
     0
 10
403.5
 20
4.0000045037576006
 30
0.0
 11
403.5
 21
42.500004503758142
 31
0.0
  0
LINE
  5
89F
  8
0
 62
     0
 10
384.0
 20
4.0000045037578182
 30
0.0
 11
384.0
 21
42.50000450375795
 31
0.0
  0
LINE
  5
8A0
  8
0
 62
     0
 10
382.5
 20
4.0000045037578174
 30
0.0
 11
382.5
 21
42.500004503757928
 31
0.0
  0
LINE
  5
8A1
  8
0
 62
     0
 10
381.0
 20
4.0000045037578174
 30
0.0
 11
381.0
 21
42.500004503757907
 31
0.0
  0
LINE
  5
8A2
  8
0
 62
     0
 10
379.5
 20
4.0000045037578156
 30
0.0
 11
379.5
 21
42.500004503757893
 31
0.0
  0
LINE
  5
8A3
  8
0
 62
     0
 10
378.0
 20
4.0000045037578147
 30
0.0
 11
378.0
 21
42.500004503757893
 31
0.0
  0
LINE
  5
8A4
  8
0
 62
     0
 10
376.5
 20
4.0000045037578147
 30
0.0
 11
376.5
 21
42.500004503757872
 31
0.0
  0
LINE
  5
8A5
  8
0
 62
     0
 10
375.0
 20
4.0000045037578138
 30
0.0
 11
375.0
 21
42.50000450375785
 31
0.0
  0
LINE
  5
8A6
  8
0
 62
     0
 10
373.5
 20
4.0000045037578129
 30
0.0
 11
373.5
 21
42.500004503757843
 31
0.0
  0
LINE
  5
8A7
  8
0
 62
     0
 10
372.0
 20
4.0000045037578129
 30
0.0
 11
372.0
 21
42.500004503757822
 31
0.0
  0
LINE
  5
8A8
  8
0
 62
     0
 10
370.5
 20
4.000004503757812
 30
0.0
 11
370.5
 21
42.500004503757808
 31
0.0
  0
LINE
  5
8A9
  8
0
 62
     0
 10
369.0
 20
4.000004503757812
 30
0.0
 11
369.0
 21
42.500004503757793
 31
0.0
  0
LINE
  5
8AA
  8
0
 62
     0
 10
367.5
 20
4.000004503757812
 30
0.0
 11
367.5
 21
42.500004503757779
 31
0.0
  0
LINE
  5
8AB
  8
0
 62
     0
 10
348.0
 20
4.0000045037570322
 30
0.0
 11
348.0
 21
42.50000450375758
 31
0.0
  0
LINE
  5
8AC
  8
0
 62
     0
 10
346.5
 20
4.0000045037570162
 30
0.0
 11
346.5
 21
42.500004503757573
 31
0.0
  0
LINE
  5
8AD
  8
0
 62
     0
 10
345.0
 20
4.0000045037570002
 30
0.0
 11
345.0
 21
42.500004503757538
 31
0.0
  0
LINE
  5
8AE
  8
0
 62
     0
 10
343.5
 20
4.0000045037569851
 30
0.0
 11
343.5
 21
42.50000450375753
 31
0.0
  0
LINE
  5
8AF
  8
0
 62
     0
 10
342.0
 20
4.0000045037569691
 30
0.0
 11
342.0
 21
42.500004503757509
 31
0.0
  0
LINE
  5
8B0
  8
0
 62
     0
 10
340.5
 20
4.0000045037569532
 30
0.0
 11
340.5
 21
42.500004503757502
 31
0.0
  0
LINE
  5
8B1
  8
0
 62
     0
 10
339.0
 20
4.0000045037569381
 30
0.0
 11
339.0
 21
42.500004503757488
 31
0.0
  0
LINE
  5
8B2
  8
0
 62
     0
 10
337.5
 20
4.0000045037569221
 30
0.0
 11
337.5
 21
42.500004503757467
 31
0.0
  0
LINE
  5
8B3
  8
0
 62
     0
 10
336.0
 20
4.0000045037569061
 30
0.0
 11
336.0
 21
42.500004503757452
 31
0.0
  0
LINE
  5
8B4
  8
0
 62
     0
 10
334.5
 20
4.0000045037568901
 30
0.0
 11
334.5
 21
42.500004503757431
 31
0.0
  0
LINE
  5
8B5
  8
0
 62
     0
 10
333.0
 20
4.0000045037568741
 30
0.0
 11
333.0
 21
42.500004503757417
 31
0.0
  0
LINE
  5
8B6
  8
0
 62
     0
 10
331.5
 20
4.000004503756859
 30
0.0
 11
331.5
 21
42.50000450375741
 31
0.0
  0
LINE
  5
8B7
  8
0
 62
     0
 10
312.0
 20
4.0000045037566476
 30
0.0
 11
312.0
 21
42.500004503757211
 31
0.0
  0
LINE
  5
8B8
  8
0
 62
     0
 10
310.5
 20
4.0000045037566334
 30
0.0
 11
310.5
 21
42.500004503757189
 31
0.0
  0
LINE
  5
8B9
  8
0
 62
     0
 10
309.0
 20
4.0000045037566183
 30
0.0
 11
309.0
 21
42.500004503757182
 31
0.0
  0
LINE
  5
8BA
  8
0
 62
     0
 10
307.5
 20
4.0000045037566023
 30
0.0
 11
307.5
 21
42.500004503757161
 31
0.0
  0
LINE
  5
8BB
  8
0
 62
     0
 10
306.0
 20
4.0000045037565872
 30
0.0
 11
306.0
 21
42.50000450375714
 31
0.0
  0
LINE
  5
8BC
  8
0
 62
     0
 10
366.11700650557441
 20
4.5
 30
0.0
 11
384.12600616024588
 21
4.5
 31
0.0
  0
LINE
  5
8BD
  8
0
 62
     0
 10
402.10902182234349
 20
4.5
 30
0.0
 11
420.1176855628425
 21
4.5
 31
0.0
  0
LINE
  5
8BE
  8
0
 62
     0
 10
330.1245951966913
 20
4.5
 30
0.0
 11
348.11700650557441
 21
4.5
 31
0.0
  0
LINE
  5
8BF
  8
0
 62
     0
 10
438.10299197542281
 20
4.5
 30
0.0
 11
445.49200650557441
 21
4.5
 31
0.0
  0
LINE
  5
8C0
  8
0
 62
     0
 10
304.74200650557441
 20
4.5
 30
0.0
 11
312.11555566632268
 21
4.5
 31
0.0
  0
LINE
  5
8C1
  8
0
 62
     0
 10
366.11700650557441
 20
6.0
 30
0.0
 11
384.12600616024588
 21
6.0
 31
0.0
  0
LINE
  5
8C2
  8
0
 62
     0
 10
402.10902182234349
 20
6.0
 30
0.0
 11
420.1176855628425
 21
6.0
 31
0.0
  0
LINE
  5
8C3
  8
0
 62
     0
 10
330.1245951966913
 20
6.0
 30
0.0
 11
348.11700650557441
 21
6.0
 31
0.0
  0
LINE
  5
8C4
  8
0
 62
     0
 10
438.10299197542281
 20
6.0
 30
0.0
 11
445.49200650557441
 21
6.0
 31
0.0
  0
LINE
  5
8C5
  8
0
 62
     0
 10
304.74200650557441
 20
6.0
 30
0.0
 11
312.11555566632268
 21
6.0
 31
0.0
  0
LINE
  5
8C6
  8
0
 62
     0
 10
366.11700650557441
 20
7.5
 30
0.0
 11
384.12600616024588
 21
7.5
 31
0.0
  0
LINE
  5
8C7
  8
0
 62
     0
 10
402.10902182234349
 20
7.5
 30
0.0
 11
420.1176855628425
 21
7.5
 31
0.0
  0
LINE
  5
8C8
  8
0
 62
     0
 10
330.1245951966913
 20
7.5
 30
0.0
 11
348.11700650557441
 21
7.5
 31
0.0
  0
LINE
  5
8C9
  8
0
 62
     0
 10
438.10299197542281
 20
7.5
 30
0.0
 11
445.49200650557441
 21
7.5
 31
0.0
  0
LINE
  5
8CA
  8
0
 62
     0
 10
304.74200650557441
 20
7.5
 30
0.0
 11
312.11555566632268
 21
7.5
 31
0.0
  0
LINE
  5
8CB
  8
0
 62
     0
 10
366.11700650557441
 20
9.0
 30
0.0
 11
384.12600616024588
 21
9.0
 31
0.0
  0
LINE
  5
8CC
  8
0
 62
     0
 10
402.10902182234349
 20
9.0
 30
0.0
 11
420.1176855628425
 21
9.0
 31
0.0
  0
LINE
  5
8CD
  8
0
 62
     0
 10
330.1245951966913
 20
9.0
 30
0.0
 11
348.11700650557441
 21
9.0
 31
0.0
  0
LINE
  5
8CE
  8
0
 62
     0
 10
438.10299197542281
 20
9.0
 30
0.0
 11
445.49200650557441
 21
9.0
 31
0.0
  0
LINE
  5
8CF
  8
0
 62
     0
 10
304.74200650557441
 20
9.0
 30
0.0
 11
312.11555566632268
 21
9.0
 31
0.0
  0
LINE
  5
8D0
  8
0
 62
     0
 10
366.11700650557441
 20
10.5
 30
0.0
 11
384.12600616024588
 21
10.5
 31
0.0
  0
LINE
  5
8D1
  8
0
 62
     0
 10
402.10902182234349
 20
10.5
 30
0.0
 11
420.1176855628425
 21
10.5
 31
0.0
  0
LINE
  5
8D2
  8
0
 62
     0
 10
330.1245951966913
 20
10.5
 30
0.0
 11
348.11700650557441
 21
10.5
 31
0.0
  0
LINE
  5
8D3
  8
0
 62
     0
 10
438.10299197542281
 20
10.5
 30
0.0
 11
445.49200650557441
 21
10.5
 31
0.0
  0
LINE
  5
8D4
  8
0
 62
     0
 10
304.74200650557441
 20
10.5
 30
0.0
 11
312.11555566632268
 21
10.5
 31
0.0
  0
LINE
  5
8D5
  8
0
 62
     0
 10
366.11700650557441
 20
12.0
 30
0.0
 11
384.12600616024588
 21
12.0
 31
0.0
  0
LINE
  5
8D6
  8
0
 62
     0
 10
402.10902182234349
 20
12.0
 30
0.0
 11
420.1176855628425
 21
12.0
 31
0.0
  0
LINE
  5
8D7
  8
0
 62
     0
 10
330.1245951966913
 20
12.0
 30
0.0
 11
348.11700650557441
 21
12.0
 31
0.0
  0
LINE
  5
8D8
  8
0
 62
     0
 10
438.10299197542281
 20
12.0
 30
0.0
 11
445.49200650557441
 21
12.0
 31
0.0
  0
LINE
  5
8D9
  8
0
 62
     0
 10
304.74200650557441
 20
12.0
 30
0.0
 11
312.11555566632268
 21
12.0
 31
0.0
  0
LINE
  5
8DA
  8
0
 62
     0
 10
366.11700650557441
 20
13.5
 30
0.0
 11
384.12600616024588
 21
13.5
 31
0.0
  0
LINE
  5
8DB
  8
0
 62
     0
 10
402.10902182234349
 20
13.5
 30
0.0
 11
420.1176855628425
 21
13.5
 31
0.0
  0
LINE
  5
8DC
  8
0
 62
     0
 10
330.1245951966913
 20
13.5
 30
0.0
 11
348.11700650557441
 21
13.5
 31
0.0
  0
LINE
  5
8DD
  8
0
 62
     0
 10
438.10299197542281
 20
13.5
 30
0.0
 11
445.4920065055743
 21
13.5
 31
0.0
  0
LINE
  5
8DE
  8
0
 62
     0
 10
304.74200650557441
 20
13.5
 30
0.0
 11
312.11555566632268
 21
13.5
 31
0.0
  0
LINE
  5
8DF
  8
0
 62
     0
 10
366.11700650557441
 20
15.0
 30
0.0
 11
384.12600616024588
 21
15.0
 31
0.0
  0
LINE
  5
8E0
  8
0
 62
     0
 10
402.10902182234349
 20
15.0
 30
0.0
 11
420.1176855628425
 21
15.0
 31
0.0
  0
LINE
  5
8E1
  8
0
 62
     0
 10
330.1245951966913
 20
15.0
 30
0.0
 11
348.11700650557441
 21
15.0
 31
0.0
  0
LINE
  5
8E2
  8
0
 62
     0
 10
438.10299197542281
 20
15.0
 30
0.0
 11
445.4920065055743
 21
15.0
 31
0.0
  0
LINE
  5
8E3
  8
0
 62
     0
 10
304.7420065055743
 20
15.0
 30
0.0
 11
312.11555566632268
 21
15.0
 31
0.0
  0
LINE
  5
8E4
  8
0
 62
     0
 10
366.11700650557441
 20
16.5
 30
0.0
 11
384.12600616024588
 21
16.5
 31
0.0
  0
LINE
  5
8E5
  8
0
 62
     0
 10
402.10902182234349
 20
16.5
 30
0.0
 11
420.1176855628425
 21
16.5
 31
0.0
  0
LINE
  5
8E6
  8
0
 62
     0
 10
330.1245951966913
 20
16.5
 30
0.0
 11
348.11700650557441
 21
16.5
 31
0.0
  0
LINE
  5
8E7
  8
0
 62
     0
 10
438.10299197542281
 20
16.5
 30
0.0
 11
445.4920065055743
 21
16.5
 31
0.0
  0
LINE
  5
8E8
  8
0
 62
     0
 10
304.7420065055743
 20
16.5
 30
0.0
 11
312.11555566632268
 21
16.5
 31
0.0
  0
LINE
  5
8E9
  8
0
 62
     0
 10
366.11700650557441
 20
18.0
 30
0.0
 11
384.12600616024588
 21
18.0
 31
0.0
  0
LINE
  5
8EA
  8
0
 62
     0
 10
402.10902182234349
 20
18.0
 30
0.0
 11
420.1176855628425
 21
18.0
 31
0.0
  0
LINE
  5
8EB
  8
0
 62
     0
 10
330.1245951966913
 20
18.0
 30
0.0
 11
348.11700650557441
 21
18.0
 31
0.0
  0
LINE
  5
8EC
  8
0
 62
     0
 10
438.10299197542281
 20
18.0
 30
0.0
 11
445.4920065055743
 21
18.0
 31
0.0
  0
LINE
  5
8ED
  8
0
 62
     0
 10
304.7420065055743
 20
18.0
 30
0.0
 11
312.11555566632268
 21
18.0
 31
0.0
  0
LINE
  5
8EE
  8
0
 62
     0
 10
366.11700650557441
 20
19.5
 30
0.0
 11
384.12600616024588
 21
19.5
 31
0.0
  0
LINE
  5
8EF
  8
0
 62
     0
 10
402.10902182234349
 20
19.5
 30
0.0
 11
420.1176855628425
 21
19.5
 31
0.0
  0
LINE
  5
8F0
  8
0
 62
     0
 10
330.1245951966913
 20
19.5
 30
0.0
 11
348.11700650557441
 21
19.5
 31
0.0
  0
LINE
  5
8F1
  8
0
 62
     0
 10
438.10299197542281
 20
19.5
 30
0.0
 11
445.4920065055743
 21
19.5
 31
0.0
  0
LINE
  5
8F2
  8
0
 62
     0
 10
304.7420065055743
 20
19.5
 30
0.0
 11
312.11555566632268
 21
19.5
 31
0.0
  0
LINE
  5
8F3
  8
0
 62
     0
 10
366.11700650557441
 20
21.0
 30
0.0
 11
384.12600616024588
 21
21.0
 31
0.0
  0
LINE
  5
8F4
  8
0
 62
     0
 10
402.10902182234349
 20
21.0
 30
0.0
 11
420.1176855628425
 21
21.0
 31
0.0
  0
LINE
  5
8F5
  8
0
 62
     0
 10
330.1245951966913
 20
21.0
 30
0.0
 11
348.11700650557441
 21
21.0
 31
0.0
  0
LINE
  5
8F6
  8
0
 62
     0
 10
438.10299197542281
 20
21.0
 30
0.0
 11
445.4920065055743
 21
21.0
 31
0.0
  0
LINE
  5
8F7
  8
0
 62
     0
 10
304.74200650557418
 20
21.0
 30
0.0
 11
312.11555566632268
 21
21.0
 31
0.0
  0
LINE
  5
8F8
  8
0
 62
     0
 10
366.11700650557441
 20
22.5
 30
0.0
 11
384.12600616024588
 21
22.5
 31
0.0
  0
LINE
  5
8F9
  8
0
 62
     0
 10
402.10902182234349
 20
22.5
 30
0.0
 11
420.1176855628425
 21
22.5
 31
0.0
  0
LINE
  5
8FA
  8
0
 62
     0
 10
330.1245951966913
 20
22.5
 30
0.0
 11
348.11700650557441
 21
22.5
 31
0.0
  0
LINE
  5
8FB
  8
0
 62
     0
 10
438.10299197542281
 20
22.5
 30
0.0
 11
445.4920065055743
 21
22.5
 31
0.0
  0
LINE
  5
8FC
  8
0
 62
     0
 10
304.74200650557418
 20
22.5
 30
0.0
 11
312.11555566632268
 21
22.5
 31
0.0
  0
LINE
  5
8FD
  8
0
 62
     0
 10
366.11700650557441
 20
24.0
 30
0.0
 11
384.12600616024588
 21
24.0
 31
0.0
  0
LINE
  5
8FE
  8
0
 62
     0
 10
402.10902182234349
 20
24.0
 30
0.0
 11
420.1176855628425
 21
24.0
 31
0.0
  0
LINE
  5
8FF
  8
0
 62
     0
 10
330.1245951966913
 20
24.0
 30
0.0
 11
348.11700650557441
 21
24.0
 31
0.0
  0
LINE
  5
900
  8
0
 62
     0
 10
438.10299197542281
 20
24.0
 30
0.0
 11
445.49200650557418
 21
24.0
 31
0.0
  0
LINE
  5
901
  8
0
 62
     0
 10
304.74200650557418
 20
24.0
 30
0.0
 11
312.11555566632268
 21
24.0
 31
0.0
  0
LINE
  5
902
  8
0
 62
     0
 10
366.11700650557441
 20
25.5
 30
0.0
 11
384.12600616024588
 21
25.5
 31
0.0
  0
LINE
  5
903
  8
0
 62
     0
 10
402.10902182234349
 20
25.5
 30
0.0
 11
420.1176855628425
 21
25.5
 31
0.0
  0
LINE
  5
904
  8
0
 62
     0
 10
330.1245951966913
 20
25.5
 30
0.0
 11
348.11700650557441
 21
25.5
 31
0.0
  0
LINE
  5
905
  8
0
 62
     0
 10
438.10299197542281
 20
25.5
 30
0.0
 11
445.49200650557418
 21
25.5
 31
0.0
  0
LINE
  5
906
  8
0
 62
     0
 10
304.74200650557418
 20
25.5
 30
0.0
 11
312.11555566632268
 21
25.5
 31
0.0
  0
LINE
  5
907
  8
0
 62
     0
 10
366.11700650557441
 20
27.0
 30
0.0
 11
384.12600616024588
 21
27.0
 31
0.0
  0
LINE
  5
908
  8
0
 62
     0
 10
402.10902182234349
 20
27.0
 30
0.0
 11
420.1176855628425
 21
27.0
 31
0.0
  0
LINE
  5
909
  8
0
 62
     0
 10
330.1245951966913
 20
27.0
 30
0.0
 11
348.11700650557441
 21
27.0
 31
0.0
  0
LINE
  5
90A
  8
0
 62
     0
 10
438.10299197542281
 20
27.0
 30
0.0
 11
445.49200650557418
 21
27.0
 31
0.0
  0
LINE
  5
90B
  8
0
 62
     0
 10
304.74200650557418
 20
27.0
 30
0.0
 11
312.11555566632268
 21
27.0
 31
0.0
  0
LINE
  5
90C
  8
0
 62
     0
 10
366.11700650557441
 20
28.5
 30
0.0
 11
384.12600616024588
 21
28.5
 31
0.0
  0
LINE
  5
90D
  8
0
 62
     0
 10
402.10902182234349
 20
28.5
 30
0.0
 11
420.1176855628425
 21
28.5
 31
0.0
  0
LINE
  5
90E
  8
0
 62
     0
 10
330.1245951966913
 20
28.5
 30
0.0
 11
348.11700650557441
 21
28.5
 31
0.0
  0
LINE
  5
90F
  8
0
 62
     0
 10
438.10299197542281
 20
28.5
 30
0.0
 11
445.49200650557418
 21
28.5
 31
0.0
  0
LINE
  5
910
  8
0
 62
     0
 10
304.74200650557418
 20
28.5
 30
0.0
 11
312.11555566632268
 21
28.5
 31
0.0
  0
LINE
  5
911
  8
0
 62
     0
 10
366.11700650557441
 20
30.0
 30
0.0
 11
384.12600616024588
 21
30.0
 31
0.0
  0
LINE
  5
912
  8
0
 62
     0
 10
402.10902182234349
 20
30.0
 30
0.0
 11
420.1176855628425
 21
30.0
 31
0.0
  0
LINE
  5
913
  8
0
 62
     0
 10
330.1245951966913
 20
30.0
 30
0.0
 11
348.11700650557441
 21
30.0
 31
0.0
  0
LINE
  5
914
  8
0
 62
     0
 10
438.10299197542281
 20
30.0
 30
0.0
 11
445.49200650557412
 21
30.0
 31
0.0
  0
LINE
  5
915
  8
0
 62
     0
 10
304.74200650557418
 20
30.0
 30
0.0
 11
312.11555566632268
 21
30.0
 31
0.0
  0
LINE
  5
916
  8
0
 62
     0
 10
366.11700650557441
 20
31.5
 30
0.0
 11
384.12600616024588
 21
31.5
 31
0.0
  0
LINE
  5
917
  8
0
 62
     0
 10
402.10902182234349
 20
31.5
 30
0.0
 11
420.1176855628425
 21
31.5
 31
0.0
  0
LINE
  5
918
  8
0
 62
     0
 10
330.1245951966913
 20
31.5
 30
0.0
 11
348.11700650557441
 21
31.5
 31
0.0
  0
LINE
  5
919
  8
0
 62
     0
 10
438.10299197542281
 20
31.5
 30
0.0
 11
445.49200650557412
 21
31.5
 31
0.0
  0
LINE
  5
91A
  8
0
 62
     0
 10
304.74200650557418
 20
31.5
 30
0.0
 11
312.11555566632268
 21
31.5
 31
0.0
  0
LINE
  5
91B
  8
0
 62
     0
 10
366.11700650557441
 20
33.0
 30
0.0
 11
384.12600616024588
 21
33.0
 31
0.0
  0
LINE
  5
91C
  8
0
 62
     0
 10
402.10902182234349
 20
33.0
 30
0.0
 11
420.1176855628425
 21
33.0
 31
0.0
  0
LINE
  5
91D
  8
0
 62
     0
 10
330.1245951966913
 20
33.0
 30
0.0
 11
348.11700650557441
 21
33.0
 31
0.0
  0
LINE
  5
91E
  8
0
 62
     0
 10
438.10299197542281
 20
33.0
 30
0.0
 11
445.49200650557412
 21
33.0
 31
0.0
  0
LINE
  5
91F
  8
0
 62
     0
 10
304.74200650557412
 20
33.0
 30
0.0
 11
312.11555566632268
 21
33.0
 31
0.0
  0
LINE
  5
920
  8
0
 62
     0
 10
366.11700650557441
 20
34.5
 30
0.0
 11
384.12600616024588
 21
34.5
 31
0.0
  0
LINE
  5
921
  8
0
 62
     0
 10
402.10902182234349
 20
34.5
 30
0.0
 11
420.1176855628425
 21
34.5
 31
0.0
  0
LINE
  5
922
  8
0
 62
     0
 10
330.1245951966913
 20
34.5
 30
0.0
 11
348.11700650557441
 21
34.5
 31
0.0
  0
LINE
  5
923
  8
0
 62
     0
 10
438.10299197542281
 20
34.5
 30
0.0
 11
445.49200650557412
 21
34.5
 31
0.0
  0
LINE
  5
924
  8
0
 62
     0
 10
304.74200650557412
 20
34.5
 30
0.0
 11
312.11555566632268
 21
34.5
 31
0.0
  0
LINE
  5
925
  8
0
 62
     0
 10
366.11700650557441
 20
36.0
 30
0.0
 11
384.12600616024588
 21
36.0
 31
0.0
  0
LINE
  5
926
  8
0
 62
     0
 10
402.10902182234349
 20
36.0
 30
0.0
 11
420.1176855628425
 21
36.0
 31
0.0
  0
LINE
  5
927
  8
0
 62
     0
 10
330.1245951966913
 20
36.0
 30
0.0
 11
348.11700650557441
 21
36.0
 31
0.0
  0
LINE
  5
928
  8
0
 62
     0
 10
438.10299197542281
 20
36.0
 30
0.0
 11
445.49200650557412
 21
36.0
 31
0.0
  0
LINE
  5
929
  8
0
 62
     0
 10
304.74200650557412
 20
36.0
 30
0.0
 11
312.11555566632268
 21
36.0
 31
0.0
  0
LINE
  5
92A
  8
0
 62
     0
 10
366.11700650557441
 20
37.5
 30
0.0
 11
384.12600616024588
 21
37.5
 31
0.0
  0
LINE
  5
92B
  8
0
 62
     0
 10
402.10902182234349
 20
37.5
 30
0.0
 11
420.1176855628425
 21
37.5
 31
0.0
  0
LINE
  5
92C
  8
0
 62
     0
 10
330.1245951966913
 20
37.5
 30
0.0
 11
348.11700650557441
 21
37.5
 31
0.0
  0
LINE
  5
92D
  8
0
 62
     0
 10
438.10299197542281
 20
37.5
 30
0.0
 11
445.49200650557412
 21
37.5
 31
0.0
  0
LINE
  5
92E
  8
0
 62
     0
 10
304.74200650557412
 20
37.5
 30
0.0
 11
312.11555566632268
 21
37.5
 31
0.0
  0
LINE
  5
92F
  8
0
 62
     0
 10
366.11700650557441
 20
39.0
 30
0.0
 11
384.12600616024588
 21
39.0
 31
0.0
  0
LINE
  5
930
  8
0
 62
     0
 10
402.10902182234349
 20
39.0
 30
0.0
 11
420.1176855628425
 21
39.0
 31
0.0
  0
LINE
  5
931
  8
0
 62
     0
 10
330.1245951966913
 20
39.0
 30
0.0
 11
348.11700650557441
 21
39.0
 31
0.0
  0
LINE
  5
932
  8
0
 62
     0
 10
438.10299197542281
 20
39.0
 30
0.0
 11
445.49200650557412
 21
39.0
 31
0.0
  0
LINE
  5
933
  8
0
 62
     0
 10
304.74200650557412
 20
39.0
 30
0.0
 11
312.11555566632268
 21
39.0
 31
0.0
  0
LINE
  5
934
  8
0
 62
     0
 10
366.11700650557441
 20
40.499999999999993
 30
0.0
 11
384.12600616024588
 21
40.499999999999993
 31
0.0
  0
LINE
  5
935
  8
0
 62
     0
 10
402.10902182234349
 20
40.499999999999993
 30
0.0
 11
420.1176855628425
 21
40.499999999999993
 31
0.0
  0
LINE
  5
936
  8
0
 62
     0
 10
330.1245951966913
 20
40.499999999999993
 30
0.0
 11
348.11700650557441
 21
40.499999999999993
 31
0.0
  0
LINE
  5
937
  8
0
 62
     0
 10
438.10299197542281
 20
40.499999999999993
 30
0.0
 11
445.49200650557401
 21
40.499999999999993
 31
0.0
  0
LINE
  5
938
  8
0
 62
     0
 10
304.74200650557412
 20
40.499999999999993
 30
0.0
 11
312.11555566632268
 21
40.499999999999993
 31
0.0
  0
LINE
  5
939
  8
0
 62
     0
 10
366.11700650557441
 20
42.0
 30
0.0
 11
384.12600616024588
 21
42.0
 31
0.0
  0
LINE
  5
93A
  8
0
 62
     0
 10
402.10902182234349
 20
42.0
 30
0.0
 11
420.1176855628425
 21
42.0
 31
0.0
  0
LINE
  5
93B
  8
0
 62
     0
 10
330.1245951966913
 20
42.0
 30
0.0
 11
348.11700650557441
 21
42.0
 31
0.0
  0
LINE
  5
93C
  8
0
 62
     0
 10
438.10299197542281
 20
42.0
 30
0.0
 11
445.49200650557401
 21
42.0
 31
0.0
  0
LINE
  5
93D
  8
0
 62
     0
 10
304.74200650557412
 20
42.0
 30
0.0
 11
312.11555566632268
 21
42.0
 31
0.0
  0
ENDBLK
  5
93F
  8
0
  0
BLOCK
  8
0
  2
*X4
 70
     1
 10
0.0
 20
0.0
 30
0.0
  3
*X4
  1

  0
LINE
  5
941
  8
0
 62
     0
 10
249.16601099415439
 20
314.99999999999989
 30
0.0
 11
211.66601099415439
 21
315.0
 31
0.0
  0
LINE
  5
942
  8
0
 62
     0
 10
249.16601099415439
 20
313.49999999999989
 30
0.0
 11
211.66601099415439
 21
313.5
 31
0.0
  0
LINE
  5
943
  8
0
 62
     0
 10
249.16601099415439
 20
312.0
 30
0.0
 11
211.66601099415439
 21
312.0
 31
0.0
  0
LINE
  5
944
  8
0
 62
     0
 10
249.16601099415439
 20
310.49999999999989
 30
0.0
 11
211.66601099415439
 21
310.5
 31
0.0
  0
LINE
  5
945
  8
0
 62
     0
 10
249.16601099415439
 20
308.99999999999989
 30
0.0
 11
211.66601099415439
 21
309.0
 31
0.0
  0
LINE
  5
946
  8
0
 62
     0
 10
249.16601099415431
 20
307.49999999999989
 30
0.0
 11
211.66601099415439
 21
307.5
 31
0.0
  0
LINE
  5
947
  8
0
 62
     0
 10
249.16601099415431
 20
306.0
 30
0.0
 11
211.66601099415431
 21
306.0
 31
0.0
  0
LINE
  5
948
  8
0
 62
     0
 10
249.16601099415431
 20
304.49999999999989
 30
0.0
 11
211.66601099415431
 21
304.5
 31
0.0
  0
LINE
  5
949
  8
0
 62
     0
 10
249.16601099415431
 20
302.99999999999989
 30
0.0
 11
211.66601099415431
 21
303.0
 31
0.0
  0
LINE
  5
94A
  8
0
 62
     0
 10
249.16601099415431
 20
301.5
 30
0.0
 11
211.66601099415431
 21
301.5
 31
0.0
  0
LINE
  5
94B
  8
0
 62
     0
 10
249.16601099415431
 20
300.0
 30
0.0
 11
211.66601099415431
 21
300.0
 31
0.0
  0
LINE
  5
94C
  8
0
 62
     0
 10
249.16601099415431
 20
298.49999999999989
 30
0.0
 11
211.66601099415431
 21
298.5
 31
0.0
  0
LINE
  5
94D
  8
0
 62
     0
 10
249.16601099415431
 20
296.99999999999989
 30
0.0
 11
211.66601099415431
 21
297.0
 31
0.0
  0
LINE
  5
94E
  8
0
 62
     0
 10
249.16601099415431
 20
295.5
 30
0.0
 11
211.66601099415431
 21
295.5
 31
0.0
  0
LINE
  5
94F
  8
0
 62
     0
 10
249.16601099415431
 20
293.99999999999989
 30
0.0
 11
211.66601099415431
 21
294.0
 31
0.0
  0
LINE
  5
950
  8
0
 62
     0
 10
249.16601099415431
 20
292.49999999999989
 30
0.0
 11
211.66601099415431
 21
292.5
 31
0.0
  0
LINE
  5
951
  8
0
 62
     0
 10
249.16601099415431
 20
291.0
 30
0.0
 11
211.66601099415431
 21
291.0
 31
0.0
  0
LINE
  5
952
  8
0
 62
     0
 10
249.16601099415431
 20
289.49999999999989
 30
0.0
 11
211.66601099415431
 21
289.5
 31
0.0
  0
LINE
  5
953
  8
0
 62
     0
 10
249.16601099415431
 20
287.99999999999989
 30
0.0
 11
211.66601099415431
 21
288.0
 31
0.0
  0
LINE
  5
954
  8
0
 62
     0
 10
249.16601099415431
 20
286.49999999999989
 30
0.0
 11
211.66601099415431
 21
286.5
 31
0.0
  0
LINE
  5
955
  8
0
 62
     0
 10
249.16601099415431
 20
285.0
 30
0.0
 11
211.66601099415431
 21
285.0
 31
0.0
  0
LINE
  5
956
  8
0
 62
     0
 10
249.16601099415431
 20
283.49999999999989
 30
0.0
 11
211.66601099415431
 21
283.5
 31
0.0
  0
LINE
  5
957
  8
0
 62
     0
 10
249.16601099415431
 20
281.99999999999989
 30
0.0
 11
211.66601099415431
 21
282.0
 31
0.0
  0
LINE
  5
958
  8
0
 62
     0
 10
249.16601099415431
 20
280.49999999999989
 30
0.0
 11
211.66601099415431
 21
280.5
 31
0.0
  0
LINE
  5
959
  8
0
 62
     0
 10
249.16601099415431
 20
279.0
 30
0.0
 11
211.66601099415431
 21
279.0
 31
0.0
  0
LINE
  5
95A
  8
0
 62
     0
 10
249.16601099415431
 20
277.49999999999989
 30
0.0
 11
211.66601099415431
 21
277.5
 31
0.0
  0
LINE
  5
95B
  8
0
 62
     0
 10
249.16601099415431
 20
275.99999999999989
 30
0.0
 11
211.66601099415431
 21
276.0
 31
0.0
  0
LINE
  5
95C
  8
0
 62
     0
 10
249.16601099415431
 20
274.5
 30
0.0
 11
211.66601099415431
 21
274.5
 31
0.0
  0
LINE
  5
95D
  8
0
 62
     0
 10
249.16601099415431
 20
272.99999999999989
 30
0.0
 11
211.66601099415431
 21
273.0
 31
0.0
  0
LINE
  5
95E
  8
0
 62
     0
 10
249.16601099415431
 20
271.49999999999989
 30
0.0
 11
211.66601099415431
 21
271.5
 31
0.0
  0
LINE
  5
95F
  8
0
 62
     0
 10
249.16601099415431
 20
269.99999999999989
 30
0.0
 11
211.66601099415431
 21
270.0
 31
0.0
  0
LINE
  5
960
  8
0
 62
     0
 10
249.16601099415431
 20
268.5
 30
0.0
 11
211.66601099415431
 21
268.5
 31
0.0
  0
LINE
  5
961
  8
0
 62
     0
 10
249.16601099415431
 20
266.99999999999989
 30
0.0
 11
211.66601099415431
 21
267.0
 31
0.0
  0
LINE
  5
962
  8
0
 62
     0
 10
249.16601099415419
 20
265.49999999999989
 30
0.0
 11
211.66601099415431
 21
265.5
 31
0.0
  0
LINE
  5
963
  8
0
 62
     0
 10
249.16601099415419
 20
264.0
 30
0.0
 11
211.66601099415431
 21
264.0
 31
0.0
  0
LINE
  5
964
  8
0
 62
     0
 10
249.16601099415419
 20
262.5
 30
0.0
 11
211.66601099415431
 21
262.5
 31
0.0
  0
LINE
  5
965
  8
0
 62
     0
 10
249.16601099415419
 20
260.99999999999989
 30
0.0
 11
211.66601099415431
 21
261.0
 31
0.0
  0
LINE
  5
966
  8
0
 62
     0
 10
249.16601099415419
 20
259.49999999999989
 30
0.0
 11
211.66601099415431
 21
259.5
 31
0.0
  0
LINE
  5
967
  8
0
 62
     0
 10
249.16601099415419
 20
258.0
 30
0.0
 11
211.66601099415431
 21
258.0
 31
0.0
  0
LINE
  5
968
  8
0
 62
     0
 10
249.16601099415419
 20
256.49999999999989
 30
0.0
 11
211.66601099415431
 21
256.5
 31
0.0
  0
LINE
  5
969
  8
0
 62
     0
 10
249.16601099415419
 20
255.0
 30
0.0
 11
211.66601099415431
 21
255.0
 31
0.0
  0
LINE
  5
96A
  8
0
 62
     0
 10
249.16601099415419
 20
253.5
 30
0.0
 11
211.66601099415431
 21
253.5
 31
0.0
  0
LINE
  5
96B
  8
0
 62
     0
 10
249.16601099415419
 20
252.0
 30
0.0
 11
211.66601099415419
 21
252.0
 31
0.0
  0
LINE
  5
96C
  8
0
 62
     0
 10
249.16601099415419
 20
250.5
 30
0.0
 11
211.66601099415419
 21
250.5
 31
0.0
  0
LINE
  5
96D
  8
0
 62
     0
 10
249.16601099415419
 20
249.0
 30
0.0
 11
211.66601099415419
 21
249.0
 31
0.0
  0
LINE
  5
96E
  8
0
 62
     0
 10
249.16601099415419
 20
247.5
 30
0.0
 11
211.66601099415419
 21
247.5
 31
0.0
  0
LINE
  5
96F
  8
0
 62
     0
 10
249.16601099415419
 20
246.0
 30
0.0
 11
211.66601099415419
 21
246.0
 31
0.0
  0
LINE
  5
970
  8
0
 62
     0
 10
249.16601099415419
 20
244.5
 30
0.0
 11
211.66601099415419
 21
244.5
 31
0.0
  0
LINE
  5
971
  8
0
 62
     0
 10
249.16601099415419
 20
243.0
 30
0.0
 11
211.66601099415419
 21
243.0
 31
0.0
  0
LINE
  5
972
  8
0
 62
     0
 10
249.16601099415419
 20
241.5
 30
0.0
 11
211.66601099415419
 21
241.5
 31
0.0
  0
LINE
  5
973
  8
0
 62
     0
 10
249.16601099415419
 20
240.0
 30
0.0
 11
211.66601099415419
 21
240.0
 31
0.0
  0
LINE
  5
974
  8
0
 62
     0
 10
249.16601099415419
 20
238.5
 30
0.0
 11
211.66601099415419
 21
238.5
 31
0.0
  0
LINE
  5
975
  8
0
 62
     0
 10
249.16601099415419
 20
237.0
 30
0.0
 11
211.66601099415419
 21
237.0
 31
0.0
  0
LINE
  5
976
  8
0
 62
     0
 10
249.16601099415419
 20
235.5
 30
0.0
 11
211.66601099415419
 21
235.5
 31
0.0
  0
LINE
  5
977
  8
0
 62
     0
 10
249.16601099415419
 20
234.0
 30
0.0
 11
211.66601099415419
 21
234.0
 31
0.0
  0
LINE
  5
978
  8
0
 62
     0
 10
249.16601099415419
 20
232.5
 30
0.0
 11
211.66601099415419
 21
232.5
 31
0.0
  0
LINE
  5
979
  8
0
 62
     0
 10
249.16601099415419
 20
231.0
 30
0.0
 11
211.66601099415419
 21
231.0
 31
0.0
  0
LINE
  5
97A
  8
0
 62
     0
 10
249.16601099415419
 20
229.5
 30
0.0
 11
211.66601099415419
 21
229.5
 31
0.0
  0
LINE
  5
97B
  8
0
 62
     0
 10
249.16601099415419
 20
228.0
 30
0.0
 11
211.66601099415419
 21
228.0
 31
0.0
  0
LINE
  5
97C
  8
0
 62
     0
 10
249.16601099415419
 20
226.5
 30
0.0
 11
211.66601099415419
 21
226.5
 31
0.0
  0
LINE
  5
97D
  8
0
 62
     0
 10
249.16601099415419
 20
225.0
 30
0.0
 11
211.66601099415419
 21
225.0
 31
0.0
  0
LINE
  5
97E
  8
0
 62
     0
 10
249.16601099415419
 20
223.5
 30
0.0
 11
211.66601099415419
 21
223.5
 31
0.0
  0
LINE
  5
97F
  8
0
 62
     0
 10
249.16601099415419
 20
222.0
 30
0.0
 11
211.66601099415419
 21
222.0
 31
0.0
  0
LINE
  5
980
  8
0
 62
     0
 10
249.16601099415419
 20
220.5
 30
0.0
 11
211.66601099415419
 21
220.5
 31
0.0
  0
LINE
  5
981
  8
0
 62
     0
 10
249.16601099415419
 20
219.0
 30
0.0
 11
211.66601099415419
 21
219.0
 31
0.0
  0
LINE
  5
982
  8
0
 62
     0
 10
249.16601099415419
 20
217.5
 30
0.0
 11
211.66601099415419
 21
217.5
 31
0.0
  0
LINE
  5
983
  8
0
 62
     0
 10
249.16601099415419
 20
216.0
 30
0.0
 11
211.66601099415419
 21
216.0
 31
0.0
  0
LINE
  5
984
  8
0
 62
     0
 10
249.16601099415419
 20
214.5
 30
0.0
 11
211.66601099415419
 21
214.5
 31
0.0
  0
LINE
  5
985
  8
0
 62
     0
 10
249.16601099415419
 20
213.0
 30
0.0
 11
211.66601099415419
 21
213.0
 31
0.0
  0
LINE
  5
986
  8
0
 62
     0
 10
249.16601099415419
 20
211.5
 30
0.0
 11
211.66601099415419
 21
211.5
 31
0.0
  0
LINE
  5
987
  8
0
 62
     0
 10
249.16601099415419
 20
210.0
 30
0.0
 11
211.66601099415419
 21
210.0
 31
0.0
  0
LINE
  5
988
  8
0
 62
     0
 10
249.16601099415411
 20
208.5
 30
0.0
 11
211.66601099415419
 21
208.5
 31
0.0
  0
LINE
  5
989
  8
0
 62
     0
 10
249.16601099415411
 20
207.0
 30
0.0
 11
211.66601099415419
 21
207.0
 31
0.0
  0
LINE
  5
98A
  8
0
 62
     0
 10
249.16601099415411
 20
205.5
 30
0.0
 11
211.66601099415419
 21
205.5
 31
0.0
  0
LINE
  5
98B
  8
0
 62
     0
 10
249.16601099415411
 20
204.0
 30
0.0
 11
211.66601099415419
 21
204.0
 31
0.0
  0
LINE
  5
98C
  8
0
 62
     0
 10
249.16601099415411
 20
202.5
 30
0.0
 11
211.66601099415419
 21
202.5
 31
0.0
  0
LINE
  5
98D
  8
0
 62
     0
 10
249.16601099415411
 20
201.0
 30
0.0
 11
211.66601099415419
 21
201.0
 31
0.0
  0
LINE
  5
98E
  8
0
 62
     0
 10
249.16601099415411
 20
199.49999999999989
 30
0.0
 11
211.66601099415419
 21
199.49999999999989
 31
0.0
  0
LINE
  5
98F
  8
0
 62
     0
 10
249.16601099415411
 20
198.0
 30
0.0
 11
211.66601099415419
 21
198.0
 31
0.0
  0
LINE
  5
990
  8
0
 62
     0
 10
249.16601099415411
 20
196.5
 30
0.0
 11
211.66601099415419
 21
196.5
 31
0.0
  0
LINE
  5
991
  8
0
 62
     0
 10
249.16601099415411
 20
195.0
 30
0.0
 11
211.66601099415419
 21
195.0
 31
0.0
  0
LINE
  5
992
  8
0
 62
     0
 10
249.16601099415411
 20
193.5
 30
0.0
 11
211.66601099415419
 21
193.5
 31
0.0
  0
LINE
  5
993
  8
0
 62
     0
 10
249.16601099415411
 20
191.99999999999989
 30
0.0
 11
211.66601099415419
 21
191.99999999999989
 31
0.0
  0
LINE
  5
994
  8
0
 62
     0
 10
249.16601099415411
 20
190.5
 30
0.0
 11
211.66601099415419
 21
190.5
 31
0.0
  0
LINE
  5
995
  8
0
 62
     0
 10
249.16601099415411
 20
188.99999999999989
 30
0.0
 11
211.66601099415419
 21
188.99999999999989
 31
0.0
  0
LINE
  5
996
  8
0
 62
     0
 10
249.16601099415411
 20
187.5
 30
0.0
 11
211.66601099415419
 21
187.5
 31
0.0
  0
LINE
  5
997
  8
0
 62
     0
 10
249.16601099415411
 20
185.99999999999989
 30
0.0
 11
211.66601099415419
 21
185.99999999999989
 31
0.0
  0
LINE
  5
998
  8
0
 62
     0
 10
249.16601099415411
 20
184.49999999999989
 30
0.0
 11
211.66601099415419
 21
184.49999999999989
 31
0.0
  0
LINE
  5
999
  8
0
 62
     0
 10
249.16601099415411
 20
183.0
 30
0.0
 11
211.66601099415411
 21
183.0
 31
0.0
  0
LINE
  5
99A
  8
0
 62
     0
 10
249.16601099415411
 20
181.49999999999989
 30
0.0
 11
211.66601099415411
 21
181.49999999999989
 31
0.0
  0
LINE
  5
99B
  8
0
 62
     0
 10
249.16601099415411
 20
180.0
 30
0.0
 11
211.66601099415411
 21
180.0
 31
0.0
  0
LINE
  5
99C
  8
0
 62
     0
 10
249.16601099415411
 20
178.49999999999989
 30
0.0
 11
211.66601099415411
 21
178.49999999999989
 31
0.0
  0
LINE
  5
99D
  8
0
 62
     0
 10
249.16601099415411
 20
177.0
 30
0.0
 11
211.66601099415411
 21
177.0
 31
0.0
  0
LINE
  5
99E
  8
0
 62
     0
 10
249.16601099415411
 20
175.49999999999989
 30
0.0
 11
211.66601099415411
 21
175.49999999999989
 31
0.0
  0
ENDBLK
  5
9A0
  8
0
  0
ENDSEC
  0
SECTION
  2
ENTITIES
  0
LINE
  5
39A
  8
0
 10
210.04101099415399
 20
126.12500450375749
 30
0.0
 11
250.79101099415121
 21
126.12500450375749
 31
0.0
  0
LINE
  5
39B
  8
0
 10
250.79101099415121
 20
44.125004503757758
 30
0.0
 11
210.04101099415399
 21
44.125004503757758
 31
0.0
  0
LINE
  5
39C
  8
0
 10
210.04101099415399
 20
44.125004503757758
 30
0.0
 11
210.04101099415399
 21
126.12500450375749
 31
0.0
  0
LINE
  5
39D
  8
0
 10
250.79101099415121
 20
44.125004503757758
 30
0.0
 11
250.79101099415121
 21
126.12500450375749
 31
0.0
  0
LINE
  5
39E
  8
0
 10
210.0410109941547
 20
44.125004503757708
 30
0.0
 11
257.54101099415482
 21
44.125004503757708
 31
0.0
  0
LINE
  5
39F
  8
0
 10
257.54101099415482
 20
0.0000045037577352
 30
0.0
 11
210.0410109941547
 21
0.0000045037577352
 31
0.0
  0
LINE
  5
3A0
  8
0
 10
210.0410109941547
 20
44.125004503757708
 30
0.0
 11
210.0410109941547
 21
0.0000045037577352
 31
0.0
  0
LINE
  5
3A1
  8
0
 10
257.54101099415482
 20
0.0000045037577352
 30
0.0
 11
257.54101099415482
 21
44.125004503757708
 31
0.0
  0
ARC
  5
3A2
  8
0
 10
230.41601099415431
 20
115.87500450375811
 30
0.0
 40
1.9999999999999749
 50
359.9999999999992
 51
180.0
  0
ARC
  5
3A3
  8
0
 10
230.41601099415431
 20
115.87500450375811
 30
0.0
 40
2.0000000000000222
 50
180.0000000000004
 51
359.99999999999841
  0
ARC
  5
3A4
  8
0
 10
240.04101099415419
 20
39.000004503757737
 30
0.0
 40
0.5000000000000036
 50
359.99999999999841
 51
179.99999999999881
  0
ARC
  5
3A5
  8
0
 10
240.04101099415419
 20
39.000004503757737
 30
0.0
 40
0.4999999999999849
 50
180.00000000000119
 51
359.9999999999992
  0
ARC
  5
3A6
  8
0
 10
227.29101099415419
 20
26.125004503757729
 30
0.0
 40
1.0
 50
0.0
 51
179.9999999999998
  0
ARC
  5
3A7
  8
0
 10
227.29101099415419
 20
26.125004503757729
 30
0.0
 40
1.0000000000000151
 50
180.0000000000002
 51
359.99999999999937
  0
ARC
  5
3A8
  8
0
 10
212.29101099415411
 20
8.3750045037577348
 30
0.0
 40
0.9999999999999925
 50
359.9999999999996
 51
179.9999999999996
  0
ARC
  5
3A9
  8
0
 10
212.29101099415411
 20
8.3750045037577348
 30
0.0
 40
1.0000000000000071
 50
180.0000000000002
 51
359.9999999999992
  0
ARC
  5
3AA
  8
0
 10
214.16601099415439
 20
12.875004503758159
 30
0.0
 40
2.0000000000000031
 50
359.9999999999992
 51
179.99999999999949
  0
ARC
  5
3AB
  8
0
 10
214.16601099415439
 20
12.875004503758159
 30
0.0
 40
2.0000000000000022
 50
180.0000000000002
 51
359.9999999999992
  0
LINE
  5
3AC
  8
0
 10
303.11700650557998
 20
126.12500450375749
 30
0.0
 11
447.11700650557458
 21
126.12500450375749
 31
0.0
  0
LINE
  5
3AD
  8
0
 10
303.11700650557998
 20
44.125004503757758
 30
0.0
 11
303.11700650557998
 21
126.12500450375749
 31
0.0
  0
LINE
  5
3AE
  8
0
 10
447.11700650557452
 20
44.125004503757758
 30
0.0
 11
447.11700650557452
 21
126.12500450375749
 31
0.0
  0
LINE
  5
3AF
  8
0
 10
421.11700650557401
 20
5.0000045037577907
 30
0.0
 11
437.11700650557401
 21
5.0000045037577907
 31
0.0
  0
LINE
  5
3B0
  8
0
 10
421.11700650557441
 20
39.801095540177009
 30
0.0
 11
437.11700650557452
 21
39.801095540176981
 31
0.0
  0
LINE
  5
3B1
  8
0
 10
313.1170065055739
 20
5.0000045037579612
 30
0.0
 11
329.11700650557412
 21
5.0000045037579612
 31
0.0
  0
LINE
  5
3B2
  8
0
 10
313.1170065055743
 20
39.801095540177187
 30
0.0
 11
329.11700650557441
 21
39.801095540177158
 31
0.0
  0
LINE
  5
3B3
  8
0
 10
437.11700650557441
 20
4.0000045037577037
 30
0.0
 11
437.11700650557452
 21
42.500004503758241
 31
0.0
  0
LINE
  5
3B4
  8
0
 10
438.10299197542292
 20
42.500004503758241
 30
0.0
 11
438.10299197542281
 21
4.0000045037577037
 31
0.0
  0
LINE
  5
3B5
  8
0
 10
437.11700650557441
 20
4.0000045037577037
 30
0.0
 11
438.10299197542281
 21
4.0000045037577019
 31
0.0
  0
LINE
  5
3B6
  8
0
 10
438.10299197542292
 20
42.500004503758241
 30
0.0
 11
437.11700650557452
 21
42.500004503758241
 31
0.0
  0
LINE
  5
3B7
  8
0
 10
420.1176855628425
 20
4.0000045037577339
 30
0.0
 11
420.1176855628425
 21
42.500004503758277
 31
0.0
  0
LINE
  5
3B8
  8
0
 10
421.11700650557441
 20
42.500004503758277
 30
0.0
 11
421.1170065055743
 21
4.0000045037577294
 31
0.0
  0
LINE
  5
3B9
  8
0
 10
420.1176855628425
 20
4.0000045037577339
 30
0.0
 11
421.1170065055743
 21
4.0000045037577321
 31
0.0
  0
LINE
  5
3BA
  8
0
 10
421.11700650557441
 20
42.500004503758277
 30
0.0
 11
420.1176855628425
 21
42.500004503758277
 31
0.0
  0
LINE
  5
3BB
  8
0
 10
329.11700650557441
 20
4.0000045037578786
 30
0.0
 11
329.11700650557441
 21
42.500004503758419
 31
0.0
  0
LINE
  5
3BC
  8
0
 10
330.12459519669142
 20
42.500004503758419
 30
0.0
 11
330.1245951966913
 21
4.0000045037578786
 31
0.0
  0
LINE
  5
3BD
  8
0
 10
329.11700650557441
 20
4.0000045037578786
 30
0.0
 11
330.1245951966913
 21
4.0000045037578777
 31
0.0
  0
LINE
  5
3BE
  8
0
 10
330.12459519669142
 20
42.500004503758419
 30
0.0
 11
329.11700650557441
 21
42.500004503758419
 31
0.0
  0
LINE
  5
3BF
  8
0
 10
312.11555566632268
 20
4.0000045037579071
 30
0.0
 11
312.11555566632268
 21
42.500004503758447
 31
0.0
  0
LINE
  5
3C0
  8
0
 10
313.1170065055743
 20
42.500004503758447
 30
0.0
 11
313.1170065055743
 21
4.0000045037579062
 31
0.0
  0
LINE
  5
3C1
  8
0
 10
312.11555566632268
 20
4.0000045037579071
 30
0.0
 11
313.1170065055743
 21
4.0000045037579062
 31
0.0
  0
LINE
  5
3C2
  8
0
 10
313.1170065055743
 20
42.500004503758447
 30
0.0
 11
312.11555566632268
 21
42.500004503758447
 31
0.0
  0
LINE
  5
3C3
  8
0
 10
385.11700650557401
 20
5.0000045037579612
 30
0.0
 11
401.11700650557373
 21
5.0000045037577907
 31
0.0
  0
LINE
  5
3C4
  8
0
 10
385.11700650557452
 20
39.801095540177059
 30
0.0
 11
401.11700650557452
 21
39.80109554017703
 31
0.0
  0
LINE
  5
3C5
  8
0
 10
384.12600616024588
 20
4.0000045037577889
 30
0.0
 11
384.12600616024588
 21
42.50000450375834
 31
0.0
  0
LINE
  5
3C6
  8
0
 10
385.11700650557441
 20
42.50000450375834
 30
0.0
 11
385.11700650557441
 21
4.0000045037577889
 31
0.0
  0
LINE
  5
3C7
  8
0
 10
384.12600616024588
 20
4.0000045037577889
 30
0.0
 11
385.11700650557441
 21
4.0000045037577889
 31
0.0
  0
LINE
  5
3C8
  8
0
 10
385.11700650557441
 20
42.50000450375834
 30
0.0
 11
384.12600616024588
 21
42.50000450375834
 31
0.0
  0
LINE
  5
3C9
  8
0
 10
401.1170065055743
 20
4.0000045037577632
 30
0.0
 11
401.1170065055743
 21
42.500004503758312
 31
0.0
  0
LINE
  5
3CA
  8
0
 10
402.10902182234349
 20
42.500004503758312
 30
0.0
 11
402.10902182234349
 21
4.0000045037577632
 31
0.0
  0
LINE
  5
3CB
  8
0
 10
402.10902182234349
 20
4.0000045037577632
 30
0.0
 11
401.1170065055743
 21
4.0000045037577632
 31
0.0
  0
LINE
  5
3CC
  8
0
 10
402.10902182234349
 20
42.500004503758312
 30
0.0
 11
401.1170065055743
 21
42.500004503758312
 31
0.0
  0
LINE
  5
3CD
  8
0
 10
349.11700650557373
 20
5.0000045037577907
 30
0.0
 11
365.11700650557373
 21
5.0000045037579612
 31
0.0
  0
LINE
  5
3CE
  8
0
 10
349.11700650557412
 20
39.801095540176867
 30
0.0
 11
365.11700650557412
 21
39.80109554017703
 31
0.0
  0
LINE
  5
3CF
  8
0
 10
365.11700650557441
 20
4.0000045037578209
 30
0.0
 11
365.11700650557441
 21
42.500004503758369
 31
0.0
  0
LINE
  5
3D0
  8
0
 10
366.11700650557441
 20
42.500004503758369
 30
0.0
 11
366.11700650557441
 21
4.0000045037578209
 31
0.0
  0
LINE
  5
3D1
  8
0
 10
365.11700650557441
 20
4.0000045037578209
 30
0.0
 11
366.11700650557441
 21
4.0000045037578209
 31
0.0
  0
LINE
  5
3D2
  8
0
 10
366.11700650557441
 20
42.500004503758369
 30
0.0
 11
365.11700650557441
 21
42.500004503758369
 31
0.0
  0
LINE
  5
3D3
  8
0
 10
348.11700650557441
 20
4.0000045037578431
 30
0.0
 11
348.11700650557452
 21
42.50000450375839
 31
0.0
  0
LINE
  5
3D4
  8
0
 10
349.11700650557441
 20
42.50000450375839
 30
0.0
 11
349.11700650557441
 21
4.0000045037578431
 31
0.0
  0
LINE
  5
3D5
  8
0
 10
348.11700650557441
 20
4.0000045037578431
 30
0.0
 11
349.11700650557441
 21
4.0000045037578431
 31
0.0
  0
LINE
  5
3D6
  8
0
 10
349.11700650557441
 20
42.50000450375839
 30
0.0
 11
348.11700650557452
 21
42.50000450375839
 31
0.0
  0
LINE
  5
3D7
  8
0
 10
304.74200650557412
 20
42.500004503758369
 30
0.0
 11
304.74200650557412
 21
4.0000045037578147
 31
0.0
  0
LINE
  5
3D8
  8
0
 10
304.74200650557412
 20
4.0000045037578147
 30
0.0
 11
312.11555566632268
 21
4.0000045037578147
 31
0.0
  0
LINE
  5
3D9
  8
0
 10
312.11555566632268
 20
4.0000045037578147
 30
0.0
 11
312.11555566632268
 21
42.500004503758369
 31
0.0
1001
ACAD
1000
ASC_BOUNDS
1002
{
1070
    19
1005
574
1002
}
  0
LINE
  5
3DA
  8
0
 10
312.11555566632268
 20
42.500004503758369
 30
0.0
 11
304.74200650557412
 21
42.500004503758369
 31
0.0
  0
LINE
  5
3DB
  8
0
 10
384.12600616024588
 20
42.500004503758369
 30
0.0
 11
366.11700650557441
 21
42.500004503758369
 31
0.0
  0
LINE
  5
3DC
  8
0
 10
366.11700650557441
 20
42.500004503758369
 30
0.0
 11
366.11700650557441
 21
4.0000045037578147
 31
0.0
1001
ACAD
1000
ASC_BOUNDS
1002
{
1070
    19
1005
574
1002
}
  0
LINE
  5
3DD
  8
0
 10
366.11700650557441
 20
4.0000045037578147
 30
0.0
 11
384.12600616024588
 21
4.0000045037578209
 31
0.0
1001
ACAD
1000
ASC_BOUNDS
1002
{
1070
    19
1005
574
1002
}
  0
LINE
  5
3DE
  8
0
 10
384.12600616024588
 20
4.0000045037578209
 30
0.0
 11
384.12600616024588
 21
42.500004503758369
 31
0.0
1001
ACAD
1000
ASC_BOUNDS
1002
{
1070
    19
1005
574
1002
}
  0
LINE
  5
3DF
  8
0
 10
445.49200650557412
 20
42.500004503758369
 30
0.0
 11
438.10299197542281
 21
42.500004503758369
 31
0.0
  0
LINE
  5
3E0
  8
0
 10
438.10299197542281
 20
42.500004503758369
 30
0.0
 11
438.10299197542281
 21
4.0000045037578147
 31
0.0
1001
ACAD
1000
ASC_BOUNDS
1002
{
1070
    19
1005
574
1002
}
  0
LINE
  5
3E1
  8
0
 10
438.10299197542281
 20
4.0000045037578147
 30
0.0
 11
445.49200650557412
 21
4.0000045037578147
 31
0.0
  0
LINE
  5
3E2
  8
0
 10
445.49200650557412
 20
4.0000045037578147
 30
0.0
 11
445.49200650557412
 21
42.500004503758369
 31
0.0
  0
LINE
  5
3E3
  8
0
 10
348.11700650557441
 20
42.500004503758369
 30
0.0
 11
330.1245951966913
 21
42.500004503758369
 31
0.0
  0
LINE
  5
3E4
  8
0
 10
330.1245951966913
 20
42.500004503758369
 30
0.0
 11
330.1245951966913
 21
4.0000045037578147
 31
0.0
1001
ACAD
1000
ASC_BOUNDS
1002
{
1070
    19
1005
574
1002
}
  0
LINE
  5
3E5
  8
0
 10
330.1245951966913
 20
4.0000045037578147
 30
0.0
 11
348.11700650557441
 21
4.0000045037578209
 31
0.0
  0
LINE
  5
3E6
  8
0
 10
348.11700650557441
 20
4.0000045037578209
 30
0.0
 11
348.11700650557441
 21
42.500004503758369
 31
0.0
1001
ACAD
1000
ASC_BOUNDS
1002
{
1070
    19
1005
574
1002
}
  0
LINE
  5
3E7
  8
0
 10
420.1176855628425
 20
42.500004503758369
 30
0.0
 11
402.10902182234349
 21
42.500004503758369
 31
0.0
  0
LINE
  5
3E8
  8
0
 10
402.10902182234349
 20
42.500004503758369
 30
0.0
 11
402.10902182234349
 21
4.0000045037578147
 31
0.0
1001
ACAD
1000
ASC_BOUNDS
1002
{
1070
    19
1005
574
1002
}
  0
LINE
  5
3E9
  8
0
 10
402.10902182234349
 20
4.0000045037578147
 30
0.0
 11
420.1176855628425
 21
4.0000045037578209
 31
0.0
  0
LINE
  5
3EA
  8
0
 10
420.1176855628425
 20
4.0000045037578209
 30
0.0
 11
420.1176855628425
 21
42.500004503758369
 31
0.0
1001
ACAD
1000
ASC_BOUNDS
1002
{
1070
    19
1005
574
1002
}
  0
LINE
  5
3EB
  8
0
 10
303.11700650557458
 20
44.125004503757708
 30
0.0
 11
447.11700650557469
 21
44.125004503757708
 31
0.0
  0
LINE
  5
3EC
  8
0
 10
447.11700650557469
 20
0.0000045037577352
 30
0.0
 11
303.11700650557458
 21
0.0000045037577352
 31
0.0
  0
LINE
  5
3ED
  8
0
 10
303.11700650557458
 20
0.0000045037577352
 30
0.0
 11
303.11700650557458
 21
44.125004503757708
 31
0.0
  0
LINE
  5
3EE
  8
0
 10
304.74200650557441
 20
4.0000045037565846
 30
0.0
 11
304.74200650557412
 21
42.500004503757133
 31
0.0
1001
ACAD
1000
ASC_BOUNDS
1002
{
1070
    19
1005
574
1002
}
  0
LINE
  5
3EF
  8
0
 10
304.74200650557412
 20
42.500004503757133
 30
0.0
 11
445.49200650557401
 21
42.500004503758582
 31
0.0
1001
ACAD
1000
ASC_BOUNDS
1002
{
1070
    19
1005
574
1005
574
1005
574
1005
574
1005
574
1002
}
  0
LINE
  5
3F0
  8
0
 10
445.49200650557401
 20
42.500004503758582
 30
0.0
 11
445.49200650557441
 21
4.0000045037580341
 31
0.0
1001
ACAD
1000
ASC_BOUNDS
1002
{
1070
    19
1005
574
1002
}
  0
LINE
  5
3F1
  8
0
 10
445.49200650557441
 20
4.0000045037580341
 30
0.0
 11
304.74200650557441
 21
4.0000045037565801
 31
0.0
1001
ACAD
1000
ASC_BOUNDS
1002
{
1070
    19
1005
574
1005
574
1005
574
1005
574
1002
}
  0
LINE
  5
3F2
  8
0
 10
447.11700650557469
 20
0.0000045037577352
 30
0.0
 11
447.11700650557469
 21
44.125004503757708
 31
0.0
  0
ARC
  5
3F3
  8
0
 10
375.11700650557418
 20
96.125004503758902
 30
0.0
 40
8.2500000000000053
 50
179.9999999999996
 51
359.99999999999881
  0
ARC
  5
3F4
  8
0
 10
375.11700650557418
 20
96.125004503758902
 30
0.0
 40
8.2500000000000089
 50
359.99999999999949
 51
179.9999999999996
  0
ARC
  5
3F5
  8
0
 10
375.11700650557418
 20
96.125004503758902
 30
0.0
 40
7.687499999999992
 50
0.000000000000687
 51
180.00000000000011
  0
ARC
  5
3F6
  8
0
 10
375.11700650557418
 20
96.125004503758902
 30
0.0
 40
7.687499999999992
 50
180.00000000000011
 51
359.9999999999996
  0
LINE
  5
3F7
  8
0
 10
380.23950727956191
 20
93.683148654961514
 30
0.0
 11
380.04456680337148
 21
93.23423992480275
 31
0.0
  0
LINE
  5
3F8
  8
0
 10
380.04456680337148
 20
93.23423992480275
 30
0.0
 11
379.59367394622871
 21
93.076997861310701
 31
0.0
  0
LINE
  5
3F9
  8
0
 10
379.59367394622871
 20
93.076997861310701
 30
0.0
 11
379.26914517638738
 21
93.141233972421801
 31
0.0
  0
LINE
  5
3FA
  8
0
 10
379.26914517638738
 20
93.141233972421801
 30
0.0
 11
379.03365410495883
 21
93.333942305755144
 31
0.0
  0
LINE
  5
3FB
  8
0
 10
379.03365410495883
 20
93.333942305755144
 30
0.0
 11
378.84268188273649
 21
94.091878813691679
 31
0.0
  0
LINE
  5
3FC
  8
0
 10
378.84268188273649
 20
94.091878813691679
 30
0.0
 11
379.02670966051443
 21
94.855767702580536
 31
0.0
  0
LINE
  5
3FD
  8
0
 10
379.02670966051443
 20
94.855767702580536
 30
0.0
 11
379.25649636686347
 21
95.045499845437689
 31
0.0
  0
LINE
  5
3FE
  8
0
 10
379.25649636686347
 20
95.045499845437689
 30
0.0
 11
379.57780093035558
 21
95.108743893056754
 31
0.0
  0
LINE
  5
3FF
  8
0
 10
379.57780093035558
 20
95.108743893056754
 30
0.0
 11
380.0460548986095
 21
94.965390718453534
 31
0.0
  0
LINE
  5
400
  8
0
 10
380.0460548986095
 20
94.965390718453534
 30
0.0
 11
380.23950727956191
 21
94.540291512104361
 31
0.0
  0
LINE
  5
401
  8
0
 10
380.23950727956191
 20
94.540291512104361
 30
0.0
 11
381.38236442241907
 21
94.540291512104361
 31
0.0
  0
LINE
  5
402
  8
0
 10
381.38236442241907
 20
94.540291512104361
 30
0.0
 11
381.22214616845088
 21
95.187984964485295
 31
0.0
  0
LINE
  5
403
  8
0
 10
381.22214616845088
 20
95.187984964485295
 30
0.0
 11
380.85458664464142
 21
95.666779607342434
 31
0.0
  0
LINE
  5
404
  8
0
 10
380.85458664464142
 20
95.666779607342434
 30
0.0
 11
380.29555886686359
 21
95.962538535913879
 31
0.0
  0
LINE
  5
405
  8
0
 10
380.29555886686359
 20
95.962538535913879
 30
0.0
 11
379.56093585099052
 21
96.061124845437689
 31
0.0
  0
LINE
  5
406
  8
0
 10
379.56093585099052
 20
96.061124845437689
 30
0.0
 11
378.76294477956202
 21
95.929180400993232
 31
0.0
  0
LINE
  5
407
  8
0
 10
378.76294477956202
 20
95.929180400993232
 30
0.0
 11
378.15270172400642
 21
95.533347067659918
 31
0.0
  0
LINE
  5
408
  8
0
 10
378.15270172400642
 20
95.533347067659918
 30
0.0
 11
377.7654249382922
 21
94.909339131151967
 31
0.0
  0
LINE
  5
409
  8
0
 10
377.7654249382922
 20
94.909339131151967
 30
0.0
 11
377.63633267638738
 21
94.092870877183714
 31
0.0
  0
LINE
  5
40A
  8
0
 10
377.63633267638738
 20
94.092870877183714
 30
0.0
 11
377.76604497797467
 21
93.274542504167869
 31
0.0
  0
LINE
  5
40B
  8
0
 10
377.76604497797467
 20
93.274542504167869
 30
0.0
 11
378.15518188273649
 21
92.650906591469436
 31
0.0
  0
LINE
  5
40C
  8
0
 10
378.15518188273649
 20
92.650906591469436
 30
0.0
 11
378.77050926368901
 21
92.256189329564677
 31
0.0
  0
LINE
  5
40D
  8
0
 10
378.77050926368901
 20
92.256189329564677
 30
0.0
 11
379.57879299384763
 21
92.124616908929752
 31
0.0
  0
LINE
  5
40E
  8
0
 10
379.57879299384763
 20
92.124616908929752
 30
0.0
 11
380.30188327162551
 21
92.226799448612283
 31
0.0
  0
LINE
  5
40F
  8
0
 10
380.30188327162551
 20
92.226799448612283
 30
0.0
 11
380.85805886686347
 21
92.533347067659918
 31
0.0
  0
LINE
  5
410
  8
0
 10
380.85805886686347
 20
92.533347067659918
 30
0.0
 11
381.22549438273649
 21
93.025162543850385
 31
0.0
  0
LINE
  5
411
  8
0
 10
381.22549438273649
 20
93.025162543850385
 30
0.0
 11
381.38236442241907
 21
93.683148654961514
 31
0.0
  0
LINE
  5
412
  8
0
 10
381.38236442241907
 20
93.683148654961514
 30
0.0
 11
380.23950727956191
 21
93.683148654961514
 31
0.0
  0
LINE
  5
413
  8
0
 10
373.01777990179443
 20
94.457222843884708
 30
0.0
 11
374.1953592668736
 21
94.457222843884708
 31
0.0
  0
LINE
  5
414
  8
0
 10
374.1953592668736
 20
94.457222843884708
 30
0.0
 11
374.34218466369907
 21
94.9651593518212
 31
0.0
  0
LINE
  5
415
  8
0
 10
374.34218466369907
 20
94.9651593518212
 30
0.0
 11
375.54555767957203
 21
94.9651593518212
 31
0.0
  0
LINE
  5
416
  8
0
 10
375.54555767957203
 20
94.9651593518212
 30
0.0
 11
375.6874227589372
 21
94.457222843884708
 31
0.0
  0
LINE
  5
417
  8
0
 10
375.6874227589372
 20
94.457222843884708
 30
0.0
 11
376.89079577481021
 21
94.457222843884708
 31
0.0
  0
LINE
  5
418
  8
0
 10
376.89079577481021
 20
94.457222843884708
 30
0.0
 11
375.56143069544521
 21
98.266746653408532
 31
0.0
  0
LINE
  5
419
  8
0
 10
375.56143069544521
 20
98.266746653408532
 30
0.0
 11
374.33226402877852
 21
98.266746653408532
 31
0.0
  0
LINE
  5
41A
  8
0
 10
374.33226402877852
 20
98.266746653408532
 30
0.0
 11
373.01777990179443
 21
94.457222843884708
 31
0.0
  0
LINE
  5
41B
  8
0
 10
374.5624227589372
 20
95.790556177218036
 30
0.0
 11
374.9483354573498
 21
97.094127605789467
 31
0.0
  0
LINE
  5
41C
  8
0
 10
374.9483354573498
 20
97.094127605789467
 30
0.0
 11
375.32531958433401
 21
95.790556177218036
 31
0.0
  0
LINE
  5
41D
  8
0
 10
375.32531958433401
 20
95.790556177218036
 30
0.0
 11
374.5624227589372
 21
95.790556177218036
 31
0.0
  0
LINE
  5
41E
  8
0
 10
369.25704871153289
 20
96.197611153064983
 30
0.0
 11
370.9564534734377
 21
96.197611153064983
 31
0.0
  0
LINE
  5
41F
  8
0
 10
370.9564534734377
 20
96.197611153064983
 30
0.0
 11
371.72431061629482
 21
96.236301629255436
 31
0.0
  0
LINE
  5
420
  8
0
 10
371.72431061629482
 20
96.236301629255436
 30
0.0
 11
372.1370090289933
 21
96.368246073699893
 31
0.0
  0
LINE
  5
421
  8
0
 10
372.1370090289933
 20
96.368246073699893
 30
0.0
 11
372.54524315597729
 21
96.751182581636414
 31
0.0
  0
LINE
  5
422
  8
0
 10
372.54524315597729
 20
96.751182581636414
 30
0.0
 11
372.68562014010439
 21
97.338484168937967
 31
0.0
  0
LINE
  5
423
  8
0
 10
372.68562014010439
 20
97.338484168937967
 30
0.0
 11
372.54177093375517
 21
97.90148020068402
 31
0.0
  0
LINE
  5
424
  8
0
 10
372.54177093375517
 20
97.90148020068402
 30
0.0
 11
372.09831855280271
 21
98.226380994334832
 31
0.0
  0
LINE
  5
425
  8
0
 10
372.09831855280271
 20
98.226380994334832
 30
0.0
 11
372.44355664804078
 21
98.543841311795134
 31
0.0
  0
LINE
  5
426
  8
0
 10
372.44355664804078
 20
98.543841311795134
 30
0.0
 11
372.55863601312018
 21
98.996222264176083
 31
0.0
  0
LINE
  5
427
  8
0
 10
372.55863601312018
 20
98.996222264176083
 30
0.0
 11
372.40486617185041
 21
99.556242105445904
 31
0.0
  0
LINE
  5
428
  8
0
 10
372.40486617185041
 20
99.556242105445904
 30
0.0
 11
371.96240585439
 21
99.896023851477651
 31
0.0
  0
LINE
  5
429
  8
0
 10
371.96240585439
 20
99.896023851477651
 30
0.0
 11
371.56706855280282
 21
99.981341311795148
 31
0.0
  0
LINE
  5
42A
  8
0
 10
371.56706855280282
 20
99.981341311795148
 30
0.0
 11
370.83343760042192
 21
100.00713496258869
 31
0.0
  0
LINE
  5
42B
  8
0
 10
370.83343760042192
 20
100.00713496258869
 30
0.0
 11
369.25704871153289
 21
100.00713496258869
 31
0.0
  0
LINE
  5
42C
  8
0
 10
369.25704871153289
 20
100.00713496258869
 30
0.0
 11
369.25704871153289
 21
96.197611153064983
 31
0.0
  0
LINE
  5
42D
  8
0
 10
370.46339791788222
 20
97.086500041953855
 30
0.0
 11
370.46339791788222
 21
97.784912740366565
 31
0.0
  0
LINE
  5
42E
  8
0
 10
370.46339791788222
 20
97.784912740366565
 30
0.0
 11
371.0120090289933
 21
97.784912740366565
 31
0.0
  0
LINE
  5
42F
  8
0
 10
371.0120090289933
 20
97.784912740366565
 30
0.0
 11
371.42123521946951
 21
97.705547661001489
 31
0.0
  0
LINE
  5
430
  8
0
 10
371.42123521946951
 20
97.705547661001489
 30
0.0
 11
371.54276299724722
 21
97.4386825816364
 31
0.0
  0
LINE
  5
431
  8
0
 10
371.54276299724722
 20
97.4386825816364
 30
0.0
 11
371.42371537819952
 21
97.168841311795106
 31
0.0
  0
LINE
  5
432
  8
0
 10
371.42371537819952
 20
97.168841311795106
 30
0.0
 11
371.0229217274059
 21
97.086500041953855
 31
0.0
  0
LINE
  5
433
  8
0
 10
371.0229217274059
 20
97.086500041953855
 30
0.0
 11
370.46339791788222
 21
97.086500041953855
 31
0.0
  0
LINE
  5
434
  8
0
 10
370.46339791788222
 20
98.483325438779246
 30
0.0
 11
370.46339791788222
 21
99.118246073699908
 31
0.0
  0
LINE
  5
435
  8
0
 10
370.46339791788222
 20
99.118246073699908
 30
0.0
 11
370.79772331470753
 21
99.118246073699908
 31
0.0
  0
LINE
  5
436
  8
0
 10
370.79772331470753
 20
99.118246073699908
 30
0.0
 11
371.30615585439
 21
99.050785756239577
 31
0.0
  0
LINE
  5
437
  8
0
 10
371.30615585439
 20
99.050785756239577
 30
0.0
 11
371.41577887026301
 21
98.800785756239563
 31
0.0
  0
LINE
  5
438
  8
0
 10
371.41577887026301
 20
98.800785756239563
 30
0.0
 11
371.31359633058059
 21
98.555746073699893
 31
0.0
  0
LINE
  5
439
  8
0
 10
371.31359633058059
 20
98.555746073699893
 30
0.0
 11
370.96141379089789
 21
98.483325438779246
 31
0.0
  0
LINE
  5
43A
  8
0
 10
370.96141379089789
 20
98.483325438779246
 30
0.0
 11
370.46339791788222
 21
98.483325438779246
 31
0.0
  0
ARC
  5
43B
  8
0
 10
375.11700650557373
 20
96.125004503759556
 30
0.0
 40
8.9999999999999964
 50
179.9999999999998
 51
359.99999999999881
  0
ARC
  5
43C
  8
0
 10
375.11700650557373
 20
96.125004503759556
 30
0.0
 40
9.0000000000000391
 50
359.99999999999937
 51
179.9999999999996
  0
LINE
  5
43D
  8
0
 10
302.8670065055739
 20
113.87500450375821
 30
0.0
 11
303.11700650557418
 21
113.87500450375821
 31
0.0
  0
LINE
  5
43E
  8
0
 10
303.11700650557418
 20
117.87500450375811
 30
0.0
 11
302.8670065055739
 21
117.87500450375811
 31
0.0
  0
LINE
  5
43F
  8
0
 10
302.86700650557452
 20
115.87500450375811
 30
0.0
 11
302.86700650557452
 21
116.3926425939632
 31
0.0
  0
LINE
  5
440
  8
0
 10
302.86700650557452
 20
116.392643715809
 30
0.0
 11
302.86700650557452
 21
116.87500091770561
 31
0.0
  0
LINE
  5
441
  8
0
 10
302.86700650557452
 20
116.87500450375811
 30
0.0
 11
302.86700650557458
 21
117.2892180661312
 31
0.0
  0
LINE
  5
442
  8
0
 10
302.86700650557458
 20
117.2892198431648
 30
0.0
 11
302.86700650557452
 21
117.607055311327
 31
0.0
  0
LINE
  5
443
  8
0
 10
302.86700650557452
 20
117.6070566763924
 30
0.0
 11
302.86700650557452
 21
117.80685615633629
 31
0.0
  0
LINE
  5
444
  8
0
 10
302.86700650557452
 20
117.8068613174943
 30
0.0
 11
302.86700650557452
 21
117.87500450375811
 31
0.0
  0
LINE
  5
445
  8
0
 10
302.86700650557452
 20
113.87500450375811
 30
0.0
 11
302.86700650557452
 21
113.9431476900199
 31
0.0
  0
LINE
  5
446
  8
0
 10
302.86700650557452
 20
113.94315285118
 30
0.0
 11
302.86700650557452
 21
114.1429523311227
 31
0.0
  0
LINE
  5
447
  8
0
 10
302.86700650557452
 20
114.14295369618929
 30
0.0
 11
302.86700650557458
 21
114.4607891643504
 31
0.0
  0
LINE
  5
448
  8
0
 10
302.86700650557458
 20
114.460790941385
 30
0.0
 11
302.86700650557452
 21
114.87500450375811
 31
0.0
  0
LINE
  5
449
  8
0
 10
302.86700650557452
 20
114.8750080898097
 30
0.0
 11
302.86700650557452
 21
115.3573652917063
 31
0.0
  0
LINE
  5
44A
  8
0
 10
302.86700650557452
 20
115.35736641355309
 30
0.0
 11
302.86700650557452
 21
115.87500450375811
 31
0.0
  0
LINE
  5
44B
  8
0
 10
302.8670065055739
 20
38.500004503757673
 30
0.0
 11
303.11700650557378
 21
38.500004503757673
 31
0.0
  0
LINE
  5
44C
  8
0
 10
303.11700650557378
 20
39.500004503757779
 30
0.0
 11
302.8670065055739
 21
39.500004503757779
 31
0.0
  0
LINE
  5
44D
  8
0
 10
302.86700650557412
 20
25.12500450375757
 30
0.0
 11
303.11700650557418
 21
25.12500450375757
 31
0.0
  0
LINE
  5
44E
  8
0
 10
303.11700650557418
 20
27.1250045037578
 30
0.0
 11
302.86700650557412
 21
27.1250045037578
 31
0.0
  0
LINE
  5
44F
  8
0
 10
302.86700650557412
 20
7.375004503757677
 30
0.0
 11
303.11700650557412
 21
7.375004503757677
 31
0.0
  0
LINE
  5
450
  8
0
 10
303.11700650557412
 20
9.3750045037577312
 30
0.0
 11
302.86700650557412
 21
9.3750045037577312
 31
0.0
  0
LINE
  5
451
  8
0
 10
302.86700650557452
 20
39.000004503757722
 30
0.0
 11
302.86700650557452
 21
39.129414026309
 31
0.0
  0
LINE
  5
452
  8
0
 10
302.86700650557452
 20
39.129414306770492
 30
0.0
 11
302.86700650557452
 21
39.2500036072448
 31
0.0
  0
LINE
  5
453
  8
0
 10
302.86700650557452
 20
39.250004503757729
 30
0.0
 11
302.86700650557452
 21
39.353557894350992
 31
0.0
  0
LINE
  5
454
  8
0
 10
302.86700650557452
 20
39.353558338609638
 30
0.0
 11
302.86700650557452
 21
39.433017205649953
 31
0.0
  0
LINE
  5
455
  8
0
 10
302.86700650557452
 20
39.433017546916489
 30
0.0
 11
302.86700650557452
 21
39.482967416902262
 31
0.0
  0
LINE
  5
456
  8
0
 10
302.86700650557452
 20
39.482968707191851
 30
0.0
 11
302.86700650557452
 21
39.500004503757729
 31
0.0
  0
LINE
  5
457
  8
0
 10
302.86700650557452
 20
38.500004503757737
 30
0.0
 11
302.86700650557452
 21
38.517040300323622
 31
0.0
  0
LINE
  5
458
  8
0
 10
302.86700650557452
 20
38.517041590613204
 30
0.0
 11
302.86700650557452
 21
38.56699146059897
 31
0.0
  0
LINE
  5
459
  8
0
 10
302.86700650557452
 20
38.56699180186552
 30
0.0
 11
302.86700650557452
 21
38.646450668905807
 31
0.0
  0
LINE
  5
45A
  8
0
 10
302.86700650557452
 20
38.646451113164453
 30
0.0
 11
302.86700650557452
 21
38.750004503757737
 31
0.0
  0
LINE
  5
45B
  8
0
 10
302.86700650557452
 20
38.750005400270659
 30
0.0
 11
302.86700650557452
 21
38.870594700744967
 31
0.0
  0
LINE
  5
45C
  8
0
 10
302.86700650557452
 20
38.87059498120648
 30
0.0
 11
302.86700650557452
 21
39.000004503757722
 31
0.0
  0
LINE
  5
45D
  8
0
 10
302.86700650557458
 20
26.125004503757729
 30
0.0
 11
302.86700650557458
 21
26.832111114296492
 31
0.0
  0
LINE
  5
45E
  8
0
 10
302.86700650557458
 20
26.832111284944268
 30
0.0
 11
302.86700650557458
 21
26.991029551068561
 31
0.0
  0
LINE
  5
45F
  8
0
 10
302.86700650557458
 20
26.99102990754216
 30
0.0
 11
302.86700650557458
 21
27.090930330046799
 31
0.0
  0
LINE
  5
460
  8
0
 10
302.86700650557458
 20
27.090931014228559
 30
0.0
 11
302.86700650557458
 21
27.125004503757729
 31
0.0
  0
LINE
  5
461
  8
0
 10
302.86700650557458
 20
25.125004503757729
 30
0.0
 11
302.86700650557458
 21
25.159078677468671
 31
0.0
  0
LINE
  5
462
  8
0
 10
302.86700650557458
 20
25.159079090948161
 30
0.0
 11
302.86700650557458
 21
25.258979099973288
 31
0.0
  0
LINE
  5
463
  8
0
 10
302.86700650557458
 20
25.258980241980971
 30
0.0
 11
302.86700650557458
 21
25.41789772257118
 31
0.0
  0
LINE
  5
464
  8
0
 10
302.86700650557458
 20
25.41789874565108
 30
0.0
 11
302.86700650557458
 21
25.62500450375774
 31
0.0
  0
LINE
  5
465
  8
0
 10
302.86700650557458
 20
25.6250054002704
 30
0.0
 11
302.86700650557458
 21
26.125003539101641
 31
0.0
  0
LINE
  5
466
  8
0
 10
302.86700650557469
 20
8.3750047449217195
 30
0.0
 11
302.86700650557469
 21
8.6338235488602528
 31
0.0
  0
LINE
  5
467
  8
0
 10
302.86700650557469
 20
8.6338236098184726
 30
0.0
 11
302.86700650557458
 21
8.8750042796296125
 31
0.0
  0
LINE
  5
468
  8
0
 10
302.86700650557458
 20
8.8750045037577312
 30
0.0
 11
302.86700650557458
 21
9.0821112849442791
 31
0.0
  0
LINE
  5
469
  8
0
 10
302.86700650557458
 20
9.0821116180067101
 30
0.0
 11
302.86700650557458
 21
9.2410299075421651
 31
0.0
  0
LINE
  5
46A
  8
0
 10
302.86700650557458
 20
9.24102996527537
 30
0.0
 11
302.86700650557458
 21
9.3409303300468007
 31
0.0
  0
LINE
  5
46B
  8
0
 10
302.86700650557458
 20
9.3409305401211054
 30
0.0
 11
302.86700650557458
 21
9.3750045037577348
 31
0.0
  0
LINE
  5
46C
  8
0
 10
302.86700650557458
 20
7.375004503757733
 30
0.0
 11
302.86700650557458
 21
7.4090779932866191
 31
0.0
  0
LINE
  5
46D
  8
0
 10
302.86700650557458
 20
7.4090786774686661
 30
0.0
 11
302.86700650557458
 21
7.5089787298400807
 31
0.0
  0
LINE
  5
46E
  8
0
 10
302.86700650557458
 20
7.5089790999732946
 30
0.0
 11
302.86700650557458
 21
7.667897722571186
 31
0.0
  0
LINE
  5
46F
  8
0
 10
302.86700650557458
 20
7.6678978932189779
 30
0.0
 11
302.86700650557469
 21
8.1161851477145905
 31
0.0
  0
LINE
  5
470
  8
0
 10
302.86700650557469
 20
8.1161854586552131
 30
0.0
 11
302.86700650557469
 21
8.3750045037577312
 31
0.0
  0
LINE
  5
471
  8
0
 10
302.86700650557412
 20
10.875004503758079
 30
0.0
 11
303.11700650557418
 21
10.875004503758079
 31
0.0
  0
LINE
  5
472
  8
0
 10
303.11700650557418
 20
14.87500450375801
 30
0.0
 11
302.86700650557412
 21
14.87500450375801
 31
0.0
  0
LINE
  5
473
  8
0
 10
302.86700650557458
 20
12.87500450375815
 30
0.0
 11
302.86700650557458
 21
13.392642593963201
 31
0.0
  0
LINE
  5
474
  8
0
 10
302.86700650557458
 20
13.39264321584413
 30
0.0
 11
302.86700650557458
 21
14.60705531132704
 31
0.0
  0
LINE
  5
475
  8
0
 10
302.86700650557458
 20
14.607056051593091
 30
0.0
 11
302.86700650557458
 21
14.8068561563363
 31
0.0
  0
LINE
  5
476
  8
0
 10
302.86700650557458
 20
14.80685752469925
 30
0.0
 11
302.86700650557458
 21
14.87500450375815
 31
0.0
  0
LINE
  5
477
  8
0
 10
302.86700650557458
 20
10.87500450375815
 30
0.0
 11
302.86700650557458
 21
10.943152431030271
 31
0.0
  0
LINE
  5
478
  8
0
 10
302.86700650557458
 20
10.94315285118002
 30
0.0
 11
302.86700650557458
 21
11.14295358072231
 31
0.0
  0
LINE
  5
479
  8
0
 10
302.86700650557458
 20
11.142953696189281
 30
0.0
 11
302.86700650557458
 21
11.87500424275499
 31
0.0
  0
LINE
  5
47A
  8
0
 10
302.86700650557458
 20
11.87500450375815
 30
0.0
 11
302.86700650557458
 21
12.35736629163606
 31
0.0
  0
LINE
  5
47B
  8
0
 10
302.86700650557458
 20
12.35736641355312
 30
0.0
 11
302.86700650557458
 21
12.87500402142974
 31
0.0
  0
CIRCLE
  5
47C
  8
0
 10
152.24673078457889
 20
34.687504503757488
 30
0.0
 40
8.5000000000000302
  0
CIRCLE
  5
47D
  8
0
 10
45.996730784578851
 20
34.687504503757488
 30
0.0
 40
8.5000000000000089
  0
LINE
  5
47E
  8
0
 10
27.121730784578919
 20
126.12500450375749
 30
0.0
 11
171.12173078457349
 21
126.12500450375749
 31
0.0
  0
LINE
  5
47F
  8
0
 10
171.12173078457349
 20
44.125004503757758
 30
0.0
 11
27.121730784578919
 21
44.125004503757758
 31
0.0
  0
LINE
  5
480
  8
0
 10
27.121730784578919
 20
126.12500450375749
 30
0.0
 11
27.121730784578919
 21
44.125004503757758
 31
0.0
  0
LINE
  5
481
  8
0
 10
171.12173078457349
 20
44.125004503757758
 30
0.0
 11
171.12173078457349
 21
126.12500450375749
 31
0.0
  0
LINE
  5
482
  8
0
 10
27.121730784578862
 20
44.125004503757708
 30
0.0
 11
171.12173078457889
 21
44.125004503757708
 31
0.0
  0
LINE
  5
483
  8
0
 10
171.12173078457889
 20
0.0000045037577352
 30
0.0
 11
27.121730784578862
 21
0.0000045037577352
 31
0.0
  0
LINE
  5
484
  8
0
 10
171.12173078457889
 20
44.125004503757708
 30
0.0
 11
171.12173078457889
 21
0.0000045037577352
 31
0.0
  0
LINE
  5
485
  8
0
 10
27.121730784578862
 20
0.0000045037577352
 30
0.0
 11
27.121730784578862
 21
44.125004503757708
 31
0.0
  0
ARC
  5
486
  8
0
 10
99.121730784579711
 20
96.125004503759556
 30
0.0
 40
8.2500000000000053
 50
179.9999999999996
 51
359.99999999999881
  0
ARC
  5
487
  8
0
 10
99.121730784579711
 20
96.125004503759556
 30
0.0
 40
8.2500000000000089
 50
359.99999999999949
 51
179.9999999999996
  0
ARC
  5
488
  8
0
 10
99.121730784579711
 20
96.125004503759556
 30
0.0
 40
7.6875000000000062
 50
0.0000000000005852
 51
180.0
  0
ARC
  5
489
  8
0
 10
99.121730784579711
 20
96.125004503759556
 30
0.0
 40
7.687499999999992
 50
180.00000000000011
 51
359.9999999999996
  0
LINE
  5
48A
  8
0
 10
104.24423155856751
 20
93.683148654962153
 30
0.0
 11
104.049291082377
 21
93.234239924803447
 31
0.0
  0
LINE
  5
48B
  8
0
 10
104.049291082377
 20
93.234239924803447
 30
0.0
 11
103.59839822523421
 21
93.076997861311355
 31
0.0
  0
LINE
  5
48C
  8
0
 10
103.59839822523421
 20
93.076997861311355
 30
0.0
 11
103.2738694553929
 21
93.141233972422484
 31
0.0
  0
LINE
  5
48D
  8
0
 10
103.2738694553929
 20
93.141233972422484
 30
0.0
 11
103.0383783839643
 21
93.333942305755812
 31
0.0
  0
LINE
  5
48E
  8
0
 10
103.0383783839643
 20
93.333942305755812
 30
0.0
 11
102.8474061617421
 21
94.091878813692318
 31
0.0
  0
LINE
  5
48F
  8
0
 10
102.8474061617421
 20
94.091878813692318
 30
0.0
 11
103.0314339395199
 21
94.855767702581204
 31
0.0
  0
LINE
  5
490
  8
0
 10
103.0314339395199
 20
94.855767702581204
 30
0.0
 11
103.2612206458691
 21
95.045499845438357
 31
0.0
  0
LINE
  5
491
  8
0
 10
103.2612206458691
 20
95.045499845438357
 30
0.0
 11
103.58252520936119
 21
95.108743893057394
 31
0.0
  0
LINE
  5
492
  8
0
 10
103.58252520936119
 20
95.108743893057394
 30
0.0
 11
104.0507791776151
 21
94.965390718454216
 31
0.0
  0
LINE
  5
493
  8
0
 10
104.0507791776151
 20
94.965390718454216
 30
0.0
 11
104.24423155856751
 21
94.540291512105014
 31
0.0
  0
LINE
  5
494
  8
0
 10
104.24423155856751
 20
94.540291512105014
 30
0.0
 11
105.3870887014247
 21
94.540291512105014
 31
0.0
  0
LINE
  5
495
  8
0
 10
105.3870887014247
 20
94.540291512105014
 30
0.0
 11
105.22687044745641
 21
95.187984964485977
 31
0.0
  0
LINE
  5
496
  8
0
 10
105.22687044745641
 20
95.187984964485977
 30
0.0
 11
104.8593109236469
 21
95.666779607343116
 31
0.0
  0
LINE
  5
497
  8
0
 10
104.8593109236469
 20
95.666779607343116
 30
0.0
 11
104.3002831458691
 21
95.962538535914547
 31
0.0
  0
LINE
  5
498
  8
0
 10
104.3002831458691
 20
95.962538535914547
 30
0.0
 11
103.5656601299961
 21
96.061124845438357
 31
0.0
  0
LINE
  5
499
  8
0
 10
103.5656601299961
 20
96.061124845438357
 30
0.0
 11
102.76766905856751
 21
95.929180400993928
 31
0.0
  0
LINE
  5
49A
  8
0
 10
102.76766905856751
 20
95.929180400993928
 30
0.0
 11
102.15742600301191
 21
95.533347067660557
 31
0.0
  0
LINE
  5
49B
  8
0
 10
102.15742600301191
 20
95.533347067660557
 30
0.0
 11
101.7701492172977
 21
94.909339131152635
 31
0.0
  0
LINE
  5
49C
  8
0
 10
101.7701492172977
 20
94.909339131152635
 30
0.0
 11
101.6410569553929
 21
94.092870877184396
 31
0.0
  0
LINE
  5
49D
  8
0
 10
101.6410569553929
 20
94.092870877184396
 30
0.0
 11
101.7707692569802
 21
93.274542504168508
 31
0.0
  0
LINE
  5
49E
  8
0
 10
101.7707692569802
 20
93.274542504168508
 30
0.0
 11
102.1599061617421
 21
92.65090659147009
 31
0.0
  0
LINE
  5
49F
  8
0
 10
102.1599061617421
 20
92.65090659147009
 30
0.0
 11
102.77523354269449
 21
92.256189329565345
 31
0.0
  0
LINE
  5
4A0
  8
0
 10
102.77523354269449
 20
92.256189329565345
 30
0.0
 11
103.5835172728532
 21
92.124616908930435
 31
0.0
  0
LINE
  5
4A1
  8
0
 10
103.5835172728532
 20
92.124616908930435
 30
0.0
 11
104.306607550631
 21
92.226799448612937
 31
0.0
  0
LINE
  5
4A2
  8
0
 10
104.306607550631
 20
92.226799448612937
 30
0.0
 11
104.8627831458691
 21
92.533347067660586
 31
0.0
  0
LINE
  5
4A3
  8
0
 10
104.8627831458691
 20
92.533347067660586
 30
0.0
 11
105.2302186617421
 21
93.025162543851025
 31
0.0
  0
LINE
  5
4A4
  8
0
 10
105.2302186617421
 20
93.025162543851025
 30
0.0
 11
105.3870887014247
 21
93.683148654962153
 31
0.0
  0
LINE
  5
4A5
  8
0
 10
105.3870887014247
 20
93.683148654962153
 30
0.0
 11
104.24423155856751
 21
93.683148654962153
 31
0.0
  0
LINE
  5
4A6
  8
0
 10
97.022504180799785
 20
94.457222843885347
 30
0.0
 11
98.200083545879195
 21
94.457222843885347
 31
0.0
  0
LINE
  5
4A7
  8
0
 10
98.200083545879195
 20
94.457222843885347
 30
0.0
 11
98.346908942704601
 21
94.965159351821853
 31
0.0
  0
LINE
  5
4A8
  8
0
 10
98.346908942704601
 20
94.965159351821853
 30
0.0
 11
99.550281958577585
 21
94.965159351821853
 31
0.0
  0
LINE
  5
4A9
  8
0
 10
99.550281958577585
 20
94.965159351821853
 30
0.0
 11
99.692147037942703
 21
94.457222843885347
 31
0.0
  0
LINE
  5
4AA
  8
0
 10
99.692147037942703
 20
94.457222843885347
 30
0.0
 11
100.8955200538157
 21
94.457222843885347
 31
0.0
  0
LINE
  5
4AB
  8
0
 10
100.8955200538157
 20
94.457222843885347
 30
0.0
 11
99.566154974450711
 21
98.266746653409172
 31
0.0
  0
LINE
  5
4AC
  8
0
 10
99.566154974450711
 20
98.266746653409172
 30
0.0
 11
98.336988307783997
 21
98.266746653409172
 31
0.0
  0
LINE
  5
4AD
  8
0
 10
98.336988307783997
 20
98.266746653409172
 30
0.0
 11
97.022504180799785
 21
94.457222843885347
 31
0.0
  0
LINE
  5
4AE
  8
0
 10
98.567147037942703
 20
95.790556177218676
 30
0.0
 11
98.953059736355414
 21
97.094127605790106
 31
0.0
  0
LINE
  5
4AF
  8
0
 10
98.953059736355414
 20
97.094127605790106
 30
0.0
 11
99.330043863339512
 21
95.790556177218676
 31
0.0
  0
LINE
  5
4B0
  8
0
 10
99.330043863339512
 20
95.790556177218676
 30
0.0
 11
98.567147037942703
 21
95.790556177218676
 31
0.0
  0
LINE
  5
4B1
  8
0
 10
93.261772990538418
 20
96.197611153065665
 30
0.0
 11
94.961177752443206
 21
96.197611153065665
 31
0.0
  0
LINE
  5
4B2
  8
0
 10
94.961177752443206
 20
96.197611153065665
 30
0.0
 11
95.729034895300288
 21
96.236301629256104
 31
0.0
  0
LINE
  5
4B3
  8
0
 10
95.729034895300288
 20
96.236301629256104
 30
0.0
 11
96.141733307998706
 21
96.368246073700547
 31
0.0
  0
LINE
  5
4B4
  8
0
 10
96.141733307998706
 20
96.368246073700547
 30
0.0
 11
96.549967434982904
 21
96.751182581637053
 31
0.0
  0
LINE
  5
4B5
  8
0
 10
96.549967434982904
 20
96.751182581637053
 30
0.0
 11
96.690344419109934
 21
97.338484168938635
 31
0.0
  0
LINE
  5
4B6
  8
0
 10
96.690344419109934
 20
97.338484168938635
 30
0.0
 11
96.546495212760703
 21
97.901480200684688
 31
0.0
  0
LINE
  5
4B7
  8
0
 10
96.546495212760703
 20
97.901480200684688
 30
0.0
 11
96.103042831808295
 21
98.226380994335486
 31
0.0
  0
LINE
  5
4B8
  8
0
 10
96.103042831808295
 20
98.226380994335486
 30
0.0
 11
96.448280927046426
 21
98.543841311795774
 31
0.0
  0
LINE
  5
4B9
  8
0
 10
96.448280927046426
 20
98.543841311795774
 30
0.0
 11
96.563360292125708
 21
98.996222264176765
 31
0.0
  0
LINE
  5
4BA
  8
0
 10
96.563360292125708
 20
98.996222264176765
 30
0.0
 11
96.409590450855916
 21
99.556242105446586
 31
0.0
  0
LINE
  5
4BB
  8
0
 10
96.409590450855916
 20
99.556242105446586
 30
0.0
 11
95.967130133395585
 21
99.896023851478333
 31
0.0
  0
LINE
  5
4BC
  8
0
 10
95.967130133395585
 20
99.896023851478333
 30
0.0
 11
95.571792831808295
 21
99.981341311795816
 31
0.0
  0
LINE
  5
4BD
  8
0
 10
95.571792831808295
 20
99.981341311795816
 30
0.0
 11
94.838161879427275
 21
100.0071349625894
 31
0.0
  0
LINE
  5
4BE
  8
0
 10
94.838161879427275
 20
100.0071349625894
 30
0.0
 11
93.261772990538418
 21
100.0071349625894
 31
0.0
  0
LINE
  5
4BF
  8
0
 10
93.261772990538418
 20
100.0071349625894
 30
0.0
 11
93.261772990538418
 21
96.197611153065665
 31
0.0
  0
LINE
  5
4C0
  8
0
 10
94.468122196887691
 20
97.086500041954537
 30
0.0
 11
94.468122196887691
 21
97.784912740367218
 31
0.0
  0
LINE
  5
4C1
  8
0
 10
94.468122196887691
 20
97.784912740367218
 30
0.0
 11
95.016733307998692
 21
97.784912740367218
 31
0.0
  0
LINE
  5
4C2
  8
0
 10
95.016733307998692
 20
97.784912740367218
 30
0.0
 11
95.425959498474995
 21
97.705547661002143
 31
0.0
  0
LINE
  5
4C3
  8
0
 10
95.425959498474995
 20
97.705547661002143
 30
0.0
 11
95.547487276252696
 21
97.438682581637082
 31
0.0
  0
LINE
  5
4C4
  8
0
 10
95.547487276252696
 20
97.438682581637082
 30
0.0
 11
95.428439657205104
 21
97.168841311795816
 31
0.0
  0
LINE
  5
4C5
  8
0
 10
95.428439657205104
 20
97.168841311795816
 30
0.0
 11
95.027646006411516
 21
97.086500041954537
 31
0.0
  0
LINE
  5
4C6
  8
0
 10
95.027646006411516
 20
97.086500041954537
 30
0.0
 11
94.468122196887691
 21
97.086500041954537
 31
0.0
  0
LINE
  5
4C7
  8
0
 10
94.468122196887691
 20
98.483325438779943
 30
0.0
 11
94.468122196887691
 21
99.118246073700547
 31
0.0
  0
LINE
  5
4C8
  8
0
 10
94.468122196887691
 20
99.118246073700547
 30
0.0
 11
94.802447593713026
 21
99.118246073700547
 31
0.0
  0
LINE
  5
4C9
  8
0
 10
94.802447593713026
 20
99.118246073700547
 30
0.0
 11
95.310880133395585
 21
99.050785756240217
 31
0.0
  0
LINE
  5
4CA
  8
0
 10
95.310880133395585
 20
99.050785756240217
 30
0.0
 11
95.420503149268583
 21
98.800785756240245
 31
0.0
  0
LINE
  5
4CB
  8
0
 10
95.420503149268583
 20
98.800785756240245
 30
0.0
 11
95.31832060958601
 21
98.555746073700547
 31
0.0
  0
LINE
  5
4CC
  8
0
 10
95.31832060958601
 20
98.555746073700547
 30
0.0
 11
94.966138069903508
 21
98.483325438779943
 31
0.0
  0
LINE
  5
4CD
  8
0
 10
94.966138069903508
 20
98.483325438779943
 30
0.0
 11
94.468122196887691
 21
98.483325438779943
 31
0.0
  0
ARC
  5
4CE
  8
0
 10
99.121730784579199
 20
96.125004503760209
 30
0.0
 40
9.0000000000000089
 50
179.99999999999969
 51
359.99999999999881
  0
ARC
  5
4CF
  8
0
 10
99.121730784579199
 20
96.125004503760209
 30
0.0
 40
9.0000000000000178
 50
359.99999999999949
 51
179.99999999999969
  0
LINE
  5
4D0
  8
0
 10
171.1217307845794
 20
113.87500450375821
 30
0.0
 11
171.3717307845794
 21
113.87500450375821
 31
0.0
  0
LINE
  5
4D1
  8
0
 10
171.3717307845794
 20
117.87500450375811
 30
0.0
 11
171.1217307845794
 21
117.87500450375811
 31
0.0
  0
LINE
  5
4D2
  8
0
 10
171.37173078457911
 20
117.87500450375811
 30
0.0
 11
171.37173078457911
 21
117.8068613174943
 31
0.0
  0
LINE
  5
4D3
  8
0
 10
171.37173078457911
 20
117.80685615633629
 30
0.0
 11
171.37173078457911
 21
117.6070566763924
 31
0.0
  0
LINE
  5
4D4
  8
0
 10
171.37173078457911
 20
117.607055311327
 30
0.0
 11
171.37173078457911
 21
117.2892198431648
 31
0.0
  0
LINE
  5
4D5
  8
0
 10
171.37173078457911
 20
117.2892180661312
 30
0.0
 11
171.37173078457911
 21
116.87500450375811
 31
0.0
  0
LINE
  5
4D6
  8
0
 10
171.37173078457911
 20
116.87500091770561
 30
0.0
 11
171.37173078457911
 21
116.392643715809
 31
0.0
  0
LINE
  5
4D7
  8
0
 10
171.37173078457911
 20
116.3926425939632
 30
0.0
 11
171.37173078457911
 21
115.87500450375821
 31
0.0
  0
LINE
  5
4D8
  8
0
 10
171.37173078457911
 20
115.87500450375811
 30
0.0
 11
171.37173078457911
 21
115.35736641355309
 31
0.0
  0
LINE
  5
4D9
  8
0
 10
171.37173078457911
 20
115.3573652917063
 30
0.0
 11
171.37173078457911
 21
114.8750080898097
 31
0.0
  0
LINE
  5
4DA
  8
0
 10
171.37173078457911
 20
114.87500450375811
 30
0.0
 11
171.37173078457911
 21
114.460790941385
 31
0.0
  0
LINE
  5
4DB
  8
0
 10
171.37173078457911
 20
114.4607891643504
 30
0.0
 11
171.37173078457911
 21
114.1429536961892
 31
0.0
  0
LINE
  5
4DC
  8
0
 10
171.37173078457911
 20
114.1429523311227
 30
0.0
 11
171.37173078457911
 21
113.94315285118
 31
0.0
  0
LINE
  5
4DD
  8
0
 10
171.37173078457911
 20
113.9431476900199
 30
0.0
 11
171.37173078457911
 21
113.87500450375811
 31
0.0
  0
LINE
  5
4DE
  8
0
 10
171.12173078457931
 20
38.500004503757673
 30
0.0
 11
171.37173078457911
 21
38.500004503757673
 31
0.0
  0
LINE
  5
4DF
  8
0
 10
171.37173078457911
 20
39.500004503757779
 30
0.0
 11
171.12173078457931
 21
39.500004503757779
 31
0.0
  0
LINE
  5
4E0
  8
0
 10
171.1217307845794
 20
25.12500450375757
 30
0.0
 11
171.3717307845794
 21
25.12500450375757
 31
0.0
  0
LINE
  5
4E1
  8
0
 10
171.3717307845794
 20
27.1250045037578
 30
0.0
 11
171.1217307845794
 21
27.1250045037578
 31
0.0
  0
LINE
  5
4E2
  8
0
 10
171.1217307845794
 20
7.375004503757677
 30
0.0
 11
171.3717307845794
 21
7.375004503757677
 31
0.0
  0
LINE
  5
4E3
  8
0
 10
171.3717307845794
 20
9.3750045037577312
 30
0.0
 11
171.1217307845794
 21
9.3750045037577312
 31
0.0
  0
LINE
  5
4E4
  8
0
 10
171.37173078457911
 20
39.500004503757729
 30
0.0
 11
171.37173078457911
 21
39.482968707191858
 31
0.0
  0
LINE
  5
4E5
  8
0
 10
171.37173078457911
 20
39.482967416902262
 30
0.0
 11
171.37173078457911
 21
39.433017546916489
 31
0.0
  0
LINE
  5
4E6
  8
0
 10
171.37173078457911
 20
39.433017205649961
 30
0.0
 11
171.37173078457911
 21
39.353558338609659
 31
0.0
  0
LINE
  5
4E7
  8
0
 10
171.37173078457911
 20
39.353557894351013
 30
0.0
 11
171.37173078457911
 21
39.250004503757729
 31
0.0
  0
LINE
  5
4E8
  8
0
 10
171.37173078457911
 20
39.2500036072448
 30
0.0
 11
171.37173078457911
 21
39.129414306770492
 31
0.0
  0
LINE
  5
4E9
  8
0
 10
171.37173078457911
 20
39.129414026309
 30
0.0
 11
171.37173078457911
 21
39.000004503757737
 31
0.0
  0
LINE
  5
4EA
  8
0
 10
171.37173078457911
 20
39.000004503757722
 30
0.0
 11
171.37173078457911
 21
38.870594981206459
 31
0.0
  0
LINE
  5
4EB
  8
0
 10
171.37173078457911
 20
38.870594700744967
 30
0.0
 11
171.37173078457911
 21
38.750005400270659
 31
0.0
  0
LINE
  5
4EC
  8
0
 10
171.37173078457911
 20
38.750004503757737
 30
0.0
 11
171.37173078457911
 21
38.646451113164453
 31
0.0
  0
LINE
  5
4ED
  8
0
 10
171.37173078457911
 20
38.646450668905807
 30
0.0
 11
171.37173078457911
 21
38.566991801865512
 31
0.0
  0
LINE
  5
4EE
  8
0
 10
171.37173078457911
 20
38.56699146059897
 30
0.0
 11
171.37173078457911
 21
38.517041590613204
 31
0.0
  0
LINE
  5
4EF
  8
0
 10
171.37173078457911
 20
38.517040300323622
 30
0.0
 11
171.37173078457911
 21
38.500004503757737
 31
0.0
  0
LINE
  5
4F0
  8
0
 10
171.37173078457911
 20
27.125004503757729
 30
0.0
 11
171.37173078457911
 21
27.090931014228559
 31
0.0
  0
LINE
  5
4F1
  8
0
 10
171.37173078457911
 20
27.090930330046799
 30
0.0
 11
171.37173078457911
 21
26.99102990754216
 31
0.0
  0
LINE
  5
4F2
  8
0
 10
171.37173078457911
 20
26.991029551068561
 30
0.0
 11
171.37173078457911
 21
26.832111284944268
 31
0.0
  0
LINE
  5
4F3
  8
0
 10
171.37173078457911
 20
26.832111114296492
 30
0.0
 11
171.37173078457911
 21
26.38382354886026
 31
0.0
  0
LINE
  5
4F4
  8
0
 10
171.37173078457911
 20
26.383823139771209
 30
0.0
 11
171.37173078457911
 21
26.12500450375774
 31
0.0
  0
LINE
  5
4F5
  8
0
 10
171.37173078457911
 20
26.125003539101641
 30
0.0
 11
171.37173078457911
 21
25.866186799530571
 31
0.0
  0
LINE
  5
4F6
  8
0
 10
171.37173078457911
 20
25.86618545865521
 30
0.0
 11
171.37173078457911
 21
25.6250054002704
 31
0.0
  0
LINE
  5
4F7
  8
0
 10
171.37173078457911
 20
25.625004503757729
 30
0.0
 11
171.37173078457911
 21
25.417898745651069
 31
0.0
  0
LINE
  5
4F8
  8
0
 10
171.37173078457911
 20
25.41789772257118
 30
0.0
 11
171.37173078457911
 21
25.258980241980971
 31
0.0
  0
LINE
  5
4F9
  8
0
 10
171.37173078457911
 20
25.258979099973288
 30
0.0
 11
171.37173078457911
 21
25.159079090948161
 31
0.0
  0
LINE
  5
4FA
  8
0
 10
171.37173078457911
 20
25.159078677468671
 30
0.0
 11
171.37173078457911
 21
25.125004503757729
 31
0.0
  0
LINE
  5
4FB
  8
0
 10
171.37173078457911
 20
9.3750045037577348
 30
0.0
 11
171.37173078457911
 21
9.3409305401211071
 31
0.0
  0
LINE
  5
4FC
  8
0
 10
171.37173078457911
 20
9.3409303300468043
 30
0.0
 11
171.37173078457911
 21
9.2410299652753771
 31
0.0
  0
LINE
  5
4FD
  8
0
 10
171.37173078457911
 20
9.2410299075421758
 30
0.0
 11
171.37173078457911
 21
9.0821116180067172
 31
0.0
  0
LINE
  5
4FE
  8
0
 10
171.37173078457911
 20
9.0821112849442844
 30
0.0
 11
171.37173078457911
 21
8.8750045037577419
 31
0.0
  0
LINE
  5
4FF
  8
0
 10
171.37173078457911
 20
8.8750042796296231
 30
0.0
 11
171.37173078457911
 21
8.6338236098184815
 31
0.0
  0
LINE
  5
500
  8
0
 10
171.37173078457911
 20
8.6338235488602617
 30
0.0
 11
171.37173078457911
 21
8.3750047449217302
 31
0.0
  0
LINE
  5
501
  8
0
 10
171.37173078457911
 20
8.3750045037577276
 30
0.0
 11
171.37173078457911
 21
8.1161854586552078
 31
0.0
  0
LINE
  5
502
  8
0
 10
171.37173078457911
 20
8.1161851477145852
 30
0.0
 11
171.37173078457911
 21
7.6678978932189752
 31
0.0
  0
LINE
  5
503
  8
0
 10
171.37173078457911
 20
7.6678977225711833
 30
0.0
 11
171.37173078457911
 21
7.5089790999732937
 31
0.0
  0
LINE
  5
504
  8
0
 10
171.37173078457911
 20
7.5089787298400781
 30
0.0
 11
171.37173078457911
 21
7.4090786774686643
 31
0.0
  0
LINE
  5
505
  8
0
 10
171.37173078457911
 20
7.4090779932866191
 30
0.0
 11
171.37173078457911
 21
7.375004503757733
 31
0.0
  0
LINE
  5
506
  8
0
 10
171.1217307845794
 20
10.875004503758079
 30
0.0
 11
171.3717307845794
 21
10.875004503758079
 31
0.0
  0
LINE
  5
507
  8
0
 10
171.3717307845794
 20
14.87500450375801
 30
0.0
 11
171.1217307845794
 21
14.87500450375801
 31
0.0
  0
LINE
  5
508
  8
0
 10
171.37173078457911
 20
14.87500450375815
 30
0.0
 11
171.37173078457911
 21
14.80685752469925
 31
0.0
  0
LINE
  5
509
  8
0
 10
171.37173078457911
 20
14.8068561563363
 30
0.0
 11
171.37173078457911
 21
14.607056051593091
 31
0.0
  0
LINE
  5
50A
  8
0
 10
171.37173078457911
 20
14.60705531132705
 30
0.0
 11
171.37173078457911
 21
13.392643215844149
 31
0.0
  0
LINE
  5
50B
  8
0
 10
171.37173078457911
 20
13.39264259396321
 30
0.0
 11
171.37173078457911
 21
12.87500450375817
 31
0.0
  0
LINE
  5
50C
  8
0
 10
171.37173078457911
 20
12.87500402142973
 30
0.0
 11
171.37173078457911
 21
12.35736641355312
 31
0.0
  0
LINE
  5
50D
  8
0
 10
171.37173078457911
 20
12.35736629163606
 30
0.0
 11
171.37173078457911
 21
11.87500450375815
 31
0.0
  0
LINE
  5
50E
  8
0
 10
171.37173078457911
 20
11.87500424275499
 30
0.0
 11
171.37173078457911
 21
11.142953696189281
 31
0.0
  0
LINE
  5
50F
  8
0
 10
171.37173078457911
 20
11.14295358072231
 30
0.0
 11
171.37173078457911
 21
10.94315285118002
 31
0.0
  0
LINE
  5
510
  8
0
 10
171.37173078457911
 20
10.94315243103026
 30
0.0
 11
171.37173078457911
 21
10.87500450375815
 31
0.0
  0
LINE
  5
511
  8
0
 10
210.04101099415411
 20
316.67507127112412
 30
0.0
 11
210.04101099415399
 21
172.67507127112961
 31
0.0
  0
LINE
  5
512
  8
0
 10
210.04101099415399
 20
172.67507127112961
 30
0.0
 11
250.79101099415121
 21
172.6750712711295
 31
0.0
  0
LINE
  5
513
  8
0
 10
250.79101099415121
 20
172.6750712711295
 30
0.0
 11
250.79101099415149
 21
316.67507127112401
 31
0.0
  0
LINE
  5
514
  8
0
 10
250.79101099415149
 20
316.67507127112401
 30
0.0
 11
210.04101099415411
 21
316.67507127112412
 31
0.0
  0
LINE
  5
515
  8
0
 10
249.16601099415439
 20
315.05007127112418
 30
0.0
 11
249.16601099415411
 21
174.3000712711243
 31
0.0
1001
ACAD
1000
ASC_BOUNDS
1002
{
1070
    19
1005
57E
1002
}
  0
LINE
  5
516
  8
0
 10
249.16601099415411
 20
174.3000712711243
 30
0.0
 11
211.66601099415411
 21
174.3000712711243
 31
0.0
1001
ACAD
1000
ASC_BOUNDS
1002
{
1070
    19
1005
57E
1002
}
  0
LINE
  5
517
  8
0
 10
211.66601099415411
 20
174.3000712711243
 30
0.0
 11
211.66601099415439
 21
315.0500712711243
 31
0.0
1001
ACAD
1000
ASC_BOUNDS
1002
{
1070
    19
1005
57E
1002
}
  0
LINE
  5
518
  8
0
 10
211.66601099415439
 20
315.0500712711243
 30
0.0
 11
249.16601099415439
 21
315.05007127112418
 31
0.0
1001
ACAD
1000
ASC_BOUNDS
1002
{
1070
    19
1005
57E
1002
}
  0
LINE
  5
519
  8
0
 10
250.79101099415109
 20
172.67507127112421
 30
0.0
 11
257.54101099415482
 21
172.67507127112421
 31
0.0
  0
LINE
  5
51A
  8
0
 10
257.54101099415482
 20
172.67507127112421
 30
0.0
 11
257.54101099415482
 21
316.67507127112412
 31
0.0
  0
LINE
  5
51B
  8
0
 10
257.54101099415482
 20
316.67507127112412
 30
0.0
 11
250.79101099415141
 21
316.67507127112412
 31
0.0
  0
LINE
  5
51C
  8
0
 10
232.41601099415439
 20
172.4250712711239
 30
0.0
 11
232.41601099415439
 21
172.67507127112401
 31
0.0
  0
LINE
  5
51D
  8
0
 10
228.41601099415431
 20
172.67507127112401
 30
0.0
 11
228.41601099415431
 21
172.4250712711239
 31
0.0
  0
LINE
  5
51E
  8
0
 10
232.41601099415431
 20
172.42507127112401
 30
0.0
 11
232.34786401510601
 21
172.42507127112401
 31
0.0
  0
LINE
  5
51F
  8
0
 10
232.34786264673241
 20
172.42507127112401
 30
0.0
 11
232.14806254199601
 21
172.42507127112401
 31
0.0
  0
LINE
  5
520
  8
0
 10
232.1480618017232
 20
172.42507127112401
 30
0.0
 11
231.83022455652741
 21
172.42507127112401
 31
0.0
  0
LINE
  5
521
  8
0
 10
231.830224215236
 20
172.42507127112401
 30
0.0
 11
230.9336497062458
 21
172.42507127112401
 31
0.0
  0
LINE
  5
522
  8
0
 10
230.9336490843593
 20
172.42507127112401
 30
0.0
 11
230.41601099415431
 21
172.42507127112401
 31
0.0
  0
LINE
  5
523
  8
0
 10
230.4160105118311
 20
172.42507127112401
 30
0.0
 11
229.89837290394931
 21
172.42507127112401
 31
0.0
  0
LINE
  5
524
  8
0
 10
229.89837278203771
 20
172.42507127112401
 30
0.0
 11
229.416011442415
 21
172.42507127112401
 31
0.0
  0
LINE
  5
525
  8
0
 10
229.41601099415431
 20
172.42507127112401
 30
0.0
 11
229.0017974317812
 21
172.42507127112401
 31
0.0
  0
LINE
  5
526
  8
0
 10
229.00179676566191
 20
172.42507127112401
 30
0.0
 11
228.68396018658541
 21
172.42507127112401
 31
0.0
  0
LINE
  5
527
  8
0
 10
228.6839600711252
 20
172.42507127112401
 30
0.0
 11
228.4841593415762
 21
172.42507127112401
 31
0.0
  0
LINE
  5
528
  8
0
 10
228.4841589214364
 20
172.42507127112401
 30
0.0
 11
228.41601099415431
 21
172.42507127112401
 31
0.0
  0
LINE
  5
529
  8
0
 10
240.54101099415439
 20
172.4250712711239
 30
0.0
 11
240.54101099415439
 21
172.67507127112381
 31
0.0
  0
LINE
  5
52A
  8
0
 10
239.54101099415431
 20
172.67507127112381
 30
0.0
 11
239.54101099415431
 21
172.4250712711239
 31
0.0
  0
LINE
  5
52B
  8
0
 10
228.29101099415431
 20
172.4250712711239
 30
0.0
 11
228.29101099415431
 21
172.67507127112381
 31
0.0
  0
LINE
  5
52C
  8
0
 10
226.29101099415439
 20
172.67507127112381
 30
0.0
 11
226.29101099415439
 21
172.4250712711239
 31
0.0
  0
LINE
  5
52D
  8
0
 10
211.29101099415419
 20
172.67507127112401
 30
0.0
 11
211.29101099415419
 21
172.4250712711239
 31
0.0
  0
LINE
  5
52E
  8
0
 10
240.54101099415419
 20
172.4250712711239
 30
0.0
 11
240.5239739072988
 21
172.4250712711239
 31
0.0
  0
LINE
  5
52F
  8
0
 10
240.52397386227321
 20
172.4250712711239
 30
0.0
 11
240.4740240373194
 21
172.4250712711239
 31
0.0
  0
LINE
  5
530
  8
0
 10
240.4740236960464
 20
172.4250712711239
 30
0.0
 11
240.3945643847475
 21
172.4250712711239
 31
0.0
  0
LINE
  5
531
  8
0
 10
240.39456408632
 20
172.4250712711239
 30
0.0
 11
240.29101099415419
 21
172.4250712711239
 31
0.0
  0
LINE
  5
532
  8
0
 10
240.29101077003071
 20
172.4250712711239
 30
0.0
 11
240.17042079717211
 21
172.4250712711239
 31
0.0
  0
LINE
  5
533
  8
0
 10
240.17042051670541
 20
172.4250712711239
 30
0.0
 11
239.91160147160301
 21
172.4250712711239
 31
0.0
  0
LINE
  5
534
  8
0
 10
239.91160119114659
 20
172.4250712711239
 30
0.0
 11
239.79101099415419
 21
172.4250712711239
 31
0.0
  0
LINE
  5
535
  8
0
 10
239.7910104721542
 20
172.4250712711239
 30
0.0
 11
239.687457603561
 21
172.4250712711239
 31
0.0
  0
LINE
  5
536
  8
0
 10
239.687457159308
 20
172.4250712711239
 30
0.0
 11
239.60799829226201
 21
172.4250712711239
 31
0.0
  0
LINE
  5
537
  8
0
 10
239.60799795100181
 20
172.4250712711239
 30
0.0
 11
239.5580480810097
 21
172.4250712711239
 31
0.0
  0
LINE
  5
538
  8
0
 10
239.55804679072949
 20
172.4250712711239
 30
0.0
 11
239.54101099415419
 21
172.4250712711239
 31
0.0
  0
LINE
  5
539
  8
0
 10
228.29101099415431
 20
172.4250712711239
 30
0.0
 11
228.15703708047801
 21
172.4250712711239
 31
0.0
  0
LINE
  5
53A
  8
0
 10
228.1570363979387
 20
172.4250712711239
 30
0.0
 11
227.99811866386361
 21
172.4250712711239
 31
0.0
  0
LINE
  5
53B
  8
0
 10
227.9981177753408
 20
172.4250712711239
 30
0.0
 11
227.79101203817001
 21
172.4250712711239
 31
0.0
  0
LINE
  5
53C
  8
0
 10
227.79101099415419
 20
172.4250712711239
 30
0.0
 11
227.549830600185
 21
172.4250712711239
 31
0.0
  0
LINE
  5
53D
  8
0
 10
227.5498300392567
 20
172.4250712711239
 30
0.0
 11
227.03219194905171
 21
172.4250712711239
 31
0.0
  0
LINE
  5
53E
  8
0
 10
227.0321913881337
 20
172.4250712711239
 30
0.0
 11
226.79101099415431
 21
172.4250712711239
 31
0.0
  0
LINE
  5
53F
  8
0
 10
226.791009950149
 20
172.4250712711239
 30
0.0
 11
226.5839042129677
 21
172.4250712711239
 31
0.0
  0
LINE
  5
540
  8
0
 10
226.5839033244562
 20
172.4250712711239
 30
0.0
 11
226.4249855903698
 21
172.4250712711239
 31
0.0
  0
LINE
  5
541
  8
0
 10
226.42498490784331
 20
172.4250712711239
 30
0.0
 11
226.32508516786521
 21
172.4250712711239
 31
0.0
  0
LINE
  5
542
  8
0
 10
226.3250825872951
 20
172.4250712711239
 30
0.0
 11
226.29101099415431
 21
172.4250712711239
 31
0.0
  0
LINE
  5
543
  8
0
 10
212.1649072691136
 20
172.42507127112401
 30
0.0
 11
212.03219194905171
 21
172.42507127112401
 31
0.0
  0
LINE
  5
544
  8
0
 10
212.03219138813361
 20
172.42507127112401
 30
0.0
 11
211.79101099415411
 21
172.42507127112401
 31
0.0
  0
LINE
  5
545
  8
0
 10
211.791009950149
 20
172.42507127112401
 30
0.0
 11
211.58390421296761
 21
172.42507127112401
 31
0.0
  0
LINE
  5
546
  8
0
 10
211.58390332445629
 20
172.42507127112401
 30
0.0
 11
211.42498559036969
 21
172.42507127112401
 31
0.0
  0
LINE
  5
547
  8
0
 10
211.4249849078432
 20
172.42507127112401
 30
0.0
 11
211.3250851678651
 21
172.42507127112401
 31
0.0
  0
LINE
  5
548
  8
0
 10
211.3250825872953
 20
172.42507127112401
 30
0.0
 11
211.29101099415411
 21
172.42507127112401
 31
0.0
  0
LINE
  5
549
  8
0
 10
216.16601099415459
 20
172.4250712711239
 30
0.0
 11
216.16601099415459
 21
172.67507127112401
 31
0.0
  0
LINE
  5
54A
  8
0
 10
212.16601099415439
 20
172.67507127112401
 30
0.0
 11
212.16601099415439
 21
172.4250712711239
 31
0.0
  0
LINE
  5
54B
  8
0
 10
216.16601099415439
 20
172.42507127112401
 30
0.0
 11
216.09786264673261
 21
172.42507127112401
 31
0.0
  0
LINE
  5
54C
  8
0
 10
216.0978624666202
 20
172.42507127112401
 30
0.0
 11
215.8980631667954
 21
172.42507127112401
 31
0.0
  0
LINE
  5
54D
  8
0
 10
215.89806180172329
 20
172.42507127112401
 30
0.0
 11
215.16601099415439
 21
172.42507127112401
 31
0.0
  0
LINE
  5
54E
  8
0
 10
215.16601009764611
 20
172.42507127112401
 30
0.0
 11
214.6836502062105
 21
172.42507127112401
 31
0.0
  0
LINE
  5
54F
  8
0
 10
214.6836490843595
 20
172.42507127112401
 30
0.0
 11
213.64837290394939
 21
172.42507127112401
 31
0.0
  0
LINE
  5
550
  8
0
 10
213.64837178210809
 20
172.42507127112401
 30
0.0
 11
213.1660118906714
 21
172.42507127112401
 31
0.0
  0
LINE
  5
551
  8
0
 10
213.16601099415439
 20
172.42507127112401
 30
0.0
 11
212.43396018658561
 21
172.42507127112401
 31
0.0
  0
LINE
  5
552
  8
0
 10
212.43395882152581
 20
172.42507127112401
 30
0.0
 11
212.23415952169489
 21
172.42507127112401
 31
0.0
  0
LINE
  5
553
  8
0
 10
212.23415934157629
 20
172.42507127112401
 30
0.0
 11
212.16601099415439
 21
172.42507127112401
 31
0.0
  0
INSERT
  5
574
  8
0
  6
CONTINUOUS
  2
*X3
 10
0.0
 20
0.0
 30
0.0
1001
GRADIENTCOLOR1ACI
1070
     5
1001
GRADIENTCOLOR2ACI
1070
     2
1001
ACAD
1000
HATCH
1002
{
1070
    19
1000
NET
1040
12.0
1040
0.0
1000
ASC_BOUNDS
1070
     5
1070
     1
1070
     4
1005
3F0
1005
3F1
1005
3E0
1005
3EF
1070
     1
1070
     4
1005
3EA
1005
3F1
1005
3E8
1005
3EF
1070
     1
1070
     4
1005
3DE
1005
3DD
1005
3DC
1005
3EF
1070
     1
1070
     4
1005
3E6
1005
3F1
1005
3E4
1005
3EF
1070
     1
1070
     4
1005
3D9
1005
3F1
1005
3EE
1005
3EF
1000
ASC_SEEDPOINT
1011
308.8223438677785
1021
0.0
1031
0.0
1021
32.827015772215077
1031
0.0
1000
R14_HATCH_DATA
1000
574
1011
1.0
1021
0.0
1031
0.0
1021
0.0
1031
0.0
1011
0.0
1021
0.0
1031
0.0
1021
1.0
1031
0.0
1011
0.0
1021
0.0
1031
0.0
1021
0.0
1031
1.0
1040
0.0
1010
0.0
1020
0.0
1030
1.0
1000
NET
1070
     0
1070
     1
1071
        5
1071
        7
1070
     0
1070
     1
1071
        4
1040
312.11555566632268
1040
42.500004503757211
1040
304.74200650557412
1040
42.500004503757133
1040
304.74200650557441
1040
4.0000045037565739
1040
312.11555566632268
1040
4.0000045037566494
1071
        4
1005
3EF
1005
3EE
1005
3F1
1005
3D9
1071
        7
1070
     0
1070
     1
1071
        4
1040
348.11700650557441
1040
42.50000450375758
1040
330.1245951966913
1040
42.500004503757388
1040
330.1245951966913
1040
4.0000045037568439
1040
348.11700650557441
1040
4.0000045037570331
1071
        4
1005
3EF
1005
3E4
1005
3F1
1005
3E6
1071
        7
1070
     0
1070
     1
1071
        4
1040
384.12600616024588
1040
42.50000450375795
1040
366.11700650557441
1040
42.500004503757758
1040
366.11700650557441
1040
4.0000045037578111
1040
384.12600616024588
1040
4.0000045037578182
1071
        4
1005
3EF
1005
3DC
1005
3DD
1005
3DE
1071
        7
1070
     0
1070
     1
1071
        4
1040
420.1176855628425
1040
42.500004503758312
1040
402.10902182234349
1040
42.500004503758127
1040
402.10902182234349
1040
4.0000045037575873
1040
420.1176855628425
1040
4.0000045037577747
1071
        4
1005
3EF
1005
3E8
1005
3F1
1005
3EA
1071
        7
1070
     0
1070
     1
1071
        4
1040
445.49200650557401
1040
42.500004503758582
1040
438.10299197542281
1040
42.500004503758497
1040
438.10299197542281
1040
4.0000045037579559
1040
445.49200650557441
1040
4.0000045037580314
1071
        4
1005
3EF
1005
3E0
1005
3F1
1005
3F0
1070
     1
1070
     1
1040
0.0
1040
12.0
1070
     0
1070
     2
1040
0.0
1040
0.0
1040
0.0
1040
0.0
1040
1.5
1070
     0
1040
1.5707963267948959
1040
0.0
1040
0.0
1040
-1.5
1040
0.0000000000000001
1070
     0
1040
0.1336406887384414
1071
        5
1040
308.8223438677785
1040
32.827015772215077
1040
0.0
1040
337.1678437663939
1040
23.873088961228749
1040
0.0
1040
373.66935961201762
1040
24.808573820157338
1040
0.0
1040
411.24051705804999
1040
23.60580777569589
1040
0.0
1040
442.3938261577382
1040
22.670322916767311
1040
0.0
1002
}
  0
INSERT
  5
57E
  8
0
  6
CONTINUOUS
  2
*X4
 10
0.0
 20
0.0
 30
0.0
1001
GRADIENTCOLOR1ACI
1070
     5
1001
GRADIENTCOLOR2ACI
1070
     2
1001
ACAD
1000
HATCH
1002
{
1070
    19
1000
ANSI31
1040
12.0
1040
2.3561944901923439
1000
ASC_BOUNDS
1070
     1
1070
     1
1070
     4
1005
515
1005
516
1005
517
1005
518
1000
ASC_SEEDPOINT
1011
236.25784473300999
1021
0.0
1031
0.0
1021
267.77955369538472
1031
0.0
1000
R14_HATCH_DATA
1000
57E
1011
1.0
1021
0.0
1031
0.0
1021
0.0
1031
0.0
1011
0.0
1021
0.0
1031
0.0
1021
1.0
1031
0.0
1011
0.0
1021
0.0
1031
0.0
1021
0.0
1031
1.0
1040
0.0
1010
0.0
1020
0.0
1030
1.0
1000
ANSI31
1070
     0
1070
     1
1071
        1
1071
        7
1070
     0
1070
     1
1071
        4
1040
249.16601099415439
1040
315.05007127112418
1040
211.66601099415439
1040
315.0500712711243
1040
211.66601099415411
1040
174.3000712711243
1040
249.16601099415411
1040
174.3000712711243
1071
        4
1005
518
1005
517
1005
516
1005
515
1070
     1
1070
     1
1040
2.3561944901923439
1040
12.0
1070
     0
1070
     1
1040
3.1415926535897931
1040
0.0
1040
18.0
1040
-0.0000000000000002
1040
-1.5
1070
     0
1040
0.2149984519355087
1071
        1
1040
236.25784473300999
1040
267.77955369538472
1040
0.0
1002
}
  0
ENDSEC
  0
EOF
