  0
SECTION
  2
HEADER
  9
$ACADVER
  1
AC1009
  9
$INSBASE
 10
0.0
 20
0.0
 30
0.0
  9
$EXTMIN
 10
-0.0156537728544208
 20
-0.0102923056537065
 30
-0.0015258207003583
  9
$EXTMAX
 10
512.997621881128
 20
337.29429787034911
 30
0.0000000349246037
  9
$LIMMIN
 10
0.0
 20
0.0
  9
$LIMMAX
 10
12.0
 20
9.0
  9
$ORTHOMODE
 70
     0
  9
$REGENMODE
 70
     1
  9
$FILLMODE
 70
     1
  9
$QTEXTMODE
 70
     0
  9
$MIRRTEXT
 70
     0
  9
$DRAGMODE
 70
     2
  9
$LTSCALE
 40
1.0
  9
$OSMODE
 70
    37
  9
$ATTMODE
 70
     1
  9
$TEXTSIZE
 40
0.2
  9
$TRACEWID
 40
0.05
  9
$TEXTSTYLE
  7
ROMANS
  9
$CLAYER
  8
0
  9
$CELTYPE
  6
BYLAYER
  9
$CECOLOR
 62
   256
  9
$DIMSCALE
 40
1.0
  9
$DIMASZ
 40
0.09375
  9
$DIMEXO
 40
0.0625
  9
$DIMDLI
 40
0.375
  9
$DIMRND
 40
0.0
  9
$DIMDLE
 40
0.0
  9
$DIMEXE
 40
0.03125
  9
$DIMTP
 40
0.0
  9
$DIMTM
 40
0.0
  9
$DIMTXT
 40
0.09375
  9
$DIMCEN
 40
0.09375
  9
$DIMTSZ
 40
0.0
  9
$DIMTOL
 70
     0
  9
$DIMLIM
 70
     0
  9
$DIMTIH
 70
     0
  9
$DIMTOH
 70
     0
  9
$DIMSE1
 70
     0
  9
$DIMSE2
 70
     0
  9
$DIMTAD
 70
     0
  9
$DIMZIN
 70
     0
  9
$DIMBLK
  1

  9
$DIMASO
 70
     1
  9
$DIMSHO
 70
     1
  9
$DIMPOST
  1

  9
$DIMAPOST
  1

  9
$DIMALT
 70
     0
  9
$DIMALTD
 70
     2
  9
$DIMALTF
 40
25.399999999999999
  9
$DIMLFAC
 40
1.0
  9
$DIMTOFL
 70
     0
  9
$DIMTVP
 40
0.0
  9
$DIMTIX
 70
     0
  9
$DIMSOXD
 70
     0
  9
$DIMSAH
 70
     0
  9
$DIMBLK1
  1

  9
$DIMBLK2
  1

  9
$DIMSTYLE
  2
BAC
  9
$DIMCLRD
 70
     0
  9
$DIMCLRE
 70
     6
  9
$DIMCLRT
 70
     0
  9
$DIMTFAC
 40
1.0
  9
$DIMGAP
 40
0.0625
  9
$LUNITS
 70
     5
  9
$LUPREC
 70
     6
  9
$SKETCHINC
 40
0.1
  9
$FILLETRAD
 40
0.5
  9
$AUNITS
 70
     0
  9
$AUPREC
 70
     0
  9
$MENU
  1
.
  9
$ELEVATION
 40
0.0
  9
$PELEVATION
 40
0.0
  9
$THICKNESS
 40
0.0
  9
$LIMCHECK
 70
     0
  9
$BLIPMODE
 70
     0
  9
$CHAMFERA
 40
0.5
  9
$CHAMFERB
 40
0.5
  9
$SKPOLY
 70
     0
  9
$TDCREATE
 40
2456828.7156088999
  9
$TDUPDATE
 40
2456828.7165482291
  9
$TDINDWG
 40
0.0009419097
  9
$TDUSRTIMER
 40
0.0009416667
  9
$USRTIMER
 70
     1
  9
$ANGBASE
 50
0.0
  9
$ANGDIR
 70
     0
  9
$PDMODE
 70
     0
  9
$PDSIZE
 40
0.0
  9
$PLINEWID
 40
0.0
  9
$COORDS
 70
     1
  9
$SPLFRAME
 70
     0
  9
$SPLINETYPE
 70
     6
  9
$SPLINESEGS
 70
     8
  9
$ATTDIA
 70
     0
  9
$ATTREQ
 70
     1
  9
$HANDLING
 70
     1
  9
$HANDSEED
  5
696
  9
$SURFTAB1
 70
     6
  9
$SURFTAB2
 70
     6
  9
$SURFTYPE
 70
     6
  9
$SURFU
 70
     6
  9
$SURFV
 70
     6
  9
$UCSNAME
  2

  9
$UCSORG
 10
0.0
 20
0.0
 30
0.0
  9
$UCSXDIR
 10
1.0
 20
0.0
 30
0.0
  9
$UCSYDIR
 10
0.0
 20
1.0
 30
0.0
  9
$PUCSNAME
  2

  9
$PUCSORG
 10
0.0
 20
0.0
 30
0.0
  9
$PUCSXDIR
 10
1.0
 20
0.0
 30
0.0
  9
$PUCSYDIR
 10
0.0
 20
1.0
 30
0.0
  9
$USERI1
 70
     0
  9
$USERI2
 70
     0
  9
$USERI3
 70
     0
  9
$USERI4
 70
     0
  9
$USERI5
 70
     0
  9
$USERR1
 40
0.0
  9
$USERR2
 40
0.0
  9
$USERR3
 40
0.0
  9
$USERR4
 40
0.0
  9
$USERR5
 40
0.0
  9
$WORLDVIEW
 70
     1
  9
$SHADEDGE
 70
     3
  9
$SHADEDIF
 70
    70
  9
$TILEMODE
 70
     1
  9
$MAXACTVP
 70
    48
  9
$PLIMCHECK
 70
     0
  9
$PEXTMIN
 10
1.0000000000000000E+020
 20
1.0000000000000000E+020
 30
1.0000000000000000E+020
  9
$PEXTMAX
 10
-1.0000000000000000E+020
 20
-1.0000000000000000E+020
 30
-1.0000000000000000E+020
  9
$PLIMMIN
 10
0.0
 20
0.0
  9
$PLIMMAX
 10
12.0
 20
9.0
  9
$UNITMODE
 70
     0
  9
$VISRETAIN
 70
     1
  9
$PLINEGEN
 70
     0
  9
$PSLTSCALE
 70
     1
  0
ENDSEC
  0
SECTION
  2
TABLES
  0
TABLE
  2
VPORT
 70
     1
  0
VPORT
  2
*ACTIVE
 70
     0
 10
0.0
 20
0.0
 11
1.0
 21
1.0
 12
256.49098405413679
 22
168.64200278234759
 13
0.0
 23
0.0
 14
0.5
 24
0.5
 15
0.5
 25
0.5
 16
0.0
 26
0.0
 36
1.0
 17
0.0
 27
0.0
 37
0.0
 40
339.54830141885861
 41
1.7702552719200879
 42
50.0
 43
0.0
 44
0.0
 50
0.0
 51
0.0
 71
     0
 72
   100
 73
     1
 74
     1
 75
     0
 76
     0
 77
     0
 78
     0
  0
ENDTAB
  0
TABLE
  2
LTYPE
 70
    19
  0
LTYPE
  2
CONTINUOUS
 70
     0
  3
Solid line
 72
    65
 73
     0
 40
0.0
  0
LTYPE
  2
CENTER
 70
     0
  3
Center ____ _ ____ _ ____ _ ____ _ ____ _ ____
 72
    65
 73
     4
 40
2.0
 49
1.25
 49
-0.25
 49
0.25
 49
-0.25
  0
LTYPE
  2
CENTER2
 70
     0
  3
Center (.5x) ___ _ ___ _ ___ _ ___ _ ___ _ ___
 72
    65
 73
     4
 40
1.125
 49
0.75
 49
-0.125
 49
0.125
 49
-0.125
  0
LTYPE
  2
HIDDEN
 70
     0
  3
Hidden __ __ __ __ __ __ __ __ __ __ __ __ __ _
 72
    65
 73
     2
 40
0.375
 49
0.25
 49
-0.125
  0
LTYPE
  2
HIDDEN2
 70
     0
  3
Hidden (.5x) _ _ _ _ _ _ _ _ _ _ _ _ _ _ _ _ _
 72
    65
 73
     2
 40
0.1875
 49
0.125
 49
-0.0625
  0
LTYPE
  2
PHANTOM2
 70
     0
  3
Phantom (.5x) ___ _ _ ___ _ _ ___ _ _ ___ _ _
 72
    65
 73
     6
 40
1.25
 49
0.625
 49
-0.125
 49
0.125
 49
-0.125
 49
0.125
 49
-0.125
  0
LTYPE
  2
AMCONSTR
 70
     0
  3
_______________________
 72
    65
 73
     2
 40
9999.0
 49
9999.0
 49
0.0
  0
LTYPE
  2
AMZIGZAG2
 70
     0
  3
/\/-/\/-/\/-/\/-/\/-/\/
 72
    65
 73
     2
 40
0.4401
 49
0.0001
 49
-0.4400000000000001
  0
LTYPE
  2
ACANSTGB
 70
     0
  3
__ . . __ . .
 72
    65
 73
     6
 40
0.35433070866
 49
0.15748031496
 49
-0.03937007874
 49
0.03937007874
 49
-0.03937007874
 49
0.03937007874
 49
-0.03937007874
  0
LTYPE
  2
ACANSTGL
 70
     0
  3
_ _ _ _ _
 72
    65
 73
     2
 40
0.11811023622
 49
0.07874015748
 49
-0.03937007874
  0
ENDTAB
  0
TABLE
  2
LAYER
 70
     8
  0
LAYER
  2
0
 70
     0
 62
     7
  6
CONTINUOUS
  0
ENDTAB
  0
TABLE
  2
STYLE
 70
    11
  0
STYLE
  2
STANDARD
 70
     0
 40
0.0
 41
1.0
 50
0.0
 71
     0
 42
0.2
  3
txt
  4

  0
STYLE
  2
ROMANS
 70
     0
 40
0.0
 41
0.75
 50
0.0
 71
     0
 42
0.2
  3
romans.shx
  4

  0
STYLE
  2

 70
     1
 40
0.0
 41
1.0
 50
0.0
 71
     0
 42
0.2
  3
genltshp.shx
  4

  0
STYLE
  2
ACANSGDT
 70
     0
 40
0.0
 41
1.0
 50
0.0
 71
     0
 42
0.2
  3
amgdt.shx
  4

  0
ENDTAB
  0
TABLE
  2
VIEW
 70
     0
  0
ENDTAB
  0
TABLE
  2
UCS
 70
     0
  0
ENDTAB
  0
TABLE
  2
APPID
 70
    14
  0
APPID
  2
ACAD
 70
     0
  0
APPID
  2
ACAD_MLEADERVER
 70
     0
  0
APPID
  2
ACAD_DSTYLE_DIMJAG
 70
     0
  0
APPID
  2
ACAD_DSTYLE_DIMTALN
 70
     0
  0
APPID
  2
ACAD_PSEXT
 70
     0
  0
APPID
  2
ACADANNOPO
 70
     0
  0
APPID
  2
MCAD_NO_VIS
 70
     0
  0
APPID
  2
ACAD_TEMP_GRAPHIC
 70
     0
  0
APPID
  2
ACATTRIBSERVICES
 70
     0
  0
APPID
  2
DESIGNERASSEMBLIES
 70
     0
  0
APPID
  2
ACAD_DSTYLE_DIMBREAK
 70
     0
  0
APPID
  2
ACAD_NAV_VCDISPLAY
 70
     0
  0
APPID
  2
GRADIENTCOLOR1ACI
 70
     0
  0
APPID
  2
GRADIENTCOLOR2ACI
 70
     0
  0
ENDTAB
  0
TABLE
  2
DIMSTYLE
 70
    13
  0
DIMSTYLE
  2
BAC
 70
     0
  3

  4

  5

  6

  7

 40
1.0
 41
0.09375
 42
0.0625
 43
0.375
 44
0.03125
 45
0.0
 46
0.0
 47
0.0
 48
0.0
140
0.09375
141
0.09375
142
0.0
143
25.399999999999999
144
1.0
145
0.0
146
1.0
147
0.0625
 71
     0
 72
     0
 73
     0
 74
     0
 75
     0
 76
     0
 77
     0
 78
     0
170
     0
171
     2
172
     0
173
     0
174
     0
175
     0
176
     0
177
     6
178
     0
  0
DIMSTYLE
  2
AM_ANSI
 70
     0
  3

  4
mm
  5

  6

  7

 40
1.0
 41
0.12
 42
0.05
 43
0.5
 44
0.1
 45
0.0
 46
0.0
 47
0.1
 48
0.1
140
0.12
141
0.0
142
0.0
143
25.399999999999999
144
1.0
145
0.0
146
0.71
147
0.06
 71
     0
 72
     0
 73
     1
 74
     1
 75
     0
 76
     0
 77
     0
 78
     7
170
     0
171
     2
172
     0
173
     0
174
     0
175
     0
176
   256
177
   256
178
     2
  0
DIMSTYLE
  2
AM_ANSI$3
 70
     0
  3

  4
mm
  5

  6

  7

 40
1.0
 41
0.12
 42
0.05
 43
0.5
 44
0.1
 45
0.0
 46
0.0
 47
0.1
 48
0.1
140
0.12
141
0.0
142
0.0
143
25.399999999999999
144
1.0
145
0.0
146
0.71
147
0.06
 71
     0
 72
     0
 73
     1
 74
     1
 75
     0
 76
     0
 77
     0
 78
     7
170
     0
171
     2
172
     0
173
     0
174
     0
175
     0
176
   256
177
   256
178
     2
  0
DIMSTYLE
  2
AM_ANSI$4
 70
     0
  3

  4
mm
  5

  6

  7

 40
1.0
 41
0.12
 42
0.05
 43
0.5
 44
0.1
 45
0.0
 46
0.0
 47
0.1
 48
0.1
140
0.12
141
0.0
142
0.0
143
25.399999999999999
144
1.0
145
0.0
146
0.71
147
0.06
 71
     0
 72
     0
 73
     1
 74
     1
 75
     0
 76
     0
 77
     0
 78
     7
170
     0
171
     2
172
     0
173
     0
174
     0
175
     0
176
   256
177
   256
178
     2
  0
DIMSTYLE
  2
AM_ANSI$7
 70
     0
  3

  4
mm
  5

  6

  7

 40
1.0
 41
0.12
 42
0.05
 43
0.5
 44
0.1
 45
0.0
 46
0.0
 47
0.1
 48
0.1
140
0.12
141
0.0
142
0.0
143
25.399999999999999
144
1.0
145
0.0
146
0.71
147
0.06
 71
     0
 72
     0
 73
     1
 74
     1
 75
     0
 76
     0
 77
     0
 78
     7
170
     0
171
     2
172
     0
173
     0
174
     0
175
     0
176
   256
177
   256
178
     2
  0
DIMSTYLE
  2
AM_ANSI$SF
 70
     0
  3

  4
mm
  5

  6

  7

 40
1.0
 41
0.12
 42
0.05
 43
0.5
 44
0.1
 45
0.0
 46
0.0
 47
0.1
 48
0.1
140
0.12
141
0.0
142
0.0
143
25.399999999999999
144
1.0
145
0.0
146
0.71
147
0.06
 71
     0
 72
     0
 73
     1
 74
     1
 75
     1
 76
     1
 77
     0
 78
     7
170
     0
171
     2
172
     0
173
     0
174
     0
175
     0
176
   256
177
   256
178
     2
  0
DIMSTYLE
  2
AM_ANSI$SH
 70
     0
  3

  4
mm
  5

  6
GENAXEH
  7

 40
1.0
 41
0.12
 42
0.05
 43
0.5
 44
0.1
 45
0.0
 46
0.0
 47
0.1
 48
0.1
140
0.12
141
0.0
142
0.0
143
25.399999999999999
144
1.0
145
0.0
146
0.71
147
0.06
 71
     0
 72
     0
 73
     1
 74
     1
 75
     1
 76
     1
 77
     0
 78
     7
170
     0
171
     2
172
     0
173
     1
174
     0
175
     0
176
   256
177
   256
178
     2
  0
DIMSTYLE
  2
STANDARD
 70
     0
  3

  4

  5

  6

  7

 40
1.0
 41
0.18
 42
0.0625
 43
0.38
 44
0.18
 45
0.0
 46
0.0
 47
0.0
 48
0.0
140
0.18
141
0.09
142
0.0
143
25.399999999999999
144
1.0
145
0.0
146
1.0
147
0.09
 71
     0
 72
     0
 73
     1
 74
     1
 75
     0
 76
     0
 77
     0
 78
     0
170
     0
171
     2
172
     0
173
     0
174
     0
175
     0
176
     0
177
     0
178
     0
  0
ENDTAB
  0
ENDSEC
  0
SECTION
  2
BLOCKS
  0
BLOCK
  8
0
  2
$MODEL_SPACE
 70
     0
 10
0.0
 20
0.0
 30
0.0
  3
$MODEL_SPACE
  1

  0
ENDBLK
  5
1A
  8
0
  0
BLOCK
 67
     1
  8
0
  2
$PAPER_SPACE
 70
     0
 10
0.0
 20
0.0
 30
0.0
  3
$PAPER_SPACE
  1

  0
ENDBLK
  5
17
 67
     1
  8
0
  0
BLOCK
  8
0
  2
*U0
 70
     1
 10
0.0
 20
0.0
 30
0.0
  3
*U0
  1

  0
ENDBLK
  5
17A
  8
0
  0
BLOCK
  8
0
  2
GENAXEH
 70
     0
 10
0.0
 20
0.0
 30
0.0
  3
GENAXEH
  1

  0
LINE
  5
1AD
  8
0
 10
-1.0
 20
0.0
 30
0.0
 11
1.0
 21
0.0
 31
0.0
  0
ENDBLK
  5
1AF
  8
0
  0
BLOCK
  8
0
  2
*X3
 70
     1
 10
0.0
 20
0.0
 30
0.0
  3
*X3
  1

  0
LINE
  5
577
  8
0
 62
     0
 10
510.0
 20
12.00000450375801
 30
0.0
 11
510.0
 21
62.875004503758561
 31
0.0
  0
LINE
  5
578
  8
0
 62
     0
 10
508.49999999999989
 20
12.000004503757999
 30
0.0
 11
508.49999999999989
 21
62.875004503758547
 31
0.0
  0
LINE
  5
579
  8
0
 62
     0
 10
507.0
 20
12.00000450375798
 30
0.0
 11
507.0
 21
62.875004503758532
 31
0.0
  0
LINE
  5
57A
  8
0
 62
     0
 10
505.49999999999989
 20
12.000004503757969
 30
0.0
 11
505.49999999999989
 21
62.875004503758511
 31
0.0
  0
LINE
  5
57B
  8
0
 62
     0
 10
504.0
 20
12.00000450375795
 30
0.0
 11
504.0
 21
62.875004503758497
 31
0.0
  0
LINE
  5
57C
  8
0
 62
     0
 10
502.5
 20
12.00000450375793
 30
0.0
 11
502.5
 21
62.87500450375849
 31
0.0
  0
LINE
  5
57D
  8
0
 62
     0
 10
501.0
 20
12.000004503757919
 30
0.0
 11
501.0
 21
62.875004503758468
 31
0.0
  0
LINE
  5
57E
  8
0
 62
     0
 10
499.5
 20
12.0000045037579
 30
0.0
 11
499.5
 21
62.875004503758447
 31
0.0
  0
LINE
  5
57F
  8
0
 62
     0
 10
498.0
 20
12.000004503757889
 30
0.0
 11
498.0
 21
62.87500450375844
 31
0.0
  0
LINE
  5
580
  8
0
 62
     0
 10
496.49999999999989
 20
12.00000450375787
 30
0.0
 11
496.49999999999989
 21
62.875004503758419
 31
0.0
  0
LINE
  5
581
  8
0
 62
     0
 10
495.0
 20
12.00000450375785
 30
0.0
 11
495.0
 21
62.875004503758412
 31
0.0
  0
LINE
  5
582
  8
0
 62
     0
 10
493.5
 20
12.00000450375784
 30
0.0
 11
493.5
 21
62.875004503758397
 31
0.0
  0
LINE
  5
583
  8
0
 62
     0
 10
474.0
 20
12.00000450375763
 30
0.0
 11
474.0
 21
62.875004503758198
 31
0.0
  0
LINE
  5
584
  8
0
 62
     0
 10
472.5
 20
12.000004503757619
 30
0.0
 11
472.5
 21
62.875004503758177
 31
0.0
  0
LINE
  5
585
  8
0
 62
     0
 10
471.0
 20
12.0000045037576
 30
0.0
 11
471.0
 21
62.87500450375817
 31
0.0
  0
LINE
  5
586
  8
0
 62
     0
 10
469.5
 20
12.000004503757591
 30
0.0
 11
469.5
 21
62.875004503758163
 31
0.0
  0
LINE
  5
587
  8
0
 62
     0
 10
468.0
 20
12.00000450375757
 30
0.0
 11
468.0
 21
62.875004503758142
 31
0.0
  0
LINE
  5
588
  8
0
 62
     0
 10
466.5
 20
12.00000450375755
 30
0.0
 11
466.5
 21
62.87500450375812
 31
0.0
  0
LINE
  5
589
  8
0
 62
     0
 10
465.0
 20
12.000004503757539
 30
0.0
 11
465.0
 21
62.875004503758113
 31
0.0
  0
LINE
  5
58A
  8
0
 62
     0
 10
463.49999999999989
 20
12.00000450375752
 30
0.0
 11
463.49999999999989
 21
62.875004503758092
 31
0.0
  0
LINE
  5
58B
  8
0
 62
     0
 10
462.0
 20
12.000004503757509
 30
0.0
 11
462.0
 21
62.875004503758078
 31
0.0
  0
LINE
  5
58C
  8
0
 62
     0
 10
460.5
 20
12.00000450375749
 30
0.0
 11
460.5
 21
62.875004503758063
 31
0.0
  0
LINE
  5
58D
  8
0
 62
     0
 10
459.0
 20
12.000004503757481
 30
0.0
 11
459.0
 21
62.875004503758049
 31
0.0
  0
LINE
  5
58E
  8
0
 62
     0
 10
457.5
 20
12.000004503757459
 30
0.0
 11
457.5
 21
62.875004503758028
 31
0.0
  0
LINE
  5
58F
  8
0
 62
     0
 10
456.0
 20
12.000004503757451
 30
0.0
 11
456.0
 21
62.875004503758021
 31
0.0
  0
LINE
  5
590
  8
0
 62
     0
 10
454.49999999999989
 20
12.000004503757429
 30
0.0
 11
454.49999999999989
 21
62.875004503757999
 31
0.0
  0
LINE
  5
591
  8
0
 62
     0
 10
453.0
 20
12.00000450375741
 30
0.0
 11
453.0
 21
62.875004503757978
 31
0.0
  0
LINE
  5
592
  8
0
 62
     0
 10
451.49999999999989
 20
12.000004503757401
 30
0.0
 11
451.49999999999989
 21
62.875004503757971
 31
0.0
  0
LINE
  5
593
  8
0
 62
     0
 10
432.0
 20
12.000004503757189
 30
0.0
 11
432.0
 21
62.875004503757772
 31
0.0
  0
LINE
  5
594
  8
0
 62
     0
 10
430.49999999999989
 20
12.000004503757181
 30
0.0
 11
430.49999999999989
 21
62.875004503757751
 31
0.0
  0
LINE
  5
595
  8
0
 62
     0
 10
429.0
 20
12.000004503757159
 30
0.0
 11
429.0
 21
62.875004503757729
 31
0.0
  0
LINE
  5
596
  8
0
 62
     0
 10
427.5
 20
12.00000450375714
 30
0.0
 11
427.5
 21
62.875004503757722
 31
0.0
  0
LINE
  5
597
  8
0
 62
     0
 10
426.0
 20
12.000004503757131
 30
0.0
 11
426.0
 21
62.875004503757701
 31
0.0
  0
LINE
  5
598
  8
0
 62
     0
 10
424.5
 20
12.00000450375712
 30
0.0
 11
424.5
 21
62.875004503757701
 31
0.0
  0
LINE
  5
599
  8
0
 62
     0
 10
423.0
 20
12.000004503757101
 30
0.0
 11
423.0
 21
62.87500450375768
 31
0.0
  0
LINE
  5
59A
  8
0
 62
     0
 10
421.49999999999989
 20
12.000004503757079
 30
0.0
 11
421.49999999999989
 21
62.875004503757658
 31
0.0
  0
LINE
  5
59B
  8
0
 62
     0
 10
420.0
 20
12.00000450375707
 30
0.0
 11
420.0
 21
62.875004503757637
 31
0.0
  0
LINE
  5
59C
  8
0
 62
     0
 10
418.5
 20
12.000004503757051
 30
0.0
 11
418.5
 21
62.875004503757623
 31
0.0
  0
LINE
  5
59D
  8
0
 62
     0
 10
417.0
 20
12.00000450375704
 30
0.0
 11
417.0
 21
62.875004503757623
 31
0.0
  0
LINE
  5
59E
  8
0
 62
     0
 10
415.5
 20
12.000004503757021
 30
0.0
 11
415.5
 21
62.875004503757602
 31
0.0
  0
LINE
  5
59F
  8
0
 62
     0
 10
414.0
 20
12.00000450375701
 30
0.0
 11
414.0
 21
62.87500450375758
 31
0.0
  0
LINE
  5
5A0
  8
0
 62
     0
 10
412.5
 20
12.00000450375699
 30
0.0
 11
412.5
 21
62.875004503757559
 31
0.0
  0
LINE
  5
5A1
  8
0
 62
     0
 10
411.0
 20
12.00000450375698
 30
0.0
 11
411.0
 21
62.875004503757552
 31
0.0
  0
LINE
  5
5A2
  8
0
 62
     0
 10
409.49999999999989
 20
12.00000450375696
 30
0.0
 11
409.49999999999989
 21
62.875004503757538
 31
0.0
  0
LINE
  5
5A3
  8
0
 62
     0
 10
390.0
 20
12.00000450375676
 30
0.0
 11
390.0
 21
62.875004503757339
 31
0.0
  0
LINE
  5
5A4
  8
0
 62
     0
 10
388.5
 20
12.00000450375674
 30
0.0
 11
388.5
 21
62.875004503757317
 31
0.0
  0
LINE
  5
5A5
  8
0
 62
     0
 10
387.0
 20
12.000004503756729
 30
0.0
 11
387.0
 21
62.87500450375731
 31
0.0
  0
LINE
  5
5A6
  8
0
 62
     0
 10
385.5
 20
12.00000450375671
 30
0.0
 11
385.5
 21
62.875004503757289
 31
0.0
  0
LINE
  5
5A7
  8
0
 62
     0
 10
384.0
 20
12.000004503756699
 30
0.0
 11
384.0
 21
62.875004503757268
 31
0.0
  0
LINE
  5
5A8
  8
0
 62
     0
 10
382.5
 20
12.00000450375668
 30
0.0
 11
382.5
 21
62.87500450375726
 31
0.0
  0
LINE
  5
5A9
  8
0
 62
     0
 10
381.0
 20
12.000004503756671
 30
0.0
 11
381.0
 21
62.875004503757239
 31
0.0
  0
LINE
  5
5AA
  8
0
 62
     0
 10
379.5
 20
12.000004503756649
 30
0.0
 11
379.5
 21
62.875004503757232
 31
0.0
  0
LINE
  5
5AB
  8
0
 62
     0
 10
378.0
 20
12.000004503756641
 30
0.0
 11
378.0
 21
62.875004503757218
 31
0.0
  0
LINE
  5
5AC
  8
0
 62
     0
 10
376.5
 20
12.000004503756619
 30
0.0
 11
376.5
 21
62.875004503757197
 31
0.0
  0
LINE
  5
5AD
  8
0
 62
     0
 10
375.0
 20
12.00000450375661
 30
0.0
 11
375.0
 21
62.875004503757182
 31
0.0
  0
LINE
  5
5AE
  8
0
 62
     0
 10
373.5
 20
12.000004503756591
 30
0.0
 11
373.5
 21
62.875004503757161
 31
0.0
  0
LINE
  5
5AF
  8
0
 62
     0
 10
372.0
 20
12.00000450375658
 30
0.0
 11
372.0
 21
62.875004503757147
 31
0.0
  0
LINE
  5
5B0
  8
0
 62
     0
 10
450.22445132026081
 20
13.5
 30
0.0
 11
474.24096537418569
 21
13.5
 31
0.0
  0
LINE
  5
5B1
  8
0
 62
     0
 10
408.23196571951428
 20
13.5
 30
0.0
 11
432.2291876906877
 21
13.5
 31
0.0
  0
LINE
  5
5B2
  8
0
 62
     0
 10
492.22398103628342
 20
13.5
 30
0.0
 11
511.35696571951428
 21
13.5
 31
0.0
  0
LINE
  5
5B3
  8
0
 62
     0
 10
371.10696571951439
 20
13.5
 30
0.0
 11
390.23196571951348
 21
13.5
 31
0.0
  0
LINE
  5
5B4
  8
0
 62
     0
 10
450.22445132026081
 20
15.0
 30
0.0
 11
474.24096537418569
 21
15.0
 31
0.0
  0
LINE
  5
5B5
  8
0
 62
     0
 10
408.23196571951428
 20
15.0
 30
0.0
 11
432.2291876906877
 21
15.0
 31
0.0
  0
LINE
  5
5B6
  8
0
 62
     0
 10
492.22398103628342
 20
15.0
 30
0.0
 11
511.35696571951428
 21
15.0
 31
0.0
  0
LINE
  5
5B7
  8
0
 62
     0
 10
371.10696571951439
 20
15.0
 30
0.0
 11
390.23196571951348
 21
15.0
 31
0.0
  0
LINE
  5
5B8
  8
0
 62
     0
 10
450.22445132026081
 20
16.5
 30
0.0
 11
474.24096537418569
 21
16.5
 31
0.0
  0
LINE
  5
5B9
  8
0
 62
     0
 10
408.23196571951428
 20
16.5
 30
0.0
 11
432.2291876906877
 21
16.5
 31
0.0
  0
LINE
  5
5BA
  8
0
 62
     0
 10
492.22398103628342
 20
16.5
 30
0.0
 11
511.35696571951428
 21
16.5
 31
0.0
  0
LINE
  5
5BB
  8
0
 62
     0
 10
371.10696571951428
 20
16.5
 30
0.0
 11
390.23196571951348
 21
16.5
 31
0.0
  0
LINE
  5
5BC
  8
0
 62
     0
 10
450.22445132026081
 20
18.0
 30
0.0
 11
474.24096537418569
 21
18.0
 31
0.0
  0
LINE
  5
5BD
  8
0
 62
     0
 10
408.23196571951428
 20
18.0
 30
0.0
 11
432.2291876906877
 21
18.0
 31
0.0
  0
LINE
  5
5BE
  8
0
 62
     0
 10
492.22398103628342
 20
18.0
 30
0.0
 11
511.35696571951428
 21
18.0
 31
0.0
  0
LINE
  5
5BF
  8
0
 62
     0
 10
371.10696571951428
 20
18.0
 30
0.0
 11
390.23196571951348
 21
18.0
 31
0.0
  0
LINE
  5
5C0
  8
0
 62
     0
 10
450.22445132026081
 20
19.5
 30
0.0
 11
474.24096537418569
 21
19.5
 31
0.0
  0
LINE
  5
5C1
  8
0
 62
     0
 10
408.23196571951428
 20
19.5
 30
0.0
 11
432.2291876906877
 21
19.5
 31
0.0
  0
LINE
  5
5C2
  8
0
 62
     0
 10
492.22398103628342
 20
19.5
 30
0.0
 11
511.35696571951428
 21
19.5
 31
0.0
  0
LINE
  5
5C3
  8
0
 62
     0
 10
371.10696571951428
 20
19.5
 30
0.0
 11
390.23196571951348
 21
19.5
 31
0.0
  0
LINE
  5
5C4
  8
0
 62
     0
 10
450.22445132026081
 20
21.0
 30
0.0
 11
474.24096537418569
 21
21.0
 31
0.0
  0
LINE
  5
5C5
  8
0
 62
     0
 10
408.23196571951428
 20
21.0
 30
0.0
 11
432.2291876906877
 21
21.0
 31
0.0
  0
LINE
  5
5C6
  8
0
 62
     0
 10
492.22398103628342
 20
21.0
 30
0.0
 11
511.35696571951422
 21
21.0
 31
0.0
  0
LINE
  5
5C7
  8
0
 62
     0
 10
371.10696571951428
 20
21.0
 30
0.0
 11
390.23196571951348
 21
21.0
 31
0.0
  0
LINE
  5
5C8
  8
0
 62
     0
 10
450.22445132026081
 20
22.5
 30
0.0
 11
474.24096537418569
 21
22.5
 31
0.0
  0
LINE
  5
5C9
  8
0
 62
     0
 10
408.23196571951428
 20
22.5
 30
0.0
 11
432.2291876906877
 21
22.5
 31
0.0
  0
LINE
  5
5CA
  8
0
 62
     0
 10
492.22398103628342
 20
22.5
 30
0.0
 11
511.35696571951422
 21
22.5
 31
0.0
  0
LINE
  5
5CB
  8
0
 62
     0
 10
371.10696571951428
 20
22.5
 30
0.0
 11
390.23196571951348
 21
22.5
 31
0.0
  0
LINE
  5
5CC
  8
0
 62
     0
 10
450.22445132026081
 20
24.0
 30
0.0
 11
474.24096537418569
 21
24.0
 31
0.0
  0
LINE
  5
5CD
  8
0
 62
     0
 10
408.23196571951428
 20
24.0
 30
0.0
 11
432.2291876906877
 21
24.0
 31
0.0
  0
LINE
  5
5CE
  8
0
 62
     0
 10
492.22398103628342
 20
24.0
 30
0.0
 11
511.35696571951422
 21
24.0
 31
0.0
  0
LINE
  5
5CF
  8
0
 62
     0
 10
371.10696571951428
 20
24.0
 30
0.0
 11
390.23196571951348
 21
24.0
 31
0.0
  0
LINE
  5
5D0
  8
0
 62
     0
 10
450.22445132026081
 20
25.5
 30
0.0
 11
474.24096537418569
 21
25.5
 31
0.0
  0
LINE
  5
5D1
  8
0
 62
     0
 10
408.23196571951428
 20
25.5
 30
0.0
 11
432.2291876906877
 21
25.5
 31
0.0
  0
LINE
  5
5D2
  8
0
 62
     0
 10
492.22398103628342
 20
25.5
 30
0.0
 11
511.35696571951411
 21
25.5
 31
0.0
  0
LINE
  5
5D3
  8
0
 62
     0
 10
371.10696571951428
 20
25.5
 30
0.0
 11
390.23196571951348
 21
25.5
 31
0.0
  0
LINE
  5
5D4
  8
0
 62
     0
 10
450.22445132026081
 20
27.0
 30
0.0
 11
474.24096537418569
 21
27.0
 31
0.0
  0
LINE
  5
5D5
  8
0
 62
     0
 10
408.23196571951428
 20
27.0
 30
0.0
 11
432.2291876906877
 21
27.0
 31
0.0
  0
LINE
  5
5D6
  8
0
 62
     0
 10
492.22398103628342
 20
27.0
 30
0.0
 11
511.35696571951411
 21
27.0
 31
0.0
  0
LINE
  5
5D7
  8
0
 62
     0
 10
371.10696571951428
 20
27.0
 30
0.0
 11
390.23196571951348
 21
27.0
 31
0.0
  0
LINE
  5
5D8
  8
0
 62
     0
 10
450.22445132026081
 20
28.5
 30
0.0
 11
474.24096537418569
 21
28.5
 31
0.0
  0
LINE
  5
5D9
  8
0
 62
     0
 10
408.23196571951428
 20
28.5
 30
0.0
 11
432.2291876906877
 21
28.5
 31
0.0
  0
LINE
  5
5DA
  8
0
 62
     0
 10
492.22398103628342
 20
28.5
 30
0.0
 11
511.35696571951411
 21
28.5
 31
0.0
  0
LINE
  5
5DB
  8
0
 62
     0
 10
371.10696571951422
 20
28.5
 30
0.0
 11
390.23196571951348
 21
28.5
 31
0.0
  0
LINE
  5
5DC
  8
0
 62
     0
 10
450.22445132026081
 20
30.0
 30
0.0
 11
474.24096537418569
 21
30.0
 31
0.0
  0
LINE
  5
5DD
  8
0
 62
     0
 10
408.23196571951428
 20
30.0
 30
0.0
 11
432.2291876906877
 21
30.0
 31
0.0
  0
LINE
  5
5DE
  8
0
 62
     0
 10
492.22398103628342
 20
30.0
 30
0.0
 11
511.35696571951411
 21
30.0
 31
0.0
  0
LINE
  5
5DF
  8
0
 62
     0
 10
371.10696571951422
 20
30.0
 30
0.0
 11
390.23196571951348
 21
30.0
 31
0.0
  0
LINE
  5
5E0
  8
0
 62
     0
 10
450.22445132026081
 20
31.5
 30
0.0
 11
474.24096537418569
 21
31.5
 31
0.0
  0
LINE
  5
5E1
  8
0
 62
     0
 10
408.23196571951428
 20
31.5
 30
0.0
 11
432.2291876906877
 21
31.5
 31
0.0
  0
LINE
  5
5E2
  8
0
 62
     0
 10
492.22398103628342
 20
31.5
 30
0.0
 11
511.35696571951411
 21
31.5
 31
0.0
  0
LINE
  5
5E3
  8
0
 62
     0
 10
371.10696571951422
 20
31.5
 30
0.0
 11
390.23196571951348
 21
31.5
 31
0.0
  0
LINE
  5
5E4
  8
0
 62
     0
 10
450.22445132026081
 20
33.0
 30
0.0
 11
474.24096537418569
 21
33.0
 31
0.0
  0
LINE
  5
5E5
  8
0
 62
     0
 10
408.23196571951428
 20
33.0
 30
0.0
 11
432.2291876906877
 21
33.0
 31
0.0
  0
LINE
  5
5E6
  8
0
 62
     0
 10
492.22398103628342
 20
33.0
 30
0.0
 11
511.35696571951411
 21
33.0
 31
0.0
  0
LINE
  5
5E7
  8
0
 62
     0
 10
371.10696571951422
 20
33.0
 30
0.0
 11
390.23196571951348
 21
33.0
 31
0.0
  0
LINE
  5
5E8
  8
0
 62
     0
 10
450.22445132026081
 20
34.5
 30
0.0
 11
474.24096537418569
 21
34.5
 31
0.0
  0
LINE
  5
5E9
  8
0
 62
     0
 10
408.23196571951428
 20
34.5
 30
0.0
 11
432.2291876906877
 21
34.5
 31
0.0
  0
LINE
  5
5EA
  8
0
 62
     0
 10
492.22398103628342
 20
34.5
 30
0.0
 11
511.35696571951411
 21
34.5
 31
0.0
  0
LINE
  5
5EB
  8
0
 62
     0
 10
371.10696571951422
 20
34.5
 30
0.0
 11
390.23196571951348
 21
34.5
 31
0.0
  0
LINE
  5
5EC
  8
0
 62
     0
 10
450.22445132026081
 20
36.0
 30
0.0
 11
474.24096537418569
 21
36.0
 31
0.0
  0
LINE
  5
5ED
  8
0
 62
     0
 10
408.23196571951428
 20
36.0
 30
0.0
 11
432.2291876906877
 21
36.0
 31
0.0
  0
LINE
  5
5EE
  8
0
 62
     0
 10
492.22398103628342
 20
36.0
 30
0.0
 11
511.35696571951411
 21
36.0
 31
0.0
  0
LINE
  5
5EF
  8
0
 62
     0
 10
371.10696571951422
 20
36.0
 30
0.0
 11
390.23196571951348
 21
36.0
 31
0.0
  0
LINE
  5
5F0
  8
0
 62
     0
 10
450.22445132026081
 20
37.5
 30
0.0
 11
474.24096537418569
 21
37.5
 31
0.0
  0
LINE
  5
5F1
  8
0
 62
     0
 10
408.23196571951428
 20
37.5
 30
0.0
 11
432.2291876906877
 21
37.5
 31
0.0
  0
LINE
  5
5F2
  8
0
 62
     0
 10
492.22398103628342
 20
37.5
 30
0.0
 11
511.35696571951411
 21
37.5
 31
0.0
  0
LINE
  5
5F3
  8
0
 62
     0
 10
371.10696571951422
 20
37.5
 30
0.0
 11
390.23196571951348
 21
37.5
 31
0.0
  0
LINE
  5
5F4
  8
0
 62
     0
 10
450.22445132026081
 20
39.0
 30
0.0
 11
474.24096537418569
 21
39.0
 31
0.0
  0
LINE
  5
5F5
  8
0
 62
     0
 10
408.23196571951428
 20
39.0
 30
0.0
 11
432.2291876906877
 21
39.0
 31
0.0
  0
LINE
  5
5F6
  8
0
 62
     0
 10
492.22398103628342
 20
39.0
 30
0.0
 11
511.35696571951411
 21
39.0
 31
0.0
  0
LINE
  5
5F7
  8
0
 62
     0
 10
371.10696571951422
 20
39.0
 30
0.0
 11
390.23196571951348
 21
39.0
 31
0.0
  0
LINE
  5
5F8
  8
0
 62
     0
 10
450.22445132026081
 20
40.499999999999993
 30
0.0
 11
474.24096537418569
 21
40.499999999999993
 31
0.0
  0
LINE
  5
5F9
  8
0
 62
     0
 10
408.23196571951428
 20
40.499999999999993
 30
0.0
 11
432.2291876906877
 21
40.499999999999993
 31
0.0
  0
LINE
  5
5FA
  8
0
 62
     0
 10
492.22398103628342
 20
40.499999999999993
 30
0.0
 11
511.35696571951411
 21
40.499999999999993
 31
0.0
  0
LINE
  5
5FB
  8
0
 62
     0
 10
371.10696571951422
 20
40.499999999999993
 30
0.0
 11
390.23196571951348
 21
40.499999999999993
 31
0.0
  0
LINE
  5
5FC
  8
0
 62
     0
 10
450.22445132026081
 20
42.0
 30
0.0
 11
474.24096537418569
 21
42.0
 31
0.0
  0
LINE
  5
5FD
  8
0
 62
     0
 10
408.23196571951428
 20
42.0
 30
0.0
 11
432.2291876906877
 21
42.0
 31
0.0
  0
LINE
  5
5FE
  8
0
 62
     0
 10
492.22398103628342
 20
42.0
 30
0.0
 11
511.35696571951411
 21
42.0
 31
0.0
  0
LINE
  5
5FF
  8
0
 62
     0
 10
371.10696571951411
 20
42.0
 30
0.0
 11
390.23196571951348
 21
42.0
 31
0.0
  0
LINE
  5
600
  8
0
 62
     0
 10
450.22445132026081
 20
43.5
 30
0.0
 11
474.24096537418569
 21
43.5
 31
0.0
  0
LINE
  5
601
  8
0
 62
     0
 10
408.23196571951428
 20
43.5
 30
0.0
 11
432.2291876906877
 21
43.5
 31
0.0
  0
LINE
  5
602
  8
0
 62
     0
 10
492.22398103628342
 20
43.5
 30
0.0
 11
511.35696571951411
 21
43.5
 31
0.0
  0
LINE
  5
603
  8
0
 62
     0
 10
371.10696571951411
 20
43.5
 30
0.0
 11
390.23196571951348
 21
43.5
 31
0.0
  0
LINE
  5
604
  8
0
 62
     0
 10
450.22445132026081
 20
45.0
 30
0.0
 11
474.24096537418569
 21
45.0
 31
0.0
  0
LINE
  5
605
  8
0
 62
     0
 10
408.23196571951428
 20
45.0
 30
0.0
 11
432.2291876906877
 21
45.0
 31
0.0
  0
LINE
  5
606
  8
0
 62
     0
 10
492.22398103628342
 20
45.0
 30
0.0
 11
511.35696571951411
 21
45.0
 31
0.0
  0
LINE
  5
607
  8
0
 62
     0
 10
371.10696571951411
 20
45.0
 30
0.0
 11
390.23196571951348
 21
45.0
 31
0.0
  0
LINE
  5
608
  8
0
 62
     0
 10
450.22445132026081
 20
46.5
 30
0.0
 11
474.24096537418569
 21
46.5
 31
0.0
  0
LINE
  5
609
  8
0
 62
     0
 10
408.23196571951428
 20
46.5
 30
0.0
 11
432.2291876906877
 21
46.5
 31
0.0
  0
LINE
  5
60A
  8
0
 62
     0
 10
492.22398103628342
 20
46.5
 30
0.0
 11
511.35696571951399
 21
46.5
 31
0.0
  0
LINE
  5
60B
  8
0
 62
     0
 10
371.10696571951411
 20
46.5
 30
0.0
 11
390.23196571951348
 21
46.5
 31
0.0
  0
LINE
  5
60C
  8
0
 62
     0
 10
450.22445132026081
 20
48.0
 30
0.0
 11
474.24096537418569
 21
48.0
 31
0.0
  0
LINE
  5
60D
  8
0
 62
     0
 10
408.23196571951428
 20
48.0
 30
0.0
 11
432.2291876906877
 21
48.0
 31
0.0
  0
LINE
  5
60E
  8
0
 62
     0
 10
492.22398103628342
 20
48.0
 30
0.0
 11
511.35696571951399
 21
48.0
 31
0.0
  0
LINE
  5
60F
  8
0
 62
     0
 10
371.10696571951411
 20
48.0
 30
0.0
 11
390.23196571951348
 21
48.0
 31
0.0
  0
LINE
  5
610
  8
0
 62
     0
 10
450.22445132026081
 20
49.5
 30
0.0
 11
474.24096537418569
 21
49.5
 31
0.0
  0
LINE
  5
611
  8
0
 62
     0
 10
408.23196571951428
 20
49.5
 30
0.0
 11
432.2291876906877
 21
49.5
 31
0.0
  0
LINE
  5
612
  8
0
 62
     0
 10
492.22398103628342
 20
49.5
 30
0.0
 11
511.35696571951399
 21
49.5
 31
0.0
  0
LINE
  5
613
  8
0
 62
     0
 10
371.10696571951411
 20
49.5
 30
0.0
 11
390.23196571951348
 21
49.5
 31
0.0
  0
LINE
  5
614
  8
0
 62
     0
 10
450.22445132026081
 20
51.0
 30
0.0
 11
474.24096537418569
 21
51.0
 31
0.0
  0
LINE
  5
615
  8
0
 62
     0
 10
408.23196571951428
 20
51.0
 30
0.0
 11
432.2291876906877
 21
51.0
 31
0.0
  0
LINE
  5
616
  8
0
 62
     0
 10
492.22398103628342
 20
51.0
 30
0.0
 11
511.35696571951388
 21
51.0
 31
0.0
  0
LINE
  5
617
  8
0
 62
     0
 10
371.10696571951411
 20
51.0
 30
0.0
 11
390.23196571951348
 21
51.0
 31
0.0
  0
LINE
  5
618
  8
0
 62
     0
 10
450.22445132026081
 20
52.5
 30
0.0
 11
474.24096537418569
 21
52.5
 31
0.0
  0
LINE
  5
619
  8
0
 62
     0
 10
408.23196571951428
 20
52.5
 30
0.0
 11
432.2291876906877
 21
52.5
 31
0.0
  0
LINE
  5
61A
  8
0
 62
     0
 10
492.22398103628342
 20
52.5
 30
0.0
 11
511.35696571951388
 21
52.5
 31
0.0
  0
LINE
  5
61B
  8
0
 62
     0
 10
371.10696571951411
 20
52.5
 30
0.0
 11
390.23196571951348
 21
52.5
 31
0.0
  0
LINE
  5
61C
  8
0
 62
     0
 10
450.22445132026081
 20
54.0
 30
0.0
 11
474.24096537418569
 21
54.0
 31
0.0
  0
LINE
  5
61D
  8
0
 62
     0
 10
408.23196571951428
 20
54.0
 30
0.0
 11
432.2291876906877
 21
54.0
 31
0.0
  0
LINE
  5
61E
  8
0
 62
     0
 10
492.22398103628342
 20
54.0
 30
0.0
 11
511.35696571951388
 21
54.0
 31
0.0
  0
LINE
  5
61F
  8
0
 62
     0
 10
371.10696571951399
 20
54.0
 30
0.0
 11
390.23196571951348
 21
54.0
 31
0.0
  0
LINE
  5
620
  8
0
 62
     0
 10
450.22445132026081
 20
55.5
 30
0.0
 11
474.24096537418569
 21
55.5
 31
0.0
  0
LINE
  5
621
  8
0
 62
     0
 10
408.23196571951428
 20
55.5
 30
0.0
 11
432.2291876906877
 21
55.5
 31
0.0
  0
LINE
  5
622
  8
0
 62
     0
 10
492.22398103628342
 20
55.5
 30
0.0
 11
511.35696571951388
 21
55.5
 31
0.0
  0
LINE
  5
623
  8
0
 62
     0
 10
371.10696571951399
 20
55.5
 30
0.0
 11
390.23196571951348
 21
55.5
 31
0.0
  0
LINE
  5
624
  8
0
 62
     0
 10
450.22445132026081
 20
57.0
 30
0.0
 11
474.24096537418569
 21
57.0
 31
0.0
  0
LINE
  5
625
  8
0
 62
     0
 10
408.23196571951428
 20
57.0
 30
0.0
 11
432.2291876906877
 21
57.0
 31
0.0
  0
LINE
  5
626
  8
0
 62
     0
 10
492.22398103628342
 20
57.0
 30
0.0
 11
511.35696571951388
 21
57.0
 31
0.0
  0
LINE
  5
627
  8
0
 62
     0
 10
371.10696571951399
 20
57.0
 30
0.0
 11
390.23196571951348
 21
57.0
 31
0.0
  0
LINE
  5
628
  8
0
 62
     0
 10
450.22445132026081
 20
58.5
 30
0.0
 11
474.24096537418569
 21
58.5
 31
0.0
  0
LINE
  5
629
  8
0
 62
     0
 10
408.23196571951428
 20
58.5
 30
0.0
 11
432.2291876906877
 21
58.5
 31
0.0
  0
LINE
  5
62A
  8
0
 62
     0
 10
492.22398103628342
 20
58.5
 30
0.0
 11
511.35696571951388
 21
58.5
 31
0.0
  0
LINE
  5
62B
  8
0
 62
     0
 10
371.10696571951399
 20
58.5
 30
0.0
 11
390.23196571951348
 21
58.5
 31
0.0
  0
LINE
  5
62C
  8
0
 62
     0
 10
450.22445132026081
 20
60.0
 30
0.0
 11
474.24096537418569
 21
60.0
 31
0.0
  0
LINE
  5
62D
  8
0
 62
     0
 10
408.23196571951428
 20
60.0
 30
0.0
 11
432.2291876906877
 21
60.0
 31
0.0
  0
LINE
  5
62E
  8
0
 62
     0
 10
492.22398103628342
 20
60.0
 30
0.0
 11
511.35696571951388
 21
60.0
 31
0.0
  0
LINE
  5
62F
  8
0
 62
     0
 10
371.10696571951388
 20
60.0
 30
0.0
 11
390.23196571951348
 21
60.0
 31
0.0
  0
LINE
  5
630
  8
0
 62
     0
 10
450.22445132026081
 20
61.5
 30
0.0
 11
474.24096537418569
 21
61.5
 31
0.0
  0
LINE
  5
631
  8
0
 62
     0
 10
408.23196571951428
 20
61.5
 30
0.0
 11
432.2291876906877
 21
61.5
 31
0.0
  0
LINE
  5
632
  8
0
 62
     0
 10
492.22398103628342
 20
61.5
 30
0.0
 11
511.35696571951382
 21
61.5
 31
0.0
  0
LINE
  5
633
  8
0
 62
     0
 10
371.10696571951388
 20
61.5
 30
0.0
 11
390.23196571951348
 21
61.5
 31
0.0
  0
ENDBLK
  5
635
  8
0
  0
BLOCK
  8
0
  2
*X4
 70
     1
 10
0.0
 20
0.0
 30
0.0
  3
*X4
  1

  0
LINE
  5
637
  8
0
 62
     0
 10
276.20679451574779
 20
334.49999999999989
 30
0.0
 11
223.2067945157479
 21
334.5
 31
0.0
  0
LINE
  5
638
  8
0
 62
     0
 10
276.20679451574779
 20
333.0
 30
0.0
 11
223.2067945157479
 21
333.0
 31
0.0
  0
LINE
  5
639
  8
0
 62
     0
 10
276.20679451574779
 20
331.49999999999989
 30
0.0
 11
223.2067945157479
 21
331.5
 31
0.0
  0
LINE
  5
63A
  8
0
 62
     0
 10
276.20679451574779
 20
329.99999999999989
 30
0.0
 11
223.2067945157479
 21
330.0
 31
0.0
  0
LINE
  5
63B
  8
0
 62
     0
 10
276.20679451574779
 20
328.5
 30
0.0
 11
223.2067945157479
 21
328.5
 31
0.0
  0
LINE
  5
63C
  8
0
 62
     0
 10
276.20679451574779
 20
327.0
 30
0.0
 11
223.20679451574779
 21
327.0
 31
0.0
  0
LINE
  5
63D
  8
0
 62
     0
 10
276.20679451574779
 20
325.49999999999989
 30
0.0
 11
223.20679451574779
 21
325.5
 31
0.0
  0
LINE
  5
63E
  8
0
 62
     0
 10
276.20679451574779
 20
323.99999999999989
 30
0.0
 11
223.20679451574779
 21
324.0
 31
0.0
  0
LINE
  5
63F
  8
0
 62
     0
 10
276.20679451574779
 20
322.5
 30
0.0
 11
223.20679451574779
 21
322.5
 31
0.0
  0
LINE
  5
640
  8
0
 62
     0
 10
276.20679451574779
 20
320.99999999999989
 30
0.0
 11
223.20679451574779
 21
321.0
 31
0.0
  0
LINE
  5
641
  8
0
 62
     0
 10
276.20679451574779
 20
319.49999999999989
 30
0.0
 11
223.20679451574779
 21
319.5
 31
0.0
  0
LINE
  5
642
  8
0
 62
     0
 10
276.20679451574779
 20
318.0
 30
0.0
 11
223.20679451574779
 21
318.0
 31
0.0
  0
LINE
  5
643
  8
0
 62
     0
 10
276.20679451574779
 20
316.5
 30
0.0
 11
223.20679451574779
 21
316.5
 31
0.0
  0
LINE
  5
644
  8
0
 62
     0
 10
276.20679451574779
 20
314.99999999999989
 30
0.0
 11
223.20679451574779
 21
315.0
 31
0.0
  0
LINE
  5
645
  8
0
 62
     0
 10
276.20679451574779
 20
313.49999999999989
 30
0.0
 11
223.20679451574779
 21
313.5
 31
0.0
  0
LINE
  5
646
  8
0
 62
     0
 10
276.20679451574779
 20
312.0
 30
0.0
 11
223.20679451574779
 21
312.0
 31
0.0
  0
LINE
  5
647
  8
0
 62
     0
 10
276.20679451574779
 20
310.49999999999989
 30
0.0
 11
223.20679451574779
 21
310.5
 31
0.0
  0
LINE
  5
648
  8
0
 62
     0
 10
276.20679451574779
 20
308.99999999999989
 30
0.0
 11
223.20679451574779
 21
309.0
 31
0.0
  0
LINE
  5
649
  8
0
 62
     0
 10
276.20679451574779
 20
307.49999999999989
 30
0.0
 11
223.20679451574779
 21
307.5
 31
0.0
  0
LINE
  5
64A
  8
0
 62
     0
 10
276.20679451574779
 20
306.0
 30
0.0
 11
223.20679451574779
 21
306.0
 31
0.0
  0
LINE
  5
64B
  8
0
 62
     0
 10
276.20679451574779
 20
304.49999999999989
 30
0.0
 11
223.20679451574779
 21
304.5
 31
0.0
  0
LINE
  5
64C
  8
0
 62
     0
 10
276.20679451574779
 20
302.99999999999989
 30
0.0
 11
223.20679451574779
 21
303.0
 31
0.0
  0
LINE
  5
64D
  8
0
 62
     0
 10
276.20679451574779
 20
301.5
 30
0.0
 11
223.20679451574779
 21
301.5
 31
0.0
  0
LINE
  5
64E
  8
0
 62
     0
 10
276.20679451574779
 20
300.0
 30
0.0
 11
223.20679451574779
 21
300.0
 31
0.0
  0
LINE
  5
64F
  8
0
 62
     0
 10
276.20679451574779
 20
298.49999999999989
 30
0.0
 11
223.20679451574779
 21
298.5
 31
0.0
  0
LINE
  5
650
  8
0
 62
     0
 10
276.20679451574779
 20
296.99999999999989
 30
0.0
 11
223.20679451574779
 21
297.0
 31
0.0
  0
LINE
  5
651
  8
0
 62
     0
 10
276.20679451574779
 20
295.5
 30
0.0
 11
223.20679451574779
 21
295.5
 31
0.0
  0
LINE
  5
652
  8
0
 62
     0
 10
276.20679451574779
 20
293.99999999999989
 30
0.0
 11
223.20679451574779
 21
294.0
 31
0.0
  0
LINE
  5
653
  8
0
 62
     0
 10
276.20679451574767
 20
292.49999999999989
 30
0.0
 11
223.20679451574779
 21
292.5
 31
0.0
  0
LINE
  5
654
  8
0
 62
     0
 10
276.20679451574767
 20
291.0
 30
0.0
 11
223.20679451574779
 21
291.0
 31
0.0
  0
LINE
  5
655
  8
0
 62
     0
 10
276.20679451574767
 20
289.49999999999989
 30
0.0
 11
223.20679451574779
 21
289.5
 31
0.0
  0
LINE
  5
656
  8
0
 62
     0
 10
276.20679451574767
 20
287.99999999999989
 30
0.0
 11
223.20679451574779
 21
288.0
 31
0.0
  0
LINE
  5
657
  8
0
 62
     0
 10
276.20679451574767
 20
286.49999999999989
 30
0.0
 11
223.20679451574779
 21
286.5
 31
0.0
  0
LINE
  5
658
  8
0
 62
     0
 10
276.20679451574767
 20
285.0
 30
0.0
 11
223.20679451574779
 21
285.0
 31
0.0
  0
LINE
  5
659
  8
0
 62
     0
 10
276.20679451574767
 20
283.49999999999989
 30
0.0
 11
223.20679451574779
 21
283.5
 31
0.0
  0
LINE
  5
65A
  8
0
 62
     0
 10
276.20679451574767
 20
281.99999999999989
 30
0.0
 11
223.20679451574779
 21
282.0
 31
0.0
  0
LINE
  5
65B
  8
0
 62
     0
 10
276.20679451574767
 20
280.49999999999989
 30
0.0
 11
223.20679451574779
 21
280.5
 31
0.0
  0
LINE
  5
65C
  8
0
 62
     0
 10
276.20679451574767
 20
279.0
 30
0.0
 11
223.20679451574779
 21
279.0
 31
0.0
  0
LINE
  5
65D
  8
0
 62
     0
 10
276.20679451574767
 20
277.49999999999989
 30
0.0
 11
223.20679451574779
 21
277.5
 31
0.0
  0
LINE
  5
65E
  8
0
 62
     0
 10
276.20679451574767
 20
275.99999999999989
 30
0.0
 11
223.20679451574779
 21
276.0
 31
0.0
  0
LINE
  5
65F
  8
0
 62
     0
 10
276.20679451574767
 20
274.5
 30
0.0
 11
223.20679451574779
 21
274.5
 31
0.0
  0
LINE
  5
660
  8
0
 62
     0
 10
276.20679451574767
 20
272.99999999999989
 30
0.0
 11
223.20679451574779
 21
273.0
 31
0.0
  0
LINE
  5
661
  8
0
 62
     0
 10
276.20679451574767
 20
271.49999999999989
 30
0.0
 11
223.20679451574779
 21
271.5
 31
0.0
  0
LINE
  5
662
  8
0
 62
     0
 10
276.20679451574767
 20
269.99999999999989
 30
0.0
 11
223.20679451574779
 21
270.0
 31
0.0
  0
LINE
  5
663
  8
0
 62
     0
 10
276.20679451574767
 20
268.5
 30
0.0
 11
223.20679451574779
 21
268.5
 31
0.0
  0
LINE
  5
664
  8
0
 62
     0
 10
276.20679451574767
 20
266.99999999999989
 30
0.0
 11
223.20679451574779
 21
267.0
 31
0.0
  0
LINE
  5
665
  8
0
 62
     0
 10
276.20679451574767
 20
265.49999999999989
 30
0.0
 11
223.2067945157477
 21
265.5
 31
0.0
  0
LINE
  5
666
  8
0
 62
     0
 10
276.20679451574767
 20
264.0
 30
0.0
 11
223.2067945157477
 21
264.0
 31
0.0
  0
LINE
  5
667
  8
0
 62
     0
 10
276.20679451574767
 20
262.5
 30
0.0
 11
223.2067945157477
 21
262.5
 31
0.0
  0
LINE
  5
668
  8
0
 62
     0
 10
276.20679451574767
 20
260.99999999999989
 30
0.0
 11
223.2067945157477
 21
261.0
 31
0.0
  0
LINE
  5
669
  8
0
 62
     0
 10
276.20679451574767
 20
259.49999999999989
 30
0.0
 11
223.2067945157477
 21
259.5
 31
0.0
  0
LINE
  5
66A
  8
0
 62
     0
 10
276.20679451574767
 20
258.0
 30
0.0
 11
223.2067945157477
 21
258.0
 31
0.0
  0
LINE
  5
66B
  8
0
 62
     0
 10
276.20679451574767
 20
256.49999999999989
 30
0.0
 11
223.2067945157477
 21
256.5
 31
0.0
  0
LINE
  5
66C
  8
0
 62
     0
 10
276.20679451574767
 20
255.0
 30
0.0
 11
223.2067945157477
 21
255.0
 31
0.0
  0
LINE
  5
66D
  8
0
 62
     0
 10
276.20679451574767
 20
253.5
 30
0.0
 11
223.2067945157477
 21
253.5
 31
0.0
  0
LINE
  5
66E
  8
0
 62
     0
 10
276.20679451574767
 20
252.0
 30
0.0
 11
223.2067945157477
 21
252.0
 31
0.0
  0
LINE
  5
66F
  8
0
 62
     0
 10
276.20679451574767
 20
250.5
 30
0.0
 11
223.2067945157477
 21
250.5
 31
0.0
  0
LINE
  5
670
  8
0
 62
     0
 10
276.20679451574767
 20
249.0
 30
0.0
 11
223.2067945157477
 21
249.0
 31
0.0
  0
LINE
  5
671
  8
0
 62
     0
 10
276.20679451574767
 20
247.5
 30
0.0
 11
223.2067945157477
 21
247.5
 31
0.0
  0
LINE
  5
672
  8
0
 62
     0
 10
276.20679451574767
 20
246.0
 30
0.0
 11
223.2067945157477
 21
246.0
 31
0.0
  0
LINE
  5
673
  8
0
 62
     0
 10
276.20679451574767
 20
244.5
 30
0.0
 11
223.2067945157477
 21
244.5
 31
0.0
  0
LINE
  5
674
  8
0
 62
     0
 10
276.20679451574767
 20
243.0
 30
0.0
 11
223.2067945157477
 21
243.0
 31
0.0
  0
LINE
  5
675
  8
0
 62
     0
 10
276.20679451574767
 20
241.5
 30
0.0
 11
223.2067945157477
 21
241.5
 31
0.0
  0
LINE
  5
676
  8
0
 62
     0
 10
276.20679451574767
 20
240.0
 30
0.0
 11
223.2067945157477
 21
240.0
 31
0.0
  0
LINE
  5
677
  8
0
 62
     0
 10
276.20679451574767
 20
238.5
 30
0.0
 11
223.2067945157477
 21
238.5
 31
0.0
  0
LINE
  5
678
  8
0
 62
     0
 10
276.20679451574762
 20
237.0
 30
0.0
 11
223.2067945157477
 21
237.0
 31
0.0
  0
LINE
  5
679
  8
0
 62
     0
 10
276.20679451574762
 20
235.5
 30
0.0
 11
223.2067945157477
 21
235.5
 31
0.0
  0
LINE
  5
67A
  8
0
 62
     0
 10
276.20679451574762
 20
234.0
 30
0.0
 11
223.2067945157477
 21
234.0
 31
0.0
  0
LINE
  5
67B
  8
0
 62
     0
 10
276.20679451574762
 20
232.5
 30
0.0
 11
223.2067945157477
 21
232.5
 31
0.0
  0
LINE
  5
67C
  8
0
 62
     0
 10
276.20679451574762
 20
231.0
 30
0.0
 11
223.2067945157477
 21
231.0
 31
0.0
  0
LINE
  5
67D
  8
0
 62
     0
 10
276.20679451574762
 20
229.5
 30
0.0
 11
223.2067945157477
 21
229.5
 31
0.0
  0
LINE
  5
67E
  8
0
 62
     0
 10
276.20679451574762
 20
228.0
 30
0.0
 11
223.2067945157477
 21
228.0
 31
0.0
  0
LINE
  5
67F
  8
0
 62
     0
 10
276.20679451574762
 20
226.5
 30
0.0
 11
223.2067945157477
 21
226.5
 31
0.0
  0
LINE
  5
680
  8
0
 62
     0
 10
276.20679451574762
 20
225.0
 30
0.0
 11
223.2067945157477
 21
225.0
 31
0.0
  0
LINE
  5
681
  8
0
 62
     0
 10
276.20679451574762
 20
223.5
 30
0.0
 11
223.2067945157477
 21
223.5
 31
0.0
  0
LINE
  5
682
  8
0
 62
     0
 10
276.20679451574762
 20
222.0
 30
0.0
 11
223.2067945157477
 21
222.0
 31
0.0
  0
LINE
  5
683
  8
0
 62
     0
 10
276.20679451574762
 20
220.5
 30
0.0
 11
223.2067945157477
 21
220.5
 31
0.0
  0
LINE
  5
684
  8
0
 62
     0
 10
276.20679451574762
 20
219.0
 30
0.0
 11
223.2067945157477
 21
219.0
 31
0.0
  0
LINE
  5
685
  8
0
 62
     0
 10
276.20679451574762
 20
217.5
 30
0.0
 11
223.20679451574759
 21
217.5
 31
0.0
  0
LINE
  5
686
  8
0
 62
     0
 10
276.20679451574762
 20
216.0
 30
0.0
 11
223.20679451574759
 21
216.0
 31
0.0
  0
LINE
  5
687
  8
0
 62
     0
 10
276.20679451574762
 20
214.5
 30
0.0
 11
223.20679451574759
 21
214.5
 31
0.0
  0
LINE
  5
688
  8
0
 62
     0
 10
276.20679451574762
 20
213.0
 30
0.0
 11
223.20679451574759
 21
213.0
 31
0.0
  0
LINE
  5
689
  8
0
 62
     0
 10
276.20679451574762
 20
211.5
 30
0.0
 11
223.20679451574759
 21
211.5
 31
0.0
  0
LINE
  5
68A
  8
0
 62
     0
 10
276.20679451574762
 20
210.0
 30
0.0
 11
223.20679451574759
 21
210.0
 31
0.0
  0
LINE
  5
68B
  8
0
 62
     0
 10
276.2067945157475
 20
208.5
 30
0.0
 11
223.20679451574759
 21
208.5
 31
0.0
  0
LINE
  5
68C
  8
0
 62
     0
 10
276.2067945157475
 20
207.0
 30
0.0
 11
223.20679451574759
 21
207.0
 31
0.0
  0
LINE
  5
68D
  8
0
 62
     0
 10
276.2067945157475
 20
205.5
 30
0.0
 11
223.20679451574759
 21
205.5
 31
0.0
  0
LINE
  5
68E
  8
0
 62
     0
 10
276.2067945157475
 20
204.0
 30
0.0
 11
223.20679451574759
 21
204.0
 31
0.0
  0
LINE
  5
68F
  8
0
 62
     0
 10
276.2067945157475
 20
202.5
 30
0.0
 11
223.20679451574759
 21
202.5
 31
0.0
  0
LINE
  5
690
  8
0
 62
     0
 10
276.2067945157475
 20
201.0
 30
0.0
 11
223.20679451574759
 21
201.0
 31
0.0
  0
LINE
  5
691
  8
0
 62
     0
 10
276.2067945157475
 20
199.49999999999989
 30
0.0
 11
223.20679451574759
 21
199.49999999999989
 31
0.0
  0
LINE
  5
692
  8
0
 62
     0
 10
276.2067945157475
 20
198.0
 30
0.0
 11
223.20679451574759
 21
198.0
 31
0.0
  0
LINE
  5
693
  8
0
 62
     0
 10
276.2067945157475
 20
196.5
 30
0.0
 11
223.20679451574759
 21
196.5
 31
0.0
  0
ENDBLK
  5
695
  8
0
  0
ENDSEC
  0
SECTION
  2
ENTITIES
  0
LINE
  5
370
  8
0
 10
221.58686195750559
 20
141.1250045037574
 30
0.0
 11
277.83686195750272
 21
141.1250045037574
 31
0.0
  0
LINE
  5
371
  8
0
 10
277.83686195750272
 20
64.500004503757722
 30
0.0
 11
221.58686195750559
 21
64.500004503757722
 31
0.0
  0
LINE
  5
372
  8
0
 10
221.58686195750559
 20
64.500004503757722
 30
0.0
 11
221.58686195750559
 21
141.1250045037574
 31
0.0
  0
LINE
  5
373
  8
0
 10
277.83686195750272
 20
64.500004503757722
 30
0.0
 11
277.83686195750272
 21
141.1250045037574
 31
0.0
  0
LINE
  5
374
  8
0
 10
221.58686195750619
 20
64.500004503757722
 30
0.0
 11
278.21186195750619
 21
64.500004503757722
 31
0.0
  0
LINE
  5
375
  8
0
 10
278.21186195750619
 20
0.0000045037577365
 30
0.0
 11
221.58686195750619
 21
0.0000045037577365
 31
0.0
  0
LINE
  5
376
  8
0
 10
221.58686195750619
 20
64.500004503757722
 30
0.0
 11
221.58686195750619
 21
0.0000045037577365
 31
0.0
  0
LINE
  5
377
  8
0
 10
278.21186195750619
 20
0.0000045037577365
 30
0.0
 11
278.21186195750619
 21
64.500004503757722
 31
0.0
  0
LINE
  5
378
  8
0
 10
278.08686195750619
 20
132.87500450375791
 30
0.0
 11
277.83686195750619
 21
132.87500450375791
 31
0.0
  0
LINE
  5
379
  8
0
 10
277.83686195750619
 20
126.87500450375791
 30
0.0
 11
278.08686195750619
 21
126.87500450375791
 31
0.0
  0
LINE
  5
37A
  8
0
 10
278.08686195750602
 20
132.87500450375779
 30
0.0
 11
278.08686195750602
 21
132.47308071511111
 31
0.0
  0
LINE
  5
37B
  8
0
 10
278.08686195750602
 20
132.4730804312228
 30
0.0
 11
278.08686195750602
 21
131.9963248473174
 31
0.0
  0
LINE
  5
37C
  8
0
 10
278.08686195750602
 20
131.9963200732121
 30
0.0
 11
278.08686195750602
 21
131.37500867979941
 31
0.0
  0
LINE
  5
37D
  8
0
 10
278.08686195750602
 20
131.37500450375779
 30
0.0
 11
278.08686195750602
 21
130.65146732155199
 31
0.0
  0
LINE
  5
37E
  8
0
 10
278.08686195750602
 20
130.65146163906539
 30
0.0
 11
278.08686195750602
 21
129.87500836238169
 31
0.0
  0
LINE
  5
37F
  8
0
 10
278.08686195750602
 20
129.87500450375779
 30
0.0
 11
278.08686195750602
 21
127.7536855245731
 31
0.0
  0
LINE
  5
380
  8
0
 10
278.08686195750602
 20
127.75368416019811
 30
0.0
 11
278.08686195750602
 21
127.27692829240451
 31
0.0
  0
LINE
  5
381
  8
0
 10
278.08686195750602
 20
127.27692374561281
 30
0.0
 11
278.08686195750602
 21
126.9772270248906
 31
0.0
  0
LINE
  5
382
  8
0
 10
278.08686195750602
 20
126.9772268687767
 30
0.0
 11
278.08686195750602
 21
126.87500450375779
 31
0.0
  0
ARC
  5
383
  8
0
 10
252.0868619575057
 20
49.500004503758142
 30
0.0
 40
0.5
 50
0.0
 51
180.0
  0
ARC
  5
384
  8
0
 10
252.0868619575057
 20
49.500004503758142
 30
0.0
 40
0.4999999999999858
 50
180.0
 51
0.0
  0
ARC
  5
385
  8
0
 10
239.83686195750559
 20
37.000004503758142
 30
0.0
 40
1.5000000000000031
 50
359.9999999999992
 51
179.9999999999996
  0
ARC
  5
386
  8
0
 10
239.83686195750559
 20
37.000004503758142
 30
0.0
 40
1.499999999999992
 50
180.0000000000008
 51
0.0
  0
ARC
  5
387
  8
0
 10
224.08686195750559
 20
15.750004503758131
 30
0.0
 40
1.0
 50
0.0
 51
179.99999999999969
  0
ARC
  5
388
  8
0
 10
224.08686195750559
 20
15.750004503758131
 30
0.0
 40
1.0000000000000131
 50
180.00000000000011
 51
359.99999999999949
  0
ARC
  5
389
  8
0
 10
227.2118619575059
 20
23.25000450375817
 30
0.0
 40
3.0
 50
359.99999999999937
 51
179.9999999999996
  0
ARC
  5
38A
  8
0
 10
227.2118619575059
 20
23.25000450375817
 30
0.0
 40
3.000000000000008
 50
180.00000000000011
 51
359.9999999999992
  0
CIRCLE
  5
38B
  8
0
 10
236.58686195750579
 20
51.500004503757729
 30
0.0
 40
11.1875
  0
LINE
  5
38C
  8
0
 10
369.4819657195203
 20
141.1250045037574
 30
0.0
 11
512.98196571951439
 21
141.1250045037574
 31
0.0
  0
LINE
  5
38D
  8
0
 10
369.4819657195203
 20
64.500004503757722
 30
0.0
 11
369.4819657195203
 21
141.1250045037574
 31
0.0
  0
LINE
  5
38E
  8
0
 10
512.98196571951462
 20
64.500004503757722
 30
0.0
 11
512.98196571951462
 21
141.1250045037574
 31
0.0
  0
LINE
  5
38F
  8
0
 10
433.23196571951468
 20
13.00000450375801
 30
0.0
 11
449.23196571951422
 21
13.000004503758181
 31
0.0
  0
LINE
  5
390
  8
0
 10
433.23196571951439
 20
55.65807732197559
 30
0.0
 11
449.23196571951388
 21
55.658077321975739
 31
0.0
  0
LINE
  5
391
  8
0
 10
449.23196571951451
 20
12.000004503757779
 30
0.0
 11
449.23196571951451
 21
62.87500450375834
 31
0.0
  0
LINE
  5
392
  8
0
 10
450.22445132026093
 20
62.87500450375834
 30
0.0
 11
450.22445132026081
 21
12.000004503757779
 31
0.0
  0
LINE
  5
393
  8
0
 10
449.23196571951451
 20
12.000004503757779
 30
0.0
 11
450.22445132026081
 21
12.000004503757779
 31
0.0
  0
LINE
  5
394
  8
0
 10
450.22445132026093
 20
62.87500450375834
 30
0.0
 11
449.23196571951451
 21
62.87500450375834
 31
0.0
  0
LINE
  5
395
  8
0
 10
432.2291876906877
 20
12.00000450375782
 30
0.0
 11
432.22918769068781
 21
62.875004503758369
 31
0.0
  0
LINE
  5
396
  8
0
 10
433.23196571951451
 20
62.875004503758369
 30
0.0
 11
433.23196571951439
 21
12.00000450375782
 31
0.0
  0
LINE
  5
397
  8
0
 10
432.2291876906877
 20
12.00000450375782
 30
0.0
 11
433.23196571951439
 21
12.00000450375782
 31
0.0
  0
LINE
  5
398
  8
0
 10
433.23196571951451
 20
62.875004503758369
 30
0.0
 11
432.22918769068781
 21
62.875004503758369
 31
0.0
  0
LINE
  5
399
  8
0
 10
475.23196571951428
 20
13.000004503757671
 30
0.0
 11
491.23196571951411
 21
13.000004503757671
 31
0.0
  0
LINE
  5
39A
  8
0
 10
475.23196571951451
 20
55.658077321975377
 30
0.0
 11
491.23196571951451
 21
55.658077321975348
 31
0.0
  0
LINE
  5
39B
  8
0
 10
474.24096537418581
 20
12.000004503757751
 30
0.0
 11
474.24096537418581
 21
62.875004503758319
 31
0.0
  0
LINE
  5
39C
  8
0
 10
475.23196571951451
 20
62.875004503758319
 30
0.0
 11
475.23196571951439
 21
12.000004503757751
 31
0.0
  0
LINE
  5
39D
  8
0
 10
474.24096537418581
 20
12.000004503757751
 30
0.0
 11
475.23196571951439
 21
12.000004503757751
 31
0.0
  0
LINE
  5
39E
  8
0
 10
475.23196571951451
 20
62.875004503758319
 30
0.0
 11
474.24096537418581
 21
62.875004503758319
 31
0.0
  0
LINE
  5
39F
  8
0
 10
491.23196571951439
 20
12.000004503757729
 30
0.0
 11
491.23196571951451
 21
62.875004503758277
 31
0.0
  0
LINE
  5
3A0
  8
0
 10
492.22398103628359
 20
62.875004503758277
 30
0.0
 11
492.22398103628348
 21
12.000004503757729
 31
0.0
  0
LINE
  5
3A1
  8
0
 10
492.22398103628348
 20
12.000004503757729
 30
0.0
 11
491.23196571951439
 21
12.000004503757729
 31
0.0
  0
LINE
  5
3A2
  8
0
 10
492.22398103628359
 20
62.875004503758277
 30
0.0
 11
491.23196571951451
 21
62.875004503758277
 31
0.0
  0
LINE
  5
3A3
  8
0
 10
391.23196571951411
 20
13.000004503757671
 30
0.0
 11
407.23196571951422
 21
13.00000450375784
 31
0.0
  0
LINE
  5
3A4
  8
0
 10
391.23196571951388
 20
55.658077321975178
 30
0.0
 11
407.23196571951382
 21
55.65807732197532
 31
0.0
  0
LINE
  5
3A5
  8
0
 10
407.23196571951439
 20
12.00000450375785
 30
0.0
 11
407.23196571951439
 21
62.875004503758412
 31
0.0
  0
LINE
  5
3A6
  8
0
 10
408.23196571951439
 20
62.875004503758412
 30
0.0
 11
408.23196571951439
 21
12.00000450375785
 31
0.0
  0
LINE
  5
3A7
  8
0
 10
407.23196571951439
 20
12.00000450375785
 30
0.0
 11
408.23196571951439
 21
12.00000450375785
 31
0.0
  0
LINE
  5
3A8
  8
0
 10
408.23196571951439
 20
62.875004503758412
 30
0.0
 11
407.23196571951439
 21
62.875004503758412
 31
0.0
  0
LINE
  5
3A9
  8
0
 10
390.23196571951439
 20
12.000004503757889
 30
0.0
 11
390.23196571951439
 21
62.87500450375844
 31
0.0
  0
LINE
  5
3AA
  8
0
 10
391.23196571951439
 20
62.87500450375844
 30
0.0
 11
391.23196571951439
 21
12.000004503757889
 31
0.0
  0
LINE
  5
3AB
  8
0
 10
390.23196571951439
 20
12.000004503757889
 30
0.0
 11
391.23196571951439
 21
12.000004503757889
 31
0.0
  0
LINE
  5
3AC
  8
0
 10
391.23196571951439
 20
62.87500450375844
 30
0.0
 11
390.23196571951439
 21
62.87500450375844
 31
0.0
  0
LINE
  5
3AD
  8
0
 10
371.10696571951439
 20
62.875004503759577
 30
0.0
 11
371.10696571951439
 21
12.000004503757729
 31
0.0
  0
LINE
  5
3AE
  8
0
 10
371.10696571951439
 20
12.000004503757729
 30
0.0
 11
390.23196571951348
 21
12.000004503757729
 31
0.0
  0
LINE
  5
3AF
  8
0
 10
390.23196571951348
 20
12.000004503757729
 30
0.0
 11
390.23196571951348
 21
62.875004503759577
 31
0.0
1001
ACAD
1000
ASC_BOUNDS
1002
{
1070
    19
1005
51B
1002
}
  0
LINE
  5
3B0
  8
0
 10
390.23196571951348
 20
62.875004503759577
 30
0.0
 11
371.10696571951439
 21
62.875004503759577
 31
0.0
  0
LINE
  5
3B1
  8
0
 10
432.2291876906877
 20
62.875004503758412
 30
0.0
 11
408.23196571951428
 21
62.875004503758412
 31
0.0
  0
LINE
  5
3B2
  8
0
 10
408.23196571951428
 20
62.875004503758412
 30
0.0
 11
408.23196571951428
 21
12.00000450375785
 31
0.0
1001
ACAD
1000
ASC_BOUNDS
1002
{
1070
    19
1005
51B
1002
}
  0
LINE
  5
3B3
  8
0
 10
408.23196571951428
 20
12.00000450375785
 30
0.0
 11
432.2291876906877
 21
12.00000450375785
 31
0.0
  0
LINE
  5
3B4
  8
0
 10
432.2291876906877
 20
12.00000450375785
 30
0.0
 11
432.2291876906877
 21
62.875004503758412
 31
0.0
1001
ACAD
1000
ASC_BOUNDS
1002
{
1070
    19
1005
51B
1002
}
  0
LINE
  5
3B5
  8
0
 10
511.35696571951428
 20
62.875004503758412
 30
0.0
 11
492.22398103628342
 21
62.875004503758412
 31
0.0
  0
LINE
  5
3B6
  8
0
 10
492.22398103628342
 20
62.875004503758412
 30
0.0
 11
492.22398103628342
 21
12.00000450375785
 31
0.0
1001
ACAD
1000
ASC_BOUNDS
1002
{
1070
    19
1005
51B
1002
}
  0
LINE
  5
3B7
  8
0
 10
492.22398103628342
 20
12.00000450375785
 30
0.0
 11
511.35696571951428
 21
12.00000450375785
 31
0.0
  0
LINE
  5
3B8
  8
0
 10
511.35696571951428
 20
12.00000450375785
 30
0.0
 11
511.35696571951428
 21
62.875004503758412
 31
0.0
  0
LINE
  5
3B9
  8
0
 10
474.24096537418569
 20
62.875004503758412
 30
0.0
 11
450.22445132026081
 21
62.875004503758412
 31
0.0
  0
LINE
  5
3BA
  8
0
 10
450.22445132026081
 20
62.875004503758412
 30
0.0
 11
450.22445132026081
 21
12.00000450375785
 31
0.0
1001
ACAD
1000
ASC_BOUNDS
1002
{
1070
    19
1005
51B
1002
}
  0
LINE
  5
3BB
  8
0
 10
450.22445132026081
 20
12.00000450375785
 30
0.0
 11
474.24096537418569
 21
12.00000450375785
 31
0.0
  0
LINE
  5
3BC
  8
0
 10
474.24096537418569
 20
12.00000450375785
 30
0.0
 11
474.24096537418569
 21
62.875004503758412
 31
0.0
1001
ACAD
1000
ASC_BOUNDS
1002
{
1070
    19
1005
51B
1002
}
  0
LINE
  5
3BD
  8
0
 10
369.48196571951468
 20
64.500004503757722
 30
0.0
 11
512.98196571951473
 21
64.500004503757722
 31
0.0
  0
LINE
  5
3BE
  8
0
 10
512.98196571951473
 20
0.0000045037577365
 30
0.0
 11
369.48196571951468
 21
0.0000045037577365
 31
0.0
  0
LINE
  5
3BF
  8
0
 10
369.48196571951468
 20
0.0000045037577365
 30
0.0
 11
369.48196571951468
 21
64.500004503757722
 31
0.0
  0
LINE
  5
3C0
  8
0
 10
371.10696571951439
 20
12.000004503756591
 30
0.0
 11
371.10696571951388
 21
62.875004503757147
 31
0.0
1001
ACAD
1000
ASC_BOUNDS
1002
{
1070
    19
1005
51B
1002
}
  0
LINE
  5
3C1
  8
0
 10
371.10696571951388
 20
62.875004503757147
 30
0.0
 11
511.35696571951388
 21
62.875004503758582
 31
0.0
1001
ACAD
1000
ASC_BOUNDS
1002
{
1070
    19
1005
51B
1005
51B
1005
51B
1005
51B
1002
}
  0
LINE
  5
3C2
  8
0
 10
511.35696571951388
 20
62.875004503758582
 30
0.0
 11
511.35696571951428
 21
12.000004503758021
 31
0.0
1001
ACAD
1000
ASC_BOUNDS
1002
{
1070
    19
1005
51B
1002
}
  0
LINE
  5
3C3
  8
0
 10
511.35696571951428
 20
12.000004503758021
 30
0.0
 11
371.10696571951451
 21
12.000004503756569
 31
0.0
1001
ACAD
1000
ASC_BOUNDS
1002
{
1070
    19
1005
51B
1005
51B
1005
51B
1005
51B
1002
}
  0
LINE
  5
3C4
  8
0
 10
512.98196571951473
 20
0.0000045037577365
 30
0.0
 11
512.98196571951473
 21
64.500004503757722
 31
0.0
  0
ARC
  5
3C5
  8
0
 10
441.23196571951399
 20
111.1250045037586
 30
0.0
 40
8.25
 50
179.99999999999969
 51
359.99999999999881
  0
ARC
  5
3C6
  8
0
 10
441.23196571951399
 20
111.1250045037586
 30
0.0
 40
8.2500000000000124
 50
359.99999999999937
 51
179.9999999999996
  0
ARC
  5
3C7
  8
0
 10
441.23196571951399
 20
111.1250045037586
 30
0.0
 40
7.687499999999992
 50
0.000000000000687
 51
180.00000000000011
  0
ARC
  5
3C8
  8
0
 10
441.23196571951399
 20
111.1250045037586
 30
0.0
 40
7.687499999999992
 50
180.00000000000011
 51
359.9999999999996
  0
LINE
  5
3C9
  8
0
 10
446.35446649350177
 20
108.6831486549612
 30
0.0
 11
446.15952601731152
 21
108.23423992480249
 31
0.0
  0
LINE
  5
3CA
  8
0
 10
446.15952601731152
 20
108.23423992480249
 30
0.0
 11
445.70863316016852
 21
108.0769978613105
 31
0.0
  0
LINE
  5
3CB
  8
0
 10
445.70863316016852
 20
108.0769978613105
 30
0.0
 11
445.3841043903272
 21
108.1412339724216
 31
0.0
  0
LINE
  5
3CC
  8
0
 10
445.3841043903272
 20
108.1412339724216
 30
0.0
 11
445.1486133188987
 21
108.3339423057549
 31
0.0
  0
LINE
  5
3CD
  8
0
 10
445.1486133188987
 20
108.3339423057549
 30
0.0
 11
444.95764109667653
 21
109.09187881369139
 31
0.0
  0
LINE
  5
3CE
  8
0
 10
444.95764109667653
 20
109.09187881369139
 30
0.0
 11
445.14166887445418
 21
109.85576770258029
 31
0.0
  0
LINE
  5
3CF
  8
0
 10
445.14166887445418
 20
109.85576770258029
 30
0.0
 11
445.3714555808034
 21
110.0454998454374
 31
0.0
  0
LINE
  5
3D0
  8
0
 10
445.3714555808034
 20
110.0454998454374
 30
0.0
 11
445.69276014429551
 21
110.1087438930565
 31
0.0
  0
LINE
  5
3D1
  8
0
 10
445.69276014429551
 20
110.1087438930565
 30
0.0
 11
446.16101411254948
 21
109.96539071845331
 31
0.0
  0
LINE
  5
3D2
  8
0
 10
446.16101411254948
 20
109.96539071845331
 30
0.0
 11
446.35446649350189
 21
109.5402915121041
 31
0.0
  0
LINE
  5
3D3
  8
0
 10
446.35446649350189
 20
109.5402915121041
 30
0.0
 11
447.497323636359
 21
109.5402915121041
 31
0.0
  0
LINE
  5
3D4
  8
0
 10
447.497323636359
 20
109.5402915121041
 30
0.0
 11
447.33710538239069
 21
110.1879849644851
 31
0.0
  0
LINE
  5
3D5
  8
0
 10
447.33710538239069
 20
110.1879849644851
 30
0.0
 11
446.96954585858123
 21
110.66677960734221
 31
0.0
  0
LINE
  5
3D6
  8
0
 10
446.96954585858123
 20
110.66677960734221
 30
0.0
 11
446.4105180808034
 21
110.96253853591359
 31
0.0
  0
LINE
  5
3D7
  8
0
 10
446.4105180808034
 20
110.96253853591359
 30
0.0
 11
445.67589506493039
 21
111.0611248454374
 31
0.0
  0
LINE
  5
3D8
  8
0
 10
445.67589506493039
 20
111.0611248454374
 30
0.0
 11
444.87790399350189
 21
110.929180400993
 31
0.0
  0
LINE
  5
3D9
  8
0
 10
444.87790399350189
 20
110.929180400993
 30
0.0
 11
444.26766093794629
 21
110.5333470676597
 31
0.0
  0
LINE
  5
3DA
  8
0
 10
444.26766093794629
 20
110.5333470676597
 30
0.0
 11
443.88038415223212
 21
109.9093391311517
 31
0.0
  0
LINE
  5
3DB
  8
0
 10
443.88038415223212
 20
109.9093391311517
 30
0.0
 11
443.7512918903272
 21
109.0928708771835
 31
0.0
  0
LINE
  5
3DC
  8
0
 10
443.7512918903272
 20
109.0928708771835
 30
0.0
 11
443.8810041919146
 21
108.2745425041676
 31
0.0
  0
LINE
  5
3DD
  8
0
 10
443.8810041919146
 20
108.2745425041676
 30
0.0
 11
444.27014109667653
 21
107.65090659146919
 31
0.0
  0
LINE
  5
3DE
  8
0
 10
444.27014109667653
 20
107.65090659146919
 30
0.0
 11
444.88546847762871
 21
107.25618932956441
 31
0.0
  0
LINE
  5
3DF
  8
0
 10
444.88546847762871
 20
107.25618932956441
 30
0.0
 11
445.69375220778761
 21
107.1246169089295
 31
0.0
  0
LINE
  5
3E0
  8
0
 10
445.69375220778761
 20
107.1246169089295
 30
0.0
 11
446.41684248556538
 21
107.226799448612
 31
0.0
  0
LINE
  5
3E1
  8
0
 10
446.41684248556538
 20
107.226799448612
 30
0.0
 11
446.9730180808034
 21
107.5333470676597
 31
0.0
  0
LINE
  5
3E2
  8
0
 10
446.9730180808034
 20
107.5333470676597
 30
0.0
 11
447.34045359667641
 21
108.0251625438501
 31
0.0
  0
LINE
  5
3E3
  8
0
 10
447.34045359667641
 20
108.0251625438501
 30
0.0
 11
447.497323636359
 21
108.6831486549612
 31
0.0
  0
LINE
  5
3E4
  8
0
 10
447.497323636359
 20
108.6831486549612
 30
0.0
 11
446.35446649350177
 21
108.6831486549612
 31
0.0
  0
LINE
  5
3E5
  8
0
 10
439.13273911573418
 20
109.45722284388449
 30
0.0
 11
440.31031848081352
 21
109.45722284388449
 31
0.0
  0
LINE
  5
3E6
  8
0
 10
440.31031848081352
 20
109.45722284388449
 30
0.0
 11
440.45714387763911
 21
109.965159351821
 31
0.0
  0
LINE
  5
3E7
  8
0
 10
440.45714387763911
 20
109.965159351821
 30
0.0
 11
441.66051689351201
 21
109.965159351821
 31
0.0
  0
LINE
  5
3E8
  8
0
 10
441.66051689351201
 20
109.965159351821
 30
0.0
 11
441.80238197287701
 21
109.45722284388449
 31
0.0
  0
LINE
  5
3E9
  8
0
 10
441.80238197287701
 20
109.45722284388449
 30
0.0
 11
443.00575498875003
 21
109.45722284388449
 31
0.0
  0
LINE
  5
3EA
  8
0
 10
443.00575498875003
 20
109.45722284388449
 30
0.0
 11
441.67638990938502
 21
113.2667466534083
 31
0.0
  0
LINE
  5
3EB
  8
0
 10
441.67638990938502
 20
113.2667466534083
 30
0.0
 11
440.44722324271828
 21
113.2667466534083
 31
0.0
  0
LINE
  5
3EC
  8
0
 10
440.44722324271828
 20
113.2667466534083
 30
0.0
 11
439.13273911573418
 21
109.45722284388449
 31
0.0
  0
LINE
  5
3ED
  8
0
 10
440.67738197287701
 20
110.79055617721779
 30
0.0
 11
441.06329467128973
 21
112.0941276057892
 31
0.0
  0
LINE
  5
3EE
  8
0
 10
441.06329467128973
 20
112.0941276057892
 30
0.0
 11
441.44027879827388
 21
110.79055617721779
 31
0.0
  0
LINE
  5
3EF
  8
0
 10
441.44027879827388
 20
110.79055617721779
 30
0.0
 11
440.67738197287701
 21
110.79055617721779
 31
0.0
  0
LINE
  5
3F0
  8
0
 10
435.37200792547287
 20
111.1976111530647
 30
0.0
 11
437.07141268737752
 21
111.1976111530647
 31
0.0
  0
LINE
  5
3F1
  8
0
 10
437.07141268737752
 20
111.1976111530647
 30
0.0
 11
437.83926983023468
 21
111.23630162925519
 31
0.0
  0
LINE
  5
3F2
  8
0
 10
437.83926983023468
 20
111.23630162925519
 30
0.0
 11
438.25196824293312
 21
111.36824607369959
 31
0.0
  0
LINE
  5
3F3
  8
0
 10
438.25196824293312
 20
111.36824607369959
 30
0.0
 11
438.66020236991727
 21
111.7511825816362
 31
0.0
  0
LINE
  5
3F4
  8
0
 10
438.66020236991727
 20
111.7511825816362
 30
0.0
 11
438.8005793540442
 21
112.3384841689377
 31
0.0
  0
LINE
  5
3F5
  8
0
 10
438.8005793540442
 20
112.3384841689377
 30
0.0
 11
438.65673014769499
 21
112.90148020068381
 31
0.0
  0
LINE
  5
3F6
  8
0
 10
438.65673014769499
 20
112.90148020068381
 30
0.0
 11
438.21327776674258
 21
113.22638099433451
 31
0.0
  0
LINE
  5
3F7
  8
0
 10
438.21327776674258
 20
113.22638099433451
 30
0.0
 11
438.55851586198071
 21
113.54384131179491
 31
0.0
  0
LINE
  5
3F8
  8
0
 10
438.55851586198071
 20
113.54384131179491
 30
0.0
 11
438.6735952270601
 21
113.9962222641758
 31
0.0
  0
LINE
  5
3F9
  8
0
 10
438.6735952270601
 20
113.9962222641758
 30
0.0
 11
438.51982538579023
 21
114.5562421054457
 31
0.0
  0
LINE
  5
3FA
  8
0
 10
438.51982538579023
 20
114.5562421054457
 30
0.0
 11
438.07736506832993
 21
114.89602385147739
 31
0.0
  0
LINE
  5
3FB
  8
0
 10
438.07736506832993
 20
114.89602385147739
 30
0.0
 11
437.68202776674258
 21
114.98134131179491
 31
0.0
  0
LINE
  5
3FC
  8
0
 10
437.68202776674258
 20
114.98134131179491
 30
0.0
 11
436.94839681436179
 21
115.00713496258849
 31
0.0
  0
LINE
  5
3FD
  8
0
 10
436.94839681436179
 20
115.00713496258849
 30
0.0
 11
435.37200792547287
 21
115.00713496258849
 31
0.0
  0
LINE
  5
3FE
  8
0
 10
435.37200792547287
 20
115.00713496258849
 30
0.0
 11
435.37200792547287
 21
111.1976111530647
 31
0.0
  0
LINE
  5
3FF
  8
0
 10
436.57835713182197
 20
112.0865000419536
 30
0.0
 11
436.57835713182197
 21
112.78491274036629
 31
0.0
  0
LINE
  5
400
  8
0
 10
436.57835713182197
 20
112.78491274036629
 30
0.0
 11
437.12696824293312
 21
112.78491274036629
 31
0.0
  0
LINE
  5
401
  8
0
 10
437.12696824293312
 20
112.78491274036629
 30
0.0
 11
437.53619443340938
 21
112.70554766100121
 31
0.0
  0
LINE
  5
402
  8
0
 10
437.53619443340938
 20
112.70554766100121
 30
0.0
 11
437.65772221118709
 21
112.4386825816361
 31
0.0
  0
LINE
  5
403
  8
0
 10
437.65772221118709
 20
112.4386825816361
 30
0.0
 11
437.53867459213939
 21
112.16884131179491
 31
0.0
  0
LINE
  5
404
  8
0
 10
437.53867459213939
 20
112.16884131179491
 30
0.0
 11
437.13788094134583
 21
112.0865000419536
 31
0.0
  0
LINE
  5
405
  8
0
 10
437.13788094134583
 20
112.0865000419536
 30
0.0
 11
436.57835713182197
 21
112.0865000419536
 31
0.0
  0
LINE
  5
406
  8
0
 10
436.57835713182197
 20
113.483325438779
 30
0.0
 11
436.57835713182197
 21
114.11824607369959
 31
0.0
  0
LINE
  5
407
  8
0
 10
436.57835713182197
 20
114.11824607369959
 30
0.0
 11
436.91268252864739
 21
114.11824607369959
 31
0.0
  0
LINE
  5
408
  8
0
 10
436.91268252864739
 20
114.11824607369959
 30
0.0
 11
437.42111506832993
 21
114.05078575623931
 31
0.0
  0
LINE
  5
409
  8
0
 10
437.42111506832993
 20
114.05078575623931
 30
0.0
 11
437.53073808420288
 21
113.80078575623931
 31
0.0
  0
LINE
  5
40A
  8
0
 10
437.53073808420288
 20
113.80078575623931
 30
0.0
 11
437.42855554452041
 21
113.55574607369959
 31
0.0
  0
LINE
  5
40B
  8
0
 10
437.42855554452041
 20
113.55574607369959
 30
0.0
 11
437.07637300483788
 21
113.483325438779
 31
0.0
  0
LINE
  5
40C
  8
0
 10
437.07637300483788
 20
113.483325438779
 30
0.0
 11
436.57835713182197
 21
113.483325438779
 31
0.0
  0
ARC
  5
40D
  8
0
 10
441.23196571951348
 20
111.1250045037593
 30
0.0
 40
9.0000000000000089
 50
179.99999999999969
 51
359.99999999999881
  0
ARC
  5
40E
  8
0
 10
441.23196571951348
 20
111.1250045037593
 30
0.0
 40
9.0000000000000266
 50
359.99999999999937
 51
179.9999999999996
  0
ARC
  5
40F
  8
0
 10
441.23196571951252
 20
129.87500450375779
 30
0.0
 40
3.0
 50
90.0
 51
270.0
  0
ARC
  5
410
  8
0
 10
441.23196571951252
 20
129.87500450375779
 30
0.0
 40
2.9999999999999911
 50
270.0
 51
90.0
  0
LINE
  5
411
  8
0
 10
369.23196571951439
 20
49.00000450375817
 30
0.0
 11
369.48196571951439
 21
49.00000450375817
 31
0.0
  0
LINE
  5
412
  8
0
 10
369.48196571951439
 20
50.000004503758291
 30
0.0
 11
369.23196571951439
 21
50.000004503758291
 31
0.0
  0
LINE
  5
413
  8
0
 10
369.23196571951468
 20
35.500004503758191
 30
0.0
 11
369.48196571951439
 21
35.500004503758191
 31
0.0
  0
LINE
  5
414
  8
0
 10
369.48196571951439
 20
38.500004503758191
 30
0.0
 11
369.23196571951468
 21
38.500004503758191
 31
0.0
  0
LINE
  5
415
  8
0
 10
369.23196571951462
 20
14.75000450375812
 30
0.0
 11
369.48196571951439
 21
14.75000450375812
 31
0.0
  0
LINE
  5
416
  8
0
 10
369.48196571951439
 20
16.750004503758181
 30
0.0
 11
369.23196571951462
 21
16.750004503758181
 31
0.0
  0
LINE
  5
417
  8
0
 10
369.23196571951462
 20
49.500004503758142
 30
0.0
 11
369.23196571951462
 21
49.629414026309391
 31
0.0
  0
LINE
  5
418
  8
0
 10
369.23196571951462
 20
49.629414306770443
 30
0.0
 11
369.23196571951462
 21
49.75000450375812
 31
0.0
  0
LINE
  5
419
  8
0
 10
369.23196571951462
 20
49.75000659177649
 30
0.0
 11
369.23196571951462
 21
49.853557894351411
 31
0.0
  0
LINE
  5
41A
  8
0
 10
369.23196571951462
 20
49.853558338609552
 30
0.0
 11
369.23196571951462
 21
49.98296741690266
 31
0.0
  0
LINE
  5
41B
  8
0
 10
369.23196571951462
 20
49.982968707191382
 30
0.0
 11
369.23196571951462
 21
50.000004503758127
 31
0.0
  0
LINE
  5
41C
  8
0
 10
369.23196571951462
 20
49.000004503758127
 30
0.0
 11
369.23196571951462
 21
49.017040300323153
 31
0.0
  0
LINE
  5
41D
  8
0
 10
369.23196571951462
 20
49.017041590613609
 30
0.0
 11
369.23196571951462
 21
49.146450668905878
 31
0.0
  0
LINE
  5
41E
  8
0
 10
369.23196571951462
 20
49.146451113164851
 30
0.0
 11
369.23196571951462
 21
49.250002415738798
 31
0.0
  0
LINE
  5
41F
  8
0
 10
369.23196571951462
 20
49.25000450375812
 30
0.0
 11
369.23196571951462
 21
49.37059470074491
 31
0.0
  0
LINE
  5
420
  8
0
 10
369.23196571951462
 20
49.370594981206871
 30
0.0
 11
369.23196571951462
 21
49.500004503758142
 31
0.0
  0
LINE
  5
421
  8
0
 10
369.23196571951468
 20
37.000004503758127
 30
0.0
 11
369.23196571951468
 21
37.750003607245141
 31
0.0
  0
LINE
  5
422
  8
0
 10
369.23196571951468
 20
37.750004503758127
 30
0.0
 11
369.23196571951468
 21
38.060664675537957
 31
0.0
  0
LINE
  5
423
  8
0
 10
369.23196571951468
 20
38.060664897403839
 30
0.0
 11
369.23196571951468
 21
38.299042467490381
 31
0.0
  0
LINE
  5
424
  8
0
 10
369.23196571951468
 20
38.299042609434792
 30
0.0
 11
369.23196571951468
 21
38.448893243191741
 31
0.0
  0
LINE
  5
425
  8
0
 10
369.23196571951468
 20
38.448895217671151
 30
0.0
 11
369.23196571951468
 21
38.500004503758142
 31
0.0
  0
LINE
  5
426
  8
0
 10
369.23196571951468
 20
35.500004503758142
 30
0.0
 11
369.23196571951468
 21
35.551115686266741
 31
0.0
  0
LINE
  5
427
  8
0
 10
369.23196571951468
 20
35.551115764324521
 30
0.0
 11
369.23196571951468
 21
35.700966398081484
 31
0.0
  0
LINE
  5
428
  8
0
 10
369.23196571951468
 20
35.700967325558267
 30
0.0
 11
369.23196571951468
 21
35.939344331978312
 31
0.0
  0
LINE
  5
429
  8
0
 10
369.23196571951468
 20
35.939345014165553
 30
0.0
 11
369.23196571951468
 21
36.250003459746949
 31
0.0
  0
LINE
  5
42A
  8
0
 10
369.23196571951468
 20
36.250004503758127
 30
0.0
 11
369.23196571951468
 21
37.000003539101598
 31
0.0
  0
LINE
  5
42B
  8
0
 10
369.23196571951479
 20
15.750004503758131
 30
0.0
 11
369.23196571951479
 21
16.008823548860651
 31
0.0
  0
LINE
  5
42C
  8
0
 10
369.23196571951479
 20
16.008824109783351
 30
0.0
 11
369.23196571951479
 21
16.250004055501449
 31
0.0
  0
LINE
  5
42D
  8
0
 10
369.23196571951479
 20
16.250004503758131
 30
0.0
 11
369.23196571951479
 21
16.45711068808064
 31
0.0
  0
LINE
  5
42E
  8
0
 10
369.23196571951479
 20
16.45711128494467
 30
0.0
 11
369.23196571951479
 21
16.616029907542568
 31
0.0
  0
LINE
  5
42F
  8
0
 10
369.23196571951479
 20
16.616030590074889
 30
0.0
 11
369.23196571951479
 21
16.715930239989209
 31
0.0
  0
LINE
  5
430
  8
0
 10
369.23196571951479
 20
16.71593033004719
 30
0.0
 11
369.23196571951479
 21
16.750004503758131
 31
0.0
  0
LINE
  5
431
  8
0
 10
369.23196571951479
 20
14.750004503758131
 30
0.0
 11
369.23196571951479
 21
14.78407867746907
 31
0.0
  0
LINE
  5
432
  8
0
 10
369.23196571951479
 20
14.784078767526459
 30
0.0
 11
369.23196571951479
 21
14.883978417440231
 31
0.0
  0
LINE
  5
433
  8
0
 10
369.23196571951479
 20
14.8839790999737
 30
0.0
 11
369.23196571951479
 21
15.042897722571579
 31
0.0
  0
LINE
  5
434
  8
0
 10
369.23196571951479
 20
15.04289831943484
 30
0.0
 11
369.23196571951479
 21
15.25000450375812
 31
0.0
  0
LINE
  5
435
  8
0
 10
369.23196571951479
 20
15.25000495201399
 30
0.0
 11
369.23196571951479
 21
15.49118489773215
 31
0.0
  0
LINE
  5
436
  8
0
 10
369.23196571951479
 20
15.491185458655609
 30
0.0
 11
369.23196571951479
 21
15.750004503758131
 31
0.0
  0
LINE
  5
437
  8
0
 10
369.23196571951468
 20
20.250004503758252
 30
0.0
 11
369.48196571951451
 21
20.250004503758252
 31
0.0
  0
LINE
  5
438
  8
0
 10
369.48196571951451
 20
26.250004503758252
 30
0.0
 11
369.23196571951468
 21
26.250004503758252
 31
0.0
  0
LINE
  5
439
  8
0
 10
369.23196571951468
 20
23.250004503758149
 30
0.0
 11
369.23196571951468
 21
25.371324335374041
 31
0.0
  0
LINE
  5
43A
  8
0
 10
369.23196571951468
 20
25.371324847317801
 30
0.0
 11
369.23196571951468
 21
25.84807964569027
 31
0.0
  0
LINE
  5
43B
  8
0
 10
369.23196571951468
 20
25.848080715111472
 30
0.0
 11
369.23196571951468
 21
26.147781982625371
 31
0.0
  0
LINE
  5
43C
  8
0
 10
369.23196571951468
 20
26.147784035170361
 30
0.0
 11
369.23196571951468
 21
26.25000450375817
 31
0.0
  0
LINE
  5
43D
  8
0
 10
369.23196571951468
 20
20.250004503758159
 30
0.0
 11
369.23196571951468
 21
20.65192811920469
 31
0.0
  0
LINE
  5
43E
  8
0
 10
369.23196571951468
 20
20.65192829240485
 30
0.0
 11
369.23196571951468
 21
21.128684160198521
 31
0.0
  0
LINE
  5
43F
  8
0
 10
369.23196571951468
 20
21.128684672141521
 30
0.0
 11
369.23196571951468
 21
22.473547185575178
 31
0.0
  0
LINE
  5
440
  8
0
 10
369.23196571951468
 20
22.4735473684506
 30
0.0
 11
369.23196571951468
 21
23.250004503758149
 31
0.0
  0
LINE
  5
441
  8
0
 10
0.0000055215872976
 20
141.1250045037574
 30
0.0
 11
143.50000552158161
 21
141.1250045037574
 31
0.0
  0
LINE
  5
442
  8
0
 10
143.50000552158161
 20
64.500004503757722
 30
0.0
 11
0.0000055215872976
 21
64.500004503757722
 31
0.0
  0
LINE
  5
443
  8
0
 10
0.0000055215872976
 20
141.1250045037574
 30
0.0
 11
0.0000055215872976
 21
64.500004503757722
 31
0.0
  0
LINE
  5
444
  8
0
 10
143.50000552158161
 20
64.500004503757722
 30
0.0
 11
143.50000552158161
 21
141.1250045037574
 31
0.0
  0
LINE
  5
445
  8
0
 10
0.0000055215872123
 20
64.500004503757722
 30
0.0
 11
143.5000055215871
 21
64.500004503757722
 31
0.0
  0
LINE
  5
446
  8
0
 10
143.5000055215871
 20
0.0000045037577365
 30
0.0
 11
0.0000055215872123
 21
0.0000045037577365
 31
0.0
  0
LINE
  5
447
  8
0
 10
143.5000055215871
 20
64.500004503757722
 30
0.0
 11
143.5000055215871
 21
0.0000045037577365
 31
0.0
  0
LINE
  5
448
  8
0
 10
0.0000055215872123
 20
0.0000045037577365
 30
0.0
 11
0.0000055215872123
 21
64.500004503757722
 31
0.0
  0
ARC
  5
449
  8
0
 10
71.750005521588079
 20
111.1250045037594
 30
0.0
 40
8.25
 50
179.99999999999969
 51
359.99999999999881
  0
ARC
  5
44A
  8
0
 10
71.750005521588079
 20
111.1250045037594
 30
0.0
 40
8.2500000000000124
 50
359.99999999999937
 51
179.9999999999996
  0
ARC
  5
44B
  8
0
 10
71.750005521588079
 20
111.1250045037594
 30
0.0
 40
7.687499999999992
 50
0.000000000000687
 51
180.00000000000011
  0
ARC
  5
44C
  8
0
 10
71.750005521588079
 20
111.1250045037594
 30
0.0
 40
7.687499999999992
 50
180.00000000000011
 51
359.9999999999996
  0
LINE
  5
44D
  8
0
 10
76.872506295575874
 20
108.683148654962
 30
0.0
 11
76.677565819385379
 21
108.2342399248033
 31
0.0
  0
LINE
  5
44E
  8
0
 10
76.677565819385379
 20
108.2342399248033
 30
0.0
 11
76.226672962242588
 21
108.0769978613112
 31
0.0
  0
LINE
  5
44F
  8
0
 10
76.226672962242588
 20
108.0769978613112
 30
0.0
 11
75.902144192401281
 21
108.1412339724223
 31
0.0
  0
LINE
  5
450
  8
0
 10
75.902144192401281
 20
108.1412339724223
 30
0.0
 11
75.666653120972668
 21
108.3339423057557
 31
0.0
  0
LINE
  5
451
  8
0
 10
75.666653120972668
 20
108.3339423057557
 30
0.0
 11
75.475680898750483
 21
109.0918788136922
 31
0.0
  0
LINE
  5
452
  8
0
 10
75.475680898750483
 20
109.0918788136922
 30
0.0
 11
75.659708676528282
 21
109.8557677025811
 31
0.0
  0
LINE
  5
453
  8
0
 10
75.659708676528282
 20
109.8557677025811
 30
0.0
 11
75.889495382877485
 21
110.0454998454382
 31
0.0
  0
LINE
  5
454
  8
0
 10
75.889495382877485
 20
110.0454998454382
 30
0.0
 11
76.210799946369491
 21
110.10874389305729
 31
0.0
  0
LINE
  5
455
  8
0
 10
76.210799946369491
 20
110.10874389305729
 30
0.0
 11
76.679053914623495
 21
109.9653907184541
 31
0.0
  0
LINE
  5
456
  8
0
 10
76.679053914623495
 20
109.9653907184541
 30
0.0
 11
76.872506295575874
 21
109.5402915121049
 31
0.0
  0
LINE
  5
457
  8
0
 10
76.872506295575874
 20
109.5402915121049
 30
0.0
 11
78.015363438432985
 21
109.5402915121049
 31
0.0
  0
LINE
  5
458
  8
0
 10
78.015363438432985
 20
109.5402915121049
 30
0.0
 11
77.855145184464774
 21
110.18798496448581
 31
0.0
  0
LINE
  5
459
  8
0
 10
77.855145184464774
 20
110.18798496448581
 30
0.0
 11
77.487585660655284
 21
110.666779607343
 31
0.0
  0
LINE
  5
45A
  8
0
 10
77.487585660655284
 20
110.666779607343
 30
0.0
 11
76.928557882877485
 21
110.9625385359144
 31
0.0
  0
LINE
  5
45B
  8
0
 10
76.928557882877485
 20
110.9625385359144
 30
0.0
 11
76.193934867004486
 21
111.0611248454382
 31
0.0
  0
LINE
  5
45C
  8
0
 10
76.193934867004486
 20
111.0611248454382
 30
0.0
 11
75.395943795575889
 21
110.9291804009938
 31
0.0
  0
LINE
  5
45D
  8
0
 10
75.395943795575889
 20
110.9291804009938
 30
0.0
 11
74.785700740020275
 21
110.5333470676604
 31
0.0
  0
LINE
  5
45E
  8
0
 10
74.785700740020275
 20
110.5333470676604
 30
0.0
 11
74.398423954305997
 21
109.90933913115251
 31
0.0
  0
LINE
  5
45F
  8
0
 10
74.398423954305997
 20
109.90933913115251
 30
0.0
 11
74.269331692401281
 21
109.0928708771842
 31
0.0
  0
LINE
  5
460
  8
0
 10
74.269331692401281
 20
109.0928708771842
 30
0.0
 11
74.39904399398857
 21
108.27454250416839
 31
0.0
  0
LINE
  5
461
  8
0
 10
74.39904399398857
 20
108.27454250416839
 30
0.0
 11
74.788180898750483
 21
107.65090659147
 31
0.0
  0
LINE
  5
462
  8
0
 10
74.788180898750483
 20
107.65090659147
 30
0.0
 11
75.403508279702876
 21
107.2561893295652
 31
0.0
  0
LINE
  5
463
  8
0
 10
75.403508279702876
 20
107.2561893295652
 30
0.0
 11
76.211792009861583
 21
107.12461690893031
 31
0.0
  0
LINE
  5
464
  8
0
 10
76.211792009861583
 20
107.12461690893031
 30
0.0
 11
76.934882287639368
 21
107.22679944861279
 31
0.0
  0
LINE
  5
465
  8
0
 10
76.934882287639368
 20
107.22679944861279
 30
0.0
 11
77.491057882877485
 21
107.5333470676604
 31
0.0
  0
LINE
  5
466
  8
0
 10
77.491057882877485
 20
107.5333470676604
 30
0.0
 11
77.858493398750483
 21
108.0251625438509
 31
0.0
  0
LINE
  5
467
  8
0
 10
77.858493398750483
 20
108.0251625438509
 30
0.0
 11
78.015363438432985
 21
108.683148654962
 31
0.0
  0
LINE
  5
468
  8
0
 10
78.015363438432985
 20
108.683148654962
 30
0.0
 11
76.872506295575874
 21
108.683148654962
 31
0.0
  0
LINE
  5
469
  8
0
 10
69.650778917808168
 20
109.45722284388521
 30
0.0
 11
70.828358282887564
 21
109.45722284388521
 31
0.0
  0
LINE
  5
46A
  8
0
 10
70.828358282887564
 20
109.45722284388521
 30
0.0
 11
70.975183679712984
 21
109.9651593518217
 31
0.0
  0
LINE
  5
46B
  8
0
 10
70.975183679712984
 20
109.9651593518217
 30
0.0
 11
72.178556695585996
 21
109.9651593518217
 31
0.0
  0
LINE
  5
46C
  8
0
 10
72.178556695585996
 20
109.9651593518217
 30
0.0
 11
72.320421774951072
 21
109.45722284388521
 31
0.0
  0
LINE
  5
46D
  8
0
 10
72.320421774951072
 20
109.45722284388521
 30
0.0
 11
73.523794790824084
 21
109.45722284388521
 31
0.0
  0
LINE
  5
46E
  8
0
 10
73.523794790824084
 20
109.45722284388521
 30
0.0
 11
72.194429711458994
 21
113.266746653409
 31
0.0
  0
LINE
  5
46F
  8
0
 10
72.194429711458994
 20
113.266746653409
 30
0.0
 11
70.965263044792295
 21
113.266746653409
 31
0.0
  0
LINE
  5
470
  8
0
 10
70.965263044792295
 20
113.266746653409
 30
0.0
 11
69.650778917808168
 21
109.45722284388521
 31
0.0
  0
LINE
  5
471
  8
0
 10
71.195421774951072
 20
110.7905561772186
 30
0.0
 11
71.581334473363782
 21
112.09412760579001
 31
0.0
  0
LINE
  5
472
  8
0
 10
71.581334473363782
 20
112.09412760579001
 30
0.0
 11
71.95831860034788
 21
110.7905561772186
 31
0.0
  0
LINE
  5
473
  8
0
 10
71.95831860034788
 20
110.7905561772186
 30
0.0
 11
71.195421774951072
 21
110.7905561772186
 31
0.0
  0
LINE
  5
474
  8
0
 10
65.890047727546786
 20
111.19761115306549
 30
0.0
 11
67.589452489451574
 21
111.19761115306549
 31
0.0
  0
LINE
  5
475
  8
0
 10
67.589452489451574
 20
111.19761115306549
 30
0.0
 11
68.35730963230867
 21
111.236301629256
 31
0.0
  0
LINE
  5
476
  8
0
 10
68.35730963230867
 20
111.236301629256
 30
0.0
 11
68.770008045007074
 21
111.3682460737004
 31
0.0
  0
LINE
  5
477
  8
0
 10
68.770008045007074
 20
111.3682460737004
 30
0.0
 11
69.178242171991172
 21
111.7511825816369
 31
0.0
  0
LINE
  5
478
  8
0
 10
69.178242171991172
 20
111.7511825816369
 30
0.0
 11
69.31861915611816
 21
112.33848416893851
 31
0.0
  0
LINE
  5
479
  8
0
 10
69.31861915611816
 20
112.33848416893851
 30
0.0
 11
69.174769949768987
 21
112.9014802006845
 31
0.0
  0
LINE
  5
47A
  8
0
 10
69.174769949768987
 20
112.9014802006845
 30
0.0
 11
68.731317568816678
 21
113.2263809943353
 31
0.0
  0
LINE
  5
47B
  8
0
 10
68.731317568816678
 20
113.2263809943353
 30
0.0
 11
69.07655566405478
 21
113.5438413117957
 31
0.0
  0
LINE
  5
47C
  8
0
 10
69.07655566405478
 20
113.5438413117957
 30
0.0
 11
69.191635029134076
 21
113.99622226417659
 31
0.0
  0
LINE
  5
47D
  8
0
 10
69.191635029134076
 20
113.99622226417659
 30
0.0
 11
69.037865187864284
 21
114.5562421054464
 31
0.0
  0
LINE
  5
47E
  8
0
 10
69.037865187864284
 20
114.5562421054464
 30
0.0
 11
68.595404870403883
 21
114.8960238514782
 31
0.0
  0
LINE
  5
47F
  8
0
 10
68.595404870403883
 20
114.8960238514782
 30
0.0
 11
68.200067568816664
 21
114.9813413117956
 31
0.0
  0
LINE
  5
480
  8
0
 10
68.200067568816664
 20
114.9813413117956
 30
0.0
 11
67.466436616435686
 21
115.0071349625893
 31
0.0
  0
LINE
  5
481
  8
0
 10
67.466436616435686
 20
115.0071349625893
 30
0.0
 11
65.890047727546786
 21
115.0071349625893
 31
0.0
  0
LINE
  5
482
  8
0
 10
65.890047727546786
 20
115.0071349625893
 30
0.0
 11
65.890047727546786
 21
111.19761115306549
 31
0.0
  0
LINE
  5
483
  8
0
 10
67.096396933895988
 20
112.08650004195439
 30
0.0
 11
67.096396933895988
 21
112.7849127403671
 31
0.0
  0
LINE
  5
484
  8
0
 10
67.096396933895988
 20
112.7849127403671
 30
0.0
 11
67.645008045007074
 21
112.7849127403671
 31
0.0
  0
LINE
  5
485
  8
0
 10
67.645008045007074
 20
112.7849127403671
 30
0.0
 11
68.054234235483278
 21
112.705547661002
 31
0.0
  0
LINE
  5
486
  8
0
 10
68.054234235483278
 20
112.705547661002
 30
0.0
 11
68.175762013261064
 21
112.4386825816369
 31
0.0
  0
LINE
  5
487
  8
0
 10
68.175762013261064
 20
112.4386825816369
 30
0.0
 11
68.056714394213486
 21
112.1688413117956
 31
0.0
  0
LINE
  5
488
  8
0
 10
68.056714394213486
 20
112.1688413117956
 30
0.0
 11
67.655920743419784
 21
112.08650004195439
 31
0.0
  0
LINE
  5
489
  8
0
 10
67.655920743419784
 20
112.08650004195439
 30
0.0
 11
67.096396933895988
 21
112.08650004195439
 31
0.0
  0
LINE
  5
48A
  8
0
 10
67.096396933895988
 20
113.4833254387798
 30
0.0
 11
67.096396933895988
 21
114.1182460737004
 31
0.0
  0
LINE
  5
48B
  8
0
 10
67.096396933895988
 20
114.1182460737004
 30
0.0
 11
67.43072233072138
 21
114.1182460737004
 31
0.0
  0
LINE
  5
48C
  8
0
 10
67.43072233072138
 20
114.1182460737004
 30
0.0
 11
67.939154870403883
 21
114.0507857562401
 31
0.0
  0
LINE
  5
48D
  8
0
 10
67.939154870403883
 20
114.0507857562401
 30
0.0
 11
68.048777886276994
 21
113.8007857562401
 31
0.0
  0
LINE
  5
48E
  8
0
 10
68.048777886276994
 20
113.8007857562401
 30
0.0
 11
67.946595346594364
 21
113.5557460737004
 31
0.0
  0
LINE
  5
48F
  8
0
 10
67.946595346594364
 20
113.5557460737004
 30
0.0
 11
67.594412806911862
 21
113.4833254387798
 31
0.0
  0
LINE
  5
490
  8
0
 10
67.594412806911862
 20
113.4833254387798
 30
0.0
 11
67.096396933895988
 21
113.4833254387798
 31
0.0
  0
ARC
  5
491
  8
0
 10
71.750005521587582
 20
111.1250045037601
 30
0.0
 40
9.0000000000000089
 50
179.99999999999969
 51
359.99999999999881
  0
ARC
  5
492
  8
0
 10
71.750005521587582
 20
111.1250045037601
 30
0.0
 40
9.0000000000000266
 50
359.99999999999937
 51
179.9999999999996
  0
LINE
  5
493
  8
0
 10
143.50000552158761
 20
49.00000450375817
 30
0.0
 11
143.75000552158781
 21
49.00000450375817
 31
0.0
  0
LINE
  5
494
  8
0
 10
143.75000552158781
 20
50.000004503758291
 30
0.0
 11
143.50000552158761
 21
50.000004503758291
 31
0.0
  0
LINE
  5
495
  8
0
 10
143.50000552158761
 20
35.500004503758191
 30
0.0
 11
143.75000552158761
 21
35.500004503758191
 31
0.0
  0
LINE
  5
496
  8
0
 10
143.75000552158761
 20
38.500004503758191
 30
0.0
 11
143.50000552158761
 21
38.500004503758191
 31
0.0
  0
LINE
  5
497
  8
0
 10
143.5000055215875
 20
14.75000450375812
 30
0.0
 11
143.75000552158761
 21
14.75000450375812
 31
0.0
  0
LINE
  5
498
  8
0
 10
143.75000552158761
 20
16.750004503758181
 30
0.0
 11
143.5000055215875
 21
16.750004503758181
 31
0.0
  0
LINE
  5
499
  8
0
 10
143.75000552158741
 20
50.000004503758127
 30
0.0
 11
143.75000552158741
 21
49.982968707191382
 31
0.0
  0
LINE
  5
49A
  8
0
 10
143.75000552158741
 20
49.982967416902682
 30
0.0
 11
143.75000552158741
 21
49.853558338609552
 31
0.0
  0
LINE
  5
49B
  8
0
 10
143.75000552158741
 20
49.853557894351411
 30
0.0
 11
143.75000552158741
 21
49.750006591776518
 31
0.0
  0
LINE
  5
49C
  8
0
 10
143.75000552158741
 20
49.750004503758127
 30
0.0
 11
143.75000552158741
 21
49.629414306770443
 31
0.0
  0
LINE
  5
49D
  8
0
 10
143.75000552158741
 20
49.629414026309391
 30
0.0
 11
143.75000552158741
 21
49.500004503758142
 31
0.0
  0
LINE
  5
49E
  8
0
 10
143.75000552158741
 20
49.500004503758142
 30
0.0
 11
143.75000552158741
 21
49.370594981206871
 31
0.0
  0
LINE
  5
49F
  8
0
 10
143.75000552158741
 20
49.37059470074491
 30
0.0
 11
143.75000552158741
 21
49.25000450375812
 31
0.0
  0
LINE
  5
4A0
  8
0
 10
143.75000552158741
 20
49.250002415738798
 30
0.0
 11
143.75000552158741
 21
49.146451113164851
 31
0.0
  0
LINE
  5
4A1
  8
0
 10
143.75000552158741
 20
49.146450668905878
 30
0.0
 11
143.75000552158741
 21
49.017041590613609
 31
0.0
  0
LINE
  5
4A2
  8
0
 10
143.75000552158741
 20
49.017040300323153
 30
0.0
 11
143.75000552158741
 21
49.000004503758127
 31
0.0
  0
LINE
  5
4A3
  8
0
 10
143.75000552158741
 20
38.500004503758142
 30
0.0
 11
143.75000552158741
 21
38.448895217671151
 31
0.0
  0
LINE
  5
4A4
  8
0
 10
143.75000552158741
 20
38.448893243191741
 30
0.0
 11
143.75000552158741
 21
38.060664897403861
 31
0.0
  0
LINE
  5
4A5
  8
0
 10
143.75000552158741
 20
38.060664675537957
 30
0.0
 11
143.75000552158741
 21
37.750004503758127
 31
0.0
  0
LINE
  5
4A6
  8
0
 10
143.75000552158741
 20
37.750003607245148
 30
0.0
 11
143.75000552158741
 21
37.000004503758142
 31
0.0
  0
LINE
  5
4A7
  8
0
 10
143.75000552158741
 20
37.000003539101598
 30
0.0
 11
143.75000552158741
 21
36.250004503758127
 31
0.0
  0
LINE
  5
4A8
  8
0
 10
143.75000552158741
 20
36.250003459746949
 30
0.0
 11
143.75000552158741
 21
35.939345014165553
 31
0.0
  0
LINE
  5
4A9
  8
0
 10
143.75000552158741
 20
35.939344331978312
 30
0.0
 11
143.75000552158741
 21
35.551115764324521
 31
0.0
  0
LINE
  5
4AA
  8
0
 10
143.75000552158741
 20
35.551115686266741
 30
0.0
 11
143.75000552158741
 21
35.500004503758142
 31
0.0
  0
LINE
  5
4AB
  8
0
 10
143.75000552158741
 20
16.750004503758131
 30
0.0
 11
143.75000552158741
 21
16.715930330047211
 31
0.0
  0
LINE
  5
4AC
  8
0
 10
143.75000552158741
 20
16.71593023998922
 30
0.0
 11
143.75000552158741
 21
16.616030590074889
 31
0.0
  0
LINE
  5
4AD
  8
0
 10
143.75000552158741
 20
16.616029907542568
 30
0.0
 11
143.75000552158741
 21
16.45711128494467
 31
0.0
  0
LINE
  5
4AE
  8
0
 10
143.75000552158741
 20
16.45711068808064
 30
0.0
 11
143.75000552158741
 21
16.250004503758142
 31
0.0
  0
LINE
  5
4AF
  8
0
 10
143.75000552158741
 20
16.250004055501471
 30
0.0
 11
143.75000552158741
 21
16.008824109783351
 31
0.0
  0
LINE
  5
4B0
  8
0
 10
143.75000552158741
 20
16.008823548860651
 30
0.0
 11
143.75000552158741
 21
15.750004503758131
 31
0.0
  0
LINE
  5
4B1
  8
0
 10
143.75000552158741
 20
15.750004503758131
 30
0.0
 11
143.75000552158741
 21
15.4911854586556
 31
0.0
  0
LINE
  5
4B2
  8
0
 10
143.75000552158741
 20
15.49118489773214
 30
0.0
 11
143.75000552158741
 21
15.250004952013979
 31
0.0
  0
LINE
  5
4B3
  8
0
 10
143.75000552158741
 20
15.25000450375812
 30
0.0
 11
143.75000552158741
 21
15.042898319434981
 31
0.0
  0
LINE
  5
4B4
  8
0
 10
143.75000552158741
 20
15.042897722571579
 30
0.0
 11
143.75000552158741
 21
14.8839790999737
 31
0.0
  0
LINE
  5
4B5
  8
0
 10
143.75000552158741
 20
14.883978417440231
 30
0.0
 11
143.75000552158741
 21
14.784078767526459
 31
0.0
  0
LINE
  5
4B6
  8
0
 10
143.75000552158741
 20
14.78407867746907
 30
0.0
 11
143.75000552158741
 21
14.750004503758131
 31
0.0
  0
LINE
  5
4B7
  8
0
 10
143.5000055215875
 20
20.250004503758252
 30
0.0
 11
143.75000552158761
 21
20.250004503758252
 31
0.0
  0
LINE
  5
4B8
  8
0
 10
143.75000552158761
 20
26.250004503758252
 30
0.0
 11
143.5000055215875
 21
26.250004503758252
 31
0.0
  0
LINE
  5
4B9
  8
0
 10
143.75000552158741
 20
26.25000450375817
 30
0.0
 11
143.75000552158741
 21
26.147784035170378
 31
0.0
  0
LINE
  5
4BA
  8
0
 10
143.75000552158741
 20
26.147781982625379
 30
0.0
 11
143.75000552158741
 21
25.371324847317808
 31
0.0
  0
LINE
  5
4BB
  8
0
 10
143.75000552158741
 20
25.371324335374059
 30
0.0
 11
143.75000552158741
 21
24.02646163906574
 31
0.0
  0
LINE
  5
4BC
  8
0
 10
143.75000552158741
 20
24.026460411798169
 30
0.0
 11
143.75000552158741
 21
23.250004503758191
 31
0.0
  0
LINE
  5
4BD
  8
0
 10
143.75000552158741
 20
23.250004503758149
 30
0.0
 11
143.75000552158741
 21
22.473547368450589
 31
0.0
  0
LINE
  5
4BE
  8
0
 10
143.75000552158741
 20
22.473547185575331
 30
0.0
 11
143.75000552158741
 21
21.12868467214151
 31
0.0
  0
LINE
  5
4BF
  8
0
 10
143.75000552158741
 20
21.128684160198521
 30
0.0
 11
143.75000552158741
 21
20.65192829240485
 31
0.0
  0
LINE
  5
4C0
  8
0
 10
143.75000552158741
 20
20.65192811920468
 30
0.0
 11
143.75000552158741
 21
20.352227295063919
 31
0.0
  0
LINE
  5
4C1
  8
0
 10
143.75000552158741
 20
20.352227024890951
 30
0.0
 11
143.75000552158741
 21
20.250004503758159
 31
0.0
  0
LINE
  5
4C2
  8
0
 10
221.58179451574759
 20
337.28400399409429
 30
0.0
 11
221.5817945157475
 21
193.78400399410009
 31
0.0
  0
LINE
  5
4C3
  8
0
 10
221.5817945157475
 20
193.78400399410009
 30
0.0
 11
277.8317945157446
 21
193.7840039941
 31
0.0
  0
LINE
  5
4C4
  8
0
 10
277.8317945157446
 20
193.7840039941
 30
0.0
 11
277.831794515745
 21
337.28400399409429
 31
0.0
  0
LINE
  5
4C5
  8
0
 10
277.831794515745
 20
337.28400399409429
 30
0.0
 11
221.58179451574759
 21
337.28400399409429
 31
0.0
  0
LINE
  5
4C6
  8
0
 10
276.20679451574779
 20
335.65900399409452
 30
0.0
 11
276.2067945157475
 21
195.4090039940946
 31
0.0
1001
ACAD
1000
ASC_BOUNDS
1002
{
1070
    19
1005
524
1002
}
  0
LINE
  5
4C7
  8
0
 10
276.2067945157475
 20
195.4090039940946
 30
0.0
 11
223.20679451574759
 21
195.4090039940948
 31
0.0
1001
ACAD
1000
ASC_BOUNDS
1002
{
1070
    19
1005
524
1002
}
  0
LINE
  5
4C8
  8
0
 10
223.20679451574759
 20
195.4090039940948
 30
0.0
 11
223.2067945157479
 21
335.65900399409458
 31
0.0
1001
ACAD
1000
ASC_BOUNDS
1002
{
1070
    19
1005
524
1002
}
  0
LINE
  5
4C9
  8
0
 10
223.2067945157479
 20
335.65900399409458
 30
0.0
 11
276.20679451574779
 21
335.65900399409452
 31
0.0
1001
ACAD
1000
ASC_BOUNDS
1002
{
1070
    19
1005
524
1002
}
  0
LINE
  5
4CA
  8
0
 10
277.83179451574472
 20
193.78400399409441
 30
0.0
 11
278.20679451574807
 21
193.78400399409441
 31
0.0
  0
LINE
  5
4CB
  8
0
 10
278.20679451574807
 20
193.78400399409441
 30
0.0
 11
278.20679451574819
 21
337.28400399409441
 31
0.0
  0
LINE
  5
4CC
  8
0
 10
278.20679451574819
 20
337.28400399409441
 30
0.0
 11
277.831794515745
 21
337.28400399409441
 31
0.0
  0
LINE
  5
4CD
  8
0
 10
278.08179451574802
 20
268.53400399409207
 30
0.0
 11
277.8317945157479
 21
268.53400399409207
 31
0.0
  0
LINE
  5
4CE
  8
0
 10
277.8317945157479
 20
262.53400399409207
 30
0.0
 11
278.08179451574802
 21
262.53400399409207
 31
0.0
  0
LINE
  5
4CF
  8
0
 10
278.08179451574802
 20
265.53400284537543
 30
0.0
 11
278.08179451574802
 21
264.0340039940923
 31
0.0
  0
LINE
  5
4D0
  8
0
 10
278.08179451574802
 20
264.03400275087932
 30
0.0
 11
278.08179451574802
 21
263.41268365053259
 31
0.0
  0
LINE
  5
4D1
  8
0
 10
278.08179451574802
 20
263.41268299483318
 30
0.0
 11
278.08179451574802
 21
262.93592791674388
 31
0.0
  0
LINE
  5
4D2
  8
0
 10
278.08179451574802
 20
262.93592778273887
 30
0.0
 11
278.08179451574802
 21
262.63622698539882
 31
0.0
  0
LINE
  5
4D3
  8
0
 10
278.08179451574802
 20
262.63622651522502
 30
0.0
 11
278.08179451574802
 21
262.5340039940923
 31
0.0
  0
LINE
  5
4D4
  8
0
 10
278.08179451574802
 20
268.53400399409219
 30
0.0
 11
278.08179451574802
 21
268.43178147295941
 31
0.0
  0
LINE
  5
4D5
  8
0
 10
278.08179451574802
 20
268.43178140278673
 30
0.0
 11
278.08179451574802
 21
268.13208076501593
 31
0.0
  0
LINE
  5
4D6
  8
0
 10
278.08179451574802
 20
268.1320802054455
 30
0.0
 11
278.08179451574802
 21
267.65532568032728
 31
0.0
  0
LINE
  5
4D7
  8
0
 10
278.08179451574802
 20
267.6553243376519
 30
0.0
 11
278.08179451574802
 21
266.31046162144833
 31
0.0
  0
LINE
  5
4D8
  8
0
 10
278.08179451574802
 20
266.31046112939981
 30
0.0
 11
278.08179451574802
 21
265.53400399409219
 31
0.0
  0
LINE
  5
4D9
  8
0
 10
252.5817945157477
 20
193.53400399409401
 30
0.0
 11
252.5817945157477
 21
193.78400399409409
 31
0.0
  0
LINE
  5
4DA
  8
0
 10
251.58179451574759
 20
193.78400399409409
 30
0.0
 11
251.58179451574759
 21
193.53400399409401
 31
0.0
  0
LINE
  5
4DB
  8
0
 10
241.3317945157477
 20
193.53400399409401
 30
0.0
 11
241.3317945157477
 21
193.78400399409409
 31
0.0
  0
LINE
  5
4DC
  8
0
 10
238.3317945157475
 20
193.78400399409409
 30
0.0
 11
238.3317945157475
 21
193.53400399409401
 31
0.0
  0
LINE
  5
4DD
  8
0
 10
223.08179451574759
 20
193.78400399409421
 30
0.0
 11
223.08179451574759
 21
193.53400399409429
 31
0.0
  0
LINE
  5
4DE
  8
0
 10
252.58179451574759
 20
193.53400399409409
 30
0.0
 11
252.56475742889211
 21
193.53400399409409
 31
0.0
  0
LINE
  5
4DF
  8
0
 10
252.56475722215569
 20
193.53400399409409
 30
0.0
 11
252.5148072176398
 21
193.53400399409409
 31
0.0
  0
LINE
  5
4E0
  8
0
 10
252.51480664664001
 20
193.53400399409409
 30
0.0
 11
252.43534790634089
 21
193.53400399409409
 31
0.0
  0
LINE
  5
4E1
  8
0
 10
252.4353473948054
 20
193.53400399409409
 30
0.0
 11
252.21120403829889
 21
193.53400399409409
 31
0.0
  0
LINE
  5
4E2
  8
0
 10
252.21120336786581
 20
193.53400399409409
 30
0.0
 11
252.0817949980806
 21
193.53400399409409
 31
0.0
  0
LINE
  5
4E3
  8
0
 10
252.08179451574759
 20
193.53400399409409
 30
0.0
 11
251.9523851977456
 21
193.53400399409409
 31
0.0
  0
LINE
  5
4E4
  8
0
 10
251.95238499319629
 20
193.53400399409409
 30
0.0
 11
251.72824121048251
 21
193.53400399409409
 31
0.0
  0
LINE
  5
4E5
  8
0
 10
251.72824112515431
 20
193.53400399409409
 30
0.0
 11
251.6487819920961
 21
193.53400399409409
 31
0.0
  0
LINE
  5
4E6
  8
0
 10
251.64878181385541
 20
193.53400399409409
 30
0.0
 11
251.5988316026031
 21
193.53400399409409
 31
0.0
  0
LINE
  5
4E7
  8
0
 10
251.59883126052191
 20
193.53400399409409
 30
0.0
 11
251.58179451574759
 21
193.53400399409409
 31
0.0
  0
LINE
  5
4E8
  8
0
 10
241.33179451574759
 20
193.53400399409421
 30
0.0
 11
241.1308336452299
 21
193.53400399409421
 31
0.0
  0
LINE
  5
4E9
  8
0
 10
241.1308326214243
 20
193.53400399409421
 30
0.0
 11
240.89245602030871
 21
193.53400399409421
 31
0.0
  0
LINE
  5
4EA
  8
0
 10
240.8924546875275
 20
193.53400399409421
 30
0.0
 11
240.22002392479121
 21
193.53400399409421
 31
0.0
  0
LINE
  5
4EB
  8
0
 10
240.2200230834014
 20
193.53400399409421
 30
0.0
 11
239.44356594809381
 21
193.53400399409421
 31
0.0
  0
LINE
  5
4EC
  8
0
 10
239.44356510671429
 20
193.53400399409421
 30
0.0
 11
238.77113434396779
 21
193.53400399409421
 31
0.0
  0
LINE
  5
4ED
  8
0
 10
238.77113301119789
 20
193.53400399409421
 30
0.0
 11
238.5327564100709
 21
193.53400399409421
 31
0.0
  0
LINE
  5
4EE
  8
0
 10
238.53275538627781
 20
193.53400399409421
 30
0.0
 11
238.33179451574759
 21
193.53400399409421
 31
0.0
  0
LINE
  5
4EF
  8
0
 10
224.20789824079799
 20
193.53400399409429
 30
0.0
 11
223.8229754706451
 21
193.53400399409429
 31
0.0
  0
LINE
  5
4F0
  8
0
 10
223.82297490972701
 20
193.53400399409429
 30
0.0
 11
223.58179451574759
 21
193.53400399409429
 31
0.0
  0
LINE
  5
4F1
  8
0
 10
223.58179347174249
 20
193.53400399409429
 30
0.0
 11
223.37468773456101
 21
193.53400399409429
 31
0.0
  0
LINE
  5
4F2
  8
0
 10
223.37468684604971
 20
193.53400399409429
 30
0.0
 11
223.21576911196311
 21
193.53400399409429
 31
0.0
  0
LINE
  5
4F3
  8
0
 10
223.21576842943659
 20
193.53400399409429
 30
0.0
 11
223.11586868945841
 21
193.53400399409429
 31
0.0
  0
LINE
  5
4F4
  8
0
 10
223.1158661088887
 20
193.53400399409429
 30
0.0
 11
223.0817945157475
 21
193.53400399409429
 31
0.0
  0
LINE
  5
4F5
  8
0
 10
230.20679451574779
 20
193.53400399409421
 30
0.0
 11
230.20679451574779
 21
193.78400399409409
 31
0.0
  0
LINE
  5
4F6
  8
0
 10
224.20679451574779
 20
193.78400399409421
 30
0.0
 11
224.20679451574779
 21
193.53400399409429
 31
0.0
  0
LINE
  5
4F7
  8
0
 10
230.20679451574779
 20
193.53400399409421
 30
0.0
 11
229.32811530304539
 21
193.53400399409429
 31
0.0
  0
LINE
  5
4F8
  8
0
 10
229.3281148593075
 20
193.53400399409429
 30
0.0
 11
228.70679555976361
 21
193.53400399409429
 31
0.0
  0
LINE
  5
4F9
  8
0
 10
228.70679451574779
 20
193.53400399409429
 30
0.0
 11
227.98325165105541
 21
193.53400399409429
 31
0.0
  0
LINE
  5
4FA
  8
0
 10
227.983251355579
 20
193.53400399409429
 30
0.0
 11
227.2067954804086
 21
193.53400399409429
 31
0.0
  0
LINE
  5
4FB
  8
0
 10
227.20679451574779
 20
193.53400399409429
 30
0.0
 11
226.43033738044031
 21
193.53400399409429
 31
0.0
  0
LINE
  5
4FC
  8
0
 10
226.43033669760541
 20
193.53400399409429
 30
0.0
 11
225.08547417218821
 21
193.53400399409429
 31
0.0
  0
LINE
  5
4FD
  8
0
 10
225.0854726175514
 20
193.53400399409429
 30
0.0
 11
224.6087183043945
 21
193.53400399409429
 31
0.0
  0
LINE
  5
4FE
  8
0
 10
224.60871750640069
 20
193.53400399409429
 30
0.0
 11
224.30901703688059
 21
193.53400399409429
 31
0.0
  0
LINE
  5
4FF
  8
0
 10
224.3090168807762
 20
193.53400399409429
 30
0.0
 11
224.20679451574779
 21
193.53400399409429
 31
0.0
  0
INSERT
  5
51B
  8
0
  6
CONTINUOUS
  2
*X3
 10
0.0
 20
0.0
 30
0.0
1001
GRADIENTCOLOR1ACI
1070
     5
1001
GRADIENTCOLOR2ACI
1070
     2
1001
ACAD
1000
HATCH
1002
{
1070
    19
1000
NET
1040
12.0
1040
0.0
1000
ASC_BOUNDS
1070
     4
1070
     1
1070
     4
1005
3C2
1005
3C3
1005
3B6
1005
3C1
1070
     1
1070
     4
1005
3B4
1005
3C3
1005
3B2
1005
3C1
1070
     1
1070
     4
1005
3BC
1005
3C3
1005
3BA
1005
3C1
1070
     1
1070
     4
1005
3AF
1005
3C3
1005
3C0
1005
3C1
1000
ASC_SEEDPOINT
1011
381.95424722927669
1021
0.0
1031
0.0
1021
50.060778678455563
1031
0.0
1000
R14_HATCH_DATA
1000
51B
1011
1.0
1021
0.0
1031
0.0
1021
0.0
1031
0.0
1011
0.0
1021
0.0
1031
0.0
1021
1.0
1031
0.0
1011
0.0
1021
0.0
1031
0.0
1021
0.0
1031
1.0
1040
0.0
1010
0.0
1020
0.0
1030
1.0
1000
NET
1070
     0
1070
     1
1071
        4
1071
        7
1070
     0
1070
     1
1071
        4
1040
390.23196571951348
1040
62.875004503757339
1040
371.10696571951388
1040
62.875004503757147
1040
371.10696571951439
1040
12.000004503756569
1040
390.23196571951348
1040
12.00000450375676
1071
        4
1005
3C1
1005
3C0
1005
3C3
1005
3AF
1071
        7
1070
     0
1070
     1
1071
        4
1040
474.24096537418569
1040
62.875004503758198
1040
450.22445132026081
1040
62.87500450375795
1040
450.22445132026081
1040
12.00000450375739
1040
474.24096537418569
1040
12.00000450375763
1071
        4
1005
3C1
1005
3BA
1005
3C3
1005
3BC
1071
        7
1070
     0
1070
     1
1071
        4
1040
432.2291876906877
1040
62.875004503757772
1040
408.23196571951428
1040
62.875004503757523
1040
408.23196571951428
1040
12.00000450375695
1040
432.2291876906877
1040
12.0000045037572
1071
        4
1005
3C1
1005
3B2
1005
3C3
1005
3B4
1071
        7
1070
     0
1070
     1
1071
        4
1040
511.35696571951382
1040
62.875004503758582
1040
492.22398103628342
1040
62.875004503758383
1040
492.22398103628342
1040
12.000004503757831
1040
511.35696571951428
1040
12.00000450375803
1071
        4
1005
3C1
1005
3B6
1005
3C3
1005
3C2
1070
     1
1070
     1
1040
0.0
1040
12.0
1070
     0
1070
     2
1040
0.0
1040
0.0
1040
0.0
1040
0.0
1040
1.5
1070
     0
1040
1.5707963267948959
1040
0.0
1040
0.0
1040
-1.5
1040
0.0000000000000001
1070
     0
1040
0.1493262324595186
1071
        4
1040
381.95424722927669
1040
50.060778678455563
1040
0.0
1040
454.26302455123499
1040
40.802552506102522
1040
0.0
1040
421.24600123355413
1040
35.576134327075117
1040
0.0
1040
500.42709930885712
1040
34.381524141373461
1040
0.0
1002
}
  0
INSERT
  5
524
  8
0
  6
CONTINUOUS
  2
*X4
 10
0.0
 20
0.0
 30
0.0
1001
GRADIENTCOLOR1ACI
1070
     5
1001
GRADIENTCOLOR2ACI
1070
     2
1001
ACAD
1000
HATCH
1002
{
1070
    19
1000
ANSI31
1040
12.0
1040
2.3561944901923439
1000
ASC_BOUNDS
1070
     1
1070
     1
1070
     4
1005
4C6
1005
4C7
1005
4C8
1005
4C9
1000
ASC_SEEDPOINT
1011
244.82031221876011
1021
0.0
1031
0.0
1021
292.80267556864442
1031
0.0
1000
R14_HATCH_DATA
1000
524
1011
1.0
1021
0.0
1031
0.0
1021
0.0
1031
0.0
1011
0.0
1021
0.0
1031
0.0
1021
1.0
1031
0.0
1011
0.0
1021
0.0
1031
0.0
1021
0.0
1031
1.0
1040
0.0
1010
0.0
1020
0.0
1030
1.0
1000
ANSI31
1070
     0
1070
     1
1071
        1
1071
        7
1070
     0
1070
     1
1071
        4
1040
276.20679451574779
1040
335.65900399409452
1040
223.2067945157479
1040
335.65900399409458
1040
223.20679451574759
1040
195.4090039940948
1040
276.2067945157475
1040
195.4090039940946
1071
        4
1005
4C9
1005
4C8
1005
4C7
1005
4C6
1070
     1
1070
     1
1040
2.3561944901923439
1040
12.0
1070
     0
1070
     1
1040
3.1415926535897931
1040
0.0
1040
0.0
1040
-0.0000000000000002
1040
-1.5
1070
     0
1040
0.2402330376256016
1071
        1
1040
244.82031221876011
1040
292.80267556864442
1040
0.0
1002
}
  0
ENDSEC
  0
EOF
