  0
SECTION
  2
HEADER
  9
$ACADVER
  1
AC1015
  9
$ACADMAINTVER
 70
    20
  9
$DWGCODEPAGE
  3
ANSI_1252
  9
$INSBASE
 10
0.0
 20
0.0
 30
0.0
  9
$EXTMIN
 10
24.55701829195346
 20
-24.01616808425547
 30
-0.0015258207003583
  9
$EXTMAX
 10
811.6075354766037
 20
505.9990767620063
 30
0.0000000349246037
  9
$LIMMIN
 10
0.0
 20
0.0
  9
$LIMMAX
 10
12.0
 20
9.0
  9
$ORTHOMODE
 70
     0
  9
$REGENMODE
 70
     1
  9
$FILLMODE
 70
     1
  9
$QTEXTMODE
 70
     0
  9
$MIRRTEXT
 70
     0
  9
$LTSCALE
 40
1.0
  9
$ATTMODE
 70
     1
  9
$TEXTSIZE
 40
0.2
  9
$TRACEWID
 40
0.05
  9
$TEXTSTYLE
  7
ROMANS
  9
$CLAYER
  8
0
  9
$CELTYPE
  6
ByLayer
  9
$CECOLOR
 62
   256
  9
$CELTSCALE
 40
1.0
  9
$DISPSILH
 70
     0
  9
$DIMSCALE
 40
1.0
  9
$DIMASZ
 40
0.09375
  9
$DIMEXO
 40
0.0625
  9
$DIMDLI
 40
0.375
  9
$DIMRND
 40
0.0
  9
$DIMDLE
 40
0.0
  9
$DIMEXE
 40
0.03125
  9
$DIMTP
 40
0.0
  9
$DIMTM
 40
0.0
  9
$DIMTXT
 40
0.09375
  9
$DIMCEN
 40
0.09375
  9
$DIMTSZ
 40
0.0
  9
$DIMTOL
 70
     0
  9
$DIMLIM
 70
     0
  9
$DIMTIH
 70
     0
  9
$DIMTOH
 70
     0
  9
$DIMSE1
 70
     0
  9
$DIMSE2
 70
     0
  9
$DIMTAD
 70
     0
  9
$DIMZIN
 70
     0
  9
$DIMBLK
  1

  9
$DIMASO
 70
     1
  9
$DIMSHO
 70
     1
  9
$DIMPOST
  1

  9
$DIMAPOST
  1

  9
$DIMALT
 70
     0
  9
$DIMALTD
 70
     2
  9
$DIMALTF
 40
25.4
  9
$DIMLFAC
 40
1.0
  9
$DIMTOFL
 70
     0
  9
$DIMTVP
 40
0.0
  9
$DIMTIX
 70
     0
  9
$DIMSOXD
 70
     0
  9
$DIMSAH
 70
     0
  9
$DIMBLK1
  1

  9
$DIMBLK2
  1

  9
$DIMSTYLE
  2
BAC
  9
$DIMCLRD
 70
     0
  9
$DIMCLRE
 70
     6
  9
$DIMCLRT
 70
     0
  9
$DIMTFAC
 40
1.0
  9
$DIMGAP
 40
0.0625
  9
$DIMJUST
 70
     0
  9
$DIMSD1
 70
     0
  9
$DIMSD2
 70
     0
  9
$DIMTOLJ
 70
     1
  9
$DIMTZIN
 70
     0
  9
$DIMALTZ
 70
     0
  9
$DIMALTTZ
 70
     0
  9
$DIMUPT
 70
     0
  9
$DIMDEC
 70
     4
  9
$DIMTDEC
 70
     4
  9
$DIMALTU
 70
     2
  9
$DIMALTTD
 70
     2
  9
$DIMTXSTY
  7
STANDARD
  9
$DIMAUNIT
 70
     0
  9
$DIMADEC
 70
     0
  9
$DIMALTRND
 40
0.0
  9
$DIMAZIN
 70
     0
  9
$DIMDSEP
 70
    46
  9
$DIMATFIT
 70
     3
  9
$DIMFRAC
 70
     0
  9
$DIMLDRBLK
  1

  9
$DIMLUNIT
 70
     2
  9
$DIMLWD
 70
    -2
  9
$DIMLWE
 70
    -2
  9
$DIMTMOVE
 70
     0
  9
$LUNITS
 70
     5
  9
$LUPREC
 70
     6
  9
$SKETCHINC
 40
0.1
  9
$FILLETRAD
 40
0.5
  9
$AUNITS
 70
     0
  9
$AUPREC
 70
     0
  9
$MENU
  1
.
  9
$ELEVATION
 40
0.0
  9
$PELEVATION
 40
0.0
  9
$THICKNESS
 40
0.0
  9
$LIMCHECK
 70
     0
  9
$CHAMFERA
 40
0.5
  9
$CHAMFERB
 40
0.5
  9
$CHAMFERC
 40
0.0
  9
$CHAMFERD
 40
0.0
  9
$SKPOLY
 70
     0
  9
$TDCREATE
 40
2456834.643994850
  9
$TDUCREATE
 40
2456834.810661516
  9
$TDUPDATE
 40
2457205.364582535
  9
$TDUUPDATE
 40
2457205.531249202
  9
$TDINDWG
 40
0.0222189815
  9
$TDUSRTIMER
 40
0.0222182523
  9
$USRTIMER
 70
     1
  9
$ANGBASE
 50
0.0
  9
$ANGDIR
 70
     0
  9
$PDMODE
 70
     0
  9
$PDSIZE
 40
0.0
  9
$PLINEWID
 40
0.0
  9
$SPLFRAME
 70
     0
  9
$SPLINETYPE
 70
     6
  9
$SPLINESEGS
 70
     8
  9
$HANDSEED
  5
1B79
  9
$SURFTAB1
 70
     6
  9
$SURFTAB2
 70
     6
  9
$SURFTYPE
 70
     6
  9
$SURFU
 70
     6
  9
$SURFV
 70
     6
  9
$UCSBASE
  2

  9
$UCSNAME
  2

  9
$UCSORG
 10
0.0
 20
0.0
 30
0.0
  9
$UCSXDIR
 10
1.0
 20
0.0
 30
0.0
  9
$UCSYDIR
 10
0.0
 20
1.0
 30
0.0
  9
$UCSORTHOREF
  2

  9
$UCSORTHOVIEW
 70
     0
  9
$UCSORGTOP
 10
0.0
 20
0.0
 30
0.0
  9
$UCSORGBOTTOM
 10
0.0
 20
0.0
 30
0.0
  9
$UCSORGLEFT
 10
0.0
 20
0.0
 30
0.0
  9
$UCSORGRIGHT
 10
0.0
 20
0.0
 30
0.0
  9
$UCSORGFRONT
 10
0.0
 20
0.0
 30
0.0
  9
$UCSORGBACK
 10
0.0
 20
0.0
 30
0.0
  9
$PUCSBASE
  2

  9
$PUCSNAME
  2

  9
$PUCSORG
 10
0.0
 20
0.0
 30
0.0
  9
$PUCSXDIR
 10
1.0
 20
0.0
 30
0.0
  9
$PUCSYDIR
 10
0.0
 20
1.0
 30
0.0
  9
$PUCSORTHOREF
  2

  9
$PUCSORTHOVIEW
 70
     0
  9
$PUCSORGTOP
 10
0.0
 20
0.0
 30
0.0
  9
$PUCSORGBOTTOM
 10
0.0
 20
0.0
 30
0.0
  9
$PUCSORGLEFT
 10
0.0
 20
0.0
 30
0.0
  9
$PUCSORGRIGHT
 10
0.0
 20
0.0
 30
0.0
  9
$PUCSORGFRONT
 10
0.0
 20
0.0
 30
0.0
  9
$PUCSORGBACK
 10
0.0
 20
0.0
 30
0.0
  9
$USERI1
 70
     0
  9
$USERI2
 70
     0
  9
$USERI3
 70
     0
  9
$USERI4
 70
     0
  9
$USERI5
 70
     0
  9
$USERR1
 40
0.0
  9
$USERR2
 40
0.0
  9
$USERR3
 40
0.0
  9
$USERR4
 40
0.0
  9
$USERR5
 40
0.0
  9
$WORLDVIEW
 70
     1
  9
$SHADEDGE
 70
     3
  9
$SHADEDIF
 70
    70
  9
$TILEMODE
 70
     1
  9
$MAXACTVP
 70
    48
  9
$PINSBASE
 10
0.0
 20
0.0
 30
0.0
  9
$PLIMCHECK
 70
     0
  9
$PEXTMIN
 10
1.000000000000000E+20
 20
1.000000000000000E+20
 30
1.000000000000000E+20
  9
$PEXTMAX
 10
-1.000000000000000E+20
 20
-1.000000000000000E+20
 30
-1.000000000000000E+20
  9
$PLIMMIN
 10
0.0
 20
0.0
  9
$PLIMMAX
 10
12.0
 20
9.0
  9
$UNITMODE
 70
     0
  9
$VISRETAIN
 70
     1
  9
$PLINEGEN
 70
     0
  9
$PSLTSCALE
 70
     1
  9
$TREEDEPTH
 70
  3020
  9
$CMLSTYLE
  2
Standard
  9
$CMLJUST
 70
     0
  9
$CMLSCALE
 40
1.0
  9
$PROXYGRAPHICS
 70
     1
  9
$MEASUREMENT
 70
     0
  9
$CELWEIGHT
370
    -1
  9
$ENDCAPS
280
     0
  9
$JOINSTYLE
280
     0
  9
$LWDISPLAY
290
     0
  9
$INSUNITS
 70
     0
  9
$HYPERLINKBASE
  1

  9
$STYLESHEET
  1

  9
$XEDIT
290
     1
  9
$CEPSNTYPE
380
     0
  9
$PSTYLEMODE
290
     1
  9
$FINGERPRINTGUID
  2
{C782972A-BA51-4F8F-9ACD-A8FE9648F332}
  9
$VERSIONGUID
  2
{149B3E92-5B4D-4703-B7AA-797ACE2FA88F}
  9
$EXTNAMES
290
     1
  9
$PSVPSCALE
 40
0.0
  9
$OLESTARTUP
290
     0
  0
ENDSEC
  0
SECTION
  2
CLASSES
  0
CLASS
  1
ACDBDICTIONARYWDFLT
  2
AcDbDictionaryWithDefault
  3
ObjectDBX Classes
 90
        0
280
     0
281
     0
  0
CLASS
  1
MATERIAL
  2
AcDbMaterial
  3
ObjectDBX Classes
 90
     1153
280
     0
281
     0
  0
CLASS
  1
VISUALSTYLE
  2
AcDbVisualStyle
  3
ObjectDBX Classes
 90
     4095
280
     0
281
     0
  0
CLASS
  1
SCALE
  2
AcDbScale
  3
ObjectDBX Classes
 90
     1153
280
     0
281
     0
  0
CLASS
  1
TABLESTYLE
  2
AcDbTableStyle
  3
ObjectDBX Classes
 90
     4095
280
     0
281
     0
  0
CLASS
  1
MLEADERSTYLE
  2
AcDbMLeaderStyle
  3
ACDB_MLEADERSTYLE_CLASS
 90
     4095
280
     0
281
     0
  0
CLASS
  1
ACDBSECTIONVIEWSTYLE
  2
AcDbSectionViewStyle
  3
ObjectDBX Classes
 90
     1025
280
     0
281
     0
  0
CLASS
  1
ACDBDETAILVIEWSTYLE
  2
AcDbDetailViewStyle
  3
ObjectDBX Classes
 90
     1025
280
     0
281
     0
  0
CLASS
  1
EXACXREFPANELOBJECT
  2
ExAcXREFPanelObject
  3
EXAC_ESW
 90
     1025
280
     0
281
     0
  0
CLASS
  1
NPOCOLLECTION
  2
AcDbImpNonPersistentObjectsCollection
  3
ObjectDBX Classes
 90
     1153
280
     0
281
     0
  0
CLASS
  1
DICTIONARYVAR
  2
AcDbDictionaryVar
  3
ObjectDBX Classes
 90
        0
280
     0
281
     0
  0
CLASS
  1
CELLSTYLEMAP
  2
AcDbCellStyleMap
  3
ObjectDBX Classes
 90
     1152
280
     0
281
     0
  0
CLASS
  1
ACDBPLACEHOLDER
  2
AcDbPlaceHolder
  3
ObjectDBX Classes
 90
        0
280
     0
281
     0
  0
CLASS
  1
LAYOUT
  2
AcDbLayout
  3
ObjectDBX Classes
 90
        0
280
     0
281
     0
  0
CLASS
  1
SOLID_BACKGROUND
  2
AcDbSolidBackground
  3
SCENEOE
 90
     4095
280
     0
281
     0
  0
ENDSEC
  0
SECTION
  2
TABLES
  0
TABLE
  2
VPORT
  5
11B2
330
0
100
AcDbSymbolTable
 70
     1
  0
VPORT
  5
121F
330
11B2
100
AcDbSymbolTableRecord
100
AcDbViewportTableRecord
  2
*ACTIVE
 70
     0
 10
0.0
 20
0.0
 11
1.0
 21
1.0
 12
0.004867310722716
 22
0.0000012339625641
 13
0.0
 23
0.0
 14
0.5
 24
0.5
 15
0.5
 25
0.5
 16
-0.0000000000006253
 26
0.0
 36
2879.740726199388
 17
418.0774095735558
 27
240.9914531049129
 37
0.0
 40
534.4065920263026
 41
2.30722891566265
 42
50.0
 43
0.0
 44
0.0
 50
0.0
 51
0.0
 71
     0
 72
   100
 73
     1
 74
     1
 75
     0
 76
     0
 77
     0
 78
     0
281
     0
 65
     1
110
0.0
120
0.0
130
0.0
111
1.0
121
0.0
131
0.0
112
0.0
122
1.0
132
0.0
 79
     0
146
0.0
1001
ACAD_NAV_VCDISPLAY
1070
     3
  0
ENDTAB
  0
TABLE
  2
LTYPE
  5
11AF
330
0
100
AcDbSymbolTable
 70
    10
  0
LTYPE
  5
1204
330
11AF
100
AcDbSymbolTableRecord
100
AcDbLinetypeTableRecord
  2
ByBlock
 70
     0
  3

 72
    65
 73
     0
 40
0.0
  0
LTYPE
  5
1205
330
11AF
100
AcDbSymbolTableRecord
100
AcDbLinetypeTableRecord
  2
ByLayer
 70
     0
  3

 72
    65
 73
     0
 40
0.0
  0
LTYPE
  5
1206
330
11AF
100
AcDbSymbolTableRecord
100
AcDbLinetypeTableRecord
  2
CONTINUOUS
 70
     0
  3
Solid line
 72
    65
 73
     0
 40
0.0
  0
LTYPE
  5
1212
330
11AF
100
AcDbSymbolTableRecord
100
AcDbLinetypeTableRecord
  2
PHANTOM2
 70
     0
  3
Phantom (.5x) ___ _ _ ___ _ _ ___ _ _ ___ _ _
 72
    65
 73
     6
 40
1.25
 49
0.625
 74
     0
 49
-0.125
 74
     0
 49
0.125
 74
     0
 49
-0.125
 74
     0
 49
0.125
 74
     0
 49
-0.125
 74
     0
  0
LTYPE
  5
1220
330
11AF
100
AcDbSymbolTableRecord
100
AcDbLinetypeTableRecord
  2
CENTER
 70
     0
  3
Center ____ _ ____ _ ____ _ ____ _ ____ _ ____
 72
    65
 73
     4
 40
2.0
 49
1.25
 74
     0
 49
-0.25
 74
     0
 49
0.25
 74
     0
 49
-0.25
 74
     0
  0
LTYPE
  5
1221
330
11AF
100
AcDbSymbolTableRecord
100
AcDbLinetypeTableRecord
  2
CENTER2
 70
     0
  3
Center (.5x) ___ _ ___ _ ___ _ ___ _ ___ _ ___
 72
    65
 73
     4
 40
1.125
 49
0.75
 74
     0
 49
-0.125
 74
     0
 49
0.125
 74
     0
 49
-0.125
 74
     0
  0
LTYPE
  5
1222
330
11AF
100
AcDbSymbolTableRecord
100
AcDbLinetypeTableRecord
  2
HIDDEN
 70
     0
  3
Hidden __ __ __ __ __ __ __ __ __ __ __ __ __ _
 72
    65
 73
     2
 40
0.375
 49
0.25
 74
     0
 49
-0.125
 74
     0
  0
LTYPE
  5
1223
330
11AF
100
AcDbSymbolTableRecord
100
AcDbLinetypeTableRecord
  2
HIDDEN2
 70
     0
  3
Hidden (.5x) _ _ _ _ _ _ _ _ _ _ _ _ _ _ _ _ _
 72
    65
 73
     2
 40
0.1875
 49
0.125
 74
     0
 49
-0.0625
 74
     0
  0
LTYPE
  5
1224
330
11AF
100
AcDbSymbolTableRecord
100
AcDbLinetypeTableRecord
  2
AMCONSTR
 70
     0
  3
_______________________
 72
    65
 73
     2
 40
9999.0
 49
9999.0
 74
     0
 49
0.0
 74
     0
  0
LTYPE
  5
1225
330
11AF
100
AcDbSymbolTableRecord
100
AcDbLinetypeTableRecord
  2
AMZIGZAG2
 70
     0
  3
/\/-/\/-/\/-/\/-/\/-/\/
 72
    65
 73
     2
 40
0.4401
 49
0.0001
 74
     0
 49
-0.4400000000000003
 74
     0
  0
LTYPE
  5
1226
330
11AF
100
AcDbSymbolTableRecord
100
AcDbLinetypeTableRecord
  2
ACANSTGB
 70
     0
  3
__ . . __ . .
 72
    65
 73
     6
 40
0.35433070866
 49
0.15748031496
 74
     0
 49
-0.03937007874
 74
     0
 49
0.03937007874
 74
     0
 49
-0.03937007874
 74
     0
 49
0.03937007874
 74
     0
 49
-0.03937007874
 74
     0
  0
LTYPE
  5
1227
330
11AF
100
AcDbSymbolTableRecord
100
AcDbLinetypeTableRecord
  2
ACANSTGL
 70
     0
  3
_ _ _ _ _
 72
    65
 73
     2
 40
0.11811023622
 49
0.07874015748
 74
     0
 49
-0.03937007874
 74
     0
  0
ENDTAB
  0
TABLE
  2
LAYER
  5
11AC
330
0
100
AcDbSymbolTable
 70
     1
  0
LAYER
  5
11FE
102
{ACAD_XDICTIONARY
360
12B0
102
}
330
11AC
100
AcDbSymbolTableRecord
100
AcDbLayerTableRecord
  2
0
 70
     0
 62
     7
  6
CONTINUOUS
370
    -3
390
11B9
  0
ENDTAB
  0
TABLE
  2
STYLE
  5
11AD
330
0
100
AcDbSymbolTable
 70
     5
  0
STYLE
  5
11FF
330
11AD
100
AcDbSymbolTableRecord
100
AcDbTextStyleTableRecord
  2
STANDARD
 70
     0
 40
0.0
 41
1.0
 50
0.0
 71
     0
 42
0.2
  3
txt
  4

  0
STYLE
  5
1203
330
11AD
100
AcDbSymbolTableRecord
100
AcDbTextStyleTableRecord
  2
Annotative
 70
     0
 40
0.0
 41
1.0
 50
0.0
 71
     0
 42
0.2
  3
txt
  4

1001
AcadAnnotative
1000
AnnotativeData
1002
{
1070
     1
1070
     1
1002
}
  0
STYLE
  5
121E
330
11AD
100
AcDbSymbolTableRecord
100
AcDbTextStyleTableRecord
  2
ROMANS
 70
     0
 40
0.0
 41
0.75
 50
0.0
 71
     0
 42
0.2
  3
romans.shx
  4

  0
STYLE
  5
1228
330
11AD
100
AcDbSymbolTableRecord
100
AcDbTextStyleTableRecord
  2

 70
     1
 40
0.0
 41
1.0
 50
0.0
 71
     0
 42
0.2
  3
genltshp.shx
  4

  0
STYLE
  5
1229
330
11AD
100
AcDbSymbolTableRecord
100
AcDbTextStyleTableRecord
  2
ACANSGDT
 70
     0
 40
0.0
 41
1.0
 50
0.0
 71
     0
 42
0.2
  3
amgdt.shx
  4

  0
ENDTAB
  0
TABLE
  2
VIEW
  5
11B0
330
0
100
AcDbSymbolTable
 70
     0
  0
ENDTAB
  0
TABLE
  2
UCS
  5
11B1
330
0
100
AcDbSymbolTable
 70
     0
  0
ENDTAB
  0
TABLE
  2
APPID
  5
11B3
330
0
100
AcDbSymbolTable
 70
    16
  0
APPID
  5
1200
330
11B3
100
AcDbSymbolTableRecord
100
AcDbRegAppTableRecord
  2
ACAD
 70
     0
  0
APPID
  5
1207
330
11B3
100
AcDbSymbolTableRecord
100
AcDbRegAppTableRecord
  2
AcadAnnotative
 70
     0
  0
APPID
  5
122A
330
11B3
100
AcDbSymbolTableRecord
100
AcDbRegAppTableRecord
  2
ACAD_MLEADERVER
 70
     0
  0
APPID
  5
122B
330
11B3
100
AcDbSymbolTableRecord
100
AcDbRegAppTableRecord
  2
ACAD_DSTYLE_DIMJAG
 70
     0
  0
APPID
  5
122C
330
11B3
100
AcDbSymbolTableRecord
100
AcDbRegAppTableRecord
  2
ACAD_DSTYLE_DIMTALN
 70
     0
  0
APPID
  5
122D
330
11B3
100
AcDbSymbolTableRecord
100
AcDbRegAppTableRecord
  2
ACAD_PSEXT
 70
     0
  0
APPID
  5
122E
330
11B3
100
AcDbSymbolTableRecord
100
AcDbRegAppTableRecord
  2
ACADANNOPO
 70
     0
  0
APPID
  5
122F
330
11B3
100
AcDbSymbolTableRecord
100
AcDbRegAppTableRecord
  2
MCAD_NO_VIS
 70
     0
  0
APPID
  5
1230
330
11B3
100
AcDbSymbolTableRecord
100
AcDbRegAppTableRecord
  2
ACAD_TEMP_GRAPHIC
 70
     0
  0
APPID
  5
1231
330
11B3
100
AcDbSymbolTableRecord
100
AcDbRegAppTableRecord
  2
ACATTRIBSERVICES
 70
     0
  0
APPID
  5
1232
330
11B3
100
AcDbSymbolTableRecord
100
AcDbRegAppTableRecord
  2
DESIGNERASSEMBLIES
 70
     0
  0
APPID
  5
1233
330
11B3
100
AcDbSymbolTableRecord
100
AcDbRegAppTableRecord
  2
ACAD_DSTYLE_DIMBREAK
 70
     0
  0
APPID
  5
1234
330
11B3
100
AcDbSymbolTableRecord
100
AcDbRegAppTableRecord
  2
ACAD_NAV_VCDISPLAY
 70
     0
  0
APPID
  5
1235
330
11B3
100
AcDbSymbolTableRecord
100
AcDbRegAppTableRecord
  2
GRADIENTCOLOR1ACI
 70
     0
  0
APPID
  5
1236
330
11B3
100
AcDbSymbolTableRecord
100
AcDbRegAppTableRecord
  2
GRADIENTCOLOR2ACI
 70
     0
  0
APPID
  5
1252
330
11B3
100
AcDbSymbolTableRecord
100
AcDbRegAppTableRecord
  2
ACAD_EXEMPT_FROM_CAD_STANDARDS
 70
     0
  0
ENDTAB
  0
TABLE
  2
DIMSTYLE
  5
11B4
330
0
100
AcDbSymbolTable
 70
     9
100
AcDbDimStyleTable
 71
     1
340
1237
  0
DIMSTYLE
105
1201
330
11B4
100
AcDbSymbolTableRecord
100
AcDbDimStyleTableRecord
  2
STANDARD
 70
     0
271
     6
272
     6
273
     5
277
     5
279
     2
340
121E
  0
DIMSTYLE
105
1202
330
11B4
100
AcDbSymbolTableRecord
100
AcDbDimStyleTableRecord
  2
Annotative
 70
     0
340
11FF
1001
AcadAnnotative
1000
AnnotativeData
1002
{
1070
     1
1070
     1
1002
}
  0
DIMSTYLE
105
1237
330
11B4
100
AcDbSymbolTableRecord
100
AcDbDimStyleTableRecord
  2
BAC
 70
     0
 41
0.09375
 43
0.375
 44
0.03125
 73
     0
 74
     0
140
0.09375
141
0.09375
147
0.0625
177
     6
271
     6
272
     6
273
     5
277
     5
279
     2
340
121E
  0
DIMSTYLE
105
1238
330
11B4
100
AcDbSymbolTableRecord
100
AcDbDimStyleTableRecord
  2
AM_ANSI
 70
     0
  4
mm
 41
0.12
 42
0.05
 43
0.5
 44
0.1
 47
0.1
 48
0.1
 78
     7
140
0.12
141
0.0
146
0.71
147
0.06
176
   256
177
   256
178
     2
271
     6
272
     6
273
     5
277
     5
279
     2
340
121E
  0
DIMSTYLE
105
1239
330
11B4
100
AcDbSymbolTableRecord
100
AcDbDimStyleTableRecord
  2
AM_ANSI$3
 70
     0
  4
mm
 41
0.12
 42
0.05
 43
0.5
 44
0.1
 47
0.1
 48
0.1
 78
     7
140
0.12
141
0.0
146
0.71
147
0.06
176
   256
177
   256
178
     2
271
     6
272
     6
273
     5
277
     5
279
     2
340
121E
  0
DIMSTYLE
105
123A
330
11B4
100
AcDbSymbolTableRecord
100
AcDbDimStyleTableRecord
  2
AM_ANSI$4
 70
     0
  4
mm
 41
0.12
 42
0.05
 43
0.5
 44
0.1
 47
0.1
 48
0.1
 78
     7
140
0.12
141
0.0
146
0.71
147
0.06
176
   256
177
   256
178
     2
271
     6
272
     6
273
     5
277
     5
279
     2
340
121E
  0
DIMSTYLE
105
123B
330
11B4
100
AcDbSymbolTableRecord
100
AcDbDimStyleTableRecord
  2
AM_ANSI$7
 70
     0
  4
mm
 41
0.12
 42
0.05
 43
0.5
 44
0.1
 47
0.1
 48
0.1
 78
     7
140
0.12
141
0.0
146
0.71
147
0.06
176
   256
177
   256
178
     2
271
     6
272
     6
273
     5
277
     5
279
     2
340
121E
  0
DIMSTYLE
105
123C
330
11B4
100
AcDbSymbolTableRecord
100
AcDbDimStyleTableRecord
  2
AM_ANSI$SF
 70
     0
  4
mm
 41
0.12
 42
0.05
 43
0.5
 44
0.1
 47
0.1
 48
0.1
 75
     1
 76
     1
 78
     7
140
0.12
141
0.0
146
0.71
147
0.06
176
   256
177
   256
178
     2
271
     6
272
     6
273
     5
277
     5
279
     2
340
121E
  0
DIMSTYLE
105
123D
330
11B4
100
AcDbSymbolTableRecord
100
AcDbDimStyleTableRecord
  2
AM_ANSI$SH
 70
     0
  4
mm
 41
0.12
 42
0.05
 43
0.5
 44
0.1
 47
0.1
 48
0.1
 75
     1
 76
     1
 78
     7
140
0.12
141
0.0
146
0.71
147
0.06
173
     1
176
   256
177
   256
178
     2
271
     6
272
     6
273
     5
277
     5
279
     2
340
121E
  0
ENDTAB
  0
TABLE
  2
BLOCK_RECORD
  5
11AB
330
0
100
AcDbSymbolTable
 70
     6
  0
BLOCK_RECORD
  5
121A
330
11AB
100
AcDbSymbolTableRecord
100
AcDbBlockTableRecord
  2
*Model_Space
340
121D
  0
BLOCK_RECORD
  5
1216
330
11AB
100
AcDbSymbolTableRecord
100
AcDbBlockTableRecord
  2
*Paper_Space
340
1219
  0
BLOCK_RECORD
  5
1242
330
11AB
100
AcDbSymbolTableRecord
100
AcDbBlockTableRecord
  2
$MODEL_SPACE
340
0
  0
BLOCK_RECORD
  5
1244
330
11AB
100
AcDbSymbolTableRecord
100
AcDbBlockTableRecord
  2
$PAPER_SPACE
340
0
  0
BLOCK_RECORD
  5
1246
330
11AB
100
AcDbSymbolTableRecord
100
AcDbBlockTableRecord
  2
*U2
340
0
  0
BLOCK_RECORD
  5
1248
330
11AB
100
AcDbSymbolTableRecord
100
AcDbBlockTableRecord
  2
GENAXEH
340
0
  0
BLOCK_RECORD
  5
124C
330
11AB
100
AcDbSymbolTableRecord
100
AcDbBlockTableRecord
  2
*X4
340
0
  0
BLOCK_RECORD
  5
14B0
330
11AB
100
AcDbSymbolTableRecord
100
AcDbBlockTableRecord
  2
*X5
340
0
102
{BLKREFS
331
1735
331
16F4
102
}
  0
ENDTAB
  0
ENDSEC
  0
SECTION
  2
BLOCKS
  0
BLOCK
  5
121B
330
121A
100
AcDbEntity
  8
0
100
AcDbBlockBegin
  2
*Model_Space
 70
     0
 10
0.0
 20
0.0
 30
0.0
  3
*Model_Space
  1

  0
ENDBLK
  5
121C
330
121A
100
AcDbEntity
  8
0
100
AcDbBlockEnd
  0
BLOCK
  5
1217
330
1216
100
AcDbEntity
 67
     1
  8
0
100
AcDbBlockBegin
  2
*Paper_Space
 70
     0
 10
0.0
 20
0.0
 30
0.0
  3
*Paper_Space
  1

  0
ENDBLK
  5
1218
330
1216
100
AcDbEntity
 67
     1
  8
0
100
AcDbBlockEnd
  0
BLOCK
  5
1243
330
1242
100
AcDbEntity
  8
0
100
AcDbBlockBegin
  2
$MODEL_SPACE
 70
     0
 10
0.0
 20
0.0
 30
0.0
  3
$MODEL_SPACE
  1

  0
ENDBLK
  5
1A
330
1242
100
AcDbEntity
  8
0
100
AcDbBlockEnd
  0
BLOCK
  5
1245
330
1244
100
AcDbEntity
  8
0
100
AcDbBlockBegin
  2
$PAPER_SPACE
 70
     0
 10
0.0
 20
0.0
 30
0.0
  3
$PAPER_SPACE
  1

  0
ENDBLK
  5
17
330
1244
100
AcDbEntity
  8
0
100
AcDbBlockEnd
  0
BLOCK
  5
1247
330
1246
100
AcDbEntity
  8
0
100
AcDbBlockBegin
  2
*U2
 70
     1
 10
0.0
 20
0.0
 30
0.0
  3
*U2
  1

  0
ENDBLK
  5
17A
330
1246
100
AcDbEntity
  8
0
100
AcDbBlockEnd
  0
BLOCK
  5
1249
330
1248
100
AcDbEntity
  8
0
100
AcDbBlockBegin
  2
GENAXEH
 70
     0
 10
0.0
 20
0.0
 30
0.0
  3
GENAXEH
  1

  0
LINE
  5
1AD
330
1248
100
AcDbEntity
  8
0
100
AcDbLine
 10
-1.0
 20
0.0
 30
0.0
 11
1.0
 21
0.0
 31
0.0
  0
ENDBLK
  5
1AF
330
1248
100
AcDbEntity
  8
0
100
AcDbBlockEnd
  0
BLOCK
  5
124D
330
124C
100
AcDbEntity
  8
0
100
AcDbBlockBegin
  2
*X4
 70
     1
 10
0.0
 20
0.0
 30
0.0
  3
*X4
  1

  0
LINE
  5
10F3
330
124C
100
AcDbEntity
  8
0
 62
     0
100
AcDbLine
 10
498.2024095735576
 20
550.9999999999998
 30
0.0
 11
360.7024095735576
 21
551.0
 31
0.0
  0
LINE
  5
10F4
330
124C
100
AcDbEntity
  8
0
 62
     0
100
AcDbLine
 10
498.2024095735576
 20
549.4999999999999
 30
0.0
 11
360.7024095735576
 21
549.5
 31
0.0
  0
LINE
  5
10F5
330
124C
100
AcDbEntity
  8
0
 62
     0
100
AcDbLine
 10
498.2024095735576
 20
547.9999999999996
 30
0.0
 11
360.7024095735576
 21
548.0
 31
0.0
  0
LINE
  5
10F6
330
124C
100
AcDbEntity
  8
0
 62
     0
100
AcDbLine
 10
498.2024095735576
 20
546.4999999999998
 30
0.0
 11
360.7024095735576
 21
546.4999999999998
 31
0.0
  0
LINE
  5
10F7
330
124C
100
AcDbEntity
  8
0
 62
     0
100
AcDbLine
 10
498.2024095735576
 20
544.9999999999999
 30
0.0
 11
360.7024095735576
 21
545.0
 31
0.0
  0
LINE
  5
10F8
330
124C
100
AcDbEntity
  8
0
 62
     0
100
AcDbLine
 10
498.2024095735576
 20
543.4999999999996
 30
0.0
 11
360.7024095735576
 21
543.5
 31
0.0
  0
LINE
  5
10F9
330
124C
100
AcDbEntity
  8
0
 62
     0
100
AcDbLine
 10
498.2024095735576
 20
541.9999999999999
 30
0.0
 11
360.7024095735576
 21
542.0
 31
0.0
  0
LINE
  5
10FA
330
124C
100
AcDbEntity
  8
0
 62
     0
100
AcDbLine
 10
498.2024095735576
 20
540.4999999999999
 30
0.0
 11
360.7024095735576
 21
540.5
 31
0.0
  0
LINE
  5
10FB
330
124C
100
AcDbEntity
  8
0
 62
     0
100
AcDbLine
 10
498.2024095735576
 20
538.9999999999997
 30
0.0
 11
360.7024095735576
 21
539.0
 31
0.0
  0
LINE
  5
10FC
330
124C
100
AcDbEntity
  8
0
 62
     0
100
AcDbLine
 10
498.2024095735575
 20
537.4999999999999
 30
0.0
 11
360.7024095735576
 21
537.5
 31
0.0
  0
LINE
  5
10FD
330
124C
100
AcDbEntity
  8
0
 62
     0
100
AcDbLine
 10
498.2024095735575
 20
535.9999999999996
 30
0.0
 11
360.7024095735576
 21
536.0
 31
0.0
  0
LINE
  5
10FE
330
124C
100
AcDbEntity
  8
0
 62
     0
100
AcDbLine
 10
498.2024095735575
 20
534.4999999999997
 30
0.0
 11
360.7024095735576
 21
534.4999999999998
 31
0.0
  0
LINE
  5
10FF
330
124C
100
AcDbEntity
  8
0
 62
     0
100
AcDbLine
 10
498.2024095735575
 20
532.9999999999999
 30
0.0
 11
360.7024095735576
 21
533.0
 31
0.0
  0
LINE
  5
1100
330
124C
100
AcDbEntity
  8
0
 62
     0
100
AcDbLine
 10
498.2024095735575
 20
531.4999999999996
 30
0.0
 11
360.7024095735576
 21
531.5
 31
0.0
  0
LINE
  5
1101
330
124C
100
AcDbEntity
  8
0
 62
     0
100
AcDbLine
 10
498.2024095735575
 20
529.9999999999998
 30
0.0
 11
360.7024095735576
 21
530.0
 31
0.0
  0
LINE
  5
1102
330
124C
100
AcDbEntity
  8
0
 62
     0
100
AcDbLine
 10
498.2024095735575
 20
528.4999999999999
 30
0.0
 11
360.7024095735576
 21
528.5
 31
0.0
  0
LINE
  5
1103
330
124C
100
AcDbEntity
  8
0
 62
     0
100
AcDbLine
 10
498.2024095735575
 20
526.9999999999996
 30
0.0
 11
360.7024095735576
 21
527.0
 31
0.0
  0
LINE
  5
1104
330
124C
100
AcDbEntity
  8
0
 62
     0
100
AcDbLine
 10
498.2024095735575
 20
525.4999999999999
 30
0.0
 11
360.7024095735576
 21
525.4999999999999
 31
0.0
  0
LINE
  5
1105
330
124C
100
AcDbEntity
  8
0
 62
     0
100
AcDbLine
 10
498.2024095735575
 20
523.9999999999999
 30
0.0
 11
360.7024095735576
 21
524.0
 31
0.0
  0
LINE
  5
1106
330
124C
100
AcDbEntity
  8
0
 62
     0
100
AcDbLine
 10
498.2024095735575
 20
522.4999999999996
 30
0.0
 11
360.7024095735576
 21
522.5
 31
0.0
  0
LINE
  5
1107
330
124C
100
AcDbEntity
  8
0
 62
     0
100
AcDbLine
 10
498.2024095735575
 20
520.9999999999999
 30
0.0
 11
360.7024095735576
 21
521.0
 31
0.0
  0
LINE
  5
1108
330
124C
100
AcDbEntity
  8
0
 62
     0
100
AcDbLine
 10
498.2024095735575
 20
519.4999999999999
 30
0.0
 11
360.7024095735576
 21
519.5
 31
0.0
  0
LINE
  5
1109
330
124C
100
AcDbEntity
  8
0
 62
     0
100
AcDbLine
 10
498.2024095735575
 20
517.9999999999997
 30
0.0
 11
360.7024095735576
 21
518.0
 31
0.0
  0
LINE
  5
110A
330
124C
100
AcDbEntity
  8
0
 62
     0
100
AcDbLine
 10
498.2024095735575
 20
516.4999999999999
 30
0.0
 11
360.7024095735576
 21
516.5
 31
0.0
  0
LINE
  5
110B
330
124C
100
AcDbEntity
  8
0
 62
     0
100
AcDbLine
 10
498.2024095735575
 20
514.9999999999996
 30
0.0
 11
360.7024095735576
 21
515.0
 31
0.0
  0
LINE
  5
110C
330
124C
100
AcDbEntity
  8
0
 62
     0
100
AcDbLine
 10
498.2024095735575
 20
513.4999999999998
 30
0.0
 11
360.7024095735576
 21
513.4999999999998
 31
0.0
  0
LINE
  5
110D
330
124C
100
AcDbEntity
  8
0
 62
     0
100
AcDbLine
 10
498.2024095735575
 20
511.9999999999998
 30
0.0
 11
360.7024095735576
 21
511.9999999999998
 31
0.0
  0
LINE
  5
110E
330
124C
100
AcDbEntity
  8
0
 62
     0
100
AcDbLine
 10
498.2024095735575
 20
510.4999999999998
 30
0.0
 11
360.7024095735576
 21
510.4999999999998
 31
0.0
  0
LINE
  5
110F
330
124C
100
AcDbEntity
  8
0
 62
     0
100
AcDbLine
 10
498.2024095735575
 20
508.9999999999998
 30
0.0
 11
360.7024095735576
 21
508.9999999999998
 31
0.0
  0
LINE
  5
1110
330
124C
100
AcDbEntity
  8
0
 62
     0
100
AcDbLine
 10
498.2024095735575
 20
507.4999999999998
 30
0.0
 11
360.7024095735576
 21
507.4999999999998
 31
0.0
  0
LINE
  5
1111
330
124C
100
AcDbEntity
  8
0
 62
     0
100
AcDbLine
 10
498.2024095735575
 20
505.9999999999998
 30
0.0
 11
360.7024095735576
 21
505.9999999999998
 31
0.0
  0
LINE
  5
1112
330
124C
100
AcDbEntity
  8
0
 62
     0
100
AcDbLine
 10
498.2024095735575
 20
504.4999999999998
 30
0.0
 11
360.7024095735576
 21
504.4999999999998
 31
0.0
  0
LINE
  5
1113
330
124C
100
AcDbEntity
  8
0
 62
     0
100
AcDbLine
 10
498.2024095735575
 20
502.9999999999998
 30
0.0
 11
360.7024095735576
 21
502.9999999999998
 31
0.0
  0
LINE
  5
1114
330
124C
100
AcDbEntity
  8
0
 62
     0
100
AcDbLine
 10
498.2024095735575
 20
501.4999999999998
 30
0.0
 11
360.7024095735576
 21
501.4999999999998
 31
0.0
  0
LINE
  5
1115
330
124C
100
AcDbEntity
  8
0
 62
     0
100
AcDbLine
 10
498.2024095735575
 20
499.9999999999998
 30
0.0
 11
360.7024095735576
 21
499.9999999999998
 31
0.0
  0
LINE
  5
1116
330
124C
100
AcDbEntity
  8
0
 62
     0
100
AcDbLine
 10
498.2024095735575
 20
498.4999999999998
 30
0.0
 11
360.7024095735576
 21
498.4999999999998
 31
0.0
  0
LINE
  5
1117
330
124C
100
AcDbEntity
  8
0
 62
     0
100
AcDbLine
 10
498.2024095735575
 20
496.9999999999997
 30
0.0
 11
360.7024095735576
 21
496.9999999999997
 31
0.0
  0
LINE
  5
1118
330
124C
100
AcDbEntity
  8
0
 62
     0
100
AcDbLine
 10
498.2024095735575
 20
495.4999999999998
 30
0.0
 11
360.7024095735576
 21
495.4999999999998
 31
0.0
  0
LINE
  5
1119
330
124C
100
AcDbEntity
  8
0
 62
     0
100
AcDbLine
 10
498.2024095735575
 20
493.9999999999998
 30
0.0
 11
360.7024095735576
 21
493.9999999999998
 31
0.0
  0
LINE
  5
111A
330
124C
100
AcDbEntity
  8
0
 62
     0
100
AcDbLine
 10
498.2024095735575
 20
492.4999999999998
 30
0.0
 11
360.7024095735576
 21
492.4999999999998
 31
0.0
  0
LINE
  5
111B
330
124C
100
AcDbEntity
  8
0
 62
     0
100
AcDbLine
 10
498.2024095735575
 20
490.9999999999998
 30
0.0
 11
360.7024095735576
 21
490.9999999999998
 31
0.0
  0
LINE
  5
111C
330
124C
100
AcDbEntity
  8
0
 62
     0
100
AcDbLine
 10
498.2024095735575
 20
489.4999999999998
 30
0.0
 11
360.7024095735576
 21
489.4999999999998
 31
0.0
  0
LINE
  5
111D
330
124C
100
AcDbEntity
  8
0
 62
     0
100
AcDbLine
 10
498.2024095735575
 20
487.9999999999998
 30
0.0
 11
360.7024095735576
 21
487.9999999999998
 31
0.0
  0
LINE
  5
111E
330
124C
100
AcDbEntity
  8
0
 62
     0
100
AcDbLine
 10
498.2024095735575
 20
486.4999999999998
 30
0.0
 11
360.7024095735576
 21
486.4999999999998
 31
0.0
  0
LINE
  5
111F
330
124C
100
AcDbEntity
  8
0
 62
     0
100
AcDbLine
 10
498.2024095735575
 20
484.9999999999998
 30
0.0
 11
360.7024095735576
 21
484.9999999999998
 31
0.0
  0
LINE
  5
1120
330
124C
100
AcDbEntity
  8
0
 62
     0
100
AcDbLine
 10
498.2024095735575
 20
483.4999999999998
 30
0.0
 11
360.7024095735576
 21
483.4999999999998
 31
0.0
  0
LINE
  5
1121
330
124C
100
AcDbEntity
  8
0
 62
     0
100
AcDbLine
 10
498.2024095735575
 20
481.9999999999998
 30
0.0
 11
360.7024095735576
 21
481.9999999999998
 31
0.0
  0
LINE
  5
1122
330
124C
100
AcDbEntity
  8
0
 62
     0
100
AcDbLine
 10
498.2024095735575
 20
480.4999999999998
 30
0.0
 11
360.7024095735576
 21
480.4999999999998
 31
0.0
  0
LINE
  5
1123
330
124C
100
AcDbEntity
  8
0
 62
     0
100
AcDbLine
 10
498.2024095735575
 20
478.9999999999998
 30
0.0
 11
360.7024095735576
 21
478.9999999999998
 31
0.0
  0
LINE
  5
1124
330
124C
100
AcDbEntity
  8
0
 62
     0
100
AcDbLine
 10
498.2024095735575
 20
477.4999999999998
 30
0.0
 11
360.7024095735576
 21
477.4999999999998
 31
0.0
  0
LINE
  5
1125
330
124C
100
AcDbEntity
  8
0
 62
     0
100
AcDbLine
 10
498.2024095735575
 20
475.9999999999998
 30
0.0
 11
360.7024095735576
 21
475.9999999999998
 31
0.0
  0
LINE
  5
1126
330
124C
100
AcDbEntity
  8
0
 62
     0
100
AcDbLine
 10
498.2024095735575
 20
474.4999999999998
 30
0.0
 11
360.7024095735576
 21
474.4999999999998
 31
0.0
  0
LINE
  5
1127
330
124C
100
AcDbEntity
  8
0
 62
     0
100
AcDbLine
 10
498.2024095735575
 20
472.9999999999998
 30
0.0
 11
360.7024095735576
 21
472.9999999999998
 31
0.0
  0
LINE
  5
1128
330
124C
100
AcDbEntity
  8
0
 62
     0
100
AcDbLine
 10
498.2024095735575
 20
471.4999999999998
 30
0.0
 11
360.7024095735576
 21
471.4999999999998
 31
0.0
  0
LINE
  5
1129
330
124C
100
AcDbEntity
  8
0
 62
     0
100
AcDbLine
 10
498.2024095735575
 20
469.9999999999998
 30
0.0
 11
360.7024095735576
 21
469.9999999999998
 31
0.0
  0
LINE
  5
112A
330
124C
100
AcDbEntity
  8
0
 62
     0
100
AcDbLine
 10
498.2024095735575
 20
468.4999999999998
 30
0.0
 11
360.7024095735576
 21
468.4999999999998
 31
0.0
  0
LINE
  5
112B
330
124C
100
AcDbEntity
  8
0
 62
     0
100
AcDbLine
 10
498.2024095735575
 20
466.9999999999998
 30
0.0
 11
360.7024095735576
 21
466.9999999999998
 31
0.0
  0
LINE
  5
112C
330
124C
100
AcDbEntity
  8
0
 62
     0
100
AcDbLine
 10
498.2024095735575
 20
465.4999999999998
 30
0.0
 11
360.7024095735575
 21
465.4999999999998
 31
0.0
  0
LINE
  5
112D
330
124C
100
AcDbEntity
  8
0
 62
     0
100
AcDbLine
 10
498.2024095735575
 20
463.9999999999998
 30
0.0
 11
360.7024095735575
 21
463.9999999999998
 31
0.0
  0
LINE
  5
112E
330
124C
100
AcDbEntity
  8
0
 62
     0
100
AcDbLine
 10
498.2024095735575
 20
462.4999999999998
 30
0.0
 11
360.7024095735575
 21
462.4999999999998
 31
0.0
  0
LINE
  5
112F
330
124C
100
AcDbEntity
  8
0
 62
     0
100
AcDbLine
 10
498.2024095735575
 20
460.9999999999998
 30
0.0
 11
360.7024095735575
 21
460.9999999999998
 31
0.0
  0
LINE
  5
1130
330
124C
100
AcDbEntity
  8
0
 62
     0
100
AcDbLine
 10
498.2024095735575
 20
459.4999999999997
 30
0.0
 11
360.7024095735575
 21
459.4999999999997
 31
0.0
  0
LINE
  5
1131
330
124C
100
AcDbEntity
  8
0
 62
     0
100
AcDbLine
 10
498.2024095735575
 20
457.9999999999998
 30
0.0
 11
360.7024095735575
 21
457.9999999999998
 31
0.0
  0
LINE
  5
1132
330
124C
100
AcDbEntity
  8
0
 62
     0
100
AcDbLine
 10
498.2024095735574
 20
456.4999999999998
 30
0.0
 11
360.7024095735575
 21
456.4999999999998
 31
0.0
  0
LINE
  5
1133
330
124C
100
AcDbEntity
  8
0
 62
     0
100
AcDbLine
 10
498.2024095735574
 20
454.9999999999998
 30
0.0
 11
360.7024095735575
 21
454.9999999999998
 31
0.0
  0
LINE
  5
1134
330
124C
100
AcDbEntity
  8
0
 62
     0
100
AcDbLine
 10
498.2024095735574
 20
453.4999999999998
 30
0.0
 11
360.7024095735575
 21
453.4999999999998
 31
0.0
  0
LINE
  5
1135
330
124C
100
AcDbEntity
  8
0
 62
     0
100
AcDbLine
 10
498.2024095735574
 20
451.9999999999998
 30
0.0
 11
360.7024095735575
 21
451.9999999999998
 31
0.0
  0
LINE
  5
1136
330
124C
100
AcDbEntity
  8
0
 62
     0
100
AcDbLine
 10
498.2024095735574
 20
450.4999999999998
 30
0.0
 11
360.7024095735575
 21
450.4999999999998
 31
0.0
  0
LINE
  5
1137
330
124C
100
AcDbEntity
  8
0
 62
     0
100
AcDbLine
 10
498.2024095735574
 20
448.9999999999998
 30
0.0
 11
360.7024095735575
 21
448.9999999999998
 31
0.0
  0
LINE
  5
1138
330
124C
100
AcDbEntity
  8
0
 62
     0
100
AcDbLine
 10
498.2024095735574
 20
447.4999999999998
 30
0.0
 11
360.7024095735575
 21
447.4999999999998
 31
0.0
  0
LINE
  5
1139
330
124C
100
AcDbEntity
  8
0
 62
     0
100
AcDbLine
 10
498.2024095735574
 20
445.9999999999998
 30
0.0
 11
360.7024095735575
 21
445.9999999999998
 31
0.0
  0
LINE
  5
113A
330
124C
100
AcDbEntity
  8
0
 62
     0
100
AcDbLine
 10
498.2024095735574
 20
444.4999999999998
 30
0.0
 11
360.7024095735575
 21
444.4999999999998
 31
0.0
  0
LINE
  5
113B
330
124C
100
AcDbEntity
  8
0
 62
     0
100
AcDbLine
 10
498.2024095735574
 20
442.9999999999998
 30
0.0
 11
360.7024095735575
 21
442.9999999999998
 31
0.0
  0
LINE
  5
113C
330
124C
100
AcDbEntity
  8
0
 62
     0
100
AcDbLine
 10
498.2024095735574
 20
441.4999999999998
 30
0.0
 11
360.7024095735575
 21
441.4999999999998
 31
0.0
  0
LINE
  5
113D
330
124C
100
AcDbEntity
  8
0
 62
     0
100
AcDbLine
 10
498.2024095735574
 20
439.9999999999998
 30
0.0
 11
360.7024095735575
 21
439.9999999999998
 31
0.0
  0
LINE
  5
113E
330
124C
100
AcDbEntity
  8
0
 62
     0
100
AcDbLine
 10
498.2024095735574
 20
438.4999999999998
 30
0.0
 11
360.7024095735575
 21
438.4999999999998
 31
0.0
  0
LINE
  5
113F
330
124C
100
AcDbEntity
  8
0
 62
     0
100
AcDbLine
 10
498.2024095735574
 20
436.9999999999998
 30
0.0
 11
360.7024095735575
 21
436.9999999999998
 31
0.0
  0
LINE
  5
1140
330
124C
100
AcDbEntity
  8
0
 62
     0
100
AcDbLine
 10
498.2024095735574
 20
435.4999999999998
 30
0.0
 11
360.7024095735575
 21
435.4999999999998
 31
0.0
  0
LINE
  5
1141
330
124C
100
AcDbEntity
  8
0
 62
     0
100
AcDbLine
 10
498.2024095735574
 20
433.9999999999998
 30
0.0
 11
360.7024095735575
 21
433.9999999999998
 31
0.0
  0
LINE
  5
1142
330
124C
100
AcDbEntity
  8
0
 62
     0
100
AcDbLine
 10
498.2024095735574
 20
432.4999999999998
 30
0.0
 11
360.7024095735575
 21
432.4999999999998
 31
0.0
  0
LINE
  5
1143
330
124C
100
AcDbEntity
  8
0
 62
     0
100
AcDbLine
 10
498.2024095735574
 20
430.9999999999998
 30
0.0
 11
360.7024095735575
 21
430.9999999999998
 31
0.0
  0
LINE
  5
1144
330
124C
100
AcDbEntity
  8
0
 62
     0
100
AcDbLine
 10
498.2024095735574
 20
429.4999999999998
 30
0.0
 11
360.7024095735575
 21
429.4999999999998
 31
0.0
  0
LINE
  5
1145
330
124C
100
AcDbEntity
  8
0
 62
     0
100
AcDbLine
 10
498.2024095735574
 20
427.9999999999998
 30
0.0
 11
360.7024095735575
 21
427.9999999999998
 31
0.0
  0
LINE
  5
1146
330
124C
100
AcDbEntity
  8
0
 62
     0
100
AcDbLine
 10
498.2024095735574
 20
426.4999999999998
 30
0.0
 11
360.7024095735575
 21
426.4999999999998
 31
0.0
  0
LINE
  5
1147
330
124C
100
AcDbEntity
  8
0
 62
     0
100
AcDbLine
 10
498.2024095735574
 20
424.9999999999998
 30
0.0
 11
360.7024095735575
 21
424.9999999999998
 31
0.0
  0
LINE
  5
1148
330
124C
100
AcDbEntity
  8
0
 62
     0
100
AcDbLine
 10
498.2024095735574
 20
423.4999999999998
 30
0.0
 11
360.7024095735575
 21
423.4999999999998
 31
0.0
  0
LINE
  5
1149
330
124C
100
AcDbEntity
  8
0
 62
     0
100
AcDbLine
 10
498.2024095735574
 20
421.9999999999997
 30
0.0
 11
360.7024095735575
 21
421.9999999999997
 31
0.0
  0
LINE
  5
114A
330
124C
100
AcDbEntity
  8
0
 62
     0
100
AcDbLine
 10
498.2024095735574
 20
420.4999999999998
 30
0.0
 11
360.7024095735575
 21
420.4999999999998
 31
0.0
  0
LINE
  5
114B
330
124C
100
AcDbEntity
  8
0
 62
     0
100
AcDbLine
 10
498.2024095735574
 20
418.9999999999998
 30
0.0
 11
360.7024095735575
 21
418.9999999999998
 31
0.0
  0
LINE
  5
114C
330
124C
100
AcDbEntity
  8
0
 62
     0
100
AcDbLine
 10
498.2024095735574
 20
417.4999999999998
 30
0.0
 11
360.7024095735575
 21
417.4999999999998
 31
0.0
  0
LINE
  5
114D
330
124C
100
AcDbEntity
  8
0
 62
     0
100
AcDbLine
 10
498.2024095735574
 20
415.9999999999998
 30
0.0
 11
360.7024095735575
 21
415.9999999999998
 31
0.0
  0
LINE
  5
114E
330
124C
100
AcDbEntity
  8
0
 62
     0
100
AcDbLine
 10
498.2024095735569
 20
409.9999999999998
 30
0.0
 11
360.7024095735572
 21
409.9999999999998
 31
0.0
  0
LINE
  5
114F
330
124C
100
AcDbEntity
  8
0
 62
     0
100
AcDbLine
 10
498.2024095735569
 20
408.4999999999998
 30
0.0
 11
360.7024095735572
 21
408.4999999999998
 31
0.0
  0
LINE
  5
1150
330
124C
100
AcDbEntity
  8
0
 62
     0
100
AcDbLine
 10
498.2024095735569
 20
406.9999999999998
 30
0.0
 11
360.7024095735572
 21
406.9999999999998
 31
0.0
  0
LINE
  5
1151
330
124C
100
AcDbEntity
  8
0
 62
     0
100
AcDbLine
 10
498.2024095735569
 20
405.4999999999997
 30
0.0
 11
360.7024095735572
 21
405.4999999999997
 31
0.0
  0
LINE
  5
1152
330
124C
100
AcDbEntity
  8
0
 62
     0
100
AcDbLine
 10
498.2024095735569
 20
403.9999999999998
 30
0.0
 11
360.7024095735572
 21
403.9999999999998
 31
0.0
  0
LINE
  5
1153
330
124C
100
AcDbEntity
  8
0
 62
     0
100
AcDbLine
 10
498.2024095735569
 20
402.4999999999998
 30
0.0
 11
360.7024095735572
 21
402.4999999999998
 31
0.0
  0
LINE
  5
1154
330
124C
100
AcDbEntity
  8
0
 62
     0
100
AcDbLine
 10
498.2024095735569
 20
400.9999999999998
 30
0.0
 11
360.7024095735572
 21
400.9999999999998
 31
0.0
  0
LINE
  5
1155
330
124C
100
AcDbEntity
  8
0
 62
     0
100
AcDbLine
 10
498.2024095735569
 20
399.5
 30
0.0
 11
360.7024095735572
 21
399.5
 31
0.0
  0
LINE
  5
1156
330
124C
100
AcDbEntity
  8
0
 62
     0
100
AcDbLine
 10
498.2024095735569
 20
398.0
 30
0.0
 11
360.7024095735572
 21
398.0
 31
0.0
  0
LINE
  5
1157
330
124C
100
AcDbEntity
  8
0
 62
     0
100
AcDbLine
 10
498.2024095735569
 20
396.4999999999998
 30
0.0
 11
360.7024095735572
 21
396.4999999999998
 31
0.0
  0
LINE
  5
1158
330
124C
100
AcDbEntity
  8
0
 62
     0
100
AcDbLine
 10
498.2024095735569
 20
395.0
 30
0.0
 11
360.7024095735572
 21
395.0
 31
0.0
  0
LINE
  5
1159
330
124C
100
AcDbEntity
  8
0
 62
     0
100
AcDbLine
 10
498.2024095735568
 20
393.5
 30
0.0
 11
360.7024095735572
 21
393.5
 31
0.0
  0
LINE
  5
115A
330
124C
100
AcDbEntity
  8
0
 62
     0
100
AcDbLine
 10
498.2024095735568
 20
391.9999999999999
 30
0.0
 11
360.7024095735572
 21
391.9999999999999
 31
0.0
  0
LINE
  5
115B
330
124C
100
AcDbEntity
  8
0
 62
     0
100
AcDbLine
 10
498.2024095735568
 20
390.4999999999999
 30
0.0
 11
360.7024095735572
 21
390.4999999999999
 31
0.0
  0
LINE
  5
115C
330
124C
100
AcDbEntity
  8
0
 62
     0
100
AcDbLine
 10
498.2024095735568
 20
389.0
 30
0.0
 11
360.7024095735572
 21
389.0
 31
0.0
  0
LINE
  5
115D
330
124C
100
AcDbEntity
  8
0
 62
     0
100
AcDbLine
 10
498.2024095735568
 20
387.5
 30
0.0
 11
360.7024095735572
 21
387.5
 31
0.0
  0
LINE
  5
115E
330
124C
100
AcDbEntity
  8
0
 62
     0
100
AcDbLine
 10
498.2024095735568
 20
385.9999999999999
 30
0.0
 11
360.7024095735572
 21
385.9999999999999
 31
0.0
  0
LINE
  5
115F
330
124C
100
AcDbEntity
  8
0
 62
     0
100
AcDbLine
 10
498.2024095735568
 20
384.4999999999998
 30
0.0
 11
360.7024095735572
 21
384.4999999999998
 31
0.0
  0
LINE
  5
1160
330
124C
100
AcDbEntity
  8
0
 62
     0
100
AcDbLine
 10
498.2024095735568
 20
383.0
 30
0.0
 11
360.7024095735572
 21
383.0
 31
0.0
  0
LINE
  5
1161
330
124C
100
AcDbEntity
  8
0
 62
     0
100
AcDbLine
 10
498.2024095735568
 20
381.4999999999998
 30
0.0
 11
360.7024095735572
 21
381.4999999999998
 31
0.0
  0
LINE
  5
1162
330
124C
100
AcDbEntity
  8
0
 62
     0
100
AcDbLine
 10
498.2024095735568
 20
379.9999999999998
 30
0.0
 11
360.7024095735572
 21
379.9999999999998
 31
0.0
  0
LINE
  5
1163
330
124C
100
AcDbEntity
  8
0
 62
     0
100
AcDbLine
 10
498.2024095735568
 20
378.5
 30
0.0
 11
360.7024095735572
 21
378.5
 31
0.0
  0
LINE
  5
1164
330
124C
100
AcDbEntity
  8
0
 62
     0
100
AcDbLine
 10
498.2024095735568
 20
377.0
 30
0.0
 11
360.7024095735572
 21
377.0
 31
0.0
  0
LINE
  5
1165
330
124C
100
AcDbEntity
  8
0
 62
     0
100
AcDbLine
 10
498.2024095735568
 20
375.4999999999999
 30
0.0
 11
360.7024095735572
 21
375.4999999999999
 31
0.0
  0
LINE
  5
1166
330
124C
100
AcDbEntity
  8
0
 62
     0
100
AcDbLine
 10
498.2024095735568
 20
373.9999999999998
 30
0.0
 11
360.7024095735572
 21
373.9999999999998
 31
0.0
  0
LINE
  5
1167
330
124C
100
AcDbEntity
  8
0
 62
     0
100
AcDbLine
 10
498.2024095735568
 20
372.5
 30
0.0
 11
360.7024095735572
 21
372.5
 31
0.0
  0
LINE
  5
1168
330
124C
100
AcDbEntity
  8
0
 62
     0
100
AcDbLine
 10
498.2024095735568
 20
370.9999999999998
 30
0.0
 11
360.7024095735572
 21
370.9999999999998
 31
0.0
  0
LINE
  5
1169
330
124C
100
AcDbEntity
  8
0
 62
     0
100
AcDbLine
 10
498.2024095735568
 20
369.4999999999998
 30
0.0
 11
360.7024095735571
 21
369.4999999999998
 31
0.0
  0
LINE
  5
116A
330
124C
100
AcDbEntity
  8
0
 62
     0
100
AcDbLine
 10
498.2024095735568
 20
368.0
 30
0.0
 11
360.7024095735571
 21
368.0
 31
0.0
  0
LINE
  5
116B
330
124C
100
AcDbEntity
  8
0
 62
     0
100
AcDbLine
 10
498.2024095735568
 20
366.5
 30
0.0
 11
360.7024095735571
 21
366.5
 31
0.0
  0
LINE
  5
116C
330
124C
100
AcDbEntity
  8
0
 62
     0
100
AcDbLine
 10
498.2024095735568
 20
364.9999999999999
 30
0.0
 11
360.7024095735571
 21
364.9999999999999
 31
0.0
  0
LINE
  5
116D
330
124C
100
AcDbEntity
  8
0
 62
     0
100
AcDbLine
 10
498.2024095735568
 20
363.4999999999998
 30
0.0
 11
360.7024095735571
 21
363.4999999999998
 31
0.0
  0
LINE
  5
116E
330
124C
100
AcDbEntity
  8
0
 62
     0
100
AcDbLine
 10
498.2024095735568
 20
362.0
 30
0.0
 11
360.7024095735571
 21
362.0
 31
0.0
  0
LINE
  5
116F
330
124C
100
AcDbEntity
  8
0
 62
     0
100
AcDbLine
 10
498.2024095735568
 20
360.4999999999998
 30
0.0
 11
360.7024095735571
 21
360.4999999999998
 31
0.0
  0
LINE
  5
1170
330
124C
100
AcDbEntity
  8
0
 62
     0
100
AcDbLine
 10
498.2024095735568
 20
358.9999999999998
 30
0.0
 11
360.7024095735571
 21
358.9999999999998
 31
0.0
  0
LINE
  5
1171
330
124C
100
AcDbEntity
  8
0
 62
     0
100
AcDbLine
 10
498.2024095735568
 20
357.4999999999998
 30
0.0
 11
360.7024095735571
 21
357.4999999999998
 31
0.0
  0
LINE
  5
1172
330
124C
100
AcDbEntity
  8
0
 62
     0
100
AcDbLine
 10
498.2024095735568
 20
356.0
 30
0.0
 11
360.7024095735571
 21
356.0
 31
0.0
  0
LINE
  5
1173
330
124C
100
AcDbEntity
  8
0
 62
     0
100
AcDbLine
 10
498.2024095735568
 20
354.4999999999998
 30
0.0
 11
360.7024095735571
 21
354.4999999999998
 31
0.0
  0
LINE
  5
1174
330
124C
100
AcDbEntity
  8
0
 62
     0
100
AcDbLine
 10
498.2024095735568
 20
352.9999999999998
 30
0.0
 11
360.7024095735571
 21
352.9999999999998
 31
0.0
  0
LINE
  5
1175
330
124C
100
AcDbEntity
  8
0
 62
     0
100
AcDbLine
 10
498.2024095735568
 20
351.5
 30
0.0
 11
360.7024095735571
 21
351.5
 31
0.0
  0
LINE
  5
1176
330
124C
100
AcDbEntity
  8
0
 62
     0
100
AcDbLine
 10
498.2024095735568
 20
350.0
 30
0.0
 11
360.7024095735571
 21
350.0
 31
0.0
  0
LINE
  5
1177
330
124C
100
AcDbEntity
  8
0
 62
     0
100
AcDbLine
 10
498.2024095735568
 20
348.4999999999998
 30
0.0
 11
360.7024095735571
 21
348.4999999999998
 31
0.0
  0
LINE
  5
1178
330
124C
100
AcDbEntity
  8
0
 62
     0
100
AcDbLine
 10
498.2024095735568
 20
346.9999999999998
 30
0.0
 11
360.7024095735571
 21
346.9999999999998
 31
0.0
  0
LINE
  5
1179
330
124C
100
AcDbEntity
  8
0
 62
     0
100
AcDbLine
 10
498.2024095735568
 20
345.5
 30
0.0
 11
360.7024095735571
 21
345.5
 31
0.0
  0
LINE
  5
117A
330
124C
100
AcDbEntity
  8
0
 62
     0
100
AcDbLine
 10
498.2024095735568
 20
343.9999999999998
 30
0.0
 11
360.7024095735571
 21
343.9999999999998
 31
0.0
  0
LINE
  5
117B
330
124C
100
AcDbEntity
  8
0
 62
     0
100
AcDbLine
 10
498.2024095735568
 20
342.4999999999999
 30
0.0
 11
360.7024095735571
 21
342.4999999999999
 31
0.0
  0
LINE
  5
117C
330
124C
100
AcDbEntity
  8
0
 62
     0
100
AcDbLine
 10
498.2024095735568
 20
341.0
 30
0.0
 11
360.7024095735571
 21
341.0
 31
0.0
  0
LINE
  5
117D
330
124C
100
AcDbEntity
  8
0
 62
     0
100
AcDbLine
 10
498.2024095735568
 20
339.5
 30
0.0
 11
360.7024095735571
 21
339.5
 31
0.0
  0
LINE
  5
117E
330
124C
100
AcDbEntity
  8
0
 62
     0
100
AcDbLine
 10
498.2024095735568
 20
337.9999999999999
 30
0.0
 11
360.7024095735571
 21
337.9999999999999
 31
0.0
  0
LINE
  5
117F
330
124C
100
AcDbEntity
  8
0
 62
     0
100
AcDbLine
 10
498.2024095735568
 20
336.4999999999999
 30
0.0
 11
360.7024095735571
 21
336.4999999999999
 31
0.0
  0
LINE
  5
1180
330
124C
100
AcDbEntity
  8
0
 62
     0
100
AcDbLine
 10
498.2024095735568
 20
335.0
 30
0.0
 11
360.7024095735571
 21
335.0
 31
0.0
  0
LINE
  5
1181
330
124C
100
AcDbEntity
  8
0
 62
     0
100
AcDbLine
 10
498.2024095735568
 20
333.4999999999999
 30
0.0
 11
360.7024095735571
 21
333.4999999999999
 31
0.0
  0
LINE
  5
1182
330
124C
100
AcDbEntity
  8
0
 62
     0
100
AcDbLine
 10
498.2024095735568
 20
331.9999999999999
 30
0.0
 11
360.7024095735571
 21
331.9999999999999
 31
0.0
  0
LINE
  5
1183
330
124C
100
AcDbEntity
  8
0
 62
     0
100
AcDbLine
 10
498.2024095735568
 20
330.5
 30
0.0
 11
360.7024095735571
 21
330.5
 31
0.0
  0
LINE
  5
1184
330
124C
100
AcDbEntity
  8
0
 62
     0
100
AcDbLine
 10
498.2024095735568
 20
329.0
 30
0.0
 11
360.7024095735571
 21
329.0
 31
0.0
  0
LINE
  5
1185
330
124C
100
AcDbEntity
  8
0
 62
     0
100
AcDbLine
 10
498.2024095735568
 20
327.4999999999999
 30
0.0
 11
360.7024095735571
 21
327.4999999999999
 31
0.0
  0
LINE
  5
1186
330
124C
100
AcDbEntity
  8
0
 62
     0
100
AcDbLine
 10
498.2024095735568
 20
325.9999999999999
 30
0.0
 11
360.7024095735571
 21
325.9999999999999
 31
0.0
  0
LINE
  5
1187
330
124C
100
AcDbEntity
  8
0
 62
     0
100
AcDbLine
 10
498.2024095735568
 20
324.5
 30
0.0
 11
360.7024095735571
 21
324.5
 31
0.0
  0
LINE
  5
1188
330
124C
100
AcDbEntity
  8
0
 62
     0
100
AcDbLine
 10
498.2024095735568
 20
322.9999999999999
 30
0.0
 11
360.7024095735571
 21
322.9999999999999
 31
0.0
  0
LINE
  5
1189
330
124C
100
AcDbEntity
  8
0
 62
     0
100
AcDbLine
 10
498.2024095735568
 20
321.4999999999999
 30
0.0
 11
360.7024095735571
 21
321.4999999999999
 31
0.0
  0
LINE
  5
118A
330
124C
100
AcDbEntity
  8
0
 62
     0
100
AcDbLine
 10
498.2024095735568
 20
319.9999999999999
 30
0.0
 11
360.7024095735571
 21
319.9999999999999
 31
0.0
  0
LINE
  5
118B
330
124C
100
AcDbEntity
  8
0
 62
     0
100
AcDbLine
 10
498.2024095735568
 20
318.5
 30
0.0
 11
360.7024095735571
 21
318.5
 31
0.0
  0
LINE
  5
118C
330
124C
100
AcDbEntity
  8
0
 62
     0
100
AcDbLine
 10
498.2024095735568
 20
316.9999999999999
 30
0.0
 11
360.7024095735571
 21
316.9999999999999
 31
0.0
  0
LINE
  5
118D
330
124C
100
AcDbEntity
  8
0
 62
     0
100
AcDbLine
 10
498.2024095735568
 20
315.4999999999999
 30
0.0
 11
360.7024095735569
 21
315.4999999999999
 31
0.0
  0
LINE
  5
118E
330
124C
100
AcDbEntity
  8
0
 62
     0
100
AcDbLine
 10
498.2024095735568
 20
314.0
 30
0.0
 11
360.7024095735569
 21
314.0
 31
0.0
  0
LINE
  5
118F
330
124C
100
AcDbEntity
  8
0
 62
     0
100
AcDbLine
 10
498.2024095735568
 20
312.5
 30
0.0
 11
360.7024095735569
 21
312.5
 31
0.0
  0
LINE
  5
1190
330
124C
100
AcDbEntity
  8
0
 62
     0
100
AcDbLine
 10
498.2024095735568
 20
310.9999999999999
 30
0.0
 11
360.7024095735569
 21
310.9999999999999
 31
0.0
  0
LINE
  5
1191
330
124C
100
AcDbEntity
  8
0
 62
     0
100
AcDbLine
 10
498.2024095735568
 20
309.4999999999999
 30
0.0
 11
360.7024095735569
 21
309.4999999999999
 31
0.0
  0
LINE
  5
1192
330
124C
100
AcDbEntity
  8
0
 62
     0
100
AcDbLine
 10
498.2024095735568
 20
308.0
 30
0.0
 11
360.7024095735569
 21
308.0
 31
0.0
  0
LINE
  5
1193
330
124C
100
AcDbEntity
  8
0
 62
     0
100
AcDbLine
 10
498.2024095735568
 20
306.4999999999999
 30
0.0
 11
360.7024095735569
 21
306.4999999999999
 31
0.0
  0
LINE
  5
1194
330
124C
100
AcDbEntity
  8
0
 62
     0
100
AcDbLine
 10
498.2024095735568
 20
304.9999999999999
 30
0.0
 11
360.7024095735569
 21
304.9999999999999
 31
0.0
  0
LINE
  5
1195
330
124C
100
AcDbEntity
  8
0
 62
     0
100
AcDbLine
 10
498.2024095735568
 20
303.5
 30
0.0
 11
360.7024095735569
 21
303.5
 31
0.0
  0
LINE
  5
1196
330
124C
100
AcDbEntity
  8
0
 62
     0
100
AcDbLine
 10
498.2024095735568
 20
302.0
 30
0.0
 11
360.7024095735569
 21
302.0
 31
0.0
  0
LINE
  5
1197
330
124C
100
AcDbEntity
  8
0
 62
     0
100
AcDbLine
 10
498.2024095735568
 20
300.4999999999999
 30
0.0
 11
360.7024095735569
 21
300.4999999999999
 31
0.0
  0
LINE
  5
1198
330
124C
100
AcDbEntity
  8
0
 62
     0
100
AcDbLine
 10
498.2024095735568
 20
298.9999999999999
 30
0.0
 11
360.7024095735569
 21
298.9999999999999
 31
0.0
  0
LINE
  5
1199
330
124C
100
AcDbEntity
  8
0
 62
     0
100
AcDbLine
 10
498.2024095735568
 20
297.5
 30
0.0
 11
360.7024095735569
 21
297.5
 31
0.0
  0
LINE
  5
119A
330
124C
100
AcDbEntity
  8
0
 62
     0
100
AcDbLine
 10
498.2024095735568
 20
295.9999999999999
 30
0.0
 11
360.7024095735569
 21
295.9999999999999
 31
0.0
  0
LINE
  5
119B
330
124C
100
AcDbEntity
  8
0
 62
     0
100
AcDbLine
 10
498.2024095735568
 20
294.4999999999999
 30
0.0
 11
360.7024095735569
 21
294.4999999999999
 31
0.0
  0
LINE
  5
119C
330
124C
100
AcDbEntity
  8
0
 62
     0
100
AcDbLine
 10
498.2024095735568
 20
292.9999999999999
 30
0.0
 11
360.7024095735569
 21
292.9999999999999
 31
0.0
  0
LINE
  5
119D
330
124C
100
AcDbEntity
  8
0
 62
     0
100
AcDbLine
 10
498.2024095735568
 20
291.5
 30
0.0
 11
360.7024095735569
 21
291.5
 31
0.0
  0
LINE
  5
119E
330
124C
100
AcDbEntity
  8
0
 62
     0
100
AcDbLine
 10
498.2024095735568
 20
290.0
 30
0.0
 11
360.7024095735569
 21
290.0
 31
0.0
  0
LINE
  5
119F
330
124C
100
AcDbEntity
  8
0
 62
     0
100
AcDbLine
 10
498.2024095735568
 20
288.4999999999999
 30
0.0
 11
360.7024095735569
 21
288.4999999999999
 31
0.0
  0
LINE
  5
11A0
330
124C
100
AcDbEntity
  8
0
 62
     0
100
AcDbLine
 10
498.2024095735568
 20
287.0
 30
0.0
 11
360.7024095735569
 21
287.0
 31
0.0
  0
LINE
  5
11A1
330
124C
100
AcDbEntity
  8
0
 62
     0
100
AcDbLine
 10
498.2024095735568
 20
285.5
 30
0.0
 11
360.7024095735569
 21
285.5
 31
0.0
  0
LINE
  5
11A2
330
124C
100
AcDbEntity
  8
0
 62
     0
100
AcDbLine
 10
498.2024095735568
 20
283.9999999999999
 30
0.0
 11
360.7024095735569
 21
283.9999999999999
 31
0.0
  0
LINE
  5
11A3
330
124C
100
AcDbEntity
  8
0
 62
     0
100
AcDbLine
 10
498.2024095735568
 20
282.4999999999999
 30
0.0
 11
360.7024095735569
 21
282.4999999999999
 31
0.0
  0
LINE
  5
11A4
330
124C
100
AcDbEntity
  8
0
 62
     0
100
AcDbLine
 10
498.2024095735568
 20
281.0
 30
0.0
 11
360.7024095735569
 21
281.0
 31
0.0
  0
LINE
  5
11A5
330
124C
100
AcDbEntity
  8
0
 62
     0
100
AcDbLine
 10
498.2024095735568
 20
279.4999999999999
 30
0.0
 11
360.7024095735569
 21
279.4999999999999
 31
0.0
  0
LINE
  5
11A6
330
124C
100
AcDbEntity
  8
0
 62
     0
100
AcDbLine
 10
498.2024095735568
 20
277.9999999999999
 30
0.0
 11
360.7024095735569
 21
277.9999999999999
 31
0.0
  0
LINE
  5
11A7
330
124C
100
AcDbEntity
  8
0
 62
     0
100
AcDbLine
 10
498.2024095735568
 20
276.5
 30
0.0
 11
360.7024095735569
 21
276.5
 31
0.0
  0
LINE
  5
11A8
330
124C
100
AcDbEntity
  8
0
 62
     0
100
AcDbLine
 10
498.2024095735568
 20
275.0
 30
0.0
 11
360.7024095735569
 21
275.0
 31
0.0
  0
ENDBLK
  5
11AA
330
124C
100
AcDbEntity
  8
0
100
AcDbBlockEnd
  0
BLOCK
  5
14B1
330
14B0
100
AcDbEntity
  8
0
100
AcDbBlockBegin
  2
*X5
 70
     1
 10
0.0
 20
0.0
 30
0.0
  3
*X5
  1

  0
LINE
  5
14B2
330
14B0
100
AcDbEntity
  8
0
 62
     0
100
AcDbLine
 10
595.2518166441866
 20
4.000004503757993
 30
0.0
 11
595.2518166441866
 21
98.37500450375856
 31
0.0
  0
LINE
  5
14B3
330
14B0
100
AcDbEntity
  8
0
 62
     0
100
AcDbLine
 10
593.7518166441866
 20
4.000004503757979
 30
0.0
 11
593.7518166441866
 21
98.37500450375856
 31
0.0
  0
LINE
  5
14B4
330
14B0
100
AcDbEntity
  8
0
 62
     0
100
AcDbLine
 10
592.2518166441866
 20
4.000004503757968
 30
0.0
 11
592.2518166441866
 21
98.37500450375856
 31
0.0
  0
LINE
  5
14B5
330
14B0
100
AcDbEntity
  8
0
 62
     0
100
AcDbLine
 10
590.7518166441867
 20
4.000004503757955
 30
0.0
 11
590.7518166441867
 21
98.3750045037585
 31
0.0
  0
LINE
  5
14B6
330
14B0
100
AcDbEntity
  8
0
 62
     0
100
AcDbLine
 10
589.2518166441866
 20
4.000004503757943
 30
0.0
 11
589.2518166441866
 21
98.37500450375848
 31
0.0
  0
LINE
  5
14B7
330
14B0
100
AcDbEntity
  8
0
 62
     0
100
AcDbLine
 10
587.7518166441866
 20
4.000004503757928
 30
0.0
 11
587.7518166441866
 21
98.37500450375848
 31
0.0
  0
LINE
  5
14B8
330
14B0
100
AcDbEntity
  8
0
 62
     0
100
AcDbLine
 10
586.2518166441866
 20
4.000004503757915
 30
0.0
 11
586.2518166441866
 21
98.37500450375848
 31
0.0
  0
LINE
  5
14B9
330
14B0
100
AcDbEntity
  8
0
 62
     0
100
AcDbLine
 10
584.7518166441866
 20
4.000004503757903
 30
0.0
 11
584.7518166441866
 21
98.37500450375843
 31
0.0
  0
LINE
  5
14BA
330
14B0
100
AcDbEntity
  8
0
 62
     0
100
AcDbLine
 10
556.2518166441866
 20
4.000004503757609
 30
0.0
 11
556.2518166441866
 21
98.37500450375816
 31
0.0
  0
LINE
  5
14BB
330
14B0
100
AcDbEntity
  8
0
 62
     0
100
AcDbLine
 10
554.7518166441866
 20
4.000004503757589
 30
0.0
 11
554.7518166441866
 21
98.37500450375813
 31
0.0
  0
LINE
  5
14BC
330
14B0
100
AcDbEntity
  8
0
 62
     0
100
AcDbLine
 10
553.2518166441867
 20
4.000004503757576
 30
0.0
 11
553.2518166441867
 21
98.37500450375813
 31
0.0
  0
LINE
  5
14BD
330
14B0
100
AcDbEntity
  8
0
 62
     0
100
AcDbLine
 10
551.7518166441866
 20
4.00000450375756
 30
0.0
 11
551.7518166441866
 21
98.37500450375809
 31
0.0
  0
LINE
  5
14BE
330
14B0
100
AcDbEntity
  8
0
 62
     0
100
AcDbLine
 10
550.2518166441866
 20
4.000004503757542
 30
0.0
 11
550.2518166441866
 21
98.37500450375809
 31
0.0
  0
LINE
  5
14BF
330
14B0
100
AcDbEntity
  8
0
 62
     0
100
AcDbLine
 10
548.7518166441866
 20
4.000004503757526
 30
0.0
 11
548.7518166441866
 21
98.37500450375809
 31
0.0
  0
LINE
  5
14C0
330
14B0
100
AcDbEntity
  8
0
 62
     0
100
AcDbLine
 10
547.2518166441866
 20
4.000004503757513
 30
0.0
 11
547.2518166441866
 21
98.37500450375806
 31
0.0
  0
LINE
  5
14C1
330
14B0
100
AcDbEntity
  8
0
 62
     0
100
AcDbLine
 10
545.7518166441866
 20
4.000004503757493
 30
0.0
 11
545.7518166441866
 21
98.37500450375806
 31
0.0
  0
LINE
  5
14C2
330
14B0
100
AcDbEntity
  8
0
 62
     0
100
AcDbLine
 10
544.2518166441866
 20
4.000004503757481
 30
0.0
 11
544.2518166441866
 21
98.37500450375799
 31
0.0
  0
LINE
  5
14C3
330
14B0
100
AcDbEntity
  8
0
 62
     0
100
AcDbLine
 10
542.7518166441866
 20
4.000004503757462
 30
0.0
 11
542.7518166441866
 21
98.37500450375799
 31
0.0
  0
LINE
  5
14C4
330
14B0
100
AcDbEntity
  8
0
 62
     0
100
AcDbLine
 10
514.2518166441866
 20
4.000004503757183
 30
0.0
 11
514.2518166441866
 21
98.37500450375769
 31
0.0
  0
LINE
  5
14C5
330
14B0
100
AcDbEntity
  8
0
 62
     0
100
AcDbLine
 10
512.7518166441866
 20
4.000004503757168
 30
0.0
 11
512.7518166441866
 21
98.37500450375769
 31
0.0
  0
LINE
  5
14C6
330
14B0
100
AcDbEntity
  8
0
 62
     0
100
AcDbLine
 10
511.2518166441865
 20
4.000004503757152
 30
0.0
 11
511.2518166441865
 21
98.37500450375769
 31
0.0
  0
LINE
  5
14C7
330
14B0
100
AcDbEntity
  8
0
 62
     0
100
AcDbLine
 10
509.7518166441864
 20
4.000004503757136
 30
0.0
 11
509.7518166441864
 21
98.37500450375765
 31
0.0
  0
LINE
  5
14C8
330
14B0
100
AcDbEntity
  8
0
 62
     0
100
AcDbLine
 10
508.2518166441865
 20
4.00000450375712
 30
0.0
 11
508.2518166441865
 21
98.37500450375765
 31
0.0
  0
LINE
  5
14C9
330
14B0
100
AcDbEntity
  8
0
 62
     0
100
AcDbLine
 10
506.7518166441864
 20
4.000004503757103
 30
0.0
 11
506.7518166441864
 21
98.37500450375765
 31
0.0
  0
LINE
  5
14CA
330
14B0
100
AcDbEntity
  8
0
 62
     0
100
AcDbLine
 10
505.2518166441863
 20
4.000004503757088
 30
0.0
 11
505.2518166441863
 21
98.37500450375765
 31
0.0
  0
LINE
  5
14CB
330
14B0
100
AcDbEntity
  8
0
 62
     0
100
AcDbLine
 10
503.7518166441865
 20
4.000004503757071
 30
0.0
 11
503.7518166441865
 21
98.3750045037576
 31
0.0
  0
LINE
  5
14CC
330
14B0
100
AcDbEntity
  8
0
 62
     0
100
AcDbLine
 10
502.2518166441864
 20
4.000004503757056
 30
0.0
 11
502.2518166441864
 21
98.37500450375756
 31
0.0
  0
LINE
  5
14CD
330
14B0
100
AcDbEntity
  8
0
 62
     0
100
AcDbLine
 10
500.7518166441863
 20
4.00000450375704
 30
0.0
 11
500.7518166441863
 21
98.37500450375756
 31
0.0
  0
LINE
  5
14CE
330
14B0
100
AcDbEntity
  8
0
 62
     0
100
AcDbLine
 10
472.2518166441864
 20
4.000004503756731
 30
0.0
 11
472.2518166441864
 21
98.37500450375728
 31
0.0
  0
LINE
  5
14CF
330
14B0
100
AcDbEntity
  8
0
 62
     0
100
AcDbLine
 10
470.7518166441865
 20
4.000004503756716
 30
0.0
 11
470.7518166441865
 21
98.37500450375721
 31
0.0
  0
LINE
  5
14D0
330
14B0
100
AcDbEntity
  8
0
 62
     0
100
AcDbLine
 10
469.2518166441864
 20
4.0000045037567
 30
0.0
 11
469.2518166441864
 21
98.37500450375728
 31
0.0
  0
LINE
  5
14D1
330
14B0
100
AcDbEntity
  8
0
 62
     0
100
AcDbLine
 10
467.7518166441863
 20
4.000004503756683
 30
0.0
 11
467.7518166441863
 21
98.37500450375721
 31
0.0
  0
LINE
  5
14D2
330
14B0
100
AcDbEntity
  8
0
 62
     0
100
AcDbLine
 10
466.2518166441865
 20
4.000004503756671
 30
0.0
 11
466.2518166441865
 21
98.37500450375721
 31
0.0
  0
LINE
  5
14D3
330
14B0
100
AcDbEntity
  8
0
 62
     0
100
AcDbLine
 10
464.7518166441864
 20
4.000004503756652
 30
0.0
 11
464.7518166441864
 21
98.37500450375721
 31
0.0
  0
LINE
  5
14D4
330
14B0
100
AcDbEntity
  8
0
 62
     0
100
AcDbLine
 10
463.2518166441863
 20
4.000004503756643
 30
0.0
 11
463.2518166441863
 21
98.37500450375715
 31
0.0
  0
LINE
  5
14D5
330
14B0
100
AcDbEntity
  8
0
 62
     0
100
AcDbLine
 10
461.7518166441865
 20
4.000004503756628
 30
0.0
 11
461.7518166441865
 21
98.37500450375715
 31
0.0
  0
LINE
  5
14D6
330
14B0
100
AcDbEntity
  8
0
 62
     0
100
AcDbLine
 10
460.2518166441864
 20
4.000004503756612
 30
0.0
 11
460.2518166441864
 21
98.37500450375713
 31
0.0
  0
LINE
  5
14D7
330
14B0
100
AcDbEntity
  8
0
 62
     0
100
AcDbLine
 10
541.3939014265734
 20
4.5
 30
0.0
 11
557.4104154804984
 21
4.5
 31
0.0
  0
LINE
  5
14D8
330
14B0
100
AcDbEntity
  8
0
 62
     0
100
AcDbLine
 10
499.4014158258267
 20
4.5
 30
0.0
 11
515.3986377970002
 21
4.5
 31
0.0
  0
LINE
  5
14D9
330
14B0
100
AcDbEntity
  8
0
 62
     0
100
AcDbLine
 10
583.3934311425958
 20
4.5
 30
0.0
 11
596.6514158258272
 21
4.5
 31
0.0
  0
LINE
  5
14DA
330
14B0
100
AcDbEntity
  8
0
 62
     0
100
AcDbLine
 10
460.1514158258271
 20
4.5
 30
0.0
 11
473.4014158258258
 21
4.5
 31
0.0
  0
LINE
  5
14DB
330
14B0
100
AcDbEntity
  8
0
 62
     0
100
AcDbLine
 10
541.3939014265734
 20
6.0
 30
0.0
 11
557.4104154804984
 21
6.0
 31
0.0
  0
LINE
  5
14DC
330
14B0
100
AcDbEntity
  8
0
 62
     0
100
AcDbLine
 10
499.4014158258267
 20
6.0
 30
0.0
 11
515.3986377970002
 21
6.0
 31
0.0
  0
LINE
  5
14DD
330
14B0
100
AcDbEntity
  8
0
 62
     0
100
AcDbLine
 10
583.3934311425958
 20
6.0
 30
0.0
 11
596.6514158258272
 21
6.0
 31
0.0
  0
LINE
  5
14DE
330
14B0
100
AcDbEntity
  8
0
 62
     0
100
AcDbLine
 10
460.1514158258271
 20
6.0
 30
0.0
 11
473.4014158258258
 21
6.0
 31
0.0
  0
LINE
  5
14DF
330
14B0
100
AcDbEntity
  8
0
 62
     0
100
AcDbLine
 10
541.3939014265734
 20
7.5
 30
0.0
 11
557.4104154804984
 21
7.5
 31
0.0
  0
LINE
  5
14E0
330
14B0
100
AcDbEntity
  8
0
 62
     0
100
AcDbLine
 10
499.4014158258267
 20
7.5
 30
0.0
 11
515.3986377970002
 21
7.5
 31
0.0
  0
LINE
  5
14E1
330
14B0
100
AcDbEntity
  8
0
 62
     0
100
AcDbLine
 10
583.3934311425958
 20
7.5
 30
0.0
 11
596.6514158258272
 21
7.5
 31
0.0
  0
LINE
  5
14E2
330
14B0
100
AcDbEntity
  8
0
 62
     0
100
AcDbLine
 10
460.1514158258271
 20
7.5
 30
0.0
 11
473.4014158258258
 21
7.5
 31
0.0
  0
LINE
  5
14E3
330
14B0
100
AcDbEntity
  8
0
 62
     0
100
AcDbLine
 10
541.3939014265734
 20
9.0
 30
0.0
 11
557.4104154804984
 21
9.0
 31
0.0
  0
LINE
  5
14E4
330
14B0
100
AcDbEntity
  8
0
 62
     0
100
AcDbLine
 10
499.4014158258267
 20
9.0
 30
0.0
 11
515.3986377970002
 21
9.0
 31
0.0
  0
LINE
  5
14E5
330
14B0
100
AcDbEntity
  8
0
 62
     0
100
AcDbLine
 10
583.3934311425958
 20
9.0
 30
0.0
 11
596.6514158258272
 21
9.0
 31
0.0
  0
LINE
  5
14E6
330
14B0
100
AcDbEntity
  8
0
 62
     0
100
AcDbLine
 10
460.1514158258271
 20
9.0
 30
0.0
 11
473.4014158258258
 21
9.0
 31
0.0
  0
LINE
  5
14E7
330
14B0
100
AcDbEntity
  8
0
 62
     0
100
AcDbLine
 10
541.3939014265734
 20
10.5
 30
0.0
 11
557.4104154804984
 21
10.5
 31
0.0
  0
LINE
  5
14E8
330
14B0
100
AcDbEntity
  8
0
 62
     0
100
AcDbLine
 10
499.4014158258267
 20
10.5
 30
0.0
 11
515.3986377970002
 21
10.5
 31
0.0
  0
LINE
  5
14E9
330
14B0
100
AcDbEntity
  8
0
 62
     0
100
AcDbLine
 10
583.3934311425958
 20
10.5
 30
0.0
 11
596.651415825827
 21
10.5
 31
0.0
  0
LINE
  5
14EA
330
14B0
100
AcDbEntity
  8
0
 62
     0
100
AcDbLine
 10
460.1514158258271
 20
10.5
 30
0.0
 11
473.4014158258258
 21
10.5
 31
0.0
  0
LINE
  5
14EB
330
14B0
100
AcDbEntity
  8
0
 62
     0
100
AcDbLine
 10
541.3939014265734
 20
12.0
 30
0.0
 11
557.4104154804984
 21
12.0
 31
0.0
  0
LINE
  5
14EC
330
14B0
100
AcDbEntity
  8
0
 62
     0
100
AcDbLine
 10
499.4014158258267
 20
12.0
 30
0.0
 11
515.3986377970002
 21
12.0
 31
0.0
  0
LINE
  5
14ED
330
14B0
100
AcDbEntity
  8
0
 62
     0
100
AcDbLine
 10
583.3934311425958
 20
12.0
 30
0.0
 11
596.651415825827
 21
12.0
 31
0.0
  0
LINE
  5
14EE
330
14B0
100
AcDbEntity
  8
0
 62
     0
100
AcDbLine
 10
460.1514158258271
 20
12.0
 30
0.0
 11
473.4014158258258
 21
12.0
 31
0.0
  0
LINE
  5
14EF
330
14B0
100
AcDbEntity
  8
0
 62
     0
100
AcDbLine
 10
541.3939014265734
 20
13.5
 30
0.0
 11
557.4104154804984
 21
13.5
 31
0.0
  0
LINE
  5
14F0
330
14B0
100
AcDbEntity
  8
0
 62
     0
100
AcDbLine
 10
499.4014158258267
 20
13.5
 30
0.0
 11
515.3986377970002
 21
13.5
 31
0.0
  0
LINE
  5
14F1
330
14B0
100
AcDbEntity
  8
0
 62
     0
100
AcDbLine
 10
583.3934311425958
 20
13.5
 30
0.0
 11
596.651415825827
 21
13.5
 31
0.0
  0
LINE
  5
14F2
330
14B0
100
AcDbEntity
  8
0
 62
     0
100
AcDbLine
 10
460.1514158258267
 20
13.5
 30
0.0
 11
473.4014158258258
 21
13.5
 31
0.0
  0
LINE
  5
14F3
330
14B0
100
AcDbEntity
  8
0
 62
     0
100
AcDbLine
 10
541.3939014265734
 20
15.0
 30
0.0
 11
557.4104154804984
 21
15.0
 31
0.0
  0
LINE
  5
14F4
330
14B0
100
AcDbEntity
  8
0
 62
     0
100
AcDbLine
 10
499.4014158258267
 20
15.0
 30
0.0
 11
515.3986377970002
 21
15.0
 31
0.0
  0
LINE
  5
14F5
330
14B0
100
AcDbEntity
  8
0
 62
     0
100
AcDbLine
 10
583.3934311425958
 20
15.0
 30
0.0
 11
596.651415825827
 21
15.0
 31
0.0
  0
LINE
  5
14F6
330
14B0
100
AcDbEntity
  8
0
 62
     0
100
AcDbLine
 10
460.1514158258267
 20
15.0
 30
0.0
 11
473.4014158258258
 21
15.0
 31
0.0
  0
LINE
  5
14F7
330
14B0
100
AcDbEntity
  8
0
 62
     0
100
AcDbLine
 10
541.3939014265734
 20
16.5
 30
0.0
 11
557.4104154804984
 21
16.5
 31
0.0
  0
LINE
  5
14F8
330
14B0
100
AcDbEntity
  8
0
 62
     0
100
AcDbLine
 10
499.4014158258267
 20
16.5
 30
0.0
 11
515.3986377970002
 21
16.5
 31
0.0
  0
LINE
  5
14F9
330
14B0
100
AcDbEntity
  8
0
 62
     0
100
AcDbLine
 10
583.3934311425958
 20
16.5
 30
0.0
 11
596.651415825827
 21
16.5
 31
0.0
  0
LINE
  5
14FA
330
14B0
100
AcDbEntity
  8
0
 62
     0
100
AcDbLine
 10
460.1514158258267
 20
16.5
 30
0.0
 11
473.4014158258258
 21
16.5
 31
0.0
  0
LINE
  5
14FB
330
14B0
100
AcDbEntity
  8
0
 62
     0
100
AcDbLine
 10
541.3939014265734
 20
18.0
 30
0.0
 11
557.4104154804984
 21
18.0
 31
0.0
  0
LINE
  5
14FC
330
14B0
100
AcDbEntity
  8
0
 62
     0
100
AcDbLine
 10
499.4014158258267
 20
18.0
 30
0.0
 11
515.3986377970002
 21
18.0
 31
0.0
  0
LINE
  5
14FD
330
14B0
100
AcDbEntity
  8
0
 62
     0
100
AcDbLine
 10
583.3934311425958
 20
18.0
 30
0.0
 11
596.651415825827
 21
18.0
 31
0.0
  0
LINE
  5
14FE
330
14B0
100
AcDbEntity
  8
0
 62
     0
100
AcDbLine
 10
460.1514158258267
 20
18.0
 30
0.0
 11
473.4014158258258
 21
18.0
 31
0.0
  0
LINE
  5
14FF
330
14B0
100
AcDbEntity
  8
0
 62
     0
100
AcDbLine
 10
541.3939014265734
 20
19.5
 30
0.0
 11
557.4104154804984
 21
19.5
 31
0.0
  0
LINE
  5
1500
330
14B0
100
AcDbEntity
  8
0
 62
     0
100
AcDbLine
 10
499.4014158258267
 20
19.5
 30
0.0
 11
515.3986377970002
 21
19.5
 31
0.0
  0
LINE
  5
1501
330
14B0
100
AcDbEntity
  8
0
 62
     0
100
AcDbLine
 10
583.3934311425958
 20
19.5
 30
0.0
 11
596.651415825827
 21
19.5
 31
0.0
  0
LINE
  5
1502
330
14B0
100
AcDbEntity
  8
0
 62
     0
100
AcDbLine
 10
460.1514158258267
 20
19.5
 30
0.0
 11
473.4014158258258
 21
19.5
 31
0.0
  0
LINE
  5
1503
330
14B0
100
AcDbEntity
  8
0
 62
     0
100
AcDbLine
 10
541.3939014265734
 20
21.0
 30
0.0
 11
557.4104154804984
 21
21.0
 31
0.0
  0
LINE
  5
1504
330
14B0
100
AcDbEntity
  8
0
 62
     0
100
AcDbLine
 10
499.4014158258267
 20
21.0
 30
0.0
 11
515.3986377970002
 21
21.0
 31
0.0
  0
LINE
  5
1505
330
14B0
100
AcDbEntity
  8
0
 62
     0
100
AcDbLine
 10
583.3934311425958
 20
21.0
 30
0.0
 11
596.651415825827
 21
21.0
 31
0.0
  0
LINE
  5
1506
330
14B0
100
AcDbEntity
  8
0
 62
     0
100
AcDbLine
 10
460.1514158258267
 20
21.0
 30
0.0
 11
473.4014158258258
 21
21.0
 31
0.0
  0
LINE
  5
1507
330
14B0
100
AcDbEntity
  8
0
 62
     0
100
AcDbLine
 10
541.3939014265734
 20
22.5
 30
0.0
 11
557.4104154804984
 21
22.5
 31
0.0
  0
LINE
  5
1508
330
14B0
100
AcDbEntity
  8
0
 62
     0
100
AcDbLine
 10
499.4014158258267
 20
22.5
 30
0.0
 11
515.3986377970002
 21
22.5
 31
0.0
  0
LINE
  5
1509
330
14B0
100
AcDbEntity
  8
0
 62
     0
100
AcDbLine
 10
583.3934311425958
 20
22.5
 30
0.0
 11
596.6514158258269
 21
22.5
 31
0.0
  0
LINE
  5
150A
330
14B0
100
AcDbEntity
  8
0
 62
     0
100
AcDbLine
 10
460.1514158258267
 20
22.5
 30
0.0
 11
473.4014158258258
 21
22.5
 31
0.0
  0
LINE
  5
150B
330
14B0
100
AcDbEntity
  8
0
 62
     0
100
AcDbLine
 10
541.3939014265734
 20
24.0
 30
0.0
 11
557.4104154804984
 21
24.0
 31
0.0
  0
LINE
  5
150C
330
14B0
100
AcDbEntity
  8
0
 62
     0
100
AcDbLine
 10
499.4014158258267
 20
24.0
 30
0.0
 11
515.3986377970002
 21
24.0
 31
0.0
  0
LINE
  5
150D
330
14B0
100
AcDbEntity
  8
0
 62
     0
100
AcDbLine
 10
583.3934311425958
 20
24.0
 30
0.0
 11
596.6514158258269
 21
24.0
 31
0.0
  0
LINE
  5
150E
330
14B0
100
AcDbEntity
  8
0
 62
     0
100
AcDbLine
 10
460.1514158258267
 20
24.0
 30
0.0
 11
473.4014158258258
 21
24.0
 31
0.0
  0
LINE
  5
150F
330
14B0
100
AcDbEntity
  8
0
 62
     0
100
AcDbLine
 10
541.3939014265734
 20
25.5
 30
0.0
 11
557.4104154804984
 21
25.5
 31
0.0
  0
LINE
  5
1510
330
14B0
100
AcDbEntity
  8
0
 62
     0
100
AcDbLine
 10
499.4014158258267
 20
25.5
 30
0.0
 11
515.3986377970002
 21
25.5
 31
0.0
  0
LINE
  5
1511
330
14B0
100
AcDbEntity
  8
0
 62
     0
100
AcDbLine
 10
583.3934311425958
 20
25.5
 30
0.0
 11
596.6514158258269
 21
25.5
 31
0.0
  0
LINE
  5
1512
330
14B0
100
AcDbEntity
  8
0
 62
     0
100
AcDbLine
 10
460.1514158258267
 20
25.5
 30
0.0
 11
473.4014158258258
 21
25.5
 31
0.0
  0
LINE
  5
1513
330
14B0
100
AcDbEntity
  8
0
 62
     0
100
AcDbLine
 10
541.3939014265734
 20
27.0
 30
0.0
 11
557.4104154804984
 21
27.0
 31
0.0
  0
LINE
  5
1514
330
14B0
100
AcDbEntity
  8
0
 62
     0
100
AcDbLine
 10
499.4014158258267
 20
27.0
 30
0.0
 11
515.3986377970002
 21
27.0
 31
0.0
  0
LINE
  5
1515
330
14B0
100
AcDbEntity
  8
0
 62
     0
100
AcDbLine
 10
583.3934311425958
 20
27.0
 30
0.0
 11
596.6514158258269
 21
27.0
 31
0.0
  0
LINE
  5
1516
330
14B0
100
AcDbEntity
  8
0
 62
     0
100
AcDbLine
 10
460.1514158258267
 20
27.0
 30
0.0
 11
473.4014158258258
 21
27.0
 31
0.0
  0
LINE
  5
1517
330
14B0
100
AcDbEntity
  8
0
 62
     0
100
AcDbLine
 10
541.3939014265734
 20
28.5
 30
0.0
 11
557.4104154804984
 21
28.5
 31
0.0
  0
LINE
  5
1518
330
14B0
100
AcDbEntity
  8
0
 62
     0
100
AcDbLine
 10
499.4014158258267
 20
28.5
 30
0.0
 11
515.3986377970002
 21
28.5
 31
0.0
  0
LINE
  5
1519
330
14B0
100
AcDbEntity
  8
0
 62
     0
100
AcDbLine
 10
583.3934311425958
 20
28.5
 30
0.0
 11
596.6514158258269
 21
28.5
 31
0.0
  0
LINE
  5
151A
330
14B0
100
AcDbEntity
  8
0
 62
     0
100
AcDbLine
 10
460.1514158258267
 20
28.5
 30
0.0
 11
473.4014158258258
 21
28.5
 31
0.0
  0
LINE
  5
151B
330
14B0
100
AcDbEntity
  8
0
 62
     0
100
AcDbLine
 10
541.3939014265734
 20
30.0
 30
0.0
 11
557.4104154804984
 21
30.0
 31
0.0
  0
LINE
  5
151C
330
14B0
100
AcDbEntity
  8
0
 62
     0
100
AcDbLine
 10
499.4014158258267
 20
30.0
 30
0.0
 11
515.3986377970002
 21
30.0
 31
0.0
  0
LINE
  5
151D
330
14B0
100
AcDbEntity
  8
0
 62
     0
100
AcDbLine
 10
583.3934311425958
 20
30.0
 30
0.0
 11
596.6514158258269
 21
30.0
 31
0.0
  0
LINE
  5
151E
330
14B0
100
AcDbEntity
  8
0
 62
     0
100
AcDbLine
 10
460.1514158258267
 20
30.0
 30
0.0
 11
473.4014158258258
 21
30.0
 31
0.0
  0
LINE
  5
151F
330
14B0
100
AcDbEntity
  8
0
 62
     0
100
AcDbLine
 10
541.3939014265734
 20
31.5
 30
0.0
 11
557.4104154804984
 21
31.5
 31
0.0
  0
LINE
  5
1520
330
14B0
100
AcDbEntity
  8
0
 62
     0
100
AcDbLine
 10
499.4014158258267
 20
31.5
 30
0.0
 11
515.3986377970002
 21
31.5
 31
0.0
  0
LINE
  5
1521
330
14B0
100
AcDbEntity
  8
0
 62
     0
100
AcDbLine
 10
583.3934311425958
 20
31.5
 30
0.0
 11
596.6514158258269
 21
31.5
 31
0.0
  0
LINE
  5
1522
330
14B0
100
AcDbEntity
  8
0
 62
     0
100
AcDbLine
 10
460.1514158258267
 20
31.5
 30
0.0
 11
473.4014158258258
 21
31.5
 31
0.0
  0
LINE
  5
1523
330
14B0
100
AcDbEntity
  8
0
 62
     0
100
AcDbLine
 10
541.3939014265734
 20
33.0
 30
0.0
 11
557.4104154804984
 21
33.0
 31
0.0
  0
LINE
  5
1524
330
14B0
100
AcDbEntity
  8
0
 62
     0
100
AcDbLine
 10
499.4014158258267
 20
33.0
 30
0.0
 11
515.3986377970002
 21
33.0
 31
0.0
  0
LINE
  5
1525
330
14B0
100
AcDbEntity
  8
0
 62
     0
100
AcDbLine
 10
583.3934311425958
 20
33.0
 30
0.0
 11
596.6514158258269
 21
33.0
 31
0.0
  0
LINE
  5
1526
330
14B0
100
AcDbEntity
  8
0
 62
     0
100
AcDbLine
 10
460.1514158258267
 20
33.0
 30
0.0
 11
473.4014158258258
 21
33.0
 31
0.0
  0
LINE
  5
1527
330
14B0
100
AcDbEntity
  8
0
 62
     0
100
AcDbLine
 10
541.3939014265734
 20
34.5
 30
0.0
 11
557.4104154804984
 21
34.5
 31
0.0
  0
LINE
  5
1528
330
14B0
100
AcDbEntity
  8
0
 62
     0
100
AcDbLine
 10
499.4014158258267
 20
34.5
 30
0.0
 11
515.3986377970002
 21
34.5
 31
0.0
  0
LINE
  5
1529
330
14B0
100
AcDbEntity
  8
0
 62
     0
100
AcDbLine
 10
583.3934311425958
 20
34.5
 30
0.0
 11
596.6514158258267
 21
34.5
 31
0.0
  0
LINE
  5
152A
330
14B0
100
AcDbEntity
  8
0
 62
     0
100
AcDbLine
 10
460.1514158258267
 20
34.5
 30
0.0
 11
473.4014158258258
 21
34.5
 31
0.0
  0
LINE
  5
152B
330
14B0
100
AcDbEntity
  8
0
 62
     0
100
AcDbLine
 10
541.3939014265734
 20
36.0
 30
0.0
 11
557.4104154804984
 21
36.0
 31
0.0
  0
LINE
  5
152C
330
14B0
100
AcDbEntity
  8
0
 62
     0
100
AcDbLine
 10
499.4014158258267
 20
36.0
 30
0.0
 11
515.3986377970002
 21
36.0
 31
0.0
  0
LINE
  5
152D
330
14B0
100
AcDbEntity
  8
0
 62
     0
100
AcDbLine
 10
583.3934311425958
 20
36.0
 30
0.0
 11
596.6514158258267
 21
36.0
 31
0.0
  0
LINE
  5
152E
330
14B0
100
AcDbEntity
  8
0
 62
     0
100
AcDbLine
 10
460.1514158258267
 20
36.0
 30
0.0
 11
473.4014158258258
 21
36.0
 31
0.0
  0
LINE
  5
152F
330
14B0
100
AcDbEntity
  8
0
 62
     0
100
AcDbLine
 10
541.3939014265734
 20
37.5
 30
0.0
 11
557.4104154804984
 21
37.5
 31
0.0
  0
LINE
  5
1530
330
14B0
100
AcDbEntity
  8
0
 62
     0
100
AcDbLine
 10
499.4014158258267
 20
37.5
 30
0.0
 11
515.3986377970002
 21
37.5
 31
0.0
  0
LINE
  5
1531
330
14B0
100
AcDbEntity
  8
0
 62
     0
100
AcDbLine
 10
583.3934311425958
 20
37.5
 30
0.0
 11
596.6514158258267
 21
37.5
 31
0.0
  0
LINE
  5
1532
330
14B0
100
AcDbEntity
  8
0
 62
     0
100
AcDbLine
 10
460.1514158258266
 20
37.5
 30
0.0
 11
473.4014158258258
 21
37.5
 31
0.0
  0
LINE
  5
1533
330
14B0
100
AcDbEntity
  8
0
 62
     0
100
AcDbLine
 10
541.3939014265734
 20
39.0
 30
0.0
 11
557.4104154804984
 21
39.0
 31
0.0
  0
LINE
  5
1534
330
14B0
100
AcDbEntity
  8
0
 62
     0
100
AcDbLine
 10
499.4014158258267
 20
39.0
 30
0.0
 11
515.3986377970002
 21
39.0
 31
0.0
  0
LINE
  5
1535
330
14B0
100
AcDbEntity
  8
0
 62
     0
100
AcDbLine
 10
583.3934311425958
 20
39.0
 30
0.0
 11
596.6514158258267
 21
39.0
 31
0.0
  0
LINE
  5
1536
330
14B0
100
AcDbEntity
  8
0
 62
     0
100
AcDbLine
 10
460.1514158258266
 20
39.0
 30
0.0
 11
473.4014158258258
 21
39.0
 31
0.0
  0
LINE
  5
1537
330
14B0
100
AcDbEntity
  8
0
 62
     0
100
AcDbLine
 10
541.3939014265734
 20
40.49999999999999
 30
0.0
 11
557.4104154804984
 21
40.49999999999999
 31
0.0
  0
LINE
  5
1538
330
14B0
100
AcDbEntity
  8
0
 62
     0
100
AcDbLine
 10
499.4014158258267
 20
40.49999999999999
 30
0.0
 11
515.3986377970002
 21
40.49999999999999
 31
0.0
  0
LINE
  5
1539
330
14B0
100
AcDbEntity
  8
0
 62
     0
100
AcDbLine
 10
583.3934311425958
 20
40.49999999999999
 30
0.0
 11
596.6514158258267
 21
40.49999999999999
 31
0.0
  0
LINE
  5
153A
330
14B0
100
AcDbEntity
  8
0
 62
     0
100
AcDbLine
 10
460.1514158258266
 20
40.49999999999999
 30
0.0
 11
473.4014158258258
 21
40.49999999999999
 31
0.0
  0
LINE
  5
153B
330
14B0
100
AcDbEntity
  8
0
 62
     0
100
AcDbLine
 10
541.3939014265734
 20
42.0
 30
0.0
 11
557.4104154804984
 21
42.0
 31
0.0
  0
LINE
  5
153C
330
14B0
100
AcDbEntity
  8
0
 62
     0
100
AcDbLine
 10
499.4014158258267
 20
42.0
 30
0.0
 11
515.3986377970002
 21
42.0
 31
0.0
  0
LINE
  5
153D
330
14B0
100
AcDbEntity
  8
0
 62
     0
100
AcDbLine
 10
583.3934311425958
 20
42.0
 30
0.0
 11
596.6514158258267
 21
42.0
 31
0.0
  0
LINE
  5
153E
330
14B0
100
AcDbEntity
  8
0
 62
     0
100
AcDbLine
 10
460.1514158258266
 20
42.0
 30
0.0
 11
473.4014158258258
 21
42.0
 31
0.0
  0
LINE
  5
153F
330
14B0
100
AcDbEntity
  8
0
 62
     0
100
AcDbLine
 10
541.3939014265734
 20
43.5
 30
0.0
 11
557.4104154804984
 21
43.5
 31
0.0
  0
LINE
  5
1540
330
14B0
100
AcDbEntity
  8
0
 62
     0
100
AcDbLine
 10
499.4014158258267
 20
43.5
 30
0.0
 11
515.3986377970002
 21
43.5
 31
0.0
  0
LINE
  5
1541
330
14B0
100
AcDbEntity
  8
0
 62
     0
100
AcDbLine
 10
583.3934311425958
 20
43.5
 30
0.0
 11
596.6514158258267
 21
43.5
 31
0.0
  0
LINE
  5
1542
330
14B0
100
AcDbEntity
  8
0
 62
     0
100
AcDbLine
 10
460.1514158258266
 20
43.5
 30
0.0
 11
473.4014158258258
 21
43.5
 31
0.0
  0
LINE
  5
1543
330
14B0
100
AcDbEntity
  8
0
 62
     0
100
AcDbLine
 10
541.3939014265734
 20
45.0
 30
0.0
 11
557.4104154804984
 21
45.0
 31
0.0
  0
LINE
  5
1544
330
14B0
100
AcDbEntity
  8
0
 62
     0
100
AcDbLine
 10
499.4014158258267
 20
45.0
 30
0.0
 11
515.3986377970002
 21
45.0
 31
0.0
  0
LINE
  5
1545
330
14B0
100
AcDbEntity
  8
0
 62
     0
100
AcDbLine
 10
583.3934311425958
 20
45.0
 30
0.0
 11
596.6514158258267
 21
45.0
 31
0.0
  0
LINE
  5
1546
330
14B0
100
AcDbEntity
  8
0
 62
     0
100
AcDbLine
 10
460.1514158258266
 20
45.0
 30
0.0
 11
473.4014158258258
 21
45.0
 31
0.0
  0
LINE
  5
1547
330
14B0
100
AcDbEntity
  8
0
 62
     0
100
AcDbLine
 10
541.3939014265734
 20
46.5
 30
0.0
 11
557.4104154804984
 21
46.5
 31
0.0
  0
LINE
  5
1548
330
14B0
100
AcDbEntity
  8
0
 62
     0
100
AcDbLine
 10
499.4014158258267
 20
46.5
 30
0.0
 11
515.3986377970002
 21
46.5
 31
0.0
  0
LINE
  5
1549
330
14B0
100
AcDbEntity
  8
0
 62
     0
100
AcDbLine
 10
583.3934311425958
 20
46.5
 30
0.0
 11
596.6514158258267
 21
46.5
 31
0.0
  0
LINE
  5
154A
330
14B0
100
AcDbEntity
  8
0
 62
     0
100
AcDbLine
 10
460.1514158258266
 20
46.5
 30
0.0
 11
473.4014158258258
 21
46.5
 31
0.0
  0
LINE
  5
154B
330
14B0
100
AcDbEntity
  8
0
 62
     0
100
AcDbLine
 10
541.3939014265734
 20
48.0
 30
0.0
 11
557.4104154804984
 21
48.0
 31
0.0
  0
LINE
  5
154C
330
14B0
100
AcDbEntity
  8
0
 62
     0
100
AcDbLine
 10
499.4014158258267
 20
48.0
 30
0.0
 11
515.3986377970002
 21
48.0
 31
0.0
  0
LINE
  5
154D
330
14B0
100
AcDbEntity
  8
0
 62
     0
100
AcDbLine
 10
583.3934311425958
 20
48.0
 30
0.0
 11
596.6514158258267
 21
48.0
 31
0.0
  0
LINE
  5
154E
330
14B0
100
AcDbEntity
  8
0
 62
     0
100
AcDbLine
 10
460.1514158258266
 20
48.0
 30
0.0
 11
473.4014158258258
 21
48.0
 31
0.0
  0
LINE
  5
154F
330
14B0
100
AcDbEntity
  8
0
 62
     0
100
AcDbLine
 10
541.3939014265734
 20
49.5
 30
0.0
 11
557.4104154804984
 21
49.5
 31
0.0
  0
LINE
  5
1550
330
14B0
100
AcDbEntity
  8
0
 62
     0
100
AcDbLine
 10
499.4014158258267
 20
49.5
 30
0.0
 11
515.3986377970002
 21
49.5
 31
0.0
  0
LINE
  5
1551
330
14B0
100
AcDbEntity
  8
0
 62
     0
100
AcDbLine
 10
583.3934311425958
 20
49.5
 30
0.0
 11
596.6514158258267
 21
49.5
 31
0.0
  0
LINE
  5
1552
330
14B0
100
AcDbEntity
  8
0
 62
     0
100
AcDbLine
 10
460.1514158258265
 20
49.5
 30
0.0
 11
473.4014158258258
 21
49.5
 31
0.0
  0
LINE
  5
1553
330
14B0
100
AcDbEntity
  8
0
 62
     0
100
AcDbLine
 10
541.3939014265734
 20
51.0
 30
0.0
 11
557.4104154804984
 21
51.0
 31
0.0
  0
LINE
  5
1554
330
14B0
100
AcDbEntity
  8
0
 62
     0
100
AcDbLine
 10
499.4014158258267
 20
51.0
 30
0.0
 11
515.3986377970002
 21
51.0
 31
0.0
  0
LINE
  5
1555
330
14B0
100
AcDbEntity
  8
0
 62
     0
100
AcDbLine
 10
583.3934311425958
 20
51.0
 30
0.0
 11
596.6514158258267
 21
51.0
 31
0.0
  0
LINE
  5
1556
330
14B0
100
AcDbEntity
  8
0
 62
     0
100
AcDbLine
 10
460.1514158258265
 20
51.0
 30
0.0
 11
473.4014158258258
 21
51.0
 31
0.0
  0
LINE
  5
1557
330
14B0
100
AcDbEntity
  8
0
 62
     0
100
AcDbLine
 10
541.3939014265734
 20
52.5
 30
0.0
 11
557.4104154804984
 21
52.5
 31
0.0
  0
LINE
  5
1558
330
14B0
100
AcDbEntity
  8
0
 62
     0
100
AcDbLine
 10
499.4014158258267
 20
52.5
 30
0.0
 11
515.3986377970002
 21
52.5
 31
0.0
  0
LINE
  5
1559
330
14B0
100
AcDbEntity
  8
0
 62
     0
100
AcDbLine
 10
583.3934311425958
 20
52.5
 30
0.0
 11
596.6514158258267
 21
52.5
 31
0.0
  0
LINE
  5
155A
330
14B0
100
AcDbEntity
  8
0
 62
     0
100
AcDbLine
 10
460.1514158258265
 20
52.5
 30
0.0
 11
473.4014158258258
 21
52.5
 31
0.0
  0
LINE
  5
155B
330
14B0
100
AcDbEntity
  8
0
 62
     0
100
AcDbLine
 10
541.3939014265734
 20
54.0
 30
0.0
 11
557.4104154804984
 21
54.0
 31
0.0
  0
LINE
  5
155C
330
14B0
100
AcDbEntity
  8
0
 62
     0
100
AcDbLine
 10
499.4014158258267
 20
54.0
 30
0.0
 11
515.3986377970002
 21
54.0
 31
0.0
  0
LINE
  5
155D
330
14B0
100
AcDbEntity
  8
0
 62
     0
100
AcDbLine
 10
583.3934311425958
 20
54.0
 30
0.0
 11
596.6514158258267
 21
54.0
 31
0.0
  0
LINE
  5
155E
330
14B0
100
AcDbEntity
  8
0
 62
     0
100
AcDbLine
 10
460.1514158258265
 20
54.0
 30
0.0
 11
473.4014158258258
 21
54.0
 31
0.0
  0
LINE
  5
155F
330
14B0
100
AcDbEntity
  8
0
 62
     0
100
AcDbLine
 10
541.3939014265734
 20
55.5
 30
0.0
 11
557.4104154804984
 21
55.5
 31
0.0
  0
LINE
  5
1560
330
14B0
100
AcDbEntity
  8
0
 62
     0
100
AcDbLine
 10
499.4014158258267
 20
55.5
 30
0.0
 11
515.3986377970002
 21
55.5
 31
0.0
  0
LINE
  5
1561
330
14B0
100
AcDbEntity
  8
0
 62
     0
100
AcDbLine
 10
583.3934311425958
 20
55.5
 30
0.0
 11
596.6514158258267
 21
55.5
 31
0.0
  0
LINE
  5
1562
330
14B0
100
AcDbEntity
  8
0
 62
     0
100
AcDbLine
 10
460.1514158258265
 20
55.5
 30
0.0
 11
473.4014158258258
 21
55.5
 31
0.0
  0
LINE
  5
1563
330
14B0
100
AcDbEntity
  8
0
 62
     0
100
AcDbLine
 10
541.3939014265734
 20
57.0
 30
0.0
 11
557.4104154804984
 21
57.0
 31
0.0
  0
LINE
  5
1564
330
14B0
100
AcDbEntity
  8
0
 62
     0
100
AcDbLine
 10
499.4014158258267
 20
57.0
 30
0.0
 11
515.3986377970002
 21
57.0
 31
0.0
  0
LINE
  5
1565
330
14B0
100
AcDbEntity
  8
0
 62
     0
100
AcDbLine
 10
583.3934311425958
 20
57.0
 30
0.0
 11
596.6514158258267
 21
57.0
 31
0.0
  0
LINE
  5
1566
330
14B0
100
AcDbEntity
  8
0
 62
     0
100
AcDbLine
 10
460.1514158258265
 20
57.0
 30
0.0
 11
473.4014158258258
 21
57.0
 31
0.0
  0
LINE
  5
1567
330
14B0
100
AcDbEntity
  8
0
 62
     0
100
AcDbLine
 10
541.3939014265734
 20
58.5
 30
0.0
 11
557.4104154804984
 21
58.5
 31
0.0
  0
LINE
  5
1568
330
14B0
100
AcDbEntity
  8
0
 62
     0
100
AcDbLine
 10
499.4014158258267
 20
58.5
 30
0.0
 11
515.3986377970002
 21
58.5
 31
0.0
  0
LINE
  5
1569
330
14B0
100
AcDbEntity
  8
0
 62
     0
100
AcDbLine
 10
583.3934311425958
 20
58.5
 30
0.0
 11
596.6514158258262
 21
58.5
 31
0.0
  0
LINE
  5
156A
330
14B0
100
AcDbEntity
  8
0
 62
     0
100
AcDbLine
 10
460.1514158258265
 20
58.5
 30
0.0
 11
473.4014158258258
 21
58.5
 31
0.0
  0
LINE
  5
156B
330
14B0
100
AcDbEntity
  8
0
 62
     0
100
AcDbLine
 10
541.3939014265734
 20
60.0
 30
0.0
 11
557.4104154804984
 21
60.0
 31
0.0
  0
LINE
  5
156C
330
14B0
100
AcDbEntity
  8
0
 62
     0
100
AcDbLine
 10
499.4014158258267
 20
60.0
 30
0.0
 11
515.3986377970002
 21
60.0
 31
0.0
  0
LINE
  5
156D
330
14B0
100
AcDbEntity
  8
0
 62
     0
100
AcDbLine
 10
583.3934311425958
 20
60.0
 30
0.0
 11
596.6514158258262
 21
60.0
 31
0.0
  0
LINE
  5
156E
330
14B0
100
AcDbEntity
  8
0
 62
     0
100
AcDbLine
 10
460.1514158258265
 20
60.0
 30
0.0
 11
473.4014158258258
 21
60.0
 31
0.0
  0
LINE
  5
156F
330
14B0
100
AcDbEntity
  8
0
 62
     0
100
AcDbLine
 10
541.3939014265734
 20
61.5
 30
0.0
 11
557.4104154804984
 21
61.5
 31
0.0
  0
LINE
  5
1570
330
14B0
100
AcDbEntity
  8
0
 62
     0
100
AcDbLine
 10
499.4014158258267
 20
61.5
 30
0.0
 11
515.3986377970002
 21
61.5
 31
0.0
  0
LINE
  5
1571
330
14B0
100
AcDbEntity
  8
0
 62
     0
100
AcDbLine
 10
583.3934311425958
 20
61.5
 30
0.0
 11
596.6514158258262
 21
61.5
 31
0.0
  0
LINE
  5
1572
330
14B0
100
AcDbEntity
  8
0
 62
     0
100
AcDbLine
 10
460.1514158258265
 20
61.5
 30
0.0
 11
473.4014158258258
 21
61.5
 31
0.0
  0
LINE
  5
1573
330
14B0
100
AcDbEntity
  8
0
 62
     0
100
AcDbLine
 10
541.3939014265734
 20
63.0
 30
0.0
 11
557.4104154804984
 21
63.0
 31
0.0
  0
LINE
  5
1574
330
14B0
100
AcDbEntity
  8
0
 62
     0
100
AcDbLine
 10
499.4014158258267
 20
63.0
 30
0.0
 11
515.3986377970002
 21
63.0
 31
0.0
  0
LINE
  5
1575
330
14B0
100
AcDbEntity
  8
0
 62
     0
100
AcDbLine
 10
583.3934311425958
 20
63.0
 30
0.0
 11
596.6514158258262
 21
63.0
 31
0.0
  0
LINE
  5
1576
330
14B0
100
AcDbEntity
  8
0
 62
     0
100
AcDbLine
 10
460.1514158258265
 20
63.0
 30
0.0
 11
473.4014158258258
 21
63.0
 31
0.0
  0
LINE
  5
1577
330
14B0
100
AcDbEntity
  8
0
 62
     0
100
AcDbLine
 10
541.3939014265734
 20
64.5
 30
0.0
 11
557.4104154804984
 21
64.5
 31
0.0
  0
LINE
  5
1578
330
14B0
100
AcDbEntity
  8
0
 62
     0
100
AcDbLine
 10
499.4014158258267
 20
64.5
 30
0.0
 11
515.3986377970002
 21
64.5
 31
0.0
  0
LINE
  5
1579
330
14B0
100
AcDbEntity
  8
0
 62
     0
100
AcDbLine
 10
583.3934311425958
 20
64.5
 30
0.0
 11
596.6514158258262
 21
64.5
 31
0.0
  0
LINE
  5
157A
330
14B0
100
AcDbEntity
  8
0
 62
     0
100
AcDbLine
 10
460.1514158258265
 20
64.5
 30
0.0
 11
473.4014158258258
 21
64.5
 31
0.0
  0
LINE
  5
157B
330
14B0
100
AcDbEntity
  8
0
 62
     0
100
AcDbLine
 10
541.3939014265734
 20
66.0
 30
0.0
 11
557.4104154804984
 21
66.0
 31
0.0
  0
LINE
  5
157C
330
14B0
100
AcDbEntity
  8
0
 62
     0
100
AcDbLine
 10
499.4014158258267
 20
66.0
 30
0.0
 11
515.3986377970002
 21
66.0
 31
0.0
  0
LINE
  5
157D
330
14B0
100
AcDbEntity
  8
0
 62
     0
100
AcDbLine
 10
583.3934311425958
 20
66.0
 30
0.0
 11
596.6514158258262
 21
66.0
 31
0.0
  0
LINE
  5
157E
330
14B0
100
AcDbEntity
  8
0
 62
     0
100
AcDbLine
 10
460.1514158258265
 20
66.0
 30
0.0
 11
473.4014158258258
 21
66.0
 31
0.0
  0
LINE
  5
157F
330
14B0
100
AcDbEntity
  8
0
 62
     0
100
AcDbLine
 10
541.3939014265734
 20
67.5
 30
0.0
 11
557.4104154804984
 21
67.5
 31
0.0
  0
LINE
  5
1580
330
14B0
100
AcDbEntity
  8
0
 62
     0
100
AcDbLine
 10
499.4014158258267
 20
67.5
 30
0.0
 11
515.3986377970002
 21
67.5
 31
0.0
  0
LINE
  5
1581
330
14B0
100
AcDbEntity
  8
0
 62
     0
100
AcDbLine
 10
583.3934311425958
 20
67.5
 30
0.0
 11
596.6514158258262
 21
67.5
 31
0.0
  0
LINE
  5
1582
330
14B0
100
AcDbEntity
  8
0
 62
     0
100
AcDbLine
 10
460.1514158258265
 20
67.5
 30
0.0
 11
473.4014158258258
 21
67.5
 31
0.0
  0
LINE
  5
1583
330
14B0
100
AcDbEntity
  8
0
 62
     0
100
AcDbLine
 10
541.3939014265734
 20
69.0
 30
0.0
 11
557.4104154804984
 21
69.0
 31
0.0
  0
LINE
  5
1584
330
14B0
100
AcDbEntity
  8
0
 62
     0
100
AcDbLine
 10
499.4014158258267
 20
69.0
 30
0.0
 11
515.3986377970002
 21
69.0
 31
0.0
  0
LINE
  5
1585
330
14B0
100
AcDbEntity
  8
0
 62
     0
100
AcDbLine
 10
583.3934311425958
 20
69.0
 30
0.0
 11
596.6514158258262
 21
69.0
 31
0.0
  0
LINE
  5
1586
330
14B0
100
AcDbEntity
  8
0
 62
     0
100
AcDbLine
 10
460.1514158258265
 20
69.0
 30
0.0
 11
473.4014158258258
 21
69.0
 31
0.0
  0
LINE
  5
1587
330
14B0
100
AcDbEntity
  8
0
 62
     0
100
AcDbLine
 10
541.3939014265734
 20
70.5
 30
0.0
 11
557.4104154804984
 21
70.5
 31
0.0
  0
LINE
  5
1588
330
14B0
100
AcDbEntity
  8
0
 62
     0
100
AcDbLine
 10
499.4014158258267
 20
70.5
 30
0.0
 11
515.3986377970002
 21
70.5
 31
0.0
  0
LINE
  5
1589
330
14B0
100
AcDbEntity
  8
0
 62
     0
100
AcDbLine
 10
583.3934311425958
 20
70.5
 30
0.0
 11
596.6514158258262
 21
70.5
 31
0.0
  0
LINE
  5
158A
330
14B0
100
AcDbEntity
  8
0
 62
     0
100
AcDbLine
 10
460.1514158258265
 20
70.5
 30
0.0
 11
473.4014158258258
 21
70.5
 31
0.0
  0
LINE
  5
158B
330
14B0
100
AcDbEntity
  8
0
 62
     0
100
AcDbLine
 10
541.3939014265734
 20
72.0
 30
0.0
 11
557.4104154804984
 21
72.0
 31
0.0
  0
LINE
  5
158C
330
14B0
100
AcDbEntity
  8
0
 62
     0
100
AcDbLine
 10
499.4014158258267
 20
72.0
 30
0.0
 11
515.3986377970002
 21
72.0
 31
0.0
  0
LINE
  5
158D
330
14B0
100
AcDbEntity
  8
0
 62
     0
100
AcDbLine
 10
583.3934311425958
 20
72.0
 30
0.0
 11
596.6514158258262
 21
72.0
 31
0.0
  0
LINE
  5
158E
330
14B0
100
AcDbEntity
  8
0
 62
     0
100
AcDbLine
 10
460.1514158258265
 20
72.0
 30
0.0
 11
473.4014158258258
 21
72.0
 31
0.0
  0
LINE
  5
158F
330
14B0
100
AcDbEntity
  8
0
 62
     0
100
AcDbLine
 10
541.3939014265734
 20
73.5
 30
0.0
 11
557.4104154804984
 21
73.5
 31
0.0
  0
LINE
  5
1590
330
14B0
100
AcDbEntity
  8
0
 62
     0
100
AcDbLine
 10
499.4014158258267
 20
73.5
 30
0.0
 11
515.3986377970002
 21
73.5
 31
0.0
  0
LINE
  5
1591
330
14B0
100
AcDbEntity
  8
0
 62
     0
100
AcDbLine
 10
583.3934311425958
 20
73.5
 30
0.0
 11
596.6514158258262
 21
73.5
 31
0.0
  0
LINE
  5
1592
330
14B0
100
AcDbEntity
  8
0
 62
     0
100
AcDbLine
 10
460.1514158258265
 20
73.5
 30
0.0
 11
473.4014158258258
 21
73.5
 31
0.0
  0
LINE
  5
1593
330
14B0
100
AcDbEntity
  8
0
 62
     0
100
AcDbLine
 10
541.3939014265734
 20
75.0
 30
0.0
 11
557.4104154804984
 21
75.0
 31
0.0
  0
LINE
  5
1594
330
14B0
100
AcDbEntity
  8
0
 62
     0
100
AcDbLine
 10
499.4014158258267
 20
75.0
 30
0.0
 11
515.3986377970002
 21
75.0
 31
0.0
  0
LINE
  5
1595
330
14B0
100
AcDbEntity
  8
0
 62
     0
100
AcDbLine
 10
583.3934311425958
 20
75.0
 30
0.0
 11
596.6514158258262
 21
75.0
 31
0.0
  0
LINE
  5
1596
330
14B0
100
AcDbEntity
  8
0
 62
     0
100
AcDbLine
 10
460.1514158258265
 20
75.0
 30
0.0
 11
473.4014158258258
 21
75.0
 31
0.0
  0
LINE
  5
1597
330
14B0
100
AcDbEntity
  8
0
 62
     0
100
AcDbLine
 10
541.3939014265734
 20
76.5
 30
0.0
 11
557.4104154804984
 21
76.5
 31
0.0
  0
LINE
  5
1598
330
14B0
100
AcDbEntity
  8
0
 62
     0
100
AcDbLine
 10
499.4014158258267
 20
76.5
 30
0.0
 11
515.3986377970002
 21
76.5
 31
0.0
  0
LINE
  5
1599
330
14B0
100
AcDbEntity
  8
0
 62
     0
100
AcDbLine
 10
583.3934311425958
 20
76.5
 30
0.0
 11
596.6514158258262
 21
76.5
 31
0.0
  0
LINE
  5
159A
330
14B0
100
AcDbEntity
  8
0
 62
     0
100
AcDbLine
 10
460.1514158258265
 20
76.5
 30
0.0
 11
473.4014158258258
 21
76.5
 31
0.0
  0
LINE
  5
159B
330
14B0
100
AcDbEntity
  8
0
 62
     0
100
AcDbLine
 10
541.3939014265734
 20
78.0
 30
0.0
 11
557.4104154804984
 21
78.0
 31
0.0
  0
LINE
  5
159C
330
14B0
100
AcDbEntity
  8
0
 62
     0
100
AcDbLine
 10
499.4014158258267
 20
78.0
 30
0.0
 11
515.3986377970002
 21
78.0
 31
0.0
  0
LINE
  5
159D
330
14B0
100
AcDbEntity
  8
0
 62
     0
100
AcDbLine
 10
583.3934311425958
 20
78.0
 30
0.0
 11
596.6514158258262
 21
78.0
 31
0.0
  0
LINE
  5
159E
330
14B0
100
AcDbEntity
  8
0
 62
     0
100
AcDbLine
 10
460.1514158258263
 20
78.0
 30
0.0
 11
473.4014158258258
 21
78.0
 31
0.0
  0
LINE
  5
159F
330
14B0
100
AcDbEntity
  8
0
 62
     0
100
AcDbLine
 10
541.3939014265734
 20
79.5
 30
0.0
 11
557.4104154804984
 21
79.5
 31
0.0
  0
LINE
  5
15A0
330
14B0
100
AcDbEntity
  8
0
 62
     0
100
AcDbLine
 10
499.4014158258267
 20
79.5
 30
0.0
 11
515.3986377970002
 21
79.5
 31
0.0
  0
LINE
  5
15A1
330
14B0
100
AcDbEntity
  8
0
 62
     0
100
AcDbLine
 10
583.3934311425958
 20
79.5
 30
0.0
 11
596.6514158258262
 21
79.5
 31
0.0
  0
LINE
  5
15A2
330
14B0
100
AcDbEntity
  8
0
 62
     0
100
AcDbLine
 10
460.1514158258263
 20
79.5
 30
0.0
 11
473.4014158258258
 21
79.5
 31
0.0
  0
LINE
  5
15A3
330
14B0
100
AcDbEntity
  8
0
 62
     0
100
AcDbLine
 10
541.3939014265734
 20
81.0
 30
0.0
 11
557.4104154804984
 21
81.0
 31
0.0
  0
LINE
  5
15A4
330
14B0
100
AcDbEntity
  8
0
 62
     0
100
AcDbLine
 10
499.4014158258267
 20
81.0
 30
0.0
 11
515.3986377970002
 21
81.0
 31
0.0
  0
LINE
  5
15A5
330
14B0
100
AcDbEntity
  8
0
 62
     0
100
AcDbLine
 10
583.3934311425958
 20
81.0
 30
0.0
 11
596.6514158258262
 21
81.0
 31
0.0
  0
LINE
  5
15A6
330
14B0
100
AcDbEntity
  8
0
 62
     0
100
AcDbLine
 10
460.1514158258263
 20
81.0
 30
0.0
 11
473.4014158258258
 21
81.0
 31
0.0
  0
LINE
  5
15A7
330
14B0
100
AcDbEntity
  8
0
 62
     0
100
AcDbLine
 10
541.3939014265734
 20
82.5
 30
0.0
 11
557.4104154804984
 21
82.5
 31
0.0
  0
LINE
  5
15A8
330
14B0
100
AcDbEntity
  8
0
 62
     0
100
AcDbLine
 10
499.4014158258267
 20
82.5
 30
0.0
 11
515.3986377970002
 21
82.5
 31
0.0
  0
LINE
  5
15A9
330
14B0
100
AcDbEntity
  8
0
 62
     0
100
AcDbLine
 10
583.3934311425958
 20
82.5
 30
0.0
 11
596.6514158258262
 21
82.5
 31
0.0
  0
LINE
  5
15AA
330
14B0
100
AcDbEntity
  8
0
 62
     0
100
AcDbLine
 10
460.1514158258263
 20
82.5
 30
0.0
 11
473.4014158258258
 21
82.5
 31
0.0
  0
LINE
  5
15AB
330
14B0
100
AcDbEntity
  8
0
 62
     0
100
AcDbLine
 10
541.3939014265734
 20
84.0
 30
0.0
 11
557.4104154804984
 21
84.0
 31
0.0
  0
LINE
  5
15AC
330
14B0
100
AcDbEntity
  8
0
 62
     0
100
AcDbLine
 10
499.4014158258267
 20
84.0
 30
0.0
 11
515.3986377970002
 21
84.0
 31
0.0
  0
LINE
  5
15AD
330
14B0
100
AcDbEntity
  8
0
 62
     0
100
AcDbLine
 10
583.3934311425958
 20
84.0
 30
0.0
 11
596.6514158258262
 21
84.0
 31
0.0
  0
LINE
  5
15AE
330
14B0
100
AcDbEntity
  8
0
 62
     0
100
AcDbLine
 10
460.1514158258263
 20
84.0
 30
0.0
 11
473.4014158258258
 21
84.0
 31
0.0
  0
LINE
  5
15AF
330
14B0
100
AcDbEntity
  8
0
 62
     0
100
AcDbLine
 10
541.3939014265734
 20
85.5
 30
0.0
 11
557.4104154804984
 21
85.5
 31
0.0
  0
LINE
  5
15B0
330
14B0
100
AcDbEntity
  8
0
 62
     0
100
AcDbLine
 10
499.4014158258267
 20
85.5
 30
0.0
 11
515.3986377970002
 21
85.5
 31
0.0
  0
LINE
  5
15B1
330
14B0
100
AcDbEntity
  8
0
 62
     0
100
AcDbLine
 10
583.3934311425958
 20
85.5
 30
0.0
 11
596.6514158258262
 21
85.5
 31
0.0
  0
LINE
  5
15B2
330
14B0
100
AcDbEntity
  8
0
 62
     0
100
AcDbLine
 10
460.1514158258263
 20
85.5
 30
0.0
 11
473.4014158258258
 21
85.5
 31
0.0
  0
LINE
  5
15B3
330
14B0
100
AcDbEntity
  8
0
 62
     0
100
AcDbLine
 10
541.3939014265734
 20
87.0
 30
0.0
 11
557.4104154804984
 21
87.0
 31
0.0
  0
LINE
  5
15B4
330
14B0
100
AcDbEntity
  8
0
 62
     0
100
AcDbLine
 10
499.4014158258267
 20
87.0
 30
0.0
 11
515.3986377970002
 21
87.0
 31
0.0
  0
LINE
  5
15B5
330
14B0
100
AcDbEntity
  8
0
 62
     0
100
AcDbLine
 10
583.3934311425958
 20
87.0
 30
0.0
 11
596.6514158258262
 21
87.0
 31
0.0
  0
LINE
  5
15B6
330
14B0
100
AcDbEntity
  8
0
 62
     0
100
AcDbLine
 10
460.1514158258263
 20
87.0
 30
0.0
 11
473.4014158258258
 21
87.0
 31
0.0
  0
LINE
  5
15B7
330
14B0
100
AcDbEntity
  8
0
 62
     0
100
AcDbLine
 10
541.3939014265734
 20
88.49999999999999
 30
0.0
 11
557.4104154804984
 21
88.49999999999999
 31
0.0
  0
LINE
  5
15B8
330
14B0
100
AcDbEntity
  8
0
 62
     0
100
AcDbLine
 10
499.4014158258267
 20
88.49999999999999
 30
0.0
 11
515.3986377970002
 21
88.49999999999999
 31
0.0
  0
LINE
  5
15B9
330
14B0
100
AcDbEntity
  8
0
 62
     0
100
AcDbLine
 10
583.3934311425958
 20
88.49999999999999
 30
0.0
 11
596.6514158258262
 21
88.49999999999999
 31
0.0
  0
LINE
  5
15BA
330
14B0
100
AcDbEntity
  8
0
 62
     0
100
AcDbLine
 10
460.1514158258263
 20
88.49999999999999
 30
0.0
 11
473.4014158258258
 21
88.49999999999999
 31
0.0
  0
LINE
  5
15BB
330
14B0
100
AcDbEntity
  8
0
 62
     0
100
AcDbLine
 10
541.3939014265734
 20
90.0
 30
0.0
 11
557.4104154804984
 21
90.0
 31
0.0
  0
LINE
  5
15BC
330
14B0
100
AcDbEntity
  8
0
 62
     0
100
AcDbLine
 10
499.4014158258267
 20
90.0
 30
0.0
 11
515.3986377970002
 21
90.0
 31
0.0
  0
LINE
  5
15BD
330
14B0
100
AcDbEntity
  8
0
 62
     0
100
AcDbLine
 10
583.3934311425958
 20
90.0
 30
0.0
 11
596.6514158258262
 21
90.0
 31
0.0
  0
LINE
  5
15BE
330
14B0
100
AcDbEntity
  8
0
 62
     0
100
AcDbLine
 10
460.1514158258263
 20
90.0
 30
0.0
 11
473.4014158258258
 21
90.0
 31
0.0
  0
LINE
  5
15BF
330
14B0
100
AcDbEntity
  8
0
 62
     0
100
AcDbLine
 10
541.3939014265734
 20
91.5
 30
0.0
 11
557.4104154804984
 21
91.5
 31
0.0
  0
LINE
  5
15C0
330
14B0
100
AcDbEntity
  8
0
 62
     0
100
AcDbLine
 10
499.4014158258267
 20
91.5
 30
0.0
 11
515.3986377970002
 21
91.5
 31
0.0
  0
LINE
  5
15C1
330
14B0
100
AcDbEntity
  8
0
 62
     0
100
AcDbLine
 10
583.3934311425958
 20
91.5
 30
0.0
 11
596.6514158258262
 21
91.5
 31
0.0
  0
LINE
  5
15C2
330
14B0
100
AcDbEntity
  8
0
 62
     0
100
AcDbLine
 10
460.1514158258263
 20
91.5
 30
0.0
 11
473.4014158258258
 21
91.5
 31
0.0
  0
LINE
  5
15C3
330
14B0
100
AcDbEntity
  8
0
 62
     0
100
AcDbLine
 10
541.3939014265734
 20
93.0
 30
0.0
 11
557.4104154804984
 21
93.0
 31
0.0
  0
LINE
  5
15C4
330
14B0
100
AcDbEntity
  8
0
 62
     0
100
AcDbLine
 10
499.4014158258267
 20
93.0
 30
0.0
 11
515.3986377970002
 21
93.0
 31
0.0
  0
LINE
  5
15C5
330
14B0
100
AcDbEntity
  8
0
 62
     0
100
AcDbLine
 10
583.3934311425958
 20
93.0
 30
0.0
 11
596.6514158258262
 21
93.0
 31
0.0
  0
LINE
  5
15C6
330
14B0
100
AcDbEntity
  8
0
 62
     0
100
AcDbLine
 10
460.1514158258263
 20
93.0
 30
0.0
 11
473.4014158258258
 21
93.0
 31
0.0
  0
LINE
  5
15C7
330
14B0
100
AcDbEntity
  8
0
 62
     0
100
AcDbLine
 10
541.3939014265734
 20
94.50000000000001
 30
0.0
 11
557.4104154804984
 21
94.50000000000001
 31
0.0
  0
LINE
  5
15C8
330
14B0
100
AcDbEntity
  8
0
 62
     0
100
AcDbLine
 10
499.4014158258267
 20
94.50000000000001
 30
0.0
 11
515.3986377970002
 21
94.50000000000001
 31
0.0
  0
LINE
  5
15C9
330
14B0
100
AcDbEntity
  8
0
 62
     0
100
AcDbLine
 10
583.3934311425958
 20
94.50000000000001
 30
0.0
 11
596.6514158258262
 21
94.50000000000001
 31
0.0
  0
LINE
  5
15CA
330
14B0
100
AcDbEntity
  8
0
 62
     0
100
AcDbLine
 10
460.1514158258263
 20
94.50000000000001
 30
0.0
 11
473.4014158258258
 21
94.50000000000001
 31
0.0
  0
LINE
  5
15CB
330
14B0
100
AcDbEntity
  8
0
 62
     0
100
AcDbLine
 10
541.3939014265734
 20
96.0
 30
0.0
 11
557.4104154804984
 21
96.0
 31
0.0
  0
LINE
  5
15CC
330
14B0
100
AcDbEntity
  8
0
 62
     0
100
AcDbLine
 10
499.4014158258267
 20
96.0
 30
0.0
 11
515.3986377970002
 21
96.0
 31
0.0
  0
LINE
  5
15CD
330
14B0
100
AcDbEntity
  8
0
 62
     0
100
AcDbLine
 10
583.3934311425958
 20
96.0
 30
0.0
 11
596.6514158258262
 21
96.0
 31
0.0
  0
LINE
  5
15CE
330
14B0
100
AcDbEntity
  8
0
 62
     0
100
AcDbLine
 10
460.1514158258261
 20
96.0
 30
0.0
 11
473.4014158258258
 21
96.0
 31
0.0
  0
LINE
  5
15CF
330
14B0
100
AcDbEntity
  8
0
 62
     0
100
AcDbLine
 10
541.3939014265734
 20
97.5
 30
0.0
 11
557.4104154804984
 21
97.5
 31
0.0
  0
LINE
  5
15D0
330
14B0
100
AcDbEntity
  8
0
 62
     0
100
AcDbLine
 10
499.4014158258267
 20
97.5
 30
0.0
 11
515.3986377970002
 21
97.5
 31
0.0
  0
LINE
  5
15D1
330
14B0
100
AcDbEntity
  8
0
 62
     0
100
AcDbLine
 10
583.3934311425958
 20
97.5
 30
0.0
 11
596.6514158258262
 21
97.5
 31
0.0
  0
LINE
  5
15D2
330
14B0
100
AcDbEntity
  8
0
 62
     0
100
AcDbLine
 10
460.1514158258261
 20
97.5
 30
0.0
 11
473.4014158258258
 21
97.5
 31
0.0
  0
ENDBLK
  5
15D3
330
14B0
100
AcDbEntity
  8
0
100
AcDbBlockEnd
  0
ENDSEC
  0
SECTION
  2
ENTITIES
  0
ARC
  5
639
330
121A
100
AcDbEntity
  8
0
100
AcDbCircle
 10
241.1970531006184
 20
144.0000045037613
 30
0.0
 40
8.250000000000008
100
AcDbArc
 50
179.9999999999998
 51
359.9999999999988
  0
ARC
  5
63A
330
121A
100
AcDbEntity
  8
0
100
AcDbCircle
 10
241.1970531006184
 20
144.0000045037613
 30
0.0
 40
8.250000000000021
100
AcDbArc
 50
359.9999999999994
 51
179.9999999999996
  0
ARC
  5
63B
330
121A
100
AcDbEntity
  8
0
100
AcDbCircle
 10
241.1970531006184
 20
144.0000045037613
 30
0.0
 40
7.687499999999982
100
AcDbArc
 50
0.0000000000010178
 51
180.0000000000002
  0
ARC
  5
63C
330
121A
100
AcDbEntity
  8
0
100
AcDbCircle
 10
241.1970531006184
 20
144.0000045037613
 30
0.0
 40
7.687499999999976
100
AcDbArc
 50
180.0000000000004
 51
0.0000000000002036
  0
LINE
  5
63D
330
121A
100
AcDbEntity
  8
0
100
AcDbLine
 10
246.3195538746062
 20
141.558148654964
 30
0.0
 11
246.1246133984157
 21
141.1092399248052
 31
0.0
  0
LINE
  5
63E
330
121A
100
AcDbEntity
  8
0
100
AcDbLine
 10
246.1246133984157
 20
141.1092399248052
 30
0.0
 11
245.6737205412728
 21
140.9519978613132
 31
0.0
  0
LINE
  5
63F
330
121A
100
AcDbEntity
  8
0
100
AcDbLine
 10
245.6737205412728
 20
140.9519978613132
 30
0.0
 11
245.3491917714317
 21
141.0162339724243
 31
0.0
  0
LINE
  5
640
330
121A
100
AcDbEntity
  8
0
100
AcDbLine
 10
245.3491917714317
 20
141.0162339724243
 30
0.0
 11
245.113700700003
 21
141.2089423057576
 31
0.0
  0
LINE
  5
641
330
121A
100
AcDbEntity
  8
0
100
AcDbLine
 10
245.113700700003
 20
141.2089423057576
 30
0.0
 11
244.9227284777807
 21
141.9668788136941
 31
0.0
  0
LINE
  5
642
330
121A
100
AcDbEntity
  8
0
100
AcDbLine
 10
244.9227284777807
 20
141.9668788136941
 30
0.0
 11
245.1067562555586
 21
142.730767702583
 31
0.0
  0
LINE
  5
643
330
121A
100
AcDbEntity
  8
0
100
AcDbLine
 10
245.1067562555586
 20
142.730767702583
 30
0.0
 11
245.3365429619077
 21
142.9204998454401
 31
0.0
  0
LINE
  5
644
330
121A
100
AcDbEntity
  8
0
100
AcDbLine
 10
245.3365429619077
 20
142.9204998454401
 30
0.0
 11
245.6578475253999
 21
142.9837438930592
 31
0.0
  0
LINE
  5
645
330
121A
100
AcDbEntity
  8
0
100
AcDbLine
 10
245.6578475253999
 20
142.9837438930592
 30
0.0
 11
246.1261014936539
 21
142.840390718456
 31
0.0
  0
LINE
  5
646
330
121A
100
AcDbEntity
  8
0
100
AcDbLine
 10
246.1261014936539
 20
142.840390718456
 30
0.0
 11
246.3195538746062
 21
142.4152915121068
 31
0.0
  0
LINE
  5
647
330
121A
100
AcDbEntity
  8
0
100
AcDbLine
 10
246.3195538746062
 20
142.4152915121068
 30
0.0
 11
247.4624110174633
 21
142.4152915121068
 31
0.0
  0
LINE
  5
648
330
121A
100
AcDbEntity
  8
0
100
AcDbLine
 10
247.4624110174633
 20
142.4152915121068
 30
0.0
 11
247.3021927634951
 21
143.0629849644878
 31
0.0
  0
LINE
  5
649
330
121A
100
AcDbEntity
  8
0
100
AcDbLine
 10
247.3021927634951
 20
143.0629849644878
 30
0.0
 11
246.9346332396856
 21
143.5417796073449
 31
0.0
  0
LINE
  5
64A
330
121A
100
AcDbEntity
  8
0
100
AcDbLine
 10
246.9346332396856
 20
143.5417796073449
 30
0.0
 11
246.3756054619078
 21
143.8375385359164
 31
0.0
  0
LINE
  5
64B
330
121A
100
AcDbEntity
  8
0
100
AcDbLine
 10
246.3756054619078
 20
143.8375385359164
 30
0.0
 11
245.6409824460347
 21
143.9361248454402
 31
0.0
  0
LINE
  5
64C
330
121A
100
AcDbEntity
  8
0
100
AcDbLine
 10
245.6409824460347
 20
143.9361248454402
 30
0.0
 11
244.8429913746061
 21
143.8041804009957
 31
0.0
  0
LINE
  5
64D
330
121A
100
AcDbEntity
  8
0
100
AcDbLine
 10
244.8429913746061
 20
143.8041804009957
 30
0.0
 11
244.2327483190507
 21
143.4083470676624
 31
0.0
  0
LINE
  5
64E
330
121A
100
AcDbEntity
  8
0
100
AcDbLine
 10
244.2327483190507
 20
143.4083470676624
 30
0.0
 11
243.8454715333363
 21
142.7843391311545
 31
0.0
  0
LINE
  5
64F
330
121A
100
AcDbEntity
  8
0
100
AcDbLine
 10
243.8454715333363
 20
142.7843391311545
 30
0.0
 11
243.7163792714316
 21
141.9678708771862
 31
0.0
  0
LINE
  5
650
330
121A
100
AcDbEntity
  8
0
100
AcDbLine
 10
243.7163792714316
 20
141.9678708771862
 30
0.0
 11
243.8460915730189
 21
141.1495425041703
 31
0.0
  0
LINE
  5
651
330
121A
100
AcDbEntity
  8
0
100
AcDbLine
 10
243.8460915730189
 20
141.1495425041703
 30
0.0
 11
244.2352284777807
 21
140.5259065914719
 31
0.0
  0
LINE
  5
652
330
121A
100
AcDbEntity
  8
0
100
AcDbLine
 10
244.2352284777807
 20
140.5259065914719
 30
0.0
 11
244.8505558587331
 21
140.131189329567
 31
0.0
  0
LINE
  5
653
330
121A
100
AcDbEntity
  8
0
100
AcDbLine
 10
244.8505558587331
 20
140.131189329567
 30
0.0
 11
245.6588395888918
 21
139.9996169089322
 31
0.0
  0
LINE
  5
654
330
121A
100
AcDbEntity
  8
0
100
AcDbLine
 10
245.6588395888918
 20
139.9996169089322
 30
0.0
 11
246.3819298666697
 21
140.1017994486147
 31
0.0
  0
LINE
  5
655
330
121A
100
AcDbEntity
  8
0
100
AcDbLine
 10
246.3819298666697
 20
140.1017994486147
 30
0.0
 11
246.9381054619077
 21
140.4083470676624
 31
0.0
  0
LINE
  5
656
330
121A
100
AcDbEntity
  8
0
100
AcDbLine
 10
246.9381054619077
 20
140.4083470676624
 30
0.0
 11
247.3055409777807
 21
140.9001625438529
 31
0.0
  0
LINE
  5
657
330
121A
100
AcDbEntity
  8
0
100
AcDbLine
 10
247.3055409777807
 20
140.9001625438529
 30
0.0
 11
247.4624110174633
 21
141.558148654964
 31
0.0
  0
LINE
  5
658
330
121A
100
AcDbEntity
  8
0
100
AcDbLine
 10
247.4624110174633
 20
141.558148654964
 30
0.0
 11
246.3195538746062
 21
141.558148654964
 31
0.0
  0
LINE
  5
659
330
121A
100
AcDbEntity
  8
0
100
AcDbLine
 10
239.0978264968385
 20
142.3322228438872
 30
0.0
 11
240.2754058619179
 21
142.3322228438872
 31
0.0
  0
LINE
  5
65A
330
121A
100
AcDbEntity
  8
0
100
AcDbLine
 10
240.2754058619179
 20
142.3322228438872
 30
0.0
 11
240.4222312587432
 21
142.8401593518237
 31
0.0
  0
LINE
  5
65B
330
121A
100
AcDbEntity
  8
0
100
AcDbLine
 10
240.4222312587432
 20
142.8401593518237
 30
0.0
 11
241.6256042746162
 21
142.8401593518237
 31
0.0
  0
LINE
  5
65C
330
121A
100
AcDbEntity
  8
0
100
AcDbLine
 10
241.6256042746162
 20
142.8401593518237
 30
0.0
 11
241.7674693539814
 21
142.3322228438872
 31
0.0
  0
LINE
  5
65D
330
121A
100
AcDbEntity
  8
0
100
AcDbLine
 10
241.7674693539814
 20
142.3322228438872
 30
0.0
 11
242.9708423698544
 21
142.3322228438872
 31
0.0
  0
LINE
  5
65E
330
121A
100
AcDbEntity
  8
0
100
AcDbLine
 10
242.9708423698544
 20
142.3322228438872
 30
0.0
 11
241.6414772904893
 21
146.141746653411
 31
0.0
  0
LINE
  5
65F
330
121A
100
AcDbEntity
  8
0
100
AcDbLine
 10
241.6414772904893
 20
146.141746653411
 30
0.0
 11
240.4123106238227
 21
146.141746653411
 31
0.0
  0
LINE
  5
660
330
121A
100
AcDbEntity
  8
0
100
AcDbLine
 10
240.4123106238227
 20
146.141746653411
 30
0.0
 11
239.0978264968385
 21
142.3322228438872
 31
0.0
  0
LINE
  5
661
330
121A
100
AcDbEntity
  8
0
100
AcDbLine
 10
240.6424693539814
 20
143.6655561772205
 30
0.0
 11
241.028382052394
 21
144.9691276057919
 31
0.0
  0
LINE
  5
662
330
121A
100
AcDbEntity
  8
0
100
AcDbLine
 10
241.028382052394
 20
144.9691276057919
 30
0.0
 11
241.4053661793782
 21
143.6655561772205
 31
0.0
  0
LINE
  5
663
330
121A
100
AcDbEntity
  8
0
100
AcDbLine
 10
241.4053661793782
 20
143.6655561772205
 30
0.0
 11
240.6424693539814
 21
143.6655561772205
 31
0.0
  0
LINE
  5
664
330
121A
100
AcDbEntity
  8
0
100
AcDbLine
 10
235.3370953065771
 20
144.0726111530674
 30
0.0
 11
237.0365000684819
 21
144.0726111530674
 31
0.0
  0
LINE
  5
665
330
121A
100
AcDbEntity
  8
0
100
AcDbLine
 10
237.0365000684819
 20
144.0726111530674
 30
0.0
 11
237.8043572113389
 21
144.1113016292578
 31
0.0
  0
LINE
  5
666
330
121A
100
AcDbEntity
  8
0
100
AcDbLine
 10
237.8043572113389
 20
144.1113016292578
 30
0.0
 11
238.2170556240374
 21
144.2432460737023
 31
0.0
  0
LINE
  5
667
330
121A
100
AcDbEntity
  8
0
100
AcDbLine
 10
238.2170556240374
 20
144.2432460737023
 30
0.0
 11
238.6252897510215
 21
144.6261825816389
 31
0.0
  0
LINE
  5
668
330
121A
100
AcDbEntity
  8
0
100
AcDbLine
 10
238.6252897510215
 20
144.6261825816389
 30
0.0
 11
238.7656667351486
 21
145.2134841689405
 31
0.0
  0
LINE
  5
669
330
121A
100
AcDbEntity
  8
0
100
AcDbLine
 10
238.7656667351486
 20
145.2134841689405
 30
0.0
 11
238.6218175287994
 21
145.7764802006865
 31
0.0
  0
LINE
  5
66A
330
121A
100
AcDbEntity
  8
0
100
AcDbLine
 10
238.6218175287994
 20
145.7764802006865
 30
0.0
 11
238.178365147847
 21
146.1013809943373
 31
0.0
  0
LINE
  5
66B
330
121A
100
AcDbEntity
  8
0
100
AcDbLine
 10
238.178365147847
 20
146.1013809943373
 30
0.0
 11
238.5236032430851
 21
146.4188413117976
 31
0.0
  0
LINE
  5
66C
330
121A
100
AcDbEntity
  8
0
100
AcDbLine
 10
238.5236032430851
 20
146.4188413117976
 30
0.0
 11
238.6386826081644
 21
146.8712222641786
 31
0.0
  0
LINE
  5
66D
330
121A
100
AcDbEntity
  8
0
100
AcDbLine
 10
238.6386826081644
 20
146.8712222641786
 30
0.0
 11
238.4849127668946
 21
147.4312421054484
 31
0.0
  0
LINE
  5
66E
330
121A
100
AcDbEntity
  8
0
100
AcDbLine
 10
238.4849127668946
 20
147.4312421054484
 30
0.0
 11
238.0424524494343
 21
147.7710238514801
 31
0.0
  0
LINE
  5
66F
330
121A
100
AcDbEntity
  8
0
100
AcDbLine
 10
238.0424524494343
 20
147.7710238514801
 30
0.0
 11
237.647115147847
 21
147.8563413117976
 31
0.0
  0
LINE
  5
670
330
121A
100
AcDbEntity
  8
0
100
AcDbLine
 10
237.647115147847
 20
147.8563413117976
 30
0.0
 11
236.9134841954659
 21
147.8821349625913
 31
0.0
  0
LINE
  5
671
330
121A
100
AcDbEntity
  8
0
100
AcDbLine
 10
236.9134841954659
 20
147.8821349625913
 30
0.0
 11
235.3370953065771
 21
147.8821349625913
 31
0.0
  0
LINE
  5
672
330
121A
100
AcDbEntity
  8
0
100
AcDbLine
 10
235.3370953065771
 20
147.8821349625913
 30
0.0
 11
235.3370953065771
 21
144.0726111530674
 31
0.0
  0
LINE
  5
673
330
121A
100
AcDbEntity
  8
0
100
AcDbLine
 10
236.5434445129264
 20
144.9615000419563
 30
0.0
 11
236.5434445129264
 21
145.659912740369
 31
0.0
  0
LINE
  5
674
330
121A
100
AcDbEntity
  8
0
100
AcDbLine
 10
236.5434445129264
 20
145.659912740369
 30
0.0
 11
237.0920556240375
 21
145.659912740369
 31
0.0
  0
LINE
  5
675
330
121A
100
AcDbEntity
  8
0
100
AcDbLine
 10
237.0920556240375
 20
145.659912740369
 30
0.0
 11
237.5012818145136
 21
145.5805476610039
 31
0.0
  0
LINE
  5
676
330
121A
100
AcDbEntity
  8
0
100
AcDbLine
 10
237.5012818145136
 20
145.5805476610039
 30
0.0
 11
237.6228095922914
 21
145.3136825816388
 31
0.0
  0
LINE
  5
677
330
121A
100
AcDbEntity
  8
0
100
AcDbLine
 10
237.6228095922914
 20
145.3136825816388
 30
0.0
 11
237.5037619732437
 21
145.0438413117976
 31
0.0
  0
LINE
  5
678
330
121A
100
AcDbEntity
  8
0
100
AcDbLine
 10
237.5037619732437
 20
145.0438413117976
 30
0.0
 11
237.1029683224502
 21
144.9615000419563
 31
0.0
  0
LINE
  5
679
330
121A
100
AcDbEntity
  8
0
100
AcDbLine
 10
237.1029683224502
 20
144.9615000419563
 30
0.0
 11
236.5434445129264
 21
144.9615000419563
 31
0.0
  0
LINE
  5
67A
330
121A
100
AcDbEntity
  8
0
100
AcDbLine
 10
236.5434445129264
 20
146.3583254387816
 30
0.0
 11
236.5434445129264
 21
146.9932460737024
 31
0.0
  0
LINE
  5
67B
330
121A
100
AcDbEntity
  8
0
100
AcDbLine
 10
236.5434445129264
 20
146.9932460737024
 30
0.0
 11
236.8777699097517
 21
146.9932460737024
 31
0.0
  0
LINE
  5
67C
330
121A
100
AcDbEntity
  8
0
100
AcDbLine
 10
236.8777699097517
 20
146.9932460737024
 30
0.0
 11
237.3862024494342
 21
146.9257857562421
 31
0.0
  0
LINE
  5
67D
330
121A
100
AcDbEntity
  8
0
100
AcDbLine
 10
237.3862024494342
 20
146.9257857562421
 30
0.0
 11
237.4958254653073
 21
146.675785756242
 31
0.0
  0
LINE
  5
67E
330
121A
100
AcDbEntity
  8
0
100
AcDbLine
 10
237.4958254653073
 20
146.675785756242
 30
0.0
 11
237.3936429256247
 21
146.4307460737024
 31
0.0
  0
LINE
  5
67F
330
121A
100
AcDbEntity
  8
0
100
AcDbLine
 10
237.3936429256247
 20
146.4307460737024
 30
0.0
 11
237.0414603859421
 21
146.3583254387816
 31
0.0
  0
LINE
  5
680
330
121A
100
AcDbEntity
  8
0
100
AcDbLine
 10
237.0414603859421
 20
146.3583254387816
 30
0.0
 11
236.5434445129264
 21
146.3583254387816
 31
0.0
  0
ARC
  5
681
330
121A
100
AcDbEntity
  8
0
100
AcDbCircle
 10
241.1970531006179
 20
144.000004503762
 30
0.0
 40
9.000000000000012
100
AcDbArc
 50
179.9999999999998
 51
359.9999999999988
  0
ARC
  5
682
330
121A
100
AcDbEntity
  8
0
100
AcDbCircle
 10
241.1970531006179
 20
144.000004503762
 30
0.0
 40
9.0
100
AcDbArc
 50
0.0
 51
179.9999999999998
  0
LINE
  5
683
330
121A
100
AcDbEntity
  8
0
100
AcDbLine
 10
169.3220531006179
 20
174.0000045037577
 30
0.0
 11
313.0720531006179
 21
174.0000045037577
 31
0.0
  0
LINE
  5
685
330
121A
100
AcDbEntity
  8
0
100
AcDbLine
 10
169.3220531006179
 20
174.0000045037577
 30
0.0
 11
169.3220531006179
 21
76.00000450375768
 31
0.0
  0
LINE
  5
686
330
121A
100
AcDbEntity
  8
0
100
AcDbLine
 10
313.0720531006179
 20
76.00000450375768
 30
0.0
 11
313.0720531006179
 21
174.0000045037577
 31
0.0
  0
LINE
  5
687
330
121A
100
AcDbEntity
  8
0
100
AcDbLine
 10
169.3220531006179
 20
76.00000450375768
 30
0.0
 11
313.0720531006179
 21
76.00000450375768
 31
0.0
  0
LINE
  5
688
330
121A
100
AcDbEntity
  8
0
100
AcDbLine
 10
311.0720531006179
 20
-23.99999549624226
 30
0.0
 11
171.322053100618
 21
-23.99999549624226
 31
0.0
  0
LINE
  5
689
330
121A
100
AcDbEntity
  8
0
100
AcDbLine
 10
311.0720531006179
 20
76.00000450375768
 30
0.0
 11
311.0720531006179
 21
-23.99999549624226
 31
0.0
  0
LINE
  5
68A
330
121A
100
AcDbEntity
  8
0
100
AcDbLine
 10
171.322053100618
 20
-23.99999549624226
 30
0.0
 11
171.322053100618
 21
76.00000450375768
 31
0.0
  0
LINE
  5
68B
330
121A
100
AcDbEntity
  8
0
100
AcDbLine
 10
24.57205310061795
 20
174.0000045037577
 30
0.0
 11
168.3220531006178
 21
174.0000045037577
 31
0.0
  0
LINE
  5
68D
330
121A
100
AcDbEntity
  8
0
100
AcDbLine
 10
24.57205310061795
 20
174.0000045037577
 30
0.0
 11
24.57205310061795
 21
76.00000450375762
 31
0.0
  0
LINE
  5
68E
330
121A
100
AcDbEntity
  8
0
100
AcDbLine
 10
168.3220531006178
 20
76.00000450375762
 30
0.0
 11
168.3220531006179
 21
174.0000045037577
 31
0.0
  0
LINE
  5
68F
330
121A
100
AcDbEntity
  8
0
100
AcDbLine
 10
24.57205310061795
 20
76.00000450375762
 30
0.0
 11
168.3220531006178
 21
76.00000450375762
 31
0.0
  0
LINE
  5
690
330
121A
100
AcDbEntity
  8
0
100
AcDbLine
 10
166.3220531006177
 20
-23.99999549624226
 30
0.0
 11
26.57205310061784
 21
-23.99999549624226
 31
0.0
  0
LINE
  5
691
330
121A
100
AcDbEntity
  8
0
100
AcDbLine
 10
166.3220531006177
 20
76.00000450375768
 30
0.0
 11
166.3220531006177
 21
-23.99999549624226
 31
0.0
  0
LINE
  5
692
330
121A
100
AcDbEntity
  8
0
100
AcDbLine
 10
26.57205310061784
 20
-23.99999549624226
 30
0.0
 11
26.57205310061784
 21
76.00000450375768
 31
0.0
  0
ARC
  5
693
330
121A
100
AcDbEntity
  8
0
100
AcDbCircle
 10
96.44705310061793
 20
144.0000045037568
 30
0.0
 40
8.250000000000001
100
AcDbArc
 50
179.9999999999996
 51
359.9999999999988
  0
ARC
  5
694
330
121A
100
AcDbEntity
  8
0
100
AcDbCircle
 10
96.44705310061793
 20
144.0000045037568
 30
0.0
 40
8.250000000000008
100
AcDbArc
 50
359.9999999999994
 51
179.9999999999996
  0
ARC
  5
695
330
121A
100
AcDbEntity
  8
0
100
AcDbCircle
 10
96.44705310061793
 20
144.0000045037568
 30
0.0
 40
7.687499999999995
100
AcDbArc
 50
0.0000000000006107
 51
180.0000000000002
  0
ARC
  5
696
330
121A
100
AcDbEntity
  8
0
100
AcDbCircle
 10
96.44705310061793
 20
144.0000045037568
 30
0.0
 40
7.687499999999992
100
AcDbArc
 50
180.0000000000002
 51
359.9999999999996
  0
LINE
  5
697
330
121A
100
AcDbEntity
  8
0
100
AcDbLine
 10
101.5695538746057
 20
141.5581486549594
 30
0.0
 11
101.3746133984153
 21
141.1092399248007
 31
0.0
  0
LINE
  5
698
330
121A
100
AcDbEntity
  8
0
100
AcDbLine
 10
101.3746133984153
 20
141.1092399248007
 30
0.0
 11
100.9237205412724
 21
140.9519978613086
 31
0.0
  0
LINE
  5
699
330
121A
100
AcDbEntity
  8
0
100
AcDbLine
 10
100.9237205412724
 20
140.9519978613086
 30
0.0
 11
100.5991917714311
 21
141.0162339724198
 31
0.0
  0
LINE
  5
69A
330
121A
100
AcDbEntity
  8
0
100
AcDbLine
 10
100.5991917714311
 20
141.0162339724198
 30
0.0
 11
100.3637007000025
 21
141.2089423057531
 31
0.0
  0
LINE
  5
69B
330
121A
100
AcDbEntity
  8
0
100
AcDbLine
 10
100.3637007000025
 20
141.2089423057531
 30
0.0
 11
100.1727284777803
 21
141.9668788136896
 31
0.0
  0
LINE
  5
69C
330
121A
100
AcDbEntity
  8
0
100
AcDbLine
 10
100.1727284777803
 20
141.9668788136896
 30
0.0
 11
100.3567562555581
 21
142.7307677025785
 31
0.0
  0
LINE
  5
69D
330
121A
100
AcDbEntity
  8
0
100
AcDbLine
 10
100.3567562555581
 20
142.7307677025785
 30
0.0
 11
100.5865429619073
 21
142.9204998454357
 31
0.0
  0
LINE
  5
69E
330
121A
100
AcDbEntity
  8
0
100
AcDbLine
 10
100.5865429619073
 20
142.9204998454357
 30
0.0
 11
100.9078475253994
 21
142.9837438930547
 31
0.0
  0
LINE
  5
69F
330
121A
100
AcDbEntity
  8
0
100
AcDbLine
 10
100.9078475253994
 20
142.9837438930547
 30
0.0
 11
101.3761014936533
 21
142.8403907184515
 31
0.0
  0
LINE
  5
6A0
330
121A
100
AcDbEntity
  8
0
100
AcDbLine
 10
101.3761014936533
 20
142.8403907184515
 30
0.0
 11
101.5695538746057
 21
142.4152915121023
 31
0.0
  0
LINE
  5
6A1
330
121A
100
AcDbEntity
  8
0
100
AcDbLine
 10
101.5695538746057
 20
142.4152915121023
 30
0.0
 11
102.7124110174629
 21
142.4152915121023
 31
0.0
  0
LINE
  5
6A2
330
121A
100
AcDbEntity
  8
0
100
AcDbLine
 10
102.7124110174629
 20
142.4152915121023
 30
0.0
 11
102.5521927634946
 21
143.0629849644831
 31
0.0
  0
LINE
  5
6A3
330
121A
100
AcDbEntity
  8
0
100
AcDbLine
 10
102.5521927634946
 20
143.0629849644831
 30
0.0
 11
102.1846332396851
 21
143.5417796073403
 31
0.0
  0
LINE
  5
6A4
330
121A
100
AcDbEntity
  8
0
100
AcDbLine
 10
102.1846332396851
 20
143.5417796073403
 30
0.0
 11
101.6256054619073
 21
143.8375385359118
 31
0.0
  0
LINE
  5
6A5
330
121A
100
AcDbEntity
  8
0
100
AcDbLine
 10
101.6256054619073
 20
143.8375385359118
 30
0.0
 11
100.8909824460343
 21
143.9361248454356
 31
0.0
  0
LINE
  5
6A6
330
121A
100
AcDbEntity
  8
0
100
AcDbLine
 10
100.8909824460343
 20
143.9361248454356
 30
0.0
 11
100.0929913746057
 21
143.8041804009912
 31
0.0
  0
LINE
  5
6A7
330
121A
100
AcDbEntity
  8
0
100
AcDbLine
 10
100.0929913746057
 20
143.8041804009912
 30
0.0
 11
99.48274831905017
 21
143.4083470676578
 31
0.0
  0
LINE
  5
6A8
330
121A
100
AcDbEntity
  8
0
100
AcDbLine
 10
99.48274831905017
 20
143.4083470676578
 30
0.0
 11
99.09547153333594
 21
142.7843391311499
 31
0.0
  0
LINE
  5
6A9
330
121A
100
AcDbEntity
  8
0
100
AcDbLine
 10
99.09547153333594
 20
142.7843391311499
 30
0.0
 11
98.96637927143117
 21
141.9678708771817
 31
0.0
  0
LINE
  5
6AA
330
121A
100
AcDbEntity
  8
0
100
AcDbLine
 10
98.96637927143117
 20
141.9678708771817
 30
0.0
 11
99.09609157301844
 21
141.1495425041658
 31
0.0
  0
LINE
  5
6AB
330
121A
100
AcDbEntity
  8
0
100
AcDbLine
 10
99.09609157301844
 20
141.1495425041658
 30
0.0
 11
99.48522847778034
 21
140.5259065914674
 31
0.0
  0
LINE
  5
6AC
330
121A
100
AcDbEntity
  8
0
100
AcDbLine
 10
99.48522847778034
 20
140.5259065914674
 30
0.0
 11
100.1005558587327
 21
140.1311893295625
 31
0.0
  0
LINE
  5
6AD
330
121A
100
AcDbEntity
  8
0
100
AcDbLine
 10
100.1005558587327
 20
140.1311893295625
 30
0.0
 11
100.9088395888914
 21
139.9996169089276
 31
0.0
  0
LINE
  5
6AE
330
121A
100
AcDbEntity
  8
0
100
AcDbLine
 10
100.9088395888914
 20
139.9996169089276
 30
0.0
 11
101.6319298666692
 21
140.1017994486102
 31
0.0
  0
LINE
  5
6AF
330
121A
100
AcDbEntity
  8
0
100
AcDbLine
 10
101.6319298666692
 20
140.1017994486102
 30
0.0
 11
102.1881054619073
 21
140.4083470676578
 31
0.0
  0
LINE
  5
6B0
330
121A
100
AcDbEntity
  8
0
100
AcDbLine
 10
102.1881054619073
 20
140.4083470676578
 30
0.0
 11
102.5555409777803
 21
140.9001625438483
 31
0.0
  0
LINE
  5
6B1
330
121A
100
AcDbEntity
  8
0
100
AcDbLine
 10
102.5555409777803
 20
140.9001625438483
 30
0.0
 11
102.7124110174629
 21
141.5581486549594
 31
0.0
  0
LINE
  5
6B2
330
121A
100
AcDbEntity
  8
0
100
AcDbLine
 10
102.7124110174629
 20
141.5581486549594
 30
0.0
 11
101.5695538746057
 21
141.5581486549594
 31
0.0
  0
LINE
  5
6B3
330
121A
100
AcDbEntity
  8
0
100
AcDbLine
 10
94.34782649683807
 20
142.3322228438827
 30
0.0
 11
95.52540586191744
 21
142.3322228438827
 31
0.0
  0
LINE
  5
6B4
330
121A
100
AcDbEntity
  8
0
100
AcDbLine
 10
95.52540586191744
 20
142.3322228438827
 30
0.0
 11
95.67223125874283
 21
142.8401593518191
 31
0.0
  0
LINE
  5
6B5
330
121A
100
AcDbEntity
  8
0
100
AcDbLine
 10
95.67223125874283
 20
142.8401593518191
 30
0.0
 11
96.87560427461583
 21
142.8401593518191
 31
0.0
  0
LINE
  5
6B6
330
121A
100
AcDbEntity
  8
0
100
AcDbLine
 10
96.87560427461583
 20
142.8401593518191
 30
0.0
 11
97.01746935398094
 21
142.3322228438827
 31
0.0
  0
LINE
  5
6B7
330
121A
100
AcDbEntity
  8
0
100
AcDbLine
 10
97.01746935398094
 20
142.3322228438827
 30
0.0
 11
98.22084236985396
 21
142.3322228438827
 31
0.0
  0
LINE
  5
6B8
330
121A
100
AcDbEntity
  8
0
100
AcDbLine
 10
98.22084236985396
 20
142.3322228438827
 30
0.0
 11
96.8914772904889
 21
146.1417466534065
 31
0.0
  0
LINE
  5
6B9
330
121A
100
AcDbEntity
  8
0
100
AcDbLine
 10
96.8914772904889
 20
146.1417466534065
 30
0.0
 11
95.6623106238222
 21
146.1417466534065
 31
0.0
  0
LINE
  5
6BA
330
121A
100
AcDbEntity
  8
0
100
AcDbLine
 10
95.6623106238222
 20
146.1417466534065
 30
0.0
 11
94.34782649683807
 21
142.3322228438827
 31
0.0
  0
LINE
  5
6BB
330
121A
100
AcDbEntity
  8
0
100
AcDbLine
 10
95.89246935398094
 20
143.665556177216
 30
0.0
 11
96.27838205239365
 21
144.9691276057873
 31
0.0
  0
LINE
  5
6BC
330
121A
100
AcDbEntity
  8
0
100
AcDbLine
 10
96.27838205239365
 20
144.9691276057873
 30
0.0
 11
96.65536617937778
 21
143.665556177216
 31
0.0
  0
LINE
  5
6BD
330
121A
100
AcDbEntity
  8
0
100
AcDbLine
 10
96.65536617937778
 20
143.665556177216
 30
0.0
 11
95.89246935398094
 21
143.665556177216
 31
0.0
  0
LINE
  5
6BE
330
121A
100
AcDbEntity
  8
0
100
AcDbLine
 10
90.58709530657663
 20
144.0726111530629
 30
0.0
 11
92.28650006848145
 21
144.0726111530629
 31
0.0
  0
LINE
  5
6BF
330
121A
100
AcDbEntity
  8
0
100
AcDbLine
 10
92.28650006848145
 20
144.0726111530629
 30
0.0
 11
93.05435721133859
 21
144.1113016292534
 31
0.0
  0
LINE
  5
6C0
330
121A
100
AcDbEntity
  8
0
100
AcDbLine
 10
93.05435721133859
 20
144.1113016292534
 30
0.0
 11
93.46705562403696
 21
144.2432460736978
 31
0.0
  0
LINE
  5
6C1
330
121A
100
AcDbEntity
  8
0
100
AcDbLine
 10
93.46705562403696
 20
144.2432460736978
 30
0.0
 11
93.87528975102112
 21
144.6261825816343
 31
0.0
  0
LINE
  5
6C2
330
121A
100
AcDbEntity
  8
0
100
AcDbLine
 10
93.87528975102112
 20
144.6261825816343
 30
0.0
 11
94.01566673514809
 21
145.2134841689359
 31
0.0
  0
LINE
  5
6C3
330
121A
100
AcDbEntity
  8
0
100
AcDbLine
 10
94.01566673514809
 20
145.2134841689359
 30
0.0
 11
93.87181752879893
 21
145.776480200682
 31
0.0
  0
LINE
  5
6C4
330
121A
100
AcDbEntity
  8
0
100
AcDbLine
 10
93.87181752879893
 20
145.776480200682
 30
0.0
 11
93.4283651478465
 21
146.1013809943326
 31
0.0
  0
LINE
  5
6C5
330
121A
100
AcDbEntity
  8
0
100
AcDbLine
 10
93.4283651478465
 20
146.1013809943326
 30
0.0
 11
93.7736032430846
 21
146.4188413117931
 31
0.0
  0
LINE
  5
6C6
330
121A
100
AcDbEntity
  8
0
100
AcDbLine
 10
93.7736032430846
 20
146.4188413117931
 30
0.0
 11
93.888682608164
 21
146.871222264174
 31
0.0
  0
LINE
  5
6C7
330
121A
100
AcDbEntity
  8
0
100
AcDbLine
 10
93.888682608164
 20
146.871222264174
 30
0.0
 11
93.73491276689412
 21
147.4312421054439
 31
0.0
  0
LINE
  5
6C8
330
121A
100
AcDbEntity
  8
0
100
AcDbLine
 10
93.73491276689412
 20
147.4312421054439
 30
0.0
 11
93.29245244943384
 21
147.7710238514756
 31
0.0
  0
LINE
  5
6C9
330
121A
100
AcDbEntity
  8
0
100
AcDbLine
 10
93.29245244943384
 20
147.7710238514756
 30
0.0
 11
92.8971151478465
 21
147.8563413117931
 31
0.0
  0
LINE
  5
6CA
330
121A
100
AcDbEntity
  8
0
100
AcDbLine
 10
92.8971151478465
 20
147.8563413117931
 30
0.0
 11
92.16348419546557
 21
147.8821349625866
 31
0.0
  0
LINE
  5
6CB
330
121A
100
AcDbEntity
  8
0
100
AcDbLine
 10
92.16348419546557
 20
147.8821349625866
 30
0.0
 11
90.58709530657669
 21
147.8821349625866
 31
0.0
  0
LINE
  5
6CC
330
121A
100
AcDbEntity
  8
0
100
AcDbLine
 10
90.58709530657669
 20
147.8821349625866
 30
0.0
 11
90.58709530657663
 21
144.0726111530629
 31
0.0
  0
LINE
  5
6CD
330
121A
100
AcDbEntity
  8
0
100
AcDbLine
 10
91.79344451292587
 20
144.9615000419518
 30
0.0
 11
91.79344451292587
 21
145.6599127403645
 31
0.0
  0
LINE
  5
6CE
330
121A
100
AcDbEntity
  8
0
100
AcDbLine
 10
91.79344451292587
 20
145.6599127403645
 30
0.0
 11
92.34205562403699
 21
145.6599127403645
 31
0.0
  0
LINE
  5
6CF
330
121A
100
AcDbEntity
  8
0
100
AcDbLine
 10
92.34205562403699
 20
145.6599127403645
 30
0.0
 11
92.7512818145132
 21
145.5805476609993
 31
0.0
  0
LINE
  5
6D0
330
121A
100
AcDbEntity
  8
0
100
AcDbLine
 10
92.7512818145132
 20
145.5805476609993
 30
0.0
 11
92.87280959229095
 21
145.3136825816343
 31
0.0
  0
LINE
  5
6D1
330
121A
100
AcDbEntity
  8
0
100
AcDbLine
 10
92.87280959229095
 20
145.3136825816343
 30
0.0
 11
92.75376197324336
 21
145.0438413117931
 31
0.0
  0
LINE
  5
6D2
330
121A
100
AcDbEntity
  8
0
100
AcDbLine
 10
92.75376197324336
 20
145.0438413117931
 30
0.0
 11
92.35296832244968
 21
144.9615000419518
 31
0.0
  0
LINE
  5
6D3
330
121A
100
AcDbEntity
  8
0
100
AcDbLine
 10
92.35296832244968
 20
144.9615000419518
 30
0.0
 11
91.79344451292587
 21
144.9615000419518
 31
0.0
  0
LINE
  5
6D4
330
121A
100
AcDbEntity
  8
0
100
AcDbLine
 10
91.79344451292587
 20
146.3583254387772
 30
0.0
 11
91.79344451292587
 21
146.9932460736977
 31
0.0
  0
LINE
  5
6D5
330
121A
100
AcDbEntity
  8
0
100
AcDbLine
 10
91.79344451292587
 20
146.9932460736977
 30
0.0
 11
92.12776990975127
 21
146.9932460736977
 31
0.0
  0
LINE
  5
6D6
330
121A
100
AcDbEntity
  8
0
100
AcDbLine
 10
92.12776990975127
 20
146.9932460736977
 30
0.0
 11
92.6362024494338
 21
146.9257857562375
 31
0.0
  0
LINE
  5
6D7
330
121A
100
AcDbEntity
  8
0
100
AcDbLine
 10
92.6362024494338
 20
146.9257857562375
 30
0.0
 11
92.74582546530686
 21
146.6757857562375
 31
0.0
  0
LINE
  5
6D8
330
121A
100
AcDbEntity
  8
0
100
AcDbLine
 10
92.74582546530686
 20
146.6757857562375
 30
0.0
 11
92.64364292562431
 21
146.4307460736977
 31
0.0
  0
LINE
  5
6D9
330
121A
100
AcDbEntity
  8
0
100
AcDbLine
 10
92.64364292562431
 20
146.4307460736977
 30
0.0
 11
92.29146038594178
 21
146.3583254387772
 31
0.0
  0
LINE
  5
6DA
330
121A
100
AcDbEntity
  8
0
100
AcDbLine
 10
92.29146038594178
 20
146.3583254387772
 30
0.0
 11
91.79344451292587
 21
146.3583254387772
 31
0.0
  0
ARC
  5
6DB
330
121A
100
AcDbEntity
  8
0
100
AcDbCircle
 10
96.44705310061745
 20
144.0000045037575
 30
0.0
 40
9.000000000000008
100
AcDbArc
 50
179.9999999999996
 51
359.9999999999988
  0
ARC
  5
6DC
330
121A
100
AcDbEntity
  8
0
100
AcDbCircle
 10
96.44705310061745
 20
144.0000045037575
 30
0.0
 40
9.000000000000008
100
AcDbArc
 50
359.9999999999994
 51
179.9999999999996
  0
LINE
  5
1278
330
121A
100
AcDbEntity
  8
0
100
AcDbLine
 10
359.0774095735569
 20
361.2329017335532
 30
0.0
 11
359.0774095735569
 21
217.4829017335532
 31
0.0
  0
LINE
  5
1279
330
121A
100
AcDbEntity
  8
0
100
AcDbLine
 10
477.0774095735567
 20
217.4829017335532
 30
0.0
 11
477.0774095735569
 21
361.2329017335529
 31
0.0
  0
LINE
  5
127A
330
121A
100
AcDbEntity
  8
0
100
AcDbLine
 10
477.0774095735569
 20
361.2329017335526
 30
0.0
 11
359.0774095735569
 21
361.2329017335532
 31
0.0
  0
LINE
  5
127B
330
121A
100
AcDbEntity
  8
0
100
AcDbLine
 10
475.4524095735598
 20
361.2329017335526
 30
0.0
 11
475.4524095735598
 21
217.4829017335532
 31
0.0
  0
LINE
  5
127C
330
121A
100
AcDbEntity
  8
0
100
AcDbLine
 10
475.452409573559
 20
219.1079017335476
 30
0.0
 11
360.7024095735567
 21
219.1079017335479
 31
0.0
  0
LINE
  5
127D
330
121A
100
AcDbEntity
  8
0
100
AcDbLine
 10
360.7024095735571
 20
217.4829017335532
 30
0.0
 11
360.7024095735571
 21
361.2329017335532
 31
0.0
  0
LINE
  5
127E
330
121A
100
AcDbEntity
  8
0
100
AcDbLine
 10
360.7024095735571
 20
359.6079017335533
 30
0.0
 11
475.4524095735596
 21
359.6079017335532
 31
0.0
  0
LINE
  5
127F
330
121A
100
AcDbEntity
  8
0
100
AcDbLine
 10
477.3274095735596
 20
293.357901733553
 30
0.0
 11
477.0774095735596
 21
293.357901733553
 31
0.0
  0
LINE
  5
1280
330
121A
100
AcDbEntity
  8
0
100
AcDbLine
 10
477.0774095735596
 20
285.3579017335534
 30
0.0
 11
477.3274095735596
 21
285.3579017335534
 31
0.0
  0
LINE
  5
1281
330
121A
100
AcDbEntity
  8
0
100
AcDbLine
 10
477.3274095735603
 20
293.3579017335528
 30
0.0
 11
477.3274095735603
 21
285.3579017335534
 31
0.0
  0
LINE
  5
1282
330
121A
100
AcDbEntity
  8
0
100
AcDbLine
 10
394.5774095735567
 20
215.1079017335483
 30
0.0
 11
394.5774095735567
 21
217.4829017335532
 31
0.0
  0
LINE
  5
1283
330
121A
100
AcDbEntity
  8
0
100
AcDbLine
 10
393.0774095735567
 20
217.4829017335532
 30
0.0
 11
393.0774095735567
 21
215.1079017335483
 31
0.0
  0
LINE
  5
1284
330
121A
100
AcDbEntity
  8
0
100
AcDbLine
 10
365.3274095735562
 20
213.4829017335483
 30
0.0
 11
365.3274095735562
 21
217.4829017335532
 31
0.0
  0
LINE
  5
1285
330
121A
100
AcDbEntity
  8
0
100
AcDbLine
 10
362.3274095735562
 20
217.4829017335532
 30
0.0
 11
362.3274095735562
 21
213.4829017335483
 31
0.0
  0
LINE
  5
1286
330
121A
100
AcDbEntity
  8
0
100
AcDbLine
 10
361.4524095735557
 20
217.4829017335475
 30
0.0
 11
361.4524095735557
 21
217.2329017335483
 31
0.0
  0
LINE
  5
1287
330
121A
100
AcDbEntity
  8
0
100
AcDbLine
 10
394.5774095735572
 20
215.1079017335472
 30
0.0
 11
393.0774095735567
 21
215.1079017335472
 31
0.0
  0
LINE
  5
1288
330
121A
100
AcDbEntity
  8
0
100
AcDbLine
 10
365.3274095735562
 20
213.4829017335475
 30
0.0
 11
362.3274095735567
 21
213.4829017335475
 31
0.0
  0
LINE
  5
1289
330
121A
100
AcDbEntity
  8
0
100
AcDbLine
 10
362.3274095735567
 20
217.2329017335475
 30
0.0
 11
361.4524095735565
 21
217.2329017335475
 31
0.0
  0
LINE
  5
128A
330
121A
100
AcDbEntity
  8
0
100
AcDbLine
 10
379.7649095735561
 20
213.4829017335482
 30
0.0
 11
379.7649095735563
 21
217.482901733553
 31
0.0
  0
LINE
  5
128B
330
121A
100
AcDbEntity
  8
0
100
AcDbLine
 10
367.7649095735562
 20
217.4829017335532
 30
0.0
 11
367.7649095735562
 21
213.4829017335483
 31
0.0
  0
LINE
  5
128C
330
121A
100
AcDbEntity
  8
0
100
AcDbLine
 10
379.7649095735561
 20
213.4829017335482
 30
0.0
 11
367.7649095735562
 21
213.4829017335473
 31
0.0
  0
HATCH
  5
128D
330
121A
100
AcDbEntity
  8
0
  6
Continuous
100
AcDbHatch
 10
0.0
 20
0.0
 30
0.0
210
0.0
220
0.0
230
1.0
  2
ANSI31
 70
     0
 71
     0
 91
        1
 92
        1
 93
        4
 72
     1
 10
475.452409573559
 20
293.107901733553
 11
475.4524095735596
 21
359.6079017335532
 72
     1
 10
475.4524095735596
 20
359.6079017335532
 11
360.7024095735572
 21
359.6079017335533
 72
     1
 10
360.7024095735571
 20
359.6079017335533
 11
360.7024095735571
 21
293.1079017335532
 72
     1
 10
360.7024095735571
 20
293.1079017335532
 11
475.452409573559
 21
293.107901733553
 97
        0
 75
     1
 76
     1
 52
134.9999999999999
 41
12.0
 77
     0
 78
     1
 53
180.0
 43
98.85149305933868
 44
-3.394253323433757
 45
-0.0000000000000002
 46
-1.5
 79
     0
 98
        1
 10
427.9825090109684
 20
280.4745793664937
1001
GRADIENTCOLOR1ACI
1070
     5
1001
GRADIENTCOLOR2ACI
1070
     2
  0
LINE
  5
128E
330
121A
100
AcDbEntity
  8
0
100
AcDbLine
 10
359.0774095735564
 20
217.4829017335532
 30
0.0
 11
477.0774095735561
 21
217.4829017335532
 31
0.0
  0
LINE
  5
128F
330
121A
100
AcDbEntity
  8
0
100
AcDbLine
 10
360.7024095735571
 20
293.1079017335532
 30
0.0
 11
475.4524095735598
 21
293.107901733553
 31
0.0
  0
LINE
  5
1290
330
121A
100
AcDbEntity
  8
0
100
AcDbLine
 10
360.7024095735571
 20
285.6079017335531
 30
0.0
 11
475.4524095735598
 21
285.6079017335531
 31
0.0
  0
HATCH
  5
1291
330
121A
100
AcDbEntity
  8
0
  6
Continuous
100
AcDbHatch
 10
0.0
 20
0.0
 30
0.0
210
0.0
220
0.0
230
1.0
  2
ANSI31
 70
     0
 71
     0
 91
        1
 92
        1
 93
        4
 72
     1
 10
475.452409573559
 20
219.1079017335476
 11
475.4524095735596
 21
285.6079017335476
 72
     1
 10
475.4524095735596
 20
285.6079017335476
 11
360.7024095735572
 21
285.6079017335479
 72
     1
 10
360.7024095735571
 20
285.6079017335479
 11
360.702409573557
 21
219.1079017335479
 72
     1
 10
360.7024095735571
 20
219.1079017335479
 11
475.4524095735591
 21
219.1079017335476
 97
        0
 75
     1
 76
     1
 52
134.9999999999999
 41
12.0
 77
     0
 78
     1
 53
180.0
 43
98.85149305933865
 44
-77.3942533234392
 45
-0.0000000000000002
 46
-1.5
 79
     0
 98
        1
 10
427.9825090109683
 20
206.4745793664883
1001
GRADIENTCOLOR1ACI
1070
     5
1001
GRADIENTCOLOR2ACI
1070
     2
  0
LINE
  5
1292
330
121A
100
AcDbEntity
  8
0
100
AcDbLine
 10
359.0774095735569
 20
362.2329017335531
 30
0.0
 11
359.0774095735569
 21
505.982901733553
 31
0.0
  0
LINE
  5
1293
330
121A
100
AcDbEntity
  8
0
100
AcDbLine
 10
477.0774095735567
 20
505.982901733553
 30
0.0
 11
477.0774095735569
 21
362.2329017335533
 31
0.0
  0
LINE
  5
1294
330
121A
100
AcDbEntity
  8
0
100
AcDbLine
 10
477.0774095735569
 20
362.2329017335536
 30
0.0
 11
359.0774095735569
 21
362.2329017335531
 31
0.0
  0
LINE
  5
1295
330
121A
100
AcDbEntity
  8
0
100
AcDbLine
 10
475.4524095735598
 20
362.2329017335536
 30
0.0
 11
475.4524095735598
 21
505.982901733553
 31
0.0
  0
LINE
  5
1296
330
121A
100
AcDbEntity
  8
0
100
AcDbLine
 10
475.452409573559
 20
504.3579017335583
 30
0.0
 11
360.7024095735567
 21
504.3579017335583
 31
0.0
  0
LINE
  5
1297
330
121A
100
AcDbEntity
  8
0
100
AcDbLine
 10
360.7024095735571
 20
505.982901733553
 30
0.0
 11
360.7024095735571
 21
362.2329017335531
 31
0.0
  0
LINE
  5
1298
330
121A
100
AcDbEntity
  8
0
100
AcDbLine
 10
360.7024095735571
 20
363.8579017335529
 30
0.0
 11
475.4524095735596
 21
363.8579017335532
 31
0.0
  0
LINE
  5
1299
330
121A
100
AcDbEntity
  8
0
100
AcDbLine
 10
477.3274095735596
 20
430.1079017335531
 30
0.0
 11
477.0774095735596
 21
430.1079017335531
 31
0.0
  0
LINE
  5
129A
330
121A
100
AcDbEntity
  8
0
100
AcDbLine
 10
477.0774095735596
 20
438.1079017335528
 30
0.0
 11
477.3274095735596
 21
438.1079017335528
 31
0.0
  0
LINE
  5
129B
330
121A
100
AcDbEntity
  8
0
100
AcDbLine
 10
477.3274095735603
 20
430.1079017335533
 30
0.0
 11
477.3274095735603
 21
438.1079017335528
 31
0.0
  0
HATCH
  5
12A7
330
121A
100
AcDbEntity
  8
0
  6
Continuous
100
AcDbHatch
 10
0.0
 20
0.0
 30
0.0
210
0.0
220
0.0
230
1.0
  2
ANSI31
 70
     0
 71
     0
 91
        1
 92
        1
 93
        4
 72
     1
 10
475.452409573559
 20
430.3579017335531
 11
475.4524095735596
 21
363.8579017335532
 72
     1
 10
475.4524095735596
 20
363.8579017335532
 11
360.7024095735572
 21
363.8579017335529
 72
     1
 10
360.7024095735571
 20
363.8579017335529
 11
360.7024095735571
 21
430.3579017335528
 72
     1
 10
360.7024095735571
 20
430.3579017335528
 11
475.452409573559
 21
430.3579017335531
 97
        0
 75
     1
 76
     1
 52
134.9999999999999
 41
12.0
 77
     0
 78
     1
 53
180.0
 43
98.85149305933868
 44
-3.394253323433757
 45
-0.0000000000000002
 46
-1.5
 79
     0
 98
        1
 10
427.9825090109684
 20
442.9912241006124
1001
GRADIENTCOLOR1ACI
1070
     5
1001
GRADIENTCOLOR2ACI
1070
     2
  0
LINE
  5
12A8
330
121A
100
AcDbEntity
  8
0
100
AcDbLine
 10
359.0774095735564
 20
505.982901733553
 30
0.0
 11
477.0774095735561
 21
505.982901733553
 31
0.0
  0
LINE
  5
12A9
330
121A
100
AcDbEntity
  8
0
100
AcDbLine
 10
360.7024095735571
 20
430.357901733553
 30
0.0
 11
475.4524095735598
 21
430.3579017335531
 31
0.0
  0
LINE
  5
12AA
330
121A
100
AcDbEntity
  8
0
100
AcDbLine
 10
360.7024095735571
 20
437.857901733553
 30
0.0
 11
475.4524095735598
 21
437.857901733553
 31
0.0
  0
HATCH
  5
12AB
330
121A
100
AcDbEntity
  8
0
  6
Continuous
100
AcDbHatch
 10
0.0
 20
0.0
 30
0.0
210
0.0
220
0.0
230
1.0
  2
ANSI31
 70
     0
 71
     0
 91
        1
 92
        1
 93
        4
 72
     1
 10
475.452409573559
 20
504.3579017335583
 11
475.4524095735596
 21
437.8579017335582
 72
     1
 10
475.4524095735596
 20
437.8579017335584
 11
360.7024095735572
 21
437.8579017335582
 72
     1
 10
360.7024095735571
 20
437.8579017335582
 11
360.702409573557
 21
504.3579017335583
 72
     1
 10
360.7024095735571
 20
504.3579017335583
 11
475.4524095735591
 21
504.3579017335586
 97
        0
 75
     1
 76
     1
 52
134.9999999999999
 41
12.0
 77
     0
 78
     1
 53
180.0
 43
98.85149305933865
 44
-77.3942533234392
 45
-0.0000000000000002
 46
-1.5
 79
     0
 98
        1
 10
427.9825090109683
 20
516.9912241006178
1001
GRADIENTCOLOR1ACI
1070
     5
1001
GRADIENTCOLOR2ACI
1070
     2
  0
LINE
  5
12AC
330
121A
100
AcDbEntity
  8
0
100
AcDbLine
 10
477.0774095735569
 20
362.2329017335536
 30
0.0
 11
477.0774095735569
 21
361.2329017335526
 31
0.0
  0
LINE
  5
12AD
330
121A
100
AcDbEntity
  8
0
100
AcDbLine
 10
359.0774095735569
 20
362.2329017335531
 30
0.0
 11
359.0774095735569
 21
361.2329017335532
 31
0.0
  0
LINE
  5
1323
330
121A
100
AcDbEntity
  8
0
100
AcDbLine
 10
311.0720531006179
 20
19.37500450375918
 30
0.0
 11
313.4470531006183
 21
19.37500450375918
 31
0.0
  0
LINE
  5
1324
330
121A
100
AcDbEntity
  8
0
100
AcDbLine
 10
313.4470531006183
 20
20.87500450375953
 30
0.0
 11
311.0720531006179
 21
20.8750045037595
 31
0.0
  0
LINE
  5
1325
330
121A
100
AcDbEntity
  8
0
100
AcDbLine
 10
311.0720531006179
 20
6.444118713714601
 30
0.0
 11
315.0720531006182
 21
6.444118713714601
 31
0.0
  0
LINE
  5
1326
330
121A
100
AcDbEntity
  8
0
100
AcDbLine
 10
315.0720531006182
 20
9.444118713714599
 30
0.0
 11
311.0720531006179
 21
9.444118713714599
 31
0.0
  0
LINE
  5
1329
330
121A
100
AcDbEntity
  8
0
100
AcDbLine
 10
313.4470531006183
 20
20.87500450375953
 30
0.0
 11
313.4470531006183
 21
19.37500450375918
 31
0.0
  0
LINE
  5
132A
330
121A
100
AcDbEntity
  8
0
100
AcDbLine
 10
315.0720531006182
 20
9.444118713714599
 30
0.0
 11
315.0720531006182
 21
6.444118713714601
 31
0.0
  0
LINE
  5
1334
330
121A
100
AcDbEntity
  8
0
100
AcDbLine
 10
311.0720531006182
 20
-18.37499549624192
 30
0.0
 11
311.3220531006173
 21
-18.37499549624192
 31
0.0
  0
LINE
  5
1335
330
121A
100
AcDbEntity
  8
0
100
AcDbLine
 10
311.3220531006182
 20
-16.99999549624183
 30
0.0
 11
311.3220531006182
 21
-18.37499549624192
 31
0.0
  0
LINE
  5
1336
330
121A
100
AcDbEntity
  8
0
100
AcDbLine
 10
311.0720531006179
 20
-16.99999549624183
 30
0.0
 11
315.0720531006179
 21
-16.99999549624183
 31
0.0
  0
LINE
  5
1337
330
121A
100
AcDbEntity
  8
0
100
AcDbLine
 10
315.0720531006179
 20
-4.999995496241837
 30
0.0
 11
311.0720531006179
 21
-4.999995496241837
 31
0.0
  0
LINE
  5
1339
330
121A
100
AcDbEntity
  8
0
100
AcDbLine
 10
315.0720531006179
 20
-4.999995496241837
 30
0.0
 11
315.0720531006179
 21
-16.99999549624183
 31
0.0
  0
LINE
  5
138B
330
121A
100
AcDbEntity
  8
0
100
AcDbLine
 10
359.0774095735558
 20
174.0000045037577
 30
0.0
 11
477.0774095735556
 21
174.0000045037577
 31
0.0
  0
LINE
  5
138C
330
121A
100
AcDbEntity
  8
0
100
AcDbLine
 10
477.2024095735558
 20
76.0000045037577
 30
0.0
 11
359.0774095735558
 21
76.0000045037577
 31
0.0
  0
LINE
  5
138D
330
121A
100
AcDbEntity
  8
0
100
AcDbLine
 10
359.0774095735558
 20
76.0000045037577
 30
0.0
 11
359.0774095735558
 21
174.0000045037577
 31
0.0
  0
LINE
  5
138E
330
121A
100
AcDbEntity
  8
0
100
AcDbLine
 10
477.0774095735556
 20
76.0000045037577
 30
0.0
 11
477.0774095735556
 21
174.0000045037576
 31
0.0
  0
LINE
  5
138F
330
121A
100
AcDbEntity
  8
0
100
AcDbLine
 10
359.0774095735564
 20
76.0000045037577
 30
0.0
 11
477.2024095735558
 21
76.0000045037577
 31
0.0
  0
LINE
  5
1390
330
121A
100
AcDbEntity
  8
0
100
AcDbLine
 10
477.2024095735558
 20
-23.99999549624226
 30
0.0
 11
359.0774095735564
 21
-23.99999549624226
 31
0.0
  0
LINE
  5
1391
330
121A
100
AcDbEntity
  8
0
100
AcDbLine
 10
359.0774095735564
 20
76.0000045037577
 30
0.0
 11
359.0774095735564
 21
-23.99999549624226
 31
0.0
  0
LINE
  5
1392
330
121A
100
AcDbEntity
  8
0
100
AcDbLine
 10
477.2024095735558
 20
-23.99999549624238
 30
0.0
 11
477.2024095735558
 21
76.00000450375748
 31
0.0
  0
LINE
  5
1393
330
121A
100
AcDbEntity
  8
0
100
AcDbLine
 10
477.3274095735542
 20
169.2500045037579
 30
0.0
 11
477.0774095735553
 21
169.2500045037579
 31
0.0
  0
LINE
  5
1394
330
121A
100
AcDbEntity
  8
0
100
AcDbLine
 10
477.0774095735553
 20
161.2500045037575
 30
0.0
 11
477.3274095735542
 21
161.2500045037575
 31
0.0
  0
LINE
  5
1395
330
121A
100
AcDbEntity
  8
0
100
AcDbLine
 10
477.3274095735542
 20
169.2500045037577
 30
0.0
 11
477.3274095735542
 21
161.2500045037575
 31
0.0
  0
ARC
  5
1396
330
121A
100
AcDbEntity
  8
0
100
AcDbCircle
 10
393.8274095735562
 20
20.12500450375771
 30
0.0
 40
0.7499999999999965
100
AcDbArc
 50
0.0
 51
180.0
  0
ARC
  5
1397
330
121A
100
AcDbEntity
  8
0
100
AcDbCircle
 10
393.8274095735562
 20
20.12500450375771
 30
0.0
 40
0.7500000000000036
100
AcDbArc
 50
180.0
 51
359.9999999999984
  0
CIRCLE
  5
1398
330
121A
100
AcDbEntity
  8
0
100
AcDbCircle
 10
375.8274095735564
 20
20.00000450375771
 30
0.0
 40
11.18749999999998
  0
CIRCLE
  5
1399
330
121A
100
AcDbEntity
  8
0
100
AcDbCircle
 10
362.4524095735556
 20
-17.37499549624226
 30
0.0
 40
1.0
  0
CIRCLE
  5
139A
330
121A
100
AcDbEntity
  8
0
100
AcDbCircle
 10
363.8274095735558
 20
7.750004503757736
 30
0.0
 40
1.5
  0
CIRCLE
  5
139F
330
121A
100
AcDbEntity
  8
0
100
AcDbCircle
 10
373.7649095735562
 20
-10.99999549624183
 30
0.0
 40
6.0
  0
LINE
  5
14A9
330
121A
100
AcDbEntity
  8
0
100
AcDbLine
 10
166.3220531006177
 20
-23.99999549624226
 30
0.0
 11
171.322053100618
 21
-23.99999549624226
 31
0.0
  0
LINE
  5
14AC
330
121A
100
AcDbEntity
  8
0
100
AcDbLine
 10
523.0827660464934
 20
76.00000450375768
 30
0.0
 11
523.0827660464934
 21
174.0000045037577
 31
0.0
  0
LINE
  5
14AE
330
121A
100
AcDbEntity
  8
0
100
AcDbLine
 10
811.5827660464935
 20
174.0000045037577
 30
0.0
 11
811.5827660464935
 21
76.00000447627266
 31
0.0
  0
LINE
  5
166A
330
121A
100
AcDbEntity
  8
0
100
AcDbLine
 10
727.7077660464949
 20
-17.99999552372732
 30
0.0
 11
751.7077660464934
 21
-17.99999552372664
 31
0.0
  0
LINE
  5
166B
330
121A
100
AcDbEntity
  8
0
100
AcDbLine
 10
751.7077660464934
 20
-19.99999552372727
 30
0.0
 11
751.7077660464937
 21
74.37500447627328
 31
0.0
  0
LINE
  5
166C
330
121A
100
AcDbEntity
  8
0
100
AcDbLine
 10
752.7002516472399
 20
74.37500447627328
 30
0.0
 11
752.7002516472399
 21
-19.99999552372727
 31
0.0
  0
LINE
  5
166D
330
121A
100
AcDbEntity
  8
0
100
AcDbLine
 10
751.7077660464934
 20
-19.99999552372727
 30
0.0
 11
752.7002516472399
 21
-19.99999552372727
 31
0.0
  0
LINE
  5
166E
330
121A
100
AcDbEntity
  8
0
100
AcDbLine
 10
752.7002516472399
 20
74.37500447627328
 30
0.0
 11
751.7077660464937
 21
74.37500447627328
 31
0.0
  0
LINE
  5
166F
330
121A
100
AcDbEntity
  8
0
100
AcDbLine
 10
726.7049880176666
 20
-19.99999552372724
 30
0.0
 11
726.7049880176671
 21
74.37500447627335
 31
0.0
  0
LINE
  5
1670
330
121A
100
AcDbEntity
  8
0
100
AcDbLine
 10
727.7077660464937
 20
74.37500447627335
 30
0.0
 11
727.7077660464937
 21
-19.99999552372723
 31
0.0
  0
LINE
  5
1671
330
121A
100
AcDbEntity
  8
0
100
AcDbLine
 10
726.7049880176666
 20
-19.99999552372724
 30
0.0
 11
727.7077660464937
 21
-19.99999552372724
 31
0.0
  0
LINE
  5
1672
330
121A
100
AcDbEntity
  8
0
100
AcDbLine
 10
727.7077660464937
 20
74.37500447627335
 30
0.0
 11
726.7049880176671
 21
74.37500447627335
 31
0.0
  0
LINE
  5
1673
330
121A
100
AcDbEntity
  8
0
100
AcDbLine
 10
769.7077660464937
 20
-17.99999552372732
 30
0.0
 11
793.7077660464937
 21
-17.99999552372732
 31
0.0
  0
LINE
  5
1674
330
121A
100
AcDbEntity
  8
0
100
AcDbLine
 10
768.716765701165
 20
-19.99999552372729
 30
0.0
 11
768.716765701165
 21
74.37500447627328
 31
0.0
  0
LINE
  5
1675
330
121A
100
AcDbEntity
  8
0
100
AcDbLine
 10
769.7077660464937
 20
74.37500447627328
 30
0.0
 11
769.7077660464937
 21
-19.99999552372729
 31
0.0
  0
LINE
  5
1676
330
121A
100
AcDbEntity
  8
0
100
AcDbLine
 10
768.716765701165
 20
-19.99999552372729
 30
0.0
 11
769.7077660464937
 21
-19.99999552372729
 31
0.0
  0
LINE
  5
1677
330
121A
100
AcDbEntity
  8
0
100
AcDbLine
 10
769.7077660464937
 20
74.37500447627328
 30
0.0
 11
768.716765701165
 21
74.37500447627328
 31
0.0
  0
LINE
  5
1678
330
121A
100
AcDbEntity
  8
0
100
AcDbLine
 10
793.7077660464937
 20
-19.99999552372734
 30
0.0
 11
793.7077660464937
 21
74.3750044762732
 31
0.0
  0
LINE
  5
1679
330
121A
100
AcDbEntity
  8
0
100
AcDbLine
 10
794.6997813632626
 20
74.3750044762732
 30
0.0
 11
794.6997813632624
 21
-19.99999552372734
 31
0.0
  0
LINE
  5
167A
330
121A
100
AcDbEntity
  8
0
100
AcDbLine
 10
794.6997813632624
 20
-19.99999552372734
 30
0.0
 11
793.7077660464937
 21
-19.99999552372734
 31
0.0
  0
LINE
  5
167B
330
121A
100
AcDbEntity
  8
0
100
AcDbLine
 10
794.6997813632626
 20
74.3750044762732
 30
0.0
 11
793.7077660464937
 21
74.3750044762732
 31
0.0
  0
LINE
  5
167C
330
121A
100
AcDbEntity
  8
0
100
AcDbLine
 10
685.7077660464936
 20
-17.99999552372767
 30
0.0
 11
709.7077660464933
 21
-17.99999552372732
 31
0.0
  0
LINE
  5
167D
330
121A
100
AcDbEntity
  8
0
100
AcDbLine
 10
709.7077660464933
 20
-19.99999552372721
 30
0.0
 11
709.7077660464937
 21
74.37500447627335
 31
0.0
  0
LINE
  5
167E
330
121A
100
AcDbEntity
  8
0
100
AcDbLine
 10
710.7077660464937
 20
74.37500447627335
 30
0.0
 11
710.7077660464937
 21
-19.99999552372721
 31
0.0
  0
LINE
  5
167F
330
121A
100
AcDbEntity
  8
0
100
AcDbLine
 10
709.7077660464933
 20
-19.99999552372721
 30
0.0
 11
710.7077660464937
 21
-19.99999552372721
 31
0.0
  0
LINE
  5
1680
330
121A
100
AcDbEntity
  8
0
100
AcDbLine
 10
710.7077660464937
 20
74.37500447627335
 30
0.0
 11
709.7077660464937
 21
74.37500447627335
 31
0.0
  0
LINE
  5
1681
330
121A
100
AcDbEntity
  8
0
100
AcDbLine
 10
684.7077660464933
 20
-19.99999552372717
 30
0.0
 11
684.7077660464937
 21
74.37500447627344
 31
0.0
  0
LINE
  5
1682
330
121A
100
AcDbEntity
  8
0
100
AcDbLine
 10
685.7077660464937
 20
74.37500447627344
 30
0.0
 11
685.7077660464936
 21
-19.99999552372717
 31
0.0
  0
LINE
  5
1683
330
121A
100
AcDbEntity
  8
0
100
AcDbLine
 10
684.7077660464933
 20
-19.99999552372717
 30
0.0
 11
685.7077660464936
 21
-19.99999552372717
 31
0.0
  0
LINE
  5
1684
330
121A
100
AcDbEntity
  8
0
100
AcDbLine
 10
685.7077660464937
 20
74.37500447627344
 30
0.0
 11
684.7077660464937
 21
74.37500447627344
 31
0.0
  0
LINE
  5
1685
330
121A
100
AcDbEntity
  8
0
100
AcDbLine
 10
671.4577660464931
 20
74.37500447627456
 30
0.0
 11
671.4577660464931
 21
-19.99999552372733
 31
0.0
  0
LINE
  5
1686
330
121A
100
AcDbEntity
  8
0
100
AcDbLine
 10
671.4577660464931
 20
-19.99999552372733
 30
0.0
 11
684.7077660464922
 21
-19.99999552372733
 31
0.0
  0
LINE
  5
1687
330
121A
100
AcDbEntity
  8
0
100
AcDbLine
 10
684.7077660464922
 20
-19.99999552372733
 30
0.0
 11
684.7077660464922
 21
74.37500447627456
 31
0.0
  0
LINE
  5
1688
330
121A
100
AcDbEntity
  8
0
100
AcDbLine
 10
684.7077660464922
 20
74.37500447627456
 30
0.0
 11
671.4577660464931
 21
74.37500447627456
 31
0.0
  0
LINE
  5
1689
330
121A
100
AcDbEntity
  8
0
100
AcDbLine
 10
726.7049880176666
 20
74.37500447627335
 30
0.0
 11
710.707766046493
 21
74.37500447627335
 31
0.0
  0
LINE
  5
168A
330
121A
100
AcDbEntity
  8
0
100
AcDbLine
 10
710.707766046493
 20
74.37500447627335
 30
0.0
 11
710.707766046493
 21
-19.99999552372721
 31
0.0
  0
LINE
  5
168B
330
121A
100
AcDbEntity
  8
0
100
AcDbLine
 10
710.707766046493
 20
-19.99999552372721
 30
0.0
 11
726.7049880176666
 21
-19.99999552372721
 31
0.0
  0
LINE
  5
168C
330
121A
100
AcDbEntity
  8
0
100
AcDbLine
 10
726.7049880176666
 20
-19.99999552372721
 30
0.0
 11
726.7049880176666
 21
74.37500447627335
 31
0.0
  0
LINE
  5
168D
330
121A
100
AcDbEntity
  8
0
100
AcDbLine
 10
807.9577660464932
 20
74.37500447627335
 30
0.0
 11
794.6997813632622
 21
74.37500447627335
 31
0.0
  0
LINE
  5
168E
330
121A
100
AcDbEntity
  8
0
100
AcDbLine
 10
794.6997813632622
 20
74.37500447627335
 30
0.0
 11
794.6997813632622
 21
-19.99999552372721
 31
0.0
  0
LINE
  5
168F
330
121A
100
AcDbEntity
  8
0
100
AcDbLine
 10
794.6997813632622
 20
-19.99999552372721
 30
0.0
 11
807.9577660464932
 21
-19.99999552372721
 31
0.0
  0
LINE
  5
1690
330
121A
100
AcDbEntity
  8
0
100
AcDbLine
 10
807.9577660464932
 20
-19.99999552372721
 30
0.0
 11
807.9577660464932
 21
74.37500447627335
 31
0.0
  0
LINE
  5
1691
330
121A
100
AcDbEntity
  8
0
100
AcDbLine
 10
768.7167657011647
 20
74.37500447627335
 30
0.0
 11
752.7002516472397
 21
74.37500447627335
 31
0.0
  0
LINE
  5
1692
330
121A
100
AcDbEntity
  8
0
100
AcDbLine
 10
752.7002516472397
 20
74.37500447627335
 30
0.0
 11
752.7002516472397
 21
-19.99999552372721
 31
0.0
  0
LINE
  5
1693
330
121A
100
AcDbEntity
  8
0
100
AcDbLine
 10
752.7002516472397
 20
-19.99999552372721
 30
0.0
 11
768.7167657011647
 21
-19.99999552372721
 31
0.0
  0
LINE
  5
1694
330
121A
100
AcDbEntity
  8
0
100
AcDbLine
 10
768.7167657011647
 20
-19.99999552372721
 30
0.0
 11
768.7167657011647
 21
74.37500447627335
 31
0.0
  0
LINE
  5
1695
330
121A
100
AcDbEntity
  8
0
100
AcDbLine
 10
669.832766046494
 20
76.00000447627266
 30
0.0
 11
811.5827660464937
 21
76.00000447627266
 31
0.0
  0
LINE
  5
1696
330
121A
100
AcDbEntity
  8
0
100
AcDbLine
 10
809.5827660464937
 20
-23.99999552372732
 30
0.0
 11
669.832766046494
 21
-23.99999552372732
 31
0.0
  0
LINE
  5
1697
330
121A
100
AcDbEntity
  8
0
100
AcDbLine
 10
669.832766046494
 20
-23.99999552372732
 30
0.0
 11
669.832766046494
 21
76.00000447627266
 31
0.0
  0
LINE
  5
1698
330
121A
100
AcDbEntity
  8
0
100
AcDbLine
 10
671.4577660464936
 20
-19.99999552372847
 30
0.0
 11
671.4577660464924
 21
74.37500447627208
 31
0.0
  0
LINE
  5
1699
330
121A
100
AcDbEntity
  8
0
100
AcDbLine
 10
671.4577660464924
 20
74.37500447627208
 30
0.0
 11
807.9577660464927
 21
74.3750044762735
 31
0.0
  0
LINE
  5
169A
330
121A
100
AcDbEntity
  8
0
100
AcDbLine
 10
807.9577660464927
 20
74.3750044762735
 30
0.0
 11
807.9577660464936
 21
-19.99999552372706
 31
0.0
  0
LINE
  5
169B
330
121A
100
AcDbEntity
  8
0
100
AcDbLine
 10
807.9577660464936
 20
-19.99999552372704
 30
0.0
 11
671.4577660464936
 21
-19.99999552372845
 31
0.0
  0
LINE
  5
169C
330
121A
100
AcDbEntity
  8
0
100
AcDbLine
 10
809.5827660464937
 20
-23.99999552372732
 30
0.0
 11
809.5827660464937
 21
76.00000447627266
 31
0.0
  0
INSERT
  5
16F4
330
121A
100
AcDbEntity
  8
0
  6
Continuous
100
AcDbBlockReference
  2
*X5
 10
211.3063502206665
 20
-24.00000002748506
 30
0.0
1001
GRADIENTCOLOR1ACI
1070
     5
1001
GRADIENTCOLOR2ACI
1070
     2
1001
ACAD
1000
HATCH
1002
{
1070
    19
1000
NET
1040
12.0
1040
0.0
1002
}
  0
LINE
  5
16F7
330
121A
100
AcDbEntity
  8
0
100
AcDbLine
 10
582.9577660464945
 20
-17.99999549624226
 30
0.0
 11
606.9577660464931
 21
-17.99999549624158
 31
0.0
  0
LINE
  5
16F8
330
121A
100
AcDbEntity
  8
0
100
AcDbLine
 10
606.9577660464931
 20
-19.99999549624222
 30
0.0
 11
606.9577660464934
 21
74.37500450375832
 31
0.0
  0
LINE
  5
16F9
330
121A
100
AcDbEntity
  8
0
100
AcDbLine
 10
607.9502516472396
 20
74.37500450375832
 30
0.0
 11
607.9502516472396
 21
-19.99999549624222
 31
0.0
  0
LINE
  5
16FA
330
121A
100
AcDbEntity
  8
0
100
AcDbLine
 10
606.9577660464931
 20
-19.99999549624222
 30
0.0
 11
607.9502516472396
 21
-19.99999549624222
 31
0.0
  0
LINE
  5
16FB
330
121A
100
AcDbEntity
  8
0
100
AcDbLine
 10
607.9502516472396
 20
74.37500450375832
 30
0.0
 11
606.9577660464934
 21
74.37500450375832
 31
0.0
  0
LINE
  5
16FC
330
121A
100
AcDbEntity
  8
0
100
AcDbLine
 10
581.9549880176662
 20
-19.99999549624218
 30
0.0
 11
581.9549880176666
 21
74.3750045037584
 31
0.0
  0
LINE
  5
16FD
330
121A
100
AcDbEntity
  8
0
100
AcDbLine
 10
582.9577660464932
 20
74.3750045037584
 30
0.0
 11
582.9577660464931
 21
-19.99999549624217
 31
0.0
  0
LINE
  5
16FE
330
121A
100
AcDbEntity
  8
0
100
AcDbLine
 10
581.9549880176662
 20
-19.99999549624218
 30
0.0
 11
582.9577660464931
 21
-19.99999549624218
 31
0.0
  0
LINE
  5
16FF
330
121A
100
AcDbEntity
  8
0
100
AcDbLine
 10
582.9577660464932
 20
74.3750045037584
 30
0.0
 11
581.9549880176666
 21
74.3750045037584
 31
0.0
  0
LINE
  5
1700
330
121A
100
AcDbEntity
  8
0
100
AcDbLine
 10
624.9577660464931
 20
-17.99999549624226
 30
0.0
 11
648.9577660464932
 21
-17.99999549624226
 31
0.0
  0
LINE
  5
1701
330
121A
100
AcDbEntity
  8
0
100
AcDbLine
 10
623.9667657011644
 20
-19.99999549624223
 30
0.0
 11
623.9667657011644
 21
74.37500450375832
 31
0.0
  0
LINE
  5
1702
330
121A
100
AcDbEntity
  8
0
100
AcDbLine
 10
624.9577660464931
 20
74.37500450375832
 30
0.0
 11
624.9577660464931
 21
-19.99999549624223
 31
0.0
  0
LINE
  5
1703
330
121A
100
AcDbEntity
  8
0
100
AcDbLine
 10
623.9667657011644
 20
-19.99999549624223
 30
0.0
 11
624.9577660464931
 21
-19.99999549624223
 31
0.0
  0
LINE
  5
1704
330
121A
100
AcDbEntity
  8
0
100
AcDbLine
 10
624.9577660464931
 20
74.37500450375832
 30
0.0
 11
623.9667657011644
 21
74.37500450375832
 31
0.0
  0
LINE
  5
1705
330
121A
100
AcDbEntity
  8
0
100
AcDbLine
 10
648.9577660464932
 20
-19.99999549624227
 30
0.0
 11
648.9577660464934
 21
74.37500450375828
 31
0.0
  0
LINE
  5
1706
330
121A
100
AcDbEntity
  8
0
100
AcDbLine
 10
649.9497813632622
 20
74.37500450375828
 30
0.0
 11
649.9497813632621
 21
-19.99999549624227
 31
0.0
  0
LINE
  5
1707
330
121A
100
AcDbEntity
  8
0
100
AcDbLine
 10
649.9497813632621
 20
-19.99999549624227
 30
0.0
 11
648.9577660464932
 21
-19.99999549624227
 31
0.0
  0
LINE
  5
1708
330
121A
100
AcDbEntity
  8
0
100
AcDbLine
 10
649.9497813632622
 20
74.37500450375828
 30
0.0
 11
648.9577660464934
 21
74.37500450375828
 31
0.0
  0
LINE
  5
1709
330
121A
100
AcDbEntity
  8
0
100
AcDbLine
 10
540.9577660464931
 20
-17.99999549624261
 30
0.0
 11
564.957766046493
 21
-17.99999549624226
 31
0.0
  0
LINE
  5
170A
330
121A
100
AcDbEntity
  8
0
100
AcDbLine
 10
564.957766046493
 20
-19.99999549624215
 30
0.0
 11
564.9577660464934
 21
74.3750045037584
 31
0.0
  0
LINE
  5
170B
330
121A
100
AcDbEntity
  8
0
100
AcDbLine
 10
565.9577660464932
 20
74.3750045037584
 30
0.0
 11
565.9577660464931
 21
-19.99999549624215
 31
0.0
  0
LINE
  5
170C
330
121A
100
AcDbEntity
  8
0
100
AcDbLine
 10
564.957766046493
 20
-19.99999549624215
 30
0.0
 11
565.9577660464931
 21
-19.99999549624215
 31
0.0
  0
LINE
  5
170D
330
121A
100
AcDbEntity
  8
0
100
AcDbLine
 10
565.9577660464932
 20
74.3750045037584
 30
0.0
 11
564.9577660464934
 21
74.3750045037584
 31
0.0
  0
LINE
  5
170E
330
121A
100
AcDbEntity
  8
0
100
AcDbLine
 10
539.957766046493
 20
-19.99999549624211
 30
0.0
 11
539.9577660464934
 21
74.37500450375849
 31
0.0
  0
LINE
  5
170F
330
121A
100
AcDbEntity
  8
0
100
AcDbLine
 10
540.9577660464932
 20
74.37500450375849
 30
0.0
 11
540.9577660464931
 21
-19.99999549624211
 31
0.0
  0
LINE
  5
1710
330
121A
100
AcDbEntity
  8
0
100
AcDbLine
 10
539.957766046493
 20
-19.99999549624211
 30
0.0
 11
540.9577660464931
 21
-19.99999549624211
 31
0.0
  0
LINE
  5
1711
330
121A
100
AcDbEntity
  8
0
100
AcDbLine
 10
540.9577660464932
 20
74.37500450375849
 30
0.0
 11
539.9577660464934
 21
74.37500450375849
 31
0.0
  0
LINE
  5
1712
330
121A
100
AcDbEntity
  8
0
100
AcDbLine
 10
526.7077660464925
 20
74.37500450375963
 30
0.0
 11
526.7077660464925
 21
-19.99999549624227
 31
0.0
  0
LINE
  5
1713
330
121A
100
AcDbEntity
  8
0
100
AcDbLine
 10
526.7077660464925
 20
-19.99999549624227
 30
0.0
 11
539.9577660464918
 21
-19.99999549624227
 31
0.0
  0
LINE
  5
1714
330
121A
100
AcDbEntity
  8
0
100
AcDbLine
 10
539.9577660464918
 20
-19.99999549624227
 30
0.0
 11
539.9577660464918
 21
74.37500450375963
 31
0.0
  0
LINE
  5
1715
330
121A
100
AcDbEntity
  8
0
100
AcDbLine
 10
539.9577660464918
 20
74.37500450375963
 30
0.0
 11
526.7077660464925
 21
74.37500450375963
 31
0.0
  0
LINE
  5
1716
330
121A
100
AcDbEntity
  8
0
100
AcDbLine
 10
581.9549880176662
 20
74.3750045037584
 30
0.0
 11
565.9577660464925
 21
74.3750045037584
 31
0.0
  0
LINE
  5
1717
330
121A
100
AcDbEntity
  8
0
100
AcDbLine
 10
565.9577660464925
 20
74.3750045037584
 30
0.0
 11
565.9577660464925
 21
-19.99999549624215
 31
0.0
  0
LINE
  5
1718
330
121A
100
AcDbEntity
  8
0
100
AcDbLine
 10
565.9577660464925
 20
-19.99999549624215
 30
0.0
 11
581.9549880176662
 21
-19.99999549624215
 31
0.0
  0
LINE
  5
1719
330
121A
100
AcDbEntity
  8
0
100
AcDbLine
 10
581.9549880176662
 20
-19.99999549624215
 30
0.0
 11
581.9549880176662
 21
74.3750045037584
 31
0.0
  0
LINE
  5
171A
330
121A
100
AcDbEntity
  8
0
100
AcDbLine
 10
663.2077660464927
 20
74.3750045037584
 30
0.0
 11
649.9497813632618
 21
74.3750045037584
 31
0.0
  0
LINE
  5
171B
330
121A
100
AcDbEntity
  8
0
100
AcDbLine
 10
649.9497813632618
 20
74.3750045037584
 30
0.0
 11
649.9497813632618
 21
-19.99999549624215
 31
0.0
  0
LINE
  5
171C
330
121A
100
AcDbEntity
  8
0
100
AcDbLine
 10
649.9497813632618
 20
-19.99999549624215
 30
0.0
 11
663.2077660464927
 21
-19.99999549624215
 31
0.0
  0
LINE
  5
171D
330
121A
100
AcDbEntity
  8
0
100
AcDbLine
 10
663.2077660464927
 20
-19.99999549624215
 30
0.0
 11
663.2077660464927
 21
74.3750045037584
 31
0.0
  0
LINE
  5
171E
330
121A
100
AcDbEntity
  8
0
100
AcDbLine
 10
623.9667657011644
 20
74.3750045037584
 30
0.0
 11
607.9502516472394
 21
74.3750045037584
 31
0.0
  0
LINE
  5
171F
330
121A
100
AcDbEntity
  8
0
100
AcDbLine
 10
607.9502516472394
 20
74.3750045037584
 30
0.0
 11
607.9502516472394
 21
-19.99999549624215
 31
0.0
  0
LINE
  5
1720
330
121A
100
AcDbEntity
  8
0
100
AcDbLine
 10
607.9502516472394
 20
-19.99999549624215
 30
0.0
 11
623.9667657011644
 21
-19.99999549624215
 31
0.0
  0
LINE
  5
1721
330
121A
100
AcDbEntity
  8
0
100
AcDbLine
 10
623.9667657011644
 20
-19.99999549624215
 30
0.0
 11
623.9667657011644
 21
74.3750045037584
 31
0.0
  0
LINE
  5
1722
330
121A
100
AcDbEntity
  8
0
100
AcDbLine
 10
523.0827660464934
 20
76.00000450375768
 30
0.0
 11
664.8327660464932
 21
76.0000045037577
 31
0.0
  0
LINE
  5
1723
330
121A
100
AcDbEntity
  8
0
100
AcDbLine
 10
664.8327660464932
 20
-23.99999549624226
 30
0.0
 11
525.0827660464936
 21
-23.99999549624226
 31
0.0
  0
LINE
  5
1724
330
121A
100
AcDbEntity
  8
0
100
AcDbLine
 10
525.0827660464936
 20
-23.99999549624226
 30
0.0
 11
525.0827660464936
 21
76.0000045037577
 31
0.0
  0
LINE
  5
1725
330
121A
100
AcDbEntity
  8
0
100
AcDbLine
 10
526.7077660464931
 20
-19.99999549624341
 30
0.0
 11
526.7077660464921
 21
74.37500450375714
 31
0.0
  0
LINE
  5
1726
330
121A
100
AcDbEntity
  8
0
100
AcDbLine
 10
526.7077660464921
 20
74.37500450375714
 30
0.0
 11
663.2077660464922
 21
74.37500450375856
 31
0.0
  0
LINE
  5
1727
330
121A
100
AcDbEntity
  8
0
100
AcDbLine
 10
663.2077660464922
 20
74.37500450375856
 30
0.0
 11
663.2077660464932
 21
-19.99999549624201
 31
0.0
  0
LINE
  5
1728
330
121A
100
AcDbEntity
  8
0
100
AcDbLine
 10
663.2077660464932
 20
-19.99999549624198
 30
0.0
 11
526.7077660464931
 21
-19.99999549624338
 31
0.0
  0
LINE
  5
1729
330
121A
100
AcDbEntity
  8
0
100
AcDbLine
 10
664.8327660464932
 20
-23.99999549624226
 30
0.0
 11
664.8327660464932
 21
76.0000045037577
 31
0.0
  0
LINE
  5
172A
330
121A
100
AcDbEntity
  8
0
100
AcDbLine
 10
522.7077660464942
 20
19.37500450375902
 30
0.0
 11
525.0827660464936
 21
19.37500450375902
 31
0.0
  0
LINE
  5
172B
330
121A
100
AcDbEntity
  8
0
100
AcDbLine
 10
525.0827660464936
 20
20.87500450375936
 30
0.0
 11
522.7077660464942
 21
20.87500450375936
 31
0.0
  0
LINE
  5
172C
330
121A
100
AcDbEntity
  8
0
100
AcDbLine
 10
521.0827660464932
 20
6.44411871371459
 30
0.0
 11
525.0827660464936
 21
6.44411871371459
 31
0.0
  0
LINE
  5
172D
330
121A
100
AcDbEntity
  8
0
100
AcDbLine
 10
525.0827660464936
 20
9.444118713714587
 30
0.0
 11
521.0827660464932
 21
9.444118713714587
 31
0.0
  0
LINE
  5
172E
330
121A
100
AcDbEntity
  8
0
100
AcDbLine
 10
524.8327660464934
 20
-18.37499549624192
 30
0.0
 11
525.0827660464927
 21
-18.37499549624192
 31
0.0
  0
LINE
  5
172F
330
121A
100
AcDbEntity
  8
0
100
AcDbLine
 10
522.7077660464932
 20
19.3750045037591
 30
0.0
 11
522.7077660464932
 21
20.87500450375936
 31
0.0
  0
LINE
  5
1730
330
121A
100
AcDbEntity
  8
0
100
AcDbLine
 10
524.832766046494
 20
-18.37499549624187
 30
0.0
 11
524.832766046494
 21
-18.34092153260644
 31
0.0
  0
LINE
  5
1731
330
121A
100
AcDbEntity
  8
0
100
AcDbLine
 10
524.832766046494
 20
-18.34092132253093
 30
0.0
 11
524.832766046494
 21
-16.99999549624159
 31
0.0
  0
INSERT
  5
1735
330
121A
100
AcDbEntity
  8
0
  6
Continuous
100
AcDbBlockReference
  2
*X5
 10
66.55635022066599
 20
-24.0
 30
0.0
1001
GRADIENTCOLOR1ACI
1070
     5
1001
GRADIENTCOLOR2ACI
1070
     2
1001
ACAD
1000
HATCH
1002
{
1070
    19
1000
NET
1040
12.0
1040
0.0
1002
}
  0
LINE
  5
1736
330
121A
100
AcDbEntity
  8
0
100
AcDbLine
 10
521.0827660464932
 20
9.444118713714587
 30
0.0
 11
521.0827660464932
 21
6.44411871371459
 31
0.0
  0
LINE
  5
1737
330
121A
100
AcDbEntity
  8
0
100
AcDbLine
 10
809.5827660464937
 20
-23.99999549624226
 30
0.0
 11
809.5827660464937
 21
76.00000450375768
 31
0.0
  0
LINE
  5
1738
330
121A
100
AcDbEntity
  8
0
100
AcDbLine
 10
664.8327660464932
 20
-23.99999549624226
 30
0.0
 11
669.832766046494
 21
-23.99999552372732
 31
0.0
  0
LINE
  5
1739
330
121A
100
AcDbEntity
  8
0
100
AcDbLine
 10
664.8327660464932
 20
76.0000045037577
 30
0.0
 11
669.832766046494
 21
76.0000045037577
 31
0.0
  0
LINE
  5
1784
330
121A
100
AcDbEntity
  8
0
100
AcDbLine
 10
666.8327660464934
 20
174.0000045037577
 30
0.0
 11
523.0827660464934
 21
174.0000045037577
 31
0.0
  0
LINE
  5
1785
330
121A
100
AcDbEntity
  8
0
100
AcDbLine
 10
666.8327660464934
 20
174.0000045037577
 30
0.0
 11
666.8327660464934
 21
76.0000045037577
 31
0.0
  0
LINE
  5
1786
330
121A
100
AcDbEntity
  8
0
100
AcDbLine
 10
523.0827660464934
 20
76.00000450375768
 30
0.0
 11
523.0827660464934
 21
174.0000045037577
 31
0.0
  0
LINE
  5
1787
330
121A
100
AcDbEntity
  8
0
100
AcDbLine
 10
811.5827660464935
 20
174.0000045037577
 30
0.0
 11
667.8327660464937
 21
174.0000045037577
 31
0.0
  0
LINE
  5
1788
330
121A
100
AcDbEntity
  8
0
100
AcDbLine
 10
811.5827660464935
 20
174.0000045037577
 30
0.0
 11
811.5827660464935
 21
76.00000447627266
 31
0.0
  0
LINE
  5
1789
330
121A
100
AcDbEntity
  8
0
100
AcDbLine
 10
667.8327660464936
 20
76.0000045037577
 30
0.0
 11
667.8327660464936
 21
174.0000045037577
 31
0.0
  0
CIRCLE
  5
18C4
330
121A
100
AcDbEntity
  8
0
100
AcDbCircle
 10
594.9577660464934
 20
165.2500045037577
 30
0.0
 40
4.0
  0
CIRCLE
  5
18C5
330
121A
100
AcDbEntity
  8
0
100
AcDbCircle
 10
739.7077660464937
 20
165.2500045037577
 30
0.0
 40
4.0
  0
ARC
  5
193E
330
121A
100
AcDbEntity
  8
0
100
AcDbCircle
 10
594.957766046494
 20
144.0000045037613
 30
0.0
 40
8.250000000000008
100
AcDbArc
 50
179.9999999999998
 51
359.9999999999988
  0
ARC
  5
193F
330
121A
100
AcDbEntity
  8
0
100
AcDbCircle
 10
594.957766046494
 20
144.0000045037613
 30
0.0
 40
8.250000000000021
100
AcDbArc
 50
359.9999999999994
 51
179.9999999999996
  0
ARC
  5
1940
330
121A
100
AcDbEntity
  8
0
100
AcDbCircle
 10
594.957766046494
 20
144.0000045037613
 30
0.0
 40
7.687499999999982
100
AcDbArc
 50
0.0000000000010178
 51
180.0000000000002
  0
ARC
  5
1941
330
121A
100
AcDbEntity
  8
0
100
AcDbCircle
 10
594.957766046494
 20
144.0000045037613
 30
0.0
 40
7.687499999999976
100
AcDbArc
 50
180.0000000000004
 51
0.0000000000002036
  0
LINE
  5
1942
330
121A
100
AcDbEntity
  8
0
100
AcDbLine
 10
600.0802668204817
 20
141.558148654964
 30
0.0
 11
599.8853263442912
 21
141.1092399248052
 31
0.0
  0
LINE
  5
1943
330
121A
100
AcDbEntity
  8
0
100
AcDbLine
 10
599.8853263442912
 20
141.1092399248052
 30
0.0
 11
599.4344334871485
 21
140.9519978613132
 31
0.0
  0
LINE
  5
1944
330
121A
100
AcDbEntity
  8
0
100
AcDbLine
 10
599.4344334871485
 20
140.9519978613132
 30
0.0
 11
599.1099047173072
 21
141.0162339724243
 31
0.0
  0
LINE
  5
1945
330
121A
100
AcDbEntity
  8
0
100
AcDbLine
 10
599.1099047173072
 20
141.0162339724243
 30
0.0
 11
598.8744136458787
 21
141.2089423057576
 31
0.0
  0
LINE
  5
1946
330
121A
100
AcDbEntity
  8
0
100
AcDbLine
 10
598.8744136458787
 20
141.2089423057576
 30
0.0
 11
598.6834414236564
 21
141.9668788136941
 31
0.0
  0
LINE
  5
1947
330
121A
100
AcDbEntity
  8
0
100
AcDbLine
 10
598.6834414236564
 20
141.9668788136941
 30
0.0
 11
598.8674692014342
 21
142.730767702583
 31
0.0
  0
LINE
  5
1948
330
121A
100
AcDbEntity
  8
0
100
AcDbLine
 10
598.8674692014342
 20
142.730767702583
 30
0.0
 11
599.0972559077833
 21
142.9204998454401
 31
0.0
  0
LINE
  5
1949
330
121A
100
AcDbEntity
  8
0
100
AcDbLine
 10
599.0972559077833
 20
142.9204998454401
 30
0.0
 11
599.4185604712754
 21
142.9837438930592
 31
0.0
  0
LINE
  5
194A
330
121A
100
AcDbEntity
  8
0
100
AcDbLine
 10
599.4185604712754
 20
142.9837438930592
 30
0.0
 11
599.8868144395292
 21
142.840390718456
 31
0.0
  0
LINE
  5
194B
330
121A
100
AcDbEntity
  8
0
100
AcDbLine
 10
599.8868144395292
 20
142.840390718456
 30
0.0
 11
600.0802668204817
 21
142.4152915121068
 31
0.0
  0
LINE
  5
194C
330
121A
100
AcDbEntity
  8
0
100
AcDbLine
 10
600.0802668204817
 20
142.4152915121068
 30
0.0
 11
601.223123963339
 21
142.4152915121068
 31
0.0
  0
LINE
  5
194D
330
121A
100
AcDbEntity
  8
0
100
AcDbLine
 10
601.223123963339
 20
142.4152915121068
 30
0.0
 11
601.0629057093707
 21
143.0629849644878
 31
0.0
  0
LINE
  5
194E
330
121A
100
AcDbEntity
  8
0
100
AcDbLine
 10
601.0629057093707
 20
143.0629849644878
 30
0.0
 11
600.6953461855612
 21
143.5417796073449
 31
0.0
  0
LINE
  5
194F
330
121A
100
AcDbEntity
  8
0
100
AcDbLine
 10
600.6953461855612
 20
143.5417796073449
 30
0.0
 11
600.1363184077834
 21
143.8375385359164
 31
0.0
  0
LINE
  5
1950
330
121A
100
AcDbEntity
  8
0
100
AcDbLine
 10
600.1363184077834
 20
143.8375385359164
 30
0.0
 11
599.4016953919103
 21
143.9361248454402
 31
0.0
  0
LINE
  5
1951
330
121A
100
AcDbEntity
  8
0
100
AcDbLine
 10
599.4016953919103
 20
143.9361248454402
 30
0.0
 11
598.6037043204817
 21
143.8041804009957
 31
0.0
  0
LINE
  5
1952
330
121A
100
AcDbEntity
  8
0
100
AcDbLine
 10
598.6037043204817
 20
143.8041804009957
 30
0.0
 11
597.9934612649262
 21
143.4083470676624
 31
0.0
  0
LINE
  5
1953
330
121A
100
AcDbEntity
  8
0
100
AcDbLine
 10
597.9934612649262
 20
143.4083470676624
 30
0.0
 11
597.606184479212
 21
142.7843391311545
 31
0.0
  0
LINE
  5
1954
330
121A
100
AcDbEntity
  8
0
100
AcDbLine
 10
597.606184479212
 20
142.7843391311545
 30
0.0
 11
597.4770922173072
 21
141.9678708771862
 31
0.0
  0
LINE
  5
1955
330
121A
100
AcDbEntity
  8
0
100
AcDbLine
 10
597.4770922173072
 20
141.9678708771862
 30
0.0
 11
597.6068045188943
 21
141.1495425041703
 31
0.0
  0
LINE
  5
1956
330
121A
100
AcDbEntity
  8
0
100
AcDbLine
 10
597.6068045188943
 20
141.1495425041703
 30
0.0
 11
597.9959414236564
 21
140.5259065914719
 31
0.0
  0
LINE
  5
1957
330
121A
100
AcDbEntity
  8
0
100
AcDbLine
 10
597.9959414236564
 20
140.5259065914719
 30
0.0
 11
598.6112688046087
 21
140.131189329567
 31
0.0
  0
LINE
  5
1958
330
121A
100
AcDbEntity
  8
0
100
AcDbLine
 10
598.6112688046087
 20
140.131189329567
 30
0.0
 11
599.4195525347675
 21
139.9996169089322
 31
0.0
  0
LINE
  5
1959
330
121A
100
AcDbEntity
  8
0
100
AcDbLine
 10
599.4195525347675
 20
139.9996169089322
 30
0.0
 11
600.1426428125451
 21
140.1017994486147
 31
0.0
  0
LINE
  5
195A
330
121A
100
AcDbEntity
  8
0
100
AcDbLine
 10
600.1426428125451
 20
140.1017994486147
 30
0.0
 11
600.6988184077832
 21
140.4083470676624
 31
0.0
  0
LINE
  5
195B
330
121A
100
AcDbEntity
  8
0
100
AcDbLine
 10
600.6988184077832
 20
140.4083470676624
 30
0.0
 11
601.0662539236562
 21
140.9001625438529
 31
0.0
  0
LINE
  5
195C
330
121A
100
AcDbEntity
  8
0
100
AcDbLine
 10
601.0662539236562
 20
140.9001625438529
 30
0.0
 11
601.223123963339
 21
141.558148654964
 31
0.0
  0
LINE
  5
195D
330
121A
100
AcDbEntity
  8
0
100
AcDbLine
 10
601.223123963339
 20
141.558148654964
 30
0.0
 11
600.0802668204817
 21
141.558148654964
 31
0.0
  0
LINE
  5
195E
330
121A
100
AcDbEntity
  8
0
100
AcDbLine
 10
592.8585394427141
 20
142.3322228438872
 30
0.0
 11
594.0361188077935
 21
142.3322228438872
 31
0.0
  0
LINE
  5
195F
330
121A
100
AcDbEntity
  8
0
100
AcDbLine
 10
594.0361188077935
 20
142.3322228438872
 30
0.0
 11
594.1829442046189
 21
142.8401593518237
 31
0.0
  0
LINE
  5
1960
330
121A
100
AcDbEntity
  8
0
100
AcDbLine
 10
594.1829442046189
 20
142.8401593518237
 30
0.0
 11
595.3863172204918
 21
142.8401593518237
 31
0.0
  0
LINE
  5
1961
330
121A
100
AcDbEntity
  8
0
100
AcDbLine
 10
595.3863172204918
 20
142.8401593518237
 30
0.0
 11
595.528182299857
 21
142.3322228438872
 31
0.0
  0
LINE
  5
1962
330
121A
100
AcDbEntity
  8
0
100
AcDbLine
 10
595.528182299857
 20
142.3322228438872
 30
0.0
 11
596.73155531573
 21
142.3322228438872
 31
0.0
  0
LINE
  5
1963
330
121A
100
AcDbEntity
  8
0
100
AcDbLine
 10
596.73155531573
 20
142.3322228438872
 30
0.0
 11
595.4021902363649
 21
146.141746653411
 31
0.0
  0
LINE
  5
1964
330
121A
100
AcDbEntity
  8
0
100
AcDbLine
 10
595.4021902363649
 20
146.141746653411
 30
0.0
 11
594.1730235696982
 21
146.141746653411
 31
0.0
  0
LINE
  5
1965
330
121A
100
AcDbEntity
  8
0
100
AcDbLine
 10
594.1730235696982
 20
146.141746653411
 30
0.0
 11
592.8585394427141
 21
142.3322228438872
 31
0.0
  0
LINE
  5
1966
330
121A
100
AcDbEntity
  8
0
100
AcDbLine
 10
594.403182299857
 20
143.6655561772205
 30
0.0
 11
594.7890949982697
 21
144.9691276057919
 31
0.0
  0
LINE
  5
1967
330
121A
100
AcDbEntity
  8
0
100
AcDbLine
 10
594.7890949982697
 20
144.9691276057919
 30
0.0
 11
595.1660791252537
 21
143.6655561772205
 31
0.0
  0
LINE
  5
1968
330
121A
100
AcDbEntity
  8
0
100
AcDbLine
 10
595.1660791252537
 20
143.6655561772205
 30
0.0
 11
594.403182299857
 21
143.6655561772205
 31
0.0
  0
LINE
  5
1969
330
121A
100
AcDbEntity
  8
0
100
AcDbLine
 10
589.0978082524527
 20
144.0726111530674
 30
0.0
 11
590.7972130143575
 21
144.0726111530674
 31
0.0
  0
LINE
  5
196A
330
121A
100
AcDbEntity
  8
0
100
AcDbLine
 10
590.7972130143575
 20
144.0726111530674
 30
0.0
 11
591.5650701572146
 21
144.1113016292578
 31
0.0
  0
LINE
  5
196B
330
121A
100
AcDbEntity
  8
0
100
AcDbLine
 10
591.5650701572146
 20
144.1113016292578
 30
0.0
 11
591.9777685699131
 21
144.2432460737023
 31
0.0
  0
LINE
  5
196C
330
121A
100
AcDbEntity
  8
0
100
AcDbLine
 10
591.9777685699131
 20
144.2432460737023
 30
0.0
 11
592.3860026968973
 21
144.6261825816389
 31
0.0
  0
LINE
  5
196D
330
121A
100
AcDbEntity
  8
0
100
AcDbLine
 10
592.3860026968973
 20
144.6261825816389
 30
0.0
 11
592.5263796810241
 21
145.2134841689405
 31
0.0
  0
LINE
  5
196E
330
121A
100
AcDbEntity
  8
0
100
AcDbLine
 10
592.5263796810241
 20
145.2134841689405
 30
0.0
 11
592.382530474675
 21
145.7764802006865
 31
0.0
  0
LINE
  5
196F
330
121A
100
AcDbEntity
  8
0
100
AcDbLine
 10
592.382530474675
 20
145.7764802006865
 30
0.0
 11
591.9390780937226
 21
146.1013809943373
 31
0.0
  0
LINE
  5
1970
330
121A
100
AcDbEntity
  8
0
100
AcDbLine
 10
591.9390780937226
 20
146.1013809943373
 30
0.0
 11
592.2843161889606
 21
146.4188413117976
 31
0.0
  0
LINE
  5
1971
330
121A
100
AcDbEntity
  8
0
100
AcDbLine
 10
592.2843161889606
 20
146.4188413117976
 30
0.0
 11
592.39939555404
 21
146.8712222641786
 31
0.0
  0
LINE
  5
1972
330
121A
100
AcDbEntity
  8
0
100
AcDbLine
 10
592.39939555404
 20
146.8712222641786
 30
0.0
 11
592.2456257127702
 21
147.4312421054484
 31
0.0
  0
LINE
  5
1973
330
121A
100
AcDbEntity
  8
0
100
AcDbLine
 10
592.2456257127702
 20
147.4312421054484
 30
0.0
 11
591.8031653953098
 21
147.7710238514801
 31
0.0
  0
LINE
  5
1974
330
121A
100
AcDbEntity
  8
0
100
AcDbLine
 10
591.8031653953098
 20
147.7710238514801
 30
0.0
 11
591.4078280937226
 21
147.8563413117976
 31
0.0
  0
LINE
  5
1975
330
121A
100
AcDbEntity
  8
0
100
AcDbLine
 10
591.4078280937226
 20
147.8563413117976
 30
0.0
 11
590.6741971413416
 21
147.8821349625913
 31
0.0
  0
LINE
  5
1976
330
121A
100
AcDbEntity
  8
0
100
AcDbLine
 10
590.6741971413416
 20
147.8821349625913
 30
0.0
 11
589.0978082524527
 21
147.8821349625913
 31
0.0
  0
LINE
  5
1977
330
121A
100
AcDbEntity
  8
0
100
AcDbLine
 10
589.0978082524527
 20
147.8821349625913
 30
0.0
 11
589.0978082524527
 21
144.0726111530674
 31
0.0
  0
LINE
  5
1978
330
121A
100
AcDbEntity
  8
0
100
AcDbLine
 10
590.304157458802
 20
144.9615000419563
 30
0.0
 11
590.304157458802
 21
145.659912740369
 31
0.0
  0
LINE
  5
1979
330
121A
100
AcDbEntity
  8
0
100
AcDbLine
 10
590.304157458802
 20
145.659912740369
 30
0.0
 11
590.8527685699131
 21
145.659912740369
 31
0.0
  0
LINE
  5
197A
330
121A
100
AcDbEntity
  8
0
100
AcDbLine
 10
590.8527685699131
 20
145.659912740369
 30
0.0
 11
591.2619947603892
 21
145.5805476610039
 31
0.0
  0
LINE
  5
197B
330
121A
100
AcDbEntity
  8
0
100
AcDbLine
 10
591.2619947603892
 20
145.5805476610039
 30
0.0
 11
591.3835225381671
 21
145.3136825816388
 31
0.0
  0
LINE
  5
197C
330
121A
100
AcDbEntity
  8
0
100
AcDbLine
 10
591.3835225381671
 20
145.3136825816388
 30
0.0
 11
591.2644749191192
 21
145.0438413117976
 31
0.0
  0
LINE
  5
197D
330
121A
100
AcDbEntity
  8
0
100
AcDbLine
 10
591.2644749191192
 20
145.0438413117976
 30
0.0
 11
590.8636812683258
 21
144.9615000419563
 31
0.0
  0
LINE
  5
197E
330
121A
100
AcDbEntity
  8
0
100
AcDbLine
 10
590.8636812683258
 20
144.9615000419563
 30
0.0
 11
590.304157458802
 21
144.9615000419563
 31
0.0
  0
LINE
  5
197F
330
121A
100
AcDbEntity
  8
0
100
AcDbLine
 10
590.304157458802
 20
146.3583254387816
 30
0.0
 11
590.304157458802
 21
146.9932460737024
 31
0.0
  0
LINE
  5
1980
330
121A
100
AcDbEntity
  8
0
100
AcDbLine
 10
590.304157458802
 20
146.9932460737024
 30
0.0
 11
590.6384828556273
 21
146.9932460737024
 31
0.0
  0
LINE
  5
1981
330
121A
100
AcDbEntity
  8
0
100
AcDbLine
 10
590.6384828556273
 20
146.9932460737024
 30
0.0
 11
591.1469153953098
 21
146.9257857562421
 31
0.0
  0
LINE
  5
1982
330
121A
100
AcDbEntity
  8
0
100
AcDbLine
 10
591.1469153953098
 20
146.9257857562421
 30
0.0
 11
591.256538411183
 21
146.675785756242
 31
0.0
  0
LINE
  5
1983
330
121A
100
AcDbEntity
  8
0
100
AcDbLine
 10
591.256538411183
 20
146.675785756242
 30
0.0
 11
591.1543558715003
 21
146.4307460737024
 31
0.0
  0
LINE
  5
1984
330
121A
100
AcDbEntity
  8
0
100
AcDbLine
 10
591.1543558715003
 20
146.4307460737024
 30
0.0
 11
590.8021733318178
 21
146.3583254387816
 31
0.0
  0
LINE
  5
1985
330
121A
100
AcDbEntity
  8
0
100
AcDbLine
 10
590.8021733318178
 20
146.3583254387816
 30
0.0
 11
590.304157458802
 21
146.3583254387816
 31
0.0
  0
ARC
  5
1986
330
121A
100
AcDbEntity
  8
0
100
AcDbCircle
 10
594.9577660464934
 20
144.000004503762
 30
0.0
 40
9.000000000000012
100
AcDbArc
 50
179.9999999999998
 51
359.9999999999988
  0
ARC
  5
1987
330
121A
100
AcDbEntity
  8
0
100
AcDbCircle
 10
594.9577660464934
 20
144.000004503762
 30
0.0
 40
9.0
100
AcDbArc
 50
0.0
 51
179.9999999999998
  0
ARC
  5
1988
330
121A
100
AcDbEntity
  8
0
100
AcDbCircle
 10
739.707766046494
 20
144.0000045037613
 30
0.0
 40
8.250000000000008
100
AcDbArc
 50
179.9999999999998
 51
359.9999999999988
  0
ARC
  5
1989
330
121A
100
AcDbEntity
  8
0
100
AcDbCircle
 10
739.707766046494
 20
144.0000045037613
 30
0.0
 40
8.250000000000021
100
AcDbArc
 50
359.9999999999994
 51
179.9999999999996
  0
ARC
  5
198A
330
121A
100
AcDbEntity
  8
0
100
AcDbCircle
 10
739.707766046494
 20
144.0000045037613
 30
0.0
 40
7.687499999999982
100
AcDbArc
 50
0.0000000000010178
 51
180.0000000000002
  0
ARC
  5
198B
330
121A
100
AcDbEntity
  8
0
100
AcDbCircle
 10
739.707766046494
 20
144.0000045037613
 30
0.0
 40
7.687499999999976
100
AcDbArc
 50
180.0000000000004
 51
0.0000000000002036
  0
LINE
  5
198C
330
121A
100
AcDbEntity
  8
0
100
AcDbLine
 10
744.8302668204817
 20
141.558148654964
 30
0.0
 11
744.6353263442912
 21
141.1092399248052
 31
0.0
  0
LINE
  5
198D
330
121A
100
AcDbEntity
  8
0
100
AcDbLine
 10
744.6353263442912
 20
141.1092399248052
 30
0.0
 11
744.1844334871484
 21
140.9519978613132
 31
0.0
  0
LINE
  5
198E
330
121A
100
AcDbEntity
  8
0
100
AcDbLine
 10
744.1844334871484
 20
140.9519978613132
 30
0.0
 11
743.8599047173072
 21
141.0162339724243
 31
0.0
  0
LINE
  5
198F
330
121A
100
AcDbEntity
  8
0
100
AcDbLine
 10
743.8599047173072
 20
141.0162339724243
 30
0.0
 11
743.6244136458788
 21
141.2089423057576
 31
0.0
  0
LINE
  5
1990
330
121A
100
AcDbEntity
  8
0
100
AcDbLine
 10
743.6244136458788
 20
141.2089423057576
 30
0.0
 11
743.4334414236563
 21
141.9668788136941
 31
0.0
  0
LINE
  5
1991
330
121A
100
AcDbEntity
  8
0
100
AcDbLine
 10
743.4334414236563
 20
141.9668788136941
 30
0.0
 11
743.6174692014343
 21
142.730767702583
 31
0.0
  0
LINE
  5
1992
330
121A
100
AcDbEntity
  8
0
100
AcDbLine
 10
743.6174692014343
 20
142.730767702583
 30
0.0
 11
743.8472559077832
 21
142.9204998454401
 31
0.0
  0
LINE
  5
1993
330
121A
100
AcDbEntity
  8
0
100
AcDbLine
 10
743.8472559077832
 20
142.9204998454401
 30
0.0
 11
744.1685604712754
 21
142.9837438930592
 31
0.0
  0
LINE
  5
1994
330
121A
100
AcDbEntity
  8
0
100
AcDbLine
 10
744.1685604712754
 20
142.9837438930592
 30
0.0
 11
744.6368144395294
 21
142.840390718456
 31
0.0
  0
LINE
  5
1995
330
121A
100
AcDbEntity
  8
0
100
AcDbLine
 10
744.6368144395294
 20
142.840390718456
 30
0.0
 11
744.8302668204817
 21
142.4152915121068
 31
0.0
  0
LINE
  5
1996
330
121A
100
AcDbEntity
  8
0
100
AcDbLine
 10
744.8302668204817
 20
142.4152915121068
 30
0.0
 11
745.9731239633391
 21
142.4152915121068
 31
0.0
  0
LINE
  5
1997
330
121A
100
AcDbEntity
  8
0
100
AcDbLine
 10
745.9731239633391
 20
142.4152915121068
 30
0.0
 11
745.8129057093707
 21
143.0629849644878
 31
0.0
  0
LINE
  5
1998
330
121A
100
AcDbEntity
  8
0
100
AcDbLine
 10
745.8129057093707
 20
143.0629849644878
 30
0.0
 11
745.4453461855612
 21
143.5417796073449
 31
0.0
  0
LINE
  5
1999
330
121A
100
AcDbEntity
  8
0
100
AcDbLine
 10
745.4453461855612
 20
143.5417796073449
 30
0.0
 11
744.8863184077834
 21
143.8375385359164
 31
0.0
  0
LINE
  5
199A
330
121A
100
AcDbEntity
  8
0
100
AcDbLine
 10
744.8863184077834
 20
143.8375385359164
 30
0.0
 11
744.1516953919102
 21
143.9361248454402
 31
0.0
  0
LINE
  5
199B
330
121A
100
AcDbEntity
  8
0
100
AcDbLine
 10
744.1516953919102
 20
143.9361248454402
 30
0.0
 11
743.3537043204816
 21
143.8041804009957
 31
0.0
  0
LINE
  5
199C
330
121A
100
AcDbEntity
  8
0
100
AcDbLine
 10
743.3537043204816
 20
143.8041804009957
 30
0.0
 11
742.7434612649262
 21
143.4083470676624
 31
0.0
  0
LINE
  5
199D
330
121A
100
AcDbEntity
  8
0
100
AcDbLine
 10
742.7434612649262
 20
143.4083470676624
 30
0.0
 11
742.3561844792121
 21
142.7843391311545
 31
0.0
  0
LINE
  5
199E
330
121A
100
AcDbEntity
  8
0
100
AcDbLine
 10
742.3561844792121
 20
142.7843391311545
 30
0.0
 11
742.2270922173072
 21
141.9678708771862
 31
0.0
  0
LINE
  5
199F
330
121A
100
AcDbEntity
  8
0
100
AcDbLine
 10
742.2270922173072
 20
141.9678708771862
 30
0.0
 11
742.3568045188943
 21
141.1495425041703
 31
0.0
  0
LINE
  5
19A0
330
121A
100
AcDbEntity
  8
0
100
AcDbLine
 10
742.3568045188943
 20
141.1495425041703
 30
0.0
 11
742.7459414236563
 21
140.5259065914719
 31
0.0
  0
LINE
  5
19A1
330
121A
100
AcDbEntity
  8
0
100
AcDbLine
 10
742.7459414236563
 20
140.5259065914719
 30
0.0
 11
743.3612688046088
 21
140.131189329567
 31
0.0
  0
LINE
  5
19A2
330
121A
100
AcDbEntity
  8
0
100
AcDbLine
 10
743.3612688046088
 20
140.131189329567
 30
0.0
 11
744.1695525347673
 21
139.9996169089322
 31
0.0
  0
LINE
  5
19A3
330
121A
100
AcDbEntity
  8
0
100
AcDbLine
 10
744.1695525347673
 20
139.9996169089322
 30
0.0
 11
744.8926428125453
 21
140.1017994486147
 31
0.0
  0
LINE
  5
19A4
330
121A
100
AcDbEntity
  8
0
100
AcDbLine
 10
744.8926428125453
 20
140.1017994486147
 30
0.0
 11
745.4488184077834
 21
140.4083470676624
 31
0.0
  0
LINE
  5
19A5
330
121A
100
AcDbEntity
  8
0
100
AcDbLine
 10
745.4488184077834
 20
140.4083470676624
 30
0.0
 11
745.8162539236562
 21
140.9001625438529
 31
0.0
  0
LINE
  5
19A6
330
121A
100
AcDbEntity
  8
0
100
AcDbLine
 10
745.8162539236562
 20
140.9001625438529
 30
0.0
 11
745.9731239633391
 21
141.558148654964
 31
0.0
  0
LINE
  5
19A7
330
121A
100
AcDbEntity
  8
0
100
AcDbLine
 10
745.9731239633391
 20
141.558148654964
 30
0.0
 11
744.8302668204817
 21
141.558148654964
 31
0.0
  0
LINE
  5
19A8
330
121A
100
AcDbEntity
  8
0
100
AcDbLine
 10
737.6085394427141
 20
142.3322228438872
 30
0.0
 11
738.7861188077934
 21
142.3322228438872
 31
0.0
  0
LINE
  5
19A9
330
121A
100
AcDbEntity
  8
0
100
AcDbLine
 10
738.7861188077934
 20
142.3322228438872
 30
0.0
 11
738.9329442046188
 21
142.8401593518237
 31
0.0
  0
LINE
  5
19AA
330
121A
100
AcDbEntity
  8
0
100
AcDbLine
 10
738.9329442046188
 20
142.8401593518237
 30
0.0
 11
740.1363172204919
 21
142.8401593518237
 31
0.0
  0
LINE
  5
19AB
330
121A
100
AcDbEntity
  8
0
100
AcDbLine
 10
740.1363172204919
 20
142.8401593518237
 30
0.0
 11
740.2781822998568
 21
142.3322228438872
 31
0.0
  0
LINE
  5
19AC
330
121A
100
AcDbEntity
  8
0
100
AcDbLine
 10
740.2781822998568
 20
142.3322228438872
 30
0.0
 11
741.48155531573
 21
142.3322228438872
 31
0.0
  0
LINE
  5
19AD
330
121A
100
AcDbEntity
  8
0
100
AcDbLine
 10
741.48155531573
 20
142.3322228438872
 30
0.0
 11
740.1521902363651
 21
146.141746653411
 31
0.0
  0
LINE
  5
19AE
330
121A
100
AcDbEntity
  8
0
100
AcDbLine
 10
740.1521902363651
 20
146.141746653411
 30
0.0
 11
738.9230235696982
 21
146.141746653411
 31
0.0
  0
LINE
  5
19AF
330
121A
100
AcDbEntity
  8
0
100
AcDbLine
 10
738.9230235696982
 20
146.141746653411
 30
0.0
 11
737.6085394427141
 21
142.3322228438872
 31
0.0
  0
LINE
  5
19B0
330
121A
100
AcDbEntity
  8
0
100
AcDbLine
 10
739.153182299857
 20
143.6655561772205
 30
0.0
 11
739.5390949982697
 21
144.9691276057919
 31
0.0
  0
LINE
  5
19B1
330
121A
100
AcDbEntity
  8
0
100
AcDbLine
 10
739.5390949982697
 20
144.9691276057919
 30
0.0
 11
739.9160791252539
 21
143.6655561772205
 31
0.0
  0
LINE
  5
19B2
330
121A
100
AcDbEntity
  8
0
100
AcDbLine
 10
739.9160791252539
 20
143.6655561772205
 30
0.0
 11
739.153182299857
 21
143.6655561772205
 31
0.0
  0
LINE
  5
19B3
330
121A
100
AcDbEntity
  8
0
100
AcDbLine
 10
733.8478082524527
 20
144.0726111530674
 30
0.0
 11
735.5472130143574
 21
144.0726111530674
 31
0.0
  0
LINE
  5
19B4
330
121A
100
AcDbEntity
  8
0
100
AcDbLine
 10
735.5472130143574
 20
144.0726111530674
 30
0.0
 11
736.3150701572148
 21
144.1113016292578
 31
0.0
  0
LINE
  5
19B5
330
121A
100
AcDbEntity
  8
0
100
AcDbLine
 10
736.3150701572148
 20
144.1113016292578
 30
0.0
 11
736.7277685699129
 21
144.2432460737023
 31
0.0
  0
LINE
  5
19B6
330
121A
100
AcDbEntity
  8
0
100
AcDbLine
 10
736.7277685699129
 20
144.2432460737023
 30
0.0
 11
737.1360026968972
 21
144.6261825816389
 31
0.0
  0
LINE
  5
19B7
330
121A
100
AcDbEntity
  8
0
100
AcDbLine
 10
737.1360026968972
 20
144.6261825816389
 30
0.0
 11
737.2763796810243
 21
145.2134841689405
 31
0.0
  0
LINE
  5
19B8
330
121A
100
AcDbEntity
  8
0
100
AcDbLine
 10
737.2763796810243
 20
145.2134841689405
 30
0.0
 11
737.132530474675
 21
145.7764802006865
 31
0.0
  0
LINE
  5
19B9
330
121A
100
AcDbEntity
  8
0
100
AcDbLine
 10
737.132530474675
 20
145.7764802006865
 30
0.0
 11
736.6890780937227
 21
146.1013809943373
 31
0.0
  0
LINE
  5
19BA
330
121A
100
AcDbEntity
  8
0
100
AcDbLine
 10
736.6890780937227
 20
146.1013809943373
 30
0.0
 11
737.0343161889607
 21
146.4188413117976
 31
0.0
  0
LINE
  5
19BB
330
121A
100
AcDbEntity
  8
0
100
AcDbLine
 10
737.0343161889607
 20
146.4188413117976
 30
0.0
 11
737.1493955540401
 21
146.8712222641786
 31
0.0
  0
LINE
  5
19BC
330
121A
100
AcDbEntity
  8
0
100
AcDbLine
 10
737.1493955540401
 20
146.8712222641786
 30
0.0
 11
736.9956257127702
 21
147.4312421054484
 31
0.0
  0
LINE
  5
19BD
330
121A
100
AcDbEntity
  8
0
100
AcDbLine
 10
736.9956257127702
 20
147.4312421054484
 30
0.0
 11
736.5531653953098
 21
147.7710238514801
 31
0.0
  0
LINE
  5
19BE
330
121A
100
AcDbEntity
  8
0
100
AcDbLine
 10
736.5531653953098
 20
147.7710238514801
 30
0.0
 11
736.1578280937227
 21
147.8563413117976
 31
0.0
  0
LINE
  5
19BF
330
121A
100
AcDbEntity
  8
0
100
AcDbLine
 10
736.1578280937227
 20
147.8563413117976
 30
0.0
 11
735.4241971413415
 21
147.8821349625913
 31
0.0
  0
LINE
  5
19C0
330
121A
100
AcDbEntity
  8
0
100
AcDbLine
 10
735.4241971413415
 20
147.8821349625913
 30
0.0
 11
733.8478082524527
 21
147.8821349625913
 31
0.0
  0
LINE
  5
19C1
330
121A
100
AcDbEntity
  8
0
100
AcDbLine
 10
733.8478082524527
 20
147.8821349625913
 30
0.0
 11
733.8478082524527
 21
144.0726111530674
 31
0.0
  0
LINE
  5
19C2
330
121A
100
AcDbEntity
  8
0
100
AcDbLine
 10
735.054157458802
 20
144.9615000419563
 30
0.0
 11
735.054157458802
 21
145.659912740369
 31
0.0
  0
LINE
  5
19C3
330
121A
100
AcDbEntity
  8
0
100
AcDbLine
 10
735.054157458802
 20
145.659912740369
 30
0.0
 11
735.6027685699132
 21
145.659912740369
 31
0.0
  0
LINE
  5
19C4
330
121A
100
AcDbEntity
  8
0
100
AcDbLine
 10
735.6027685699132
 20
145.659912740369
 30
0.0
 11
736.0119947603894
 21
145.5805476610039
 31
0.0
  0
LINE
  5
19C5
330
121A
100
AcDbEntity
  8
0
100
AcDbLine
 10
736.0119947603894
 20
145.5805476610039
 30
0.0
 11
736.1335225381671
 21
145.3136825816388
 31
0.0
  0
LINE
  5
19C6
330
121A
100
AcDbEntity
  8
0
100
AcDbLine
 10
736.1335225381671
 20
145.3136825816388
 30
0.0
 11
736.0144749191192
 21
145.0438413117976
 31
0.0
  0
LINE
  5
19C7
330
121A
100
AcDbEntity
  8
0
100
AcDbLine
 10
736.0144749191192
 20
145.0438413117976
 30
0.0
 11
735.6136812683257
 21
144.9615000419563
 31
0.0
  0
LINE
  5
19C8
330
121A
100
AcDbEntity
  8
0
100
AcDbLine
 10
735.6136812683257
 20
144.9615000419563
 30
0.0
 11
735.054157458802
 21
144.9615000419563
 31
0.0
  0
LINE
  5
19C9
330
121A
100
AcDbEntity
  8
0
100
AcDbLine
 10
735.054157458802
 20
146.3583254387816
 30
0.0
 11
735.054157458802
 21
146.9932460737024
 31
0.0
  0
LINE
  5
19CA
330
121A
100
AcDbEntity
  8
0
100
AcDbLine
 10
735.054157458802
 20
146.9932460737024
 30
0.0
 11
735.3884828556275
 21
146.9932460737024
 31
0.0
  0
LINE
  5
19CB
330
121A
100
AcDbEntity
  8
0
100
AcDbLine
 10
735.3884828556275
 20
146.9932460737024
 30
0.0
 11
735.8969153953098
 21
146.9257857562421
 31
0.0
  0
LINE
  5
19CC
330
121A
100
AcDbEntity
  8
0
100
AcDbLine
 10
735.8969153953098
 20
146.9257857562421
 30
0.0
 11
736.0065384111829
 21
146.675785756242
 31
0.0
  0
LINE
  5
19CD
330
121A
100
AcDbEntity
  8
0
100
AcDbLine
 10
736.0065384111829
 20
146.675785756242
 30
0.0
 11
735.9043558715003
 21
146.4307460737024
 31
0.0
  0
LINE
  5
19CE
330
121A
100
AcDbEntity
  8
0
100
AcDbLine
 10
735.9043558715003
 20
146.4307460737024
 30
0.0
 11
735.5521733318178
 21
146.3583254387816
 31
0.0
  0
LINE
  5
19CF
330
121A
100
AcDbEntity
  8
0
100
AcDbLine
 10
735.5521733318178
 20
146.3583254387816
 30
0.0
 11
735.054157458802
 21
146.3583254387816
 31
0.0
  0
ARC
  5
19D0
330
121A
100
AcDbEntity
  8
0
100
AcDbCircle
 10
739.7077660464937
 20
144.000004503762
 30
0.0
 40
9.000000000000012
100
AcDbArc
 50
179.9999999999998
 51
359.9999999999988
  0
ARC
  5
19D1
330
121A
100
AcDbEntity
  8
0
100
AcDbCircle
 10
739.7077660464937
 20
144.000004503762
 30
0.0
 40
9.0
100
AcDbArc
 50
0.0
 51
179.9999999999998
  0
LINE
  5
1ACB
330
121A
100
AcDbEntity
  8
0
100
AcDbLine
 10
525.0827660464936
 20
-16.99999549624183
 30
0.0
 11
521.0827660464936
 21
-16.99999549624183
 31
0.0
  0
LINE
  5
1ACC
330
121A
100
AcDbEntity
  8
0
100
AcDbLine
 10
521.0827660464936
 20
-4.999995496241837
 30
0.0
 11
525.0827660464936
 21
-4.999995496241837
 31
0.0
  0
LINE
  5
1ACD
330
121A
100
AcDbEntity
  8
0
100
AcDbLine
 10
521.0827660464936
 20
-4.999995496241837
 30
0.0
 11
521.0827660464936
 21
-16.99999549624183
 31
0.0
  0
ENDSEC
  0
SECTION
  2
OBJECTS
  0
DICTIONARY
  5
11B6
330
0
100
AcDbDictionary
281
     1
  3
ACAD_BACKGROUND
350
1ACE
  3
ACAD_CIP_PREVIOUS_PRODUCT_INFO
350
124F
  3
ACAD_COLOR
350
120C
  3
ACAD_DETAILVIEWSTYLE
350
1214
  3
ACAD_GROUP
350
11B7
  3
ACAD_LAYOUT
350
120B
  3
ACAD_MATERIAL
350
11BA
  3
ACAD_MLEADERSTYLE
350
120F
  3
ACAD_MLINESTYLE
350
1208
  3
ACAD_PLOTSETTINGS
350
120A
  3
ACAD_PLOTSTYLENAME
350
11B8
  3
ACAD_SCALELIST
350
11EC
  3
ACAD_SECTIONVIEWSTYLE
350
1211
  3
ACAD_TABLESTYLE
350
120D
  3
ACAD_VISUALSTYLE
350
11D3
  3
ACDB_RECOMPOSE_DATA
350
1B42
  3
AcDbVariableDictionary
350
12B2
  3
DWGPROPS
350
1B43
  0
DICTIONARY
  5
12B0
330
11FE
100
AcDbDictionary
280
     1
281
     1
  3
ADSK_XREC_LAYER_RECONCILED
360
12B1
  0
DICTIONARY
  5
1ACE
102
{ACAD_REACTORS
330
11B6
102
}
330
11B6
100
AcDbDictionary
281
     1
  0
XRECORD
  5
124F
102
{ACAD_REACTORS
330
11B6
102
}
330
11B6
100
AcDbXrecord
280
     1
300
AMECH_PP
300
2013
300
85963PDSU_2013_0F
  0
DICTIONARY
  5
120C
102
{ACAD_REACTORS
330
11B6
102
}
330
11B6
100
AcDbDictionary
281
     1
  0
DICTIONARY
  5
1214
102
{ACAD_REACTORS
330
11B6
102
}
330
11B6
100
AcDbDictionary
281
     1
  3
Imperial24
350
1215
  0
DICTIONARY
  5
11B7
102
{ACAD_REACTORS
330
11B6
102
}
330
11B6
100
AcDbDictionary
281
     1
  0
DICTIONARY
  5
120B
102
{ACAD_REACTORS
330
11B6
102
}
330
11B6
100
AcDbDictionary
281
     1
  3
Layout1
350
1219
  3
Model
350
121D
  0
DICTIONARY
  5
11BA
102
{ACAD_REACTORS
330
11B6
102
}
330
11B6
100
AcDbDictionary
281
     1
  3
ByBlock
350
11C3
  3
ByLayer
350
11BB
  3
Global
350
11CB
  0
DICTIONARY
  5
120F
102
{ACAD_REACTORS
330
11B6
102
}
330
11B6
100
AcDbDictionary
281
     1
  3
Standard
350
1210
  0
DICTIONARY
  5
1208
102
{ACAD_REACTORS
330
11B6
102
}
330
11B6
100
AcDbDictionary
281
     1
  3
Standard
350
1209
  0
DICTIONARY
  5
120A
102
{ACAD_REACTORS
330
11B6
102
}
330
11B6
100
AcDbDictionary
281
     1
  0
ACDBDICTIONARYWDFLT
  5
11B8
102
{ACAD_REACTORS
330
11B6
102
}
330
11B6
100
AcDbDictionary
281
     1
  3
Normal
350
11B9
100
AcDbDictionaryWithDefault
340
11B9
  0
DICTIONARY
  5
11EC
102
{ACAD_REACTORS
330
11B6
102
}
330
11B6
100
AcDbDictionary
281
     1
  3
A0
350
11ED
  3
A1
350
11EE
  3
A2
350
11EF
  3
A3
350
11F0
  3
A4
350
11F1
  3
A5
350
11F2
  3
A6
350
11F3
  3
A7
350
11F4
  3
A8
350
11F5
  3
A9
350
11F6
  3
B0
350
11F7
  3
B1
350
11F8
  3
B2
350
11F9
  3
B3
350
11FA
  3
B4
350
11FB
  3
B5
350
11FC
  3
B6
350
11FD
  0
DICTIONARY
  5
1211
102
{ACAD_REACTORS
330
11B6
102
}
330
11B6
100
AcDbDictionary
281
     1
  3
Imperial24
350
1213
  0
DICTIONARY
  5
120D
102
{ACAD_REACTORS
330
11B6
102
}
330
11B6
100
AcDbDictionary
281
     1
  3
Standard
350
120E
  0
DICTIONARY
  5
11D3
102
{ACAD_REACTORS
330
11B6
102
}
330
11B6
100
AcDbDictionary
281
     1
  3
2dWireframe
350
11D9
  3
Basic
350
11D8
  3
Brighten
350
11DF
  3
ColorChange
350
11E3
  3
Conceptual
350
11DC
  3
Dim
350
11DE
  3
EdgeColorOff
350
11EB
  3
Facepattern
350
11E2
  3
Flat
350
11D4
  3
FlatWithEdges
350
11D5
  3
Gouraud
350
11D6
  3
GouraudWithEdges
350
11D7
  3
Hidden
350
11DB
  3
JitterOff
350
11E9
  3
Linepattern
350
11E1
  3
OverhangOff
350
11EA
  3
Realistic
350
11DD
  3
Shaded
350
11E8
  3
Shaded with edges
350
11E7
  3
Shades of Gray
350
11E4
  3
Sketchy
350
11E5
  3
Thicken
350
11E0
  3
Wireframe
350
11DA
  3
X-Ray
350
11E6
  0
XRECORD
  5
1B42
102
{ACAD_REACTORS
330
11B6
102
}
330
11B6
100
AcDbXrecord
280
     1
 90
        1
330
120E
  0
DICTIONARY
  5
12B2
102
{ACAD_REACTORS
330
11B6
102
}
330
11B6
100
AcDbDictionary
281
     1
  3
CANNOSCALE
350
12B7
  3
CMLEADERSTYLE
350
12B4
  3
CTABLESTYLE
350
12B3
  3
CVIEWDETAILSTYLE
350
12B5
  3
CVIEWSECTIONSTYLE
350
12B6
  3
DIMASSOC
350
12BA
  3
INDEXCTL
350
12B9
  3
SORTENTS
350
12B8
  3
XCLIPFRAME
350
1AD0
  0
XRECORD
  5
1B43
102
{ACAD_REACTORS
330
11B6
102
}
330
11B6
100
AcDbXrecord
280
     1
  1
DWGPROPS COOKIE
  2

  3

  4

  6

  7

  8
lsztobryn
  9

300
=
301
=
302
=
303
=
304
=
305
=
306
=
307
=
308
=
309
=
 40
0.022218275462963
 41
2456834.64399485
 42
2457205.364582535
  1

 90
        0
  0
XRECORD
  5
12B1
102
{ACAD_REACTORS
330
12B0
102
}
330
12B0
100
AcDbXrecord
280
     1
290
     1
  0
ACDBDETAILVIEWSTYLE
  5
1215
102
{ACAD_REACTORS
330
1214
102
}
330
1214
100
AcDbModelDocViewStyle
 70
     0
  3
Imperial24
290
     0
100
AcDbDetailViewStyle
 70
     0
 71
     0
 90
        3
 71
     1
340
11FF
 40
0.24
340
0
 40
0.24
300

 40
0.36
280
     3
 71
     2
340
1206
 90
       25
 71
     3
340
11FF
 40
0.24
 90
        1
 40
0.75
 90
        1
300
%<\AcVar ViewType \f "%tc1">% %<\AcVar ViewDetailId>%\PSCALE %<\AcVar ViewScale \f "%sn">%
 71
     4
340
1206
 90
       25
340
1206
 90
       25
280
     0
  0
LAYOUT
  5
1219
102
{ACAD_XDICTIONARY
360
1B75
102
}
102
{ACAD_REACTORS
330
120B
102
}
330
120B
100
AcDbPlotSettings
  1

  2
\\BALTIMORE\MD_ENGR_Copier
  4

  6

 40
0.0
 41
0.0
 42
0.0
 43
0.0
 44
0.0
 45
0.0
 46
0.0
 47
0.0
 48
0.0
 49
0.0
140
0.0
141
0.0
142
1.0
143
1.0
 70
   688
 72
     0
 73
     0
 74
     5
  7
bac.ctb
 75
    16
147
1.0
148
0.0
149
0.0
100
AcDbLayout
  1
Layout1
 70
     1
 71
     1
 10
0.0
 20
0.0
 11
12.0
 21
9.0
 12
0.0
 22
0.0
 32
0.0
 14
1.000000000000000E+20
 24
1.000000000000000E+20
 34
1.000000000000000E+20
 15
-1.000000000000000E+20
 25
-1.000000000000000E+20
 35
-1.000000000000000E+20
146
0.0
 13
0.0
 23
0.0
 33
0.0
 16
1.0
 26
0.0
 36
0.0
 17
0.0
 27
1.0
 37
0.0
 76
     0
330
1216
  0
LAYOUT
  5
121D
102
{ACAD_XDICTIONARY
360
1B77
102
}
102
{ACAD_REACTORS
330
120B
102
}
330
120B
100
AcDbPlotSettings
  1

  2
\\BALTIMORE\MD_ENGR_Copier
  4

  6

 40
0.0
 41
0.0
 42
0.0
 43
0.0
 44
0.0
 45
0.0
 46
0.0
 47
0.0
 48
0.0
 49
0.0
140
0.0
141
0.0
142
1.0
143
1.0
 70
  1712
 72
     0
 73
     0
 74
     0
  7
bac.ctb
 75
     0
147
1.0
148
0.0
149
0.0
100
AcDbLayout
  1
Model
 70
     1
 71
     0
 10
0.0
 20
0.0
 11
12.0
 21
9.0
 12
0.0
 22
0.0
 32
0.0
 14
0.0
 24
0.0
 34
0.0
 15
0.0
 25
0.0
 35
0.0
146
0.0
 13
0.0
 23
0.0
 33
0.0
 16
1.0
 26
0.0
 36
0.0
 17
0.0
 27
1.0
 37
0.0
 76
     0
330
121A
331
121F
  0
MATERIAL
  5
11C3
102
{ACAD_XDICTIONARY
360
11C4
102
}
102
{ACAD_REACTORS
330
11BA
102
}
330
11BA
100
AcDbMaterial
  1
ByBlock
 72
     0
 43
0.0208333333333333
 43
0.0
 43
0.0
 43
0.0
 43
0.0
 43
0.0208333333333333
 43
0.0
 43
0.0
 43
0.0
 43
0.0
 43
1.0
 43
0.0
 43
0.0
 43
0.0
 43
0.0
 43
1.0
 77
     0
 47
0.0208333333333333
 47
0.0
 47
0.0
 47
0.0
 47
0.0
 47
0.0208333333333333
 47
0.0
 47
0.0
 47
0.0
 47
0.0
 47
1.0
 47
0.0
 47
0.0
 47
0.0
 47
0.0
 47
1.0
171
     0
 49
0.0208333333333333
 49
0.0
 49
0.0
 49
0.0
 49
0.0
 49
0.0208333333333333
 49
0.0
 49
0.0
 49
0.0
 49
0.0
 49
1.0
 49
0.0
 49
0.0
 49
0.0
 49
0.0
 49
1.0
175
     0
142
0.0208333333333333
142
0.0
142
0.0
142
0.0
142
0.0
142
0.0208333333333333
142
0.0
142
0.0
142
0.0
142
0.0
142
1.0
142
0.0
142
0.0
142
0.0
142
0.0
142
1.0
179
     0
144
0.0208333333333333
144
0.0
144
0.0
144
0.0
144
0.0
144
0.0208333333333333
144
0.0
144
0.0
144
0.0
144
0.0
144
1.0
144
0.0
144
0.0
144
0.0
144
0.0
144
1.0
147
0.0208333333333333
147
0.0
147
0.0
147
0.0
147
0.0
147
0.0208333333333333
147
0.0
147
0.0
147
0.0
147
0.0
147
1.0
147
0.0
147
0.0
147
0.0
147
0.0
147
1.0
  0
MATERIAL
  5
11BB
102
{ACAD_XDICTIONARY
360
11BC
102
}
102
{ACAD_REACTORS
330
11BA
102
}
330
11BA
100
AcDbMaterial
  1
ByLayer
 72
     0
 43
0.0208333333333333
 43
0.0
 43
0.0
 43
0.0
 43
0.0
 43
0.0208333333333333
 43
0.0
 43
0.0
 43
0.0
 43
0.0
 43
1.0
 43
0.0
 43
0.0
 43
0.0
 43
0.0
 43
1.0
 77
     0
 47
0.0208333333333333
 47
0.0
 47
0.0
 47
0.0
 47
0.0
 47
0.0208333333333333
 47
0.0
 47
0.0
 47
0.0
 47
0.0
 47
1.0
 47
0.0
 47
0.0
 47
0.0
 47
0.0
 47
1.0
171
     0
 49
0.0208333333333333
 49
0.0
 49
0.0
 49
0.0
 49
0.0
 49
0.0208333333333333
 49
0.0
 49
0.0
 49
0.0
 49
0.0
 49
1.0
 49
0.0
 49
0.0
 49
0.0
 49
0.0
 49
1.0
175
     0
142
0.0208333333333333
142
0.0
142
0.0
142
0.0
142
0.0
142
0.0208333333333333
142
0.0
142
0.0
142
0.0
142
0.0
142
1.0
142
0.0
142
0.0
142
0.0
142
0.0
142
1.0
179
     0
144
0.0208333333333333
144
0.0
144
0.0
144
0.0
144
0.0
144
0.0208333333333333
144
0.0
144
0.0
144
0.0
144
0.0
144
1.0
144
0.0
144
0.0
144
0.0
144
0.0
144
1.0
147
0.0208333333333333
147
0.0
147
0.0
147
0.0
147
0.0
147
0.0208333333333333
147
0.0
147
0.0
147
0.0
147
0.0
147
1.0
147
0.0
147
0.0
147
0.0
147
0.0
147
1.0
  0
MATERIAL
  5
11CB
102
{ACAD_XDICTIONARY
360
11CC
102
}
102
{ACAD_REACTORS
330
11BA
102
}
330
11BA
100
AcDbMaterial
  1
Global
 72
     0
 43
0.0208333333333333
 43
0.0
 43
0.0
 43
0.0
 43
0.0
 43
0.0208333333333333
 43
0.0
 43
0.0
 43
0.0
 43
0.0
 43
1.0
 43
0.0
 43
0.0
 43
0.0
 43
0.0
 43
1.0
 77
     0
 47
0.0208333333333333
 47
0.0
 47
0.0
 47
0.0
 47
0.0
 47
0.0208333333333333
 47
0.0
 47
0.0
 47
0.0
 47
0.0
 47
1.0
 47
0.0
 47
0.0
 47
0.0
 47
0.0
 47
1.0
171
     0
 49
0.0208333333333333
 49
0.0
 49
0.0
 49
0.0
 49
0.0
 49
0.0208333333333333
 49
0.0
 49
0.0
 49
0.0
 49
0.0
 49
1.0
 49
0.0
 49
0.0
 49
0.0
 49
0.0
 49
1.0
175
     0
142
0.0208333333333333
142
0.0
142
0.0
142
0.0
142
0.0
142
0.0208333333333333
142
0.0
142
0.0
142
0.0
142
0.0
142
1.0
142
0.0
142
0.0
142
0.0
142
0.0
142
1.0
179
     0
144
0.0208333333333333
144
0.0
144
0.0
144
0.0
144
0.0
144
0.0208333333333333
144
0.0
144
0.0
144
0.0
144
0.0
144
1.0
144
0.0
144
0.0
144
0.0
144
0.0
144
1.0
147
0.0208333333333333
147
0.0
147
0.0
147
0.0
147
0.0
147
0.0208333333333333
147
0.0
147
0.0
147
0.0
147
0.0
147
1.0
147
0.0
147
0.0
147
0.0
147
0.0
147
1.0
  0
MLEADERSTYLE
  5
1210
102
{ACAD_REACTORS
330
120F
102
}
330
120F
100
AcDbMLeaderStyle
170
     2
171
     1
172
     0
 90
        2
 40
0.0
 41
0.0
173
     1
 91
-1056964608
340
1204
 92
       -2
290
     1
 42
0.09
291
     1
 43
0.36
  3
Standard
 44
0.18
300

342
11FF
174
     1
178
     6
175
     1
176
     0
 93
-1056964608
 45
0.18
292
     0
297
     0
 46
0.18
 94
-1056964608
 47
1.0
 49
1.0
140
1.0
293
     1
141
0.0
294
     1
177
     0
142
1.0
295
     0
296
     0
143
0.125
1001
ACAD_MLEADERVER
1070
     2
  0
MLINESTYLE
  5
1209
102
{ACAD_REACTORS
330
1208
102
}
330
1208
100
AcDbMlineStyle
  2
STANDARD
 70
     0
  3

 62
   256
 51
90.0
 52
90.0
 71
     2
 49
0.5
 62
   256
  6
BYLAYER
 49
-0.5
 62
   256
  6
BYLAYER
  0
ACDBPLACEHOLDER
  5
11B9
102
{ACAD_REACTORS
330
11B8
102
}
330
11B8
  0
SCALE
  5
11ED
102
{ACAD_REACTORS
330
11EC
102
}
330
11EC
100
AcDbScale
 70
     0
300
1:1
140
1.0
141
1.0
290
     1
  0
SCALE
  5
11EE
102
{ACAD_REACTORS
330
11EC
102
}
330
11EC
100
AcDbScale
 70
     0
300
1/128" = 1'-0"
140
0.0078125
141
12.0
290
     0
  0
SCALE
  5
11EF
102
{ACAD_REACTORS
330
11EC
102
}
330
11EC
100
AcDbScale
 70
     0
300
1/64" = 1'-0"
140
0.015625
141
12.0
290
     0
  0
SCALE
  5
11F0
102
{ACAD_REACTORS
330
11EC
102
}
330
11EC
100
AcDbScale
 70
     0
300
1/32" = 1'-0"
140
0.03125
141
12.0
290
     0
  0
SCALE
  5
11F1
102
{ACAD_REACTORS
330
11EC
102
}
330
11EC
100
AcDbScale
 70
     0
300
1/16" = 1'-0"
140
0.0625
141
12.0
290
     0
  0
SCALE
  5
11F2
102
{ACAD_REACTORS
330
11EC
102
}
330
11EC
100
AcDbScale
 70
     0
300
3/32" = 1'-0"
140
0.09375
141
12.0
290
     0
  0
SCALE
  5
11F3
102
{ACAD_REACTORS
330
11EC
102
}
330
11EC
100
AcDbScale
 70
     0
300
1/8" = 1'-0"
140
0.125
141
12.0
290
     0
  0
SCALE
  5
11F4
102
{ACAD_REACTORS
330
11EC
102
}
330
11EC
100
AcDbScale
 70
     0
300
3/16" = 1'-0"
140
0.1875
141
12.0
290
     0
  0
SCALE
  5
11F5
102
{ACAD_REACTORS
330
11EC
102
}
330
11EC
100
AcDbScale
 70
     0
300
1/4" = 1'-0"
140
0.25
141
12.0
290
     0
  0
SCALE
  5
11F6
102
{ACAD_REACTORS
330
11EC
102
}
330
11EC
100
AcDbScale
 70
     0
300
3/8" = 1'-0"
140
0.375
141
12.0
290
     0
  0
SCALE
  5
11F7
102
{ACAD_REACTORS
330
11EC
102
}
330
11EC
100
AcDbScale
 70
     0
300
1/2" = 1'-0"
140
0.5
141
12.0
290
     0
  0
SCALE
  5
11F8
102
{ACAD_REACTORS
330
11EC
102
}
330
11EC
100
AcDbScale
 70
     0
300
3/4" = 1'-0"
140
0.75
141
12.0
290
     0
  0
SCALE
  5
11F9
102
{ACAD_REACTORS
330
11EC
102
}
330
11EC
100
AcDbScale
 70
     0
300
1" = 1'-0"
140
1.0
141
12.0
290
     0
  0
SCALE
  5
11FA
102
{ACAD_REACTORS
330
11EC
102
}
330
11EC
100
AcDbScale
 70
     0
300
1-1/2" = 1'-0"
140
1.5
141
12.0
290
     0
  0
SCALE
  5
11FB
102
{ACAD_REACTORS
330
11EC
102
}
330
11EC
100
AcDbScale
 70
     0
300
3" = 1'-0"
140
3.0
141
12.0
290
     0
  0
SCALE
  5
11FC
102
{ACAD_REACTORS
330
11EC
102
}
330
11EC
100
AcDbScale
 70
     0
300
6" = 1'-0"
140
6.0
141
12.0
290
     0
  0
SCALE
  5
11FD
102
{ACAD_REACTORS
330
11EC
102
}
330
11EC
100
AcDbScale
 70
     0
300
1'-0" = 1'-0"
140
12.0
141
12.0
290
     0
  0
ACDBSECTIONVIEWSTYLE
  5
1213
102
{ACAD_REACTORS
330
1211
102
}
330
1211
100
AcDbModelDocViewStyle
 70
     0
  3
Imperial24
290
     0
100
AcDbSectionViewStyle
 70
     0
 71
     0
 90
       78
 71
     1
340
11FF
 40
0.24
340
0
340
0
 40
0.24
300
I, O, Q, S, X, Z
 40
0.48
 90
        3
 40
0.18
 90
        1
 71
     2
340
1212
 90
       25
340
1206
 90
       50
 40
0.24
 40
0.0
 40
0.24
 71
     3
340
11FF
 40
0.24
 90
        1
 40
0.75
 90
        1
300
%<\AcVar ViewType \f "%tc1">% %<\AcVar ViewSectionStartId>%-%<\AcVar ViewSectionEndId>%\PSCALE %<\AcVar ViewScale \f "%sn">%
 71
     4
300
ANSI31
 40
1.0
 90
        0
290
     0
290
     0
 90
        6
 40
0.0
 40
1.570796326794896
 40
0.2617993877991494
 40
1.308996938995747
 40
-0.2617993877991494
 40
1.832595714594045
  0
TABLESTYLE
  5
120E
102
{ACAD_XDICTIONARY
360
1A86
102
}
102
{ACAD_REACTORS
330
120D
102
}
330
120D
100
AcDbTableStyle
  3
Standard
 70
     0
 71
     0
 40
0.06
 41
0.06
280
     0
281
     0
  7
STANDARD
140
0.18
170
     2
 62
     0
 63
     7
283
     0
274
    -2
284
     1
 64
     0
275
    -2
285
     1
 65
     0
276
    -2
286
     1
 66
     0
277
    -2
287
     1
 67
     0
278
    -2
288
     1
 68
     0
279
    -2
289
     1
 69
     0
  7
STANDARD
140
0.25
170
     5
 62
     0
 63
     7
283
     0
274
    -2
284
     1
 64
     0
275
    -2
285
     1
 65
     0
276
    -2
286
     1
 66
     0
277
    -2
287
     1
 67
     0
278
    -2
288
     1
 68
     0
279
    -2
289
     1
 69
     0
  7
STANDARD
140
0.18
170
     5
 62
     0
 63
     7
283
     0
274
    -2
284
     1
 64
     0
275
    -2
285
     1
 65
     0
276
    -2
286
     1
 66
     0
277
    -2
287
     1
 67
     0
278
    -2
288
     1
 68
     0
279
    -2
289
     1
 69
     0
  0
VISUALSTYLE
  5
11D9
102
{ACAD_XDICTIONARY
360
1B4E
102
}
102
{ACAD_REACTORS
330
11D3
102
}
330
11D3
100
AcDbVisualStyle
  2

 70
     4
 71
     0
 72
     2
 73
     0
 90
        0
 40
-0.6
 41
-30.0
 62
     5
 63
     7
 74
     1
 91
        4
 64
     7
 65
   257
 75
     1
175
     1
 42
1.0
 92
        0
 66
   257
 43
1.0
 76
     1
 77
     6
 78
     2
 67
     7
 79
     5
170
     0
171
     0
290
     0
174
     0
 93
        1
 44
0.0
173
     0
291
     0
 45
0.0
1001
ACAD
1000
AcDbSavedByObjectVersion
1070
     0
  0
VISUALSTYLE
  5
11D8
102
{ACAD_XDICTIONARY
360
1B4C
102
}
102
{ACAD_REACTORS
330
11D3
102
}
330
11D3
100
AcDbVisualStyle
  2

 70
     7
 71
     1
 72
     0
 73
     1
 90
        0
 40
-0.6
 41
-30.0
 62
     5
 63
     7
 74
     0
 91
        4
 64
     7
 65
   257
 75
     1
175
     1
 42
1.0
 92
        8
 66
     7
 43
1.0
 76
     1
 77
     6
 78
     2
 67
     7
 79
     5
170
     0
171
     0
290
     0
174
     0
 93
        1
 44
0.0
173
     0
291
     1
 45
0.0
1001
ACAD
1000
AcDbSavedByObjectVersion
1070
     0
  0
VISUALSTYLE
  5
11DF
102
{ACAD_XDICTIONARY
360
1B5A
102
}
102
{ACAD_REACTORS
330
11D3
102
}
330
11D3
100
AcDbVisualStyle
  2

 70
    12
 71
     2
 72
     2
 73
     0
 90
        0
 40
-0.6
 41
-30.0
 62
     5
 63
     7
 74
     1
 91
        4
 64
     7
 65
   257
 75
     1
175
     1
 42
1.0
 92
        8
 66
     7
 43
1.0
 76
     1
 77
     6
 78
     2
 67
     7
 79
     5
170
     0
171
     0
290
     0
174
     0
 93
        1
 44
50.0
173
     0
291
     1
 45
0.0
1001
ACAD
1000
AcDbSavedByObjectVersion
1070
     0
  0
VISUALSTYLE
  5
11E3
102
{ACAD_XDICTIONARY
360
1B62
102
}
102
{ACAD_REACTORS
330
11D3
102
}
330
11D3
100
AcDbVisualStyle
  2

 70
    16
 71
     2
 72
     2
 73
     3
 90
        0
 40
-0.6
 41
-30.0
 62
     5
 63
     8
 74
     1
 91
        4
 64
     7
 65
   257
 75
     1
175
     1
 42
1.0
 92
        8
 66
     8
 43
1.0
 76
     1
 77
     6
 78
     2
 67
     7
 79
     5
170
     0
171
     0
290
     0
174
     0
 93
        1
 44
0.0
173
     0
291
     1
 45
0.0
1001
ACAD
1000
AcDbSavedByObjectVersion
1070
     0
  0
VISUALSTYLE
  5
11DC
102
{ACAD_XDICTIONARY
360
1B54
102
}
102
{ACAD_REACTORS
330
11D3
102
}
330
11D3
100
AcDbVisualStyle
  2

 70
     9
 71
     3
 72
     2
 73
     0
 90
        0
 40
-0.6
 41
-30.0
 62
     5
 63
     7
 74
     2
 91
        2
 64
     7
 65
   257
 75
     1
175
     1
 42
179.0
 92
        8
 66
     7
 43
1.0
 76
     1
 77
     6
 78
     2
 67
     7
 79
     3
170
     0
171
     0
290
     0
174
     0
 93
        1
 44
0.0
173
     0
291
     0
 45
0.0
1001
ACAD
1000
AcDbSavedByObjectVersion
1070
     0
  0
VISUALSTYLE
  5
11DE
102
{ACAD_XDICTIONARY
360
1B58
102
}
102
{ACAD_REACTORS
330
11D3
102
}
330
11D3
100
AcDbVisualStyle
  2

 70
    11
 71
     2
 72
     2
 73
     0
 90
        0
 40
-0.6
 41
-30.0
 62
     5
 63
     7
 74
     1
 91
        4
 64
     7
 65
   257
 75
     1
175
     1
 42
1.0
 92
        8
 66
     7
 43
1.0
 76
     1
 77
     6
 78
     2
 67
     7
 79
     5
170
     0
171
     0
290
     0
174
     0
 93
        1
 44
-50.0
173
     0
291
     1
 45
0.0
1001
ACAD
1000
AcDbSavedByObjectVersion
1070
     0
  0
VISUALSTYLE
  5
11EB
102
{ACAD_XDICTIONARY
360
1B72
102
}
102
{ACAD_REACTORS
330
11D3
102
}
330
11D3
100
AcDbVisualStyle
  2

 70
    22
 71
     2
 72
     2
 73
     0
 90
        0
 40
-0.6
 41
-30.0
 62
     5
 63
     7
 74
     1
 91
        4
 64
     7
 65
   257
 75
     1
175
     1
 42
1.0
 92
        8
 66
     7
 43
1.0
 76
     1
 77
     6
 78
     2
 67
     7
 79
     5
170
     0
171
     0
290
     0
174
     0
 93
        1
 44
0.0
173
     0
291
     1
 45
0.0
1001
ACAD
1000
AcDbSavedByObjectVersion
1070
     0
  0
VISUALSTYLE
  5
11E2
102
{ACAD_XDICTIONARY
360
1B60
102
}
102
{ACAD_REACTORS
330
11D3
102
}
330
11D3
100
AcDbVisualStyle
  2

 70
    15
 71
     2
 72
     2
 73
     0
 90
        0
 40
-0.6
 41
-30.0
 62
     5
 63
     7
 74
     1
 91
        4
 64
     7
 65
   257
 75
     1
175
     1
 42
1.0
 92
        8
 66
     7
 43
1.0
 76
     1
 77
     6
 78
     2
 67
     7
 79
     5
170
     0
171
     0
290
     0
174
     0
 93
        1
 44
0.0
173
     0
291
     1
 45
0.0
1001
ACAD
1000
AcDbSavedByObjectVersion
1070
     0
  0
VISUALSTYLE
  5
11D4
102
{ACAD_XDICTIONARY
360
1B44
102
}
102
{ACAD_REACTORS
330
11D3
102
}
330
11D3
100
AcDbVisualStyle
  2

 70
     0
 71
     2
 72
     1
 73
     1
 90
        2
 40
-0.6
 41
30.0
 62
     5
 63
     7
 74
     0
 91
        0
 64
     7
 65
   257
 75
     1
175
     1
 42
1.0
 92
        8
 66
     7
 43
1.0
 76
     1
 77
     6
 78
     2
 67
     7
 79
     5
170
     0
171
     0
290
     0
174
     0
 93
       13
 44
0.0
173
     0
291
     1
 45
0.0
1001
ACAD
1000
AcDbSavedByObjectVersion
1070
     0
  0
VISUALSTYLE
  5
11D5
102
{ACAD_XDICTIONARY
360
1B46
102
}
102
{ACAD_REACTORS
330
11D3
102
}
330
11D3
100
AcDbVisualStyle
  2

 70
     1
 71
     2
 72
     1
 73
     1
 90
        2
 40
-0.6
 41
30.0
 62
     5
 63
     7
 74
     1
 91
        0
 64
     7
 65
   257
 75
     1
175
     1
 42
1.0
 92
        0
 66
   257
 43
1.0
 76
     1
 77
     6
 78
     2
 67
     7
 79
     5
170
     0
171
     0
290
     0
174
     0
 93
       13
 44
0.0
173
     0
291
     1
 45
0.0
1001
ACAD
1000
AcDbSavedByObjectVersion
1070
     0
  0
VISUALSTYLE
  5
11D6
102
{ACAD_XDICTIONARY
360
1B48
102
}
102
{ACAD_REACTORS
330
11D3
102
}
330
11D3
100
AcDbVisualStyle
  2

 70
     2
 71
     2
 72
     2
 73
     1
 90
        2
 40
-0.6
 41
30.0
 62
     5
 63
     7
 74
     0
 91
        0
 64
     7
 65
   257
 75
     1
175
     1
 42
1.0
 92
        0
 66
     7
 43
1.0
 76
     1
 77
     6
 78
     2
 67
     7
 79
     5
170
     0
171
     0
290
     0
174
     0
 93
       13
 44
0.0
173
     0
291
     1
 45
0.0
1001
ACAD
1000
AcDbSavedByObjectVersion
1070
     0
  0
VISUALSTYLE
  5
11D7
102
{ACAD_XDICTIONARY
360
1B4A
102
}
102
{ACAD_REACTORS
330
11D3
102
}
330
11D3
100
AcDbVisualStyle
  2

 70
     3
 71
     2
 72
     2
 73
     1
 90
        2
 40
-0.6
 41
30.0
 62
     5
 63
     7
 74
     1
 91
        0
 64
     7
 65
   257
 75
     1
175
     1
 42
1.0
 92
        0
 66
   257
 43
1.0
 76
     1
 77
     6
 78
     2
 67
     7
 79
     5
170
     0
171
     0
290
     0
174
     0
 93
       13
 44
0.0
173
     0
291
     1
 45
0.0
1001
ACAD
1000
AcDbSavedByObjectVersion
1070
     0
  0
VISUALSTYLE
  5
11DB
102
{ACAD_XDICTIONARY
360
1B52
102
}
102
{ACAD_REACTORS
330
11D3
102
}
330
11D3
100
AcDbVisualStyle
  2

 70
     6
 71
     1
 72
     2
 73
     2
 90
        0
 40
-0.6
 41
-30.0
 62
     5
 63
     7
 74
     2
 91
        2
 64
     7
 65
   257
 75
     2
175
     1
 42
40.0
 92
        0
 66
   257
 43
1.0
 76
     1
 77
     6
 78
     2
 67
     7
 79
     3
170
     0
171
     0
290
     0
174
     0
 93
        1
 44
0.0
173
     0
291
     0
 45
0.0
1001
ACAD
1000
AcDbSavedByObjectVersion
1070
     0
  0
VISUALSTYLE
  5
11E9
102
{ACAD_XDICTIONARY
360
1B6E
102
}
102
{ACAD_REACTORS
330
11D3
102
}
330
11D3
100
AcDbVisualStyle
  2

 70
    20
 71
     2
 72
     2
 73
     0
 90
        0
 40
-0.6
 41
-30.0
 62
     5
 63
     7
 74
     1
 91
        4
 64
     7
 65
   257
 75
     1
175
     1
 42
1.0
 92
       10
 66
     7
 43
1.0
 76
     1
 77
     6
 78
     2
 67
     7
 79
     5
170
     0
171
     0
290
     0
174
     0
 93
        1
 44
0.0
173
     0
291
     1
 45
0.0
1001
ACAD
1000
AcDbSavedByObjectVersion
1070
     0
  0
VISUALSTYLE
  5
11E1
102
{ACAD_XDICTIONARY
360
1B5E
102
}
102
{ACAD_REACTORS
330
11D3
102
}
330
11D3
100
AcDbVisualStyle
  2

 70
    14
 71
     2
 72
     2
 73
     0
 90
        0
 40
-0.6
 41
-30.0
 62
     5
 63
     7
 74
     1
 91
        4
 64
     7
 65
   257
 75
     7
175
     7
 42
1.0
 92
        8
 66
     7
 43
1.0
 76
     1
 77
     6
 78
     2
 67
     7
 79
     5
170
     0
171
     0
290
     0
174
     0
 93
        1
 44
0.0
173
     0
291
     1
 45
0.0
1001
ACAD
1000
AcDbSavedByObjectVersion
1070
     0
  0
VISUALSTYLE
  5
11EA
102
{ACAD_XDICTIONARY
360
1B70
102
}
102
{ACAD_REACTORS
330
11D3
102
}
330
11D3
100
AcDbVisualStyle
  2

 70
    21
 71
     2
 72
     2
 73
     0
 90
        0
 40
-0.6
 41
-30.0
 62
     5
 63
     7
 74
     1
 91
        4
 64
     7
 65
   257
 75
     1
175
     1
 42
1.0
 92
        9
 66
     7
 43
1.0
 76
     1
 77
     6
 78
     2
 67
     7
 79
     5
170
     0
171
     0
290
     0
174
     0
 93
        1
 44
0.0
173
     0
291
     1
 45
0.0
1001
ACAD
1000
AcDbSavedByObjectVersion
1070
     0
  0
VISUALSTYLE
  5
11DD
102
{ACAD_XDICTIONARY
360
1B56
102
}
102
{ACAD_REACTORS
330
11D3
102
}
330
11D3
100
AcDbVisualStyle
  2

 70
     8
 71
     2
 72
     3
 73
     0
 90
        2
 40
-0.6
 41
30.0
 62
     5
 63
     7
 74
     0
 91
        0
 64
     7
 65
   257
 75
     1
175
     1
 42
1.0
 92
        8
 66
   257
 43
1.0
 76
     1
 77
     6
 78
     2
 67
     7
 79
     3
170
     0
171
     0
290
     0
174
     0
 93
       13
 44
0.0
173
     0
291
     0
 45
0.0
1001
ACAD
1000
AcDbSavedByObjectVersion
1070
     0
  0
VISUALSTYLE
  5
11E8
102
{ACAD_XDICTIONARY
360
1B6C
102
}
102
{ACAD_REACTORS
330
11D3
102
}
330
11D3
100
AcDbVisualStyle
  2

 70
    27
 71
     2
 72
     2
 73
     1
 90
        2
 40
-0.6
 41
30.0
 62
     5
 63
     7
 74
     0
 91
        4
 64
     7
 65
   257
 75
     1
175
     1
 42
1.0
 92
        8
 66
   257
 43
1.0
 76
     1
 77
     6
 78
     2
 67
     8
 79
     3
170
     0
171
     0
290
     0
174
     0
 93
        5
 44
0.0
173
     0
291
     0
 45
0.0
1001
ACAD
1000
AcDbSavedByObjectVersion
1070
     0
  0
VISUALSTYLE
  5
11E7
102
{ACAD_XDICTIONARY
360
1B6A
102
}
102
{ACAD_REACTORS
330
11D3
102
}
330
11D3
100
AcDbVisualStyle
  2

 70
    26
 71
     2
 72
     2
 73
     1
 90
        2
 40
-0.6
 41
30.0
 62
     5
 63
     7
 74
     1
 91
       10
 64
     7
 65
   257
 75
     2
175
     1
 42
1.0
 92
        8
 66
   257
 43
1.0
 76
     1
 77
     6
 78
     2
 67
     7
 79
     3
170
     0
171
     0
290
     0
174
     0
 93
        5
 44
0.0
173
     0
291
     0
 45
0.0
1001
ACAD
1000
AcDbSavedByObjectVersion
1070
     0
  0
VISUALSTYLE
  5
11E4
102
{ACAD_XDICTIONARY
360
1B64
102
}
102
{ACAD_REACTORS
330
11D3
102
}
330
11D3
100
AcDbVisualStyle
  2

 70
    23
 71
     2
 72
     2
 73
     3
 90
        0
 40
-0.6
 41
-30.0
 62
     5
 63
     7
 74
     2
 91
        2
 64
     7
 65
     7
 75
     1
175
     1
 42
40.0
 92
        8
 66
     7
 43
1.0
 76
     1
 77
     6
 78
     2
 67
     7
 79
     3
170
     0
171
     0
290
     0
174
     0
 93
        1
 44
0.0
173
     0
291
     0
 45
0.0
1001
ACAD
1000
AcDbSavedByObjectVersion
1070
     0
  0
VISUALSTYLE
  5
11E5
102
{ACAD_XDICTIONARY
360
1B66
102
}
102
{ACAD_REACTORS
330
11D3
102
}
330
11D3
100
AcDbVisualStyle
  2

 70
    24
 71
     1
 72
     2
 73
     2
 90
        0
 40
-0.6
 41
-30.0
 62
     5
 63
     7
 74
     2
 91
        2
 64
     7
 65
     7
 75
     1
175
     1
 42
40.0
 92
       11
 66
     7
 43
1.0
 76
     1
 77
     6
 78
     2
 67
     7
 79
     6
170
     0
171
     0
290
     0
174
     0
 93
        1
 44
0.0
173
     0
291
     0
 45
0.0
1001
ACAD
1000
AcDbSavedByObjectVersion
1070
     0
  0
VISUALSTYLE
  5
11E0
102
{ACAD_XDICTIONARY
360
1B5C
102
}
102
{ACAD_REACTORS
330
11D3
102
}
330
11D3
100
AcDbVisualStyle
  2

 70
    13
 71
     2
 72
     2
 73
     0
 90
        0
 40
-0.6
 41
-30.0
 62
     5
 63
     7
 74
     1
 91
        4
 64
     7
 65
   257
 75
     1
175
     1
 42
1.0
 92
       12
 66
     7
 43
1.0
 76
     1
 77
     6
 78
     2
 67
     7
 79
     5
170
     0
171
     0
290
     0
174
     0
 93
        1
 44
0.0
173
     0
291
     1
 45
0.0
1001
ACAD
1000
AcDbSavedByObjectVersion
1070
     0
  0
VISUALSTYLE
  5
11DA
102
{ACAD_XDICTIONARY
360
1B50
102
}
102
{ACAD_REACTORS
330
11D3
102
}
330
11D3
100
AcDbVisualStyle
  2

 70
     5
 71
     0
 72
     2
 73
     0
 90
        0
 40
-0.6
 41
-30.0
 62
     5
 63
     7
 74
     1
 91
        4
 64
     7
 65
   257
 75
     1
175
     1
 42
1.0
 92
        0
 66
   257
 43
1.0
 76
     1
 77
     6
 78
     2
 67
     7
 79
     3
170
     0
171
     0
290
     0
174
     0
 93
        1
 44
0.0
173
     0
291
     0
 45
0.0
1001
ACAD
1000
AcDbSavedByObjectVersion
1070
     0
  0
VISUALSTYLE
  5
11E6
102
{ACAD_XDICTIONARY
360
1B68
102
}
102
{ACAD_REACTORS
330
11D3
102
}
330
11D3
100
AcDbVisualStyle
  2

 70
    25
 71
     2
 72
     2
 73
     1
 90
        1
 40
0.5
 41
-30.0
 62
     5
 63
     7
 74
     1
 91
        0
 64
     7
 65
   257
 75
     1
175
     1
 42
1.0
 92
        8
 66
     7
 43
1.0
 76
     1
 77
     6
 78
     2
 67
     7
 79
     3
170
     0
171
     0
290
     0
174
     0
 93
       13
 44
0.0
173
     0
291
     0
 45
0.0
1001
ACAD
1000
AcDbSavedByObjectVersion
1070
     0
  0
DICTIONARYVAR
  5
12B7
102
{ACAD_REACTORS
330
12B2
102
}
330
12B2
100
DictionaryVariables
280
     0
  1
1:1
  0
DICTIONARYVAR
  5
12B4
102
{ACAD_REACTORS
330
12B2
102
}
330
12B2
100
DictionaryVariables
280
     0
  1
STANDARD
  0
DICTIONARYVAR
  5
12B3
102
{ACAD_REACTORS
330
12B2
102
}
330
12B2
100
DictionaryVariables
280
     0
  1
STANDARD
  0
DICTIONARYVAR
  5
12B5
102
{ACAD_REACTORS
330
12B2
102
}
330
12B2
100
DictionaryVariables
280
     0
  1
Imperial24
  0
DICTIONARYVAR
  5
12B6
102
{ACAD_REACTORS
330
12B2
102
}
330
12B2
100
DictionaryVariables
280
     0
  1
Imperial24
  0
DICTIONARYVAR
  5
12BA
102
{ACAD_REACTORS
330
12B2
102
}
330
12B2
100
DictionaryVariables
280
     0
  1
1
  0
DICTIONARYVAR
  5
12B9
102
{ACAD_REACTORS
330
12B2
102
}
330
12B2
100
DictionaryVariables
280
     0
  1
0
  0
DICTIONARYVAR
  5
12B8
102
{ACAD_REACTORS
330
12B2
102
}
330
12B2
100
DictionaryVariables
280
     0
  1
127
  0
DICTIONARYVAR
  5
1AD0
102
{ACAD_REACTORS
330
12B2
102
}
330
12B2
100
DictionaryVariables
280
     0
  1
2
  0
DICTIONARY
  5
1B75
330
1219
100
AcDbDictionary
280
     1
281
     1
  3
ACAD_XREC_ROUNDTRIP
360
1B76
  0
DICTIONARY
  5
1B77
330
121D
100
AcDbDictionary
280
     1
281
     1
  3
ACAD_XREC_ROUNDTRIP
360
1B78
  0
DICTIONARY
  5
11C4
330
11C3
100
AcDbDictionary
280
     1
281
     1
  3
ACAD_XREC_ROUNDTRIP
360
1A8B
  3
BUMPTILE
360
11C6
  3
DIFFUSETILE
360
11C5
  3
OPACITYTILE
360
11C9
  3
REFLECTIONTILE
360
11C8
  3
REFRACTIONTILE
360
11CA
  3
SPECULARTILE
360
11C7
  0
DICTIONARY
  5
11BC
330
11BB
100
AcDbDictionary
280
     1
281
     1
  3
ACAD_XREC_ROUNDTRIP
360
1A8A
  3
BUMPTILE
360
11BE
  3
DIFFUSETILE
360
11BD
  3
OPACITYTILE
360
11C1
  3
REFLECTIONTILE
360
11C0
  3
REFRACTIONTILE
360
11C2
  3
SPECULARTILE
360
11BF
  0
DICTIONARY
  5
11CC
330
11CB
100
AcDbDictionary
280
     1
281
     1
  3
ACAD_XREC_ROUNDTRIP
360
1A8C
  3
BUMPTILE
360
11CE
  3
DIFFUSETILE
360
11CD
  3
OPACITYTILE
360
11D1
  3
REFLECTIONTILE
360
11D0
  3
REFRACTIONTILE
360
11D2
  3
SPECULARTILE
360
11CF
  0
DICTIONARY
  5
1A86
330
120E
100
AcDbDictionary
280
     1
281
     1
  3
ACAD_ROUNDTRIP_2008_TABLESTYLE_CELLSTYLEMAP
360
1B41
  3
ACAD_XREC_ROUNDTRIP
360
1B74
  0
DICTIONARY
  5
1B4E
330
11D9
100
AcDbDictionary
280
     1
281
     1
  3
ACAD_XREC_ROUNDTRIP
360
1B4F
  0
DICTIONARY
  5
1B4C
330
11D8
100
AcDbDictionary
280
     1
281
     1
  3
ACAD_XREC_ROUNDTRIP
360
1B4D
  0
DICTIONARY
  5
1B5A
330
11DF
100
AcDbDictionary
280
     1
281
     1
  3
ACAD_XREC_ROUNDTRIP
360
1B5B
  0
DICTIONARY
  5
1B62
330
11E3
100
AcDbDictionary
280
     1
281
     1
  3
ACAD_XREC_ROUNDTRIP
360
1B63
  0
DICTIONARY
  5
1B54
330
11DC
100
AcDbDictionary
280
     1
281
     1
  3
ACAD_XREC_ROUNDTRIP
360
1B55
  0
DICTIONARY
  5
1B58
330
11DE
100
AcDbDictionary
280
     1
281
     1
  3
ACAD_XREC_ROUNDTRIP
360
1B59
  0
DICTIONARY
  5
1B72
330
11EB
100
AcDbDictionary
280
     1
281
     1
  3
ACAD_XREC_ROUNDTRIP
360
1B73
  0
DICTIONARY
  5
1B60
330
11E2
100
AcDbDictionary
280
     1
281
     1
  3
ACAD_XREC_ROUNDTRIP
360
1B61
  0
DICTIONARY
  5
1B44
330
11D4
100
AcDbDictionary
280
     1
281
     1
  3
ACAD_XREC_ROUNDTRIP
360
1B45
  0
DICTIONARY
  5
1B46
330
11D5
100
AcDbDictionary
280
     1
281
     1
  3
ACAD_XREC_ROUNDTRIP
360
1B47
  0
DICTIONARY
  5
1B48
330
11D6
100
AcDbDictionary
280
     1
281
     1
  3
ACAD_XREC_ROUNDTRIP
360
1B49
  0
DICTIONARY
  5
1B4A
330
11D7
100
AcDbDictionary
280
     1
281
     1
  3
ACAD_XREC_ROUNDTRIP
360
1B4B
  0
DICTIONARY
  5
1B52
330
11DB
100
AcDbDictionary
280
     1
281
     1
  3
ACAD_XREC_ROUNDTRIP
360
1B53
  0
DICTIONARY
  5
1B6E
330
11E9
100
AcDbDictionary
280
     1
281
     1
  3
ACAD_XREC_ROUNDTRIP
360
1B6F
  0
DICTIONARY
  5
1B5E
330
11E1
100
AcDbDictionary
280
     1
281
     1
  3
ACAD_XREC_ROUNDTRIP
360
1B5F
  0
DICTIONARY
  5
1B70
330
11EA
100
AcDbDictionary
280
     1
281
     1
  3
ACAD_XREC_ROUNDTRIP
360
1B71
  0
DICTIONARY
  5
1B56
330
11DD
100
AcDbDictionary
280
     1
281
     1
  3
ACAD_XREC_ROUNDTRIP
360
1B57
  0
DICTIONARY
  5
1B6C
330
11E8
100
AcDbDictionary
280
     1
281
     1
  3
ACAD_XREC_ROUNDTRIP
360
1B6D
  0
DICTIONARY
  5
1B6A
330
11E7
100
AcDbDictionary
280
     1
281
     1
  3
ACAD_XREC_ROUNDTRIP
360
1B6B
  0
DICTIONARY
  5
1B64
330
11E4
100
AcDbDictionary
280
     1
281
     1
  3
ACAD_XREC_ROUNDTRIP
360
1B65
  0
DICTIONARY
  5
1B66
330
11E5
100
AcDbDictionary
280
     1
281
     1
  3
ACAD_XREC_ROUNDTRIP
360
1B67
  0
DICTIONARY
  5
1B5C
330
11E0
100
AcDbDictionary
280
     1
281
     1
  3
ACAD_XREC_ROUNDTRIP
360
1B5D
  0
DICTIONARY
  5
1B50
330
11DA
100
AcDbDictionary
280
     1
281
     1
  3
ACAD_XREC_ROUNDTRIP
360
1B51
  0
DICTIONARY
  5
1B68
330
11E6
100
AcDbDictionary
280
     1
281
     1
  3
ACAD_XREC_ROUNDTRIP
360
1B69
  0
XRECORD
  5
1B76
102
{ACAD_REACTORS
330
1B75
102
}
330
1B75
100
AcDbXrecord
280
     1
102
SHADEPLOT
 70
     0
102
SHADEPLOTRESLEVEL
 70
     2
102
SHADEPLOTCUSTOMDPI
 70
   300
  0
XRECORD
  5
1B78
102
{ACAD_REACTORS
330
1B77
102
}
330
1B77
100
AcDbXrecord
280
     1
102
SHADEPLOT
 70
     0
102
SHADEPLOTRESLEVEL
 70
     2
102
SHADEPLOTCUSTOMDPI
 70
   300
  0
XRECORD
  5
1A8B
102
{ACAD_REACTORS
330
11C4
102
}
330
11C4
100
AcDbXrecord
280
     1
102
MATERIAL
148
0.0
149
0.0
149
0.0
 93
        0
 94
      127
282
     0
 72
     0
 77
     0
171
     0
175
     0
179
     0
273
     0
  0
XRECORD
  5
11C6
102
{ACAD_REACTORS
330
11C4
102
}
330
11C4
100
AcDbXrecord
280
     1
270
     1
271
     1
  0
XRECORD
  5
11C5
102
{ACAD_REACTORS
330
11C4
102
}
330
11C4
100
AcDbXrecord
280
     1
270
     1
271
     1
  0
XRECORD
  5
11C9
102
{ACAD_REACTORS
330
11C4
102
}
330
11C4
100
AcDbXrecord
280
     1
270
     1
271
     1
  0
XRECORD
  5
11C8
102
{ACAD_REACTORS
330
11C4
102
}
330
11C4
100
AcDbXrecord
280
     1
270
     1
271
     1
  0
XRECORD
  5
11CA
102
{ACAD_REACTORS
330
11C4
102
}
330
11C4
100
AcDbXrecord
280
     1
270
     1
271
     1
  0
XRECORD
  5
11C7
102
{ACAD_REACTORS
330
11C4
102
}
330
11C4
100
AcDbXrecord
280
     1
270
     1
271
     1
  0
XRECORD
  5
1A8A
102
{ACAD_REACTORS
330
11BC
102
}
330
11BC
100
AcDbXrecord
280
     1
102
MATERIAL
148
0.0
149
0.0
149
0.0
 93
        0
 94
      127
282
     0
 72
     0
 77
     0
171
     0
175
     0
179
     0
273
     0
  0
XRECORD
  5
11BE
102
{ACAD_REACTORS
330
11BC
102
}
330
11BC
100
AcDbXrecord
280
     1
270
     1
271
     1
  0
XRECORD
  5
11BD
102
{ACAD_REACTORS
330
11BC
102
}
330
11BC
100
AcDbXrecord
280
     1
270
     1
271
     1
  0
XRECORD
  5
11C1
102
{ACAD_REACTORS
330
11BC
102
}
330
11BC
100
AcDbXrecord
280
     1
270
     1
271
     1
  0
XRECORD
  5
11C0
102
{ACAD_REACTORS
330
11BC
102
}
330
11BC
100
AcDbXrecord
280
     1
270
     1
271
     1
  0
XRECORD
  5
11C2
102
{ACAD_REACTORS
330
11BC
102
}
330
11BC
100
AcDbXrecord
280
     1
270
     1
271
     1
  0
XRECORD
  5
11BF
102
{ACAD_REACTORS
330
11BC
102
}
330
11BC
100
AcDbXrecord
280
     1
270
     1
271
     1
  0
XRECORD
  5
1A8C
102
{ACAD_REACTORS
330
11CC
102
}
330
11CC
100
AcDbXrecord
280
     1
102
MATERIAL
148
0.0
149
0.0
149
0.0
 93
        0
 94
      127
282
     0
 72
     0
 77
     0
171
     0
175
     0
179
     0
273
     0
  0
XRECORD
  5
11CE
102
{ACAD_REACTORS
330
11CC
102
}
330
11CC
100
AcDbXrecord
280
     1
270
     1
271
     1
  0
XRECORD
  5
11CD
102
{ACAD_REACTORS
330
11CC
102
}
330
11CC
100
AcDbXrecord
280
     1
270
     1
271
     1
  0
XRECORD
  5
11D1
102
{ACAD_REACTORS
330
11CC
102
}
330
11CC
100
AcDbXrecord
280
     1
270
     1
271
     1
  0
XRECORD
  5
11D0
102
{ACAD_REACTORS
330
11CC
102
}
330
11CC
100
AcDbXrecord
280
     1
270
     1
271
     1
  0
XRECORD
  5
11D2
102
{ACAD_REACTORS
330
11CC
102
}
330
11CC
100
AcDbXrecord
280
     1
270
     1
271
     1
  0
XRECORD
  5
11CF
102
{ACAD_REACTORS
330
11CC
102
}
330
11CC
100
AcDbXrecord
280
     1
270
     1
271
     1
  0
CELLSTYLEMAP
  5
1B41
102
{ACAD_REACTORS
330
1A86
102
}
330
1A86
100
AcDbCellStyleMap
 90
        3
300
CELLSTYLE
  1
TABLEFORMAT_BEGIN
 90
        5
170
     1
 91
        0
 92
    32768
 62
   257
 93
        1
300
CONTENTFORMAT
  1
CONTENTFORMAT_BEGIN
 90
        0
 91
        0
 92
      512
 93
        0
300

 40
0.0
140
1.0
 94
        5
 62
     0
340
11FF
144
0.25
309
CONTENTFORMAT_END
171
     1
301
MARGIN
  1
CELLMARGIN_BEGIN
 40
0.06
 40
0.06
 40
0.06
 40
0.06
 40
0.18
 40
0.18
309
CELLMARGIN_END
 94
        6
 95
        1
302
GRIDFORMAT
  1
GRIDFORMAT_BEGIN
 90
        0
 91
        1
 62
     0
 92
       -2
340
0
 93
        0
 40
0.045
309
GRIDFORMAT_END
 95
        2
302
GRIDFORMAT
  1
GRIDFORMAT_BEGIN
 90
        0
 91
        1
 62
     0
 92
       -2
340
0
 93
        0
 40
0.045
309
GRIDFORMAT_END
 95
        4
302
GRIDFORMAT
  1
GRIDFORMAT_BEGIN
 90
        0
 91
        1
 62
     0
 92
       -2
340
0
 93
        0
 40
0.045
309
GRIDFORMAT_END
 95
        8
302
GRIDFORMAT
  1
GRIDFORMAT_BEGIN
 90
        0
 91
        1
 62
     0
 92
       -2
340
0
 93
        0
 40
0.045
309
GRIDFORMAT_END
 95
       16
302
GRIDFORMAT
  1
GRIDFORMAT_BEGIN
 90
        0
 91
        1
 62
     0
 92
       -2
340
0
 93
        0
 40
0.045
309
GRIDFORMAT_END
 95
       32
302
GRIDFORMAT
  1
GRIDFORMAT_BEGIN
 90
        0
 91
        1
 62
     0
 92
       -2
340
0
 93
        0
 40
0.045
309
GRIDFORMAT_END
309
TABLEFORMAT_END
  1
CELLSTYLE_BEGIN
 90
        1
 91
        1
300
_TITLE
309
CELLSTYLE_END
300
CELLSTYLE
  1
TABLEFORMAT_BEGIN
 90
        5
170
     1
 91
        0
 92
        0
 62
   257
 93
        1
300
CONTENTFORMAT
  1
CONTENTFORMAT_BEGIN
 90
        0
 91
        0
 92
      512
 93
        0
300

 40
0.0
140
1.0
 94
        5
 62
     0
340
11FF
144
0.18
309
CONTENTFORMAT_END
171
     1
301
MARGIN
  1
CELLMARGIN_BEGIN
 40
0.06
 40
0.06
 40
0.06
 40
0.06
 40
0.18
 40
0.18
309
CELLMARGIN_END
 94
        6
 95
        1
302
GRIDFORMAT
  1
GRIDFORMAT_BEGIN
 90
        0
 91
        1
 62
     0
 92
       -2
340
0
 93
        0
 40
0.045
309
GRIDFORMAT_END
 95
        2
302
GRIDFORMAT
  1
GRIDFORMAT_BEGIN
 90
        0
 91
        1
 62
     0
 92
       -2
340
0
 93
        0
 40
0.045
309
GRIDFORMAT_END
 95
        4
302
GRIDFORMAT
  1
GRIDFORMAT_BEGIN
 90
        0
 91
        1
 62
     0
 92
       -2
340
0
 93
        0
 40
0.045
309
GRIDFORMAT_END
 95
        8
302
GRIDFORMAT
  1
GRIDFORMAT_BEGIN
 90
        0
 91
        1
 62
     0
 92
       -2
340
0
 93
        0
 40
0.045
309
GRIDFORMAT_END
 95
       16
302
GRIDFORMAT
  1
GRIDFORMAT_BEGIN
 90
        0
 91
        1
 62
     0
 92
       -2
340
0
 93
        0
 40
0.045
309
GRIDFORMAT_END
 95
       32
302
GRIDFORMAT
  1
GRIDFORMAT_BEGIN
 90
        0
 91
        1
 62
     0
 92
       -2
340
0
 93
        0
 40
0.045
309
GRIDFORMAT_END
309
TABLEFORMAT_END
  1
CELLSTYLE_BEGIN
 90
        2
 91
        1
300
_HEADER
309
CELLSTYLE_END
300
CELLSTYLE
  1
TABLEFORMAT_BEGIN
 90
        5
170
     1
 91
        0
 92
        0
 62
   257
 93
        1
300
CONTENTFORMAT
  1
CONTENTFORMAT_BEGIN
 90
        0
 91
        0
 92
      512
 93
        0
300

 40
0.0
140
1.0
 94
        2
 62
     0
340
11FF
144
0.18
309
CONTENTFORMAT_END
171
     1
301
MARGIN
  1
CELLMARGIN_BEGIN
 40
0.06
 40
0.06
 40
0.06
 40
0.06
 40
0.18
 40
0.18
309
CELLMARGIN_END
 94
        6
 95
        1
302
GRIDFORMAT
  1
GRIDFORMAT_BEGIN
 90
        0
 91
        1
 62
     0
 92
       -2
340
0
 93
        0
 40
0.045
309
GRIDFORMAT_END
 95
        2
302
GRIDFORMAT
  1
GRIDFORMAT_BEGIN
 90
        0
 91
        1
 62
     0
 92
       -2
340
0
 93
        0
 40
0.045
309
GRIDFORMAT_END
 95
        4
302
GRIDFORMAT
  1
GRIDFORMAT_BEGIN
 90
        0
 91
        1
 62
     0
 92
       -2
340
0
 93
        0
 40
0.045
309
GRIDFORMAT_END
 95
        8
302
GRIDFORMAT
  1
GRIDFORMAT_BEGIN
 90
        0
 91
        1
 62
     0
 92
       -2
340
0
 93
        0
 40
0.045
309
GRIDFORMAT_END
 95
       16
302
GRIDFORMAT
  1
GRIDFORMAT_BEGIN
 90
        0
 91
        1
 62
     0
 92
       -2
340
0
 93
        0
 40
0.045
309
GRIDFORMAT_END
 95
       32
302
GRIDFORMAT
  1
GRIDFORMAT_BEGIN
 90
        0
 91
        1
 62
     0
 92
       -2
340
0
 93
        0
 40
0.045
309
GRIDFORMAT_END
309
TABLEFORMAT_END
  1
CELLSTYLE_BEGIN
 90
        3
 91
        2
300
_DATA
309
CELLSTYLE_END
  0
XRECORD
  5
1B74
102
{ACAD_REACTORS
330
1A86
102
}
330
1A86
100
AcDbXrecord
280
     1
102
ACAD_ROUNDTRIP_PRE2007_TABLESTYLE
 90
      512
 91
        0
  1

 92
      512
 93
        0
  2

 94
      512
 95
        0
  3

  0
XRECORD
  5
1B4F
102
{ACAD_REACTORS
330
1B4E
102
}
330
1B4E
100
AcDbXrecord
280
     1
102
RTVSPost2010Prop28
280
     1
102
RTVSPost2010PropOp28
 70
     1
102
RTVSPost2010Prop29
280
     1
102
RTVSPost2010PropOp29
 70
     1
102
RTVSPost2010Prop30
280
     0
102
RTVSPost2010PropOp30
 70
     1
102
RTVSPost2010Prop31
280
     0
102
RTVSPost2010PropOp31
 70
     1
102
RTVSPost2010Prop32
280
     0
102
RTVSPost2010PropOp32
 70
     1
102
RTVSPost2010Prop33
280
     0
102
RTVSPost2010PropOp33
 70
     1
102
RTVSPost2010Prop34
280
     0
102
RTVSPost2010PropOp34
 70
     1
102
RTVSPost2010Prop35
280
     0
102
RTVSPost2010PropOp35
 70
     1
102
RTVSPost2010Prop36
280
     0
102
RTVSPost2010PropOp36
 70
     1
102
RTVSPost2010Prop37
 90
       50
102
RTVSPost2010PropOp37
 70
     1
102
RTVSPost2010Prop38
140
0.0
102
RTVSPost2010PropOp38
 70
     1
102
RTVSPost2010Prop39
140
1.0
102
RTVSPost2010PropOp39
 70
     1
102
RTVSPost2010Prop40
 90
        0
102
RTVSPost2010PropOp40
 70
     1
102
RTVSPost2010Prop41ColorIndex
 90
       18
102
RTVSPost2010Prop41ColorRGB
 90
        0
102
RTVSPost2010PropOp41
 70
     1
102
RTVSPost2010Prop42
 90
       50
102
RTVSPost2010PropOp42
 70
     1
102
RTVSPost2010Prop43
 90
        3
102
RTVSPost2010PropOp43
 70
     1
102
RTVSPost2010Prop44ColorIndex
 90
        5
102
RTVSPost2010Prop44ColorRGB
 90
      255
102
RTVSPost2010PropOp44
 70
     1
102
RTVSPost2010Prop45
280
     0
102
RTVSPost2010PropOp45
 70
     1
102
RTVSPost2010Prop46
 90
       50
102
RTVSPost2010PropOp46
 70
     1
102
RTVSPost2010Prop47
 90
       50
102
RTVSPost2010PropOp47
 70
     1
102
RTVSPost2010Prop48
 90
       50
102
RTVSPost2010PropOp48
 70
     1
102
RTVSPost2010Prop49
280
     0
102
RTVSPost2010PropOp49
 70
     1
102
RTVSPost2010Prop50
 90
       50
102
RTVSPost2010PropOp50
 70
     1
102
RTVSPost2010Prop51ColorIndex
 90
      256
102
RTVSPost2010Prop51ColorRGB
 90
-16777216
102
RTVSPost2010PropOp51
 70
     0
102
RTVSPost2010Prop52
140
1.0
102
RTVSPost2010PropOp52
 70
     0
102
RTVSPost2010Prop53
 90
        2
102
RTVSPost2010PropOp53
 70
     1
102
RTVSPost2010Prop54
  1
strokes_ogs.tif
102
RTVSPost2010PropOp54
 70
     1
102
RTVSPost2010Prop55
280
     0
102
RTVSPost2010PropOp55
 70
     1
102
RTVSPost2010Prop56
140
1.0
102
RTVSPost2010PropOp56
 70
     1
102
RTVSPost2010Prop57
140
1.0
102
RTVSPost2010PropOp57
 70
     1
102
RTVSPropertyOp0
 70
     1
102
RTVSPropertyOp1
 70
     1
102
RTVSPropertyOp2
 70
     1
102
RTVSPropertyOp3
 70
     1
102
RTVSPropertyOp4
 70
     1
102
RTVSPropertyOp5
 70
     1
102
RTVSPropertyOp6
 70
     1
102
RTVSPropertyOp7
 70
     1
102
RTVSPropertyOp8
 70
     1
102
RTVSPropertyOp9
 70
     1
102
RTVSPropertyOp10
 70
     1
102
RTVSPropertyOp11
 70
     1
102
RTVSPropertyOp12
 70
     1
102
RTVSPropertyOp13
 70
     1
102
RTVSPropertyOp14
 70
     1
102
RTVSPropertyOp15
 70
     1
102
RTVSPropertyOp16
 70
     1
102
RTVSPropertyOp17
 70
     1
102
RTVSPropertyOp18
 70
     1
102
RTVSPropertyOp19
 70
     1
102
RTVSPropertyOp20
 70
     1
102
RTVSPropertyOp21
 70
     1
102
RTVSPropertyOp22
 70
     1
102
RTVSPropertyOp23
 70
     1
102
RTVSPropertyOp24
 70
     1
102
RTVSPropertyOp25
 70
     1
102
RTVSPropertyOp26
 70
     1
102
RTVSPropertyOp27
 70
     1
102
RTVSPropertyOp28
 70
     1
102
RTVSPropertyOp29
 70
     1
102
RTVSPropertyOp30
 70
     1
102
RTVSPropertyOp31
 70
     1
102
RTVSPropertyOp32
 70
     1
102
RTVSPropertyOp33
 70
     1
102
RTVSPropertyOp34
 70
     1
102
RTVSPropertyOp35
 70
     1
102
RTVSPropertyOp36
 70
     1
102
RTVSPropertyOp37
 70
     1
102
RTVSPropertyOp38
 70
     1
102
RTVSPropertyOp39
 70
     1
102
RTVSPropertyOp40
 70
     1
102
RTVSPropertyOp41
 70
     1
102
RTVSPropertyOp42
 70
     1
102
RTVSPropertyOp43
 70
     1
102
RTVSPropertyOp44
 70
     1
102
RTVSPropertyOp45
 70
     1
102
RTVSPropertyOp46
 70
     1
102
RTVSPropertyOp47
 70
     1
102
RTVSPropertyOp48
 70
     1
102
RTVSPropertyOp49
 70
     1
102
RTVSPropertyOp50
 70
     1
102
RTVSPropertyOp51
 70
     0
102
RTVSPropertyOp52
 70
     0
102
RTVSPropertyOp53
 70
     1
102
RTVSPropertyOp54
 70
     1
102
RTVSPropertyOp55
 70
     1
102
RTVSPropertyOp56
 70
     1
102
RTVSPropertyOp57
 70
     1
102
RTVSPropertyOp58
 70
     1
102
RTVSPropertyOp59
 70
     1
102
RTVSPropertyOp60
 70
     1
102
RTVSPropertyOp61
 70
     1
102
RTVSPropertyOp62
 70
     1
  0
XRECORD
  5
1B4D
102
{ACAD_REACTORS
330
1B4C
102
}
330
1B4C
100
AcDbXrecord
280
     1
102
RTVSPost2010Prop28
280
     0
102
RTVSPost2010PropOp28
 70
     1
102
RTVSPost2010Prop29
280
     1
102
RTVSPost2010PropOp29
 70
     1
102
RTVSPost2010Prop30
280
     1
102
RTVSPost2010PropOp30
 70
     1
102
RTVSPost2010Prop31
280
     0
102
RTVSPost2010PropOp31
 70
     1
102
RTVSPost2010Prop32
280
     0
102
RTVSPost2010PropOp32
 70
     1
102
RTVSPost2010Prop33
280
     0
102
RTVSPost2010PropOp33
 70
     1
102
RTVSPost2010Prop34
280
     0
102
RTVSPost2010PropOp34
 70
     1
102
RTVSPost2010Prop35
280
     0
102
RTVSPost2010PropOp35
 70
     1
102
RTVSPost2010Prop36
280
     0
102
RTVSPost2010PropOp36
 70
     1
102
RTVSPost2010Prop37
 90
       50
102
RTVSPost2010PropOp37
 70
     1
102
RTVSPost2010Prop38
140
0.0
102
RTVSPost2010PropOp38
 70
     1
102
RTVSPost2010Prop39
140
1.0
102
RTVSPost2010PropOp39
 70
     1
102
RTVSPost2010Prop40
 90
        0
102
RTVSPost2010PropOp40
 70
     1
102
RTVSPost2010Prop41ColorIndex
 90
       18
102
RTVSPost2010Prop41ColorRGB
 90
        0
102
RTVSPost2010PropOp41
 70
     1
102
RTVSPost2010Prop42
 90
       50
102
RTVSPost2010PropOp42
 70
     1
102
RTVSPost2010Prop43
 90
        3
102
RTVSPost2010PropOp43
 70
     1
102
RTVSPost2010Prop44ColorIndex
 90
        5
102
RTVSPost2010Prop44ColorRGB
 90
      255
102
RTVSPost2010PropOp44
 70
     1
102
RTVSPost2010Prop45
280
     0
102
RTVSPost2010PropOp45
 70
     1
102
RTVSPost2010Prop46
 90
       50
102
RTVSPost2010PropOp46
 70
     1
102
RTVSPost2010Prop47
 90
       50
102
RTVSPost2010PropOp47
 70
     1
102
RTVSPost2010Prop48
 90
       50
102
RTVSPost2010PropOp48
 70
     1
102
RTVSPost2010Prop49
280
     0
102
RTVSPost2010PropOp49
 70
     1
102
RTVSPost2010Prop50
 90
       50
102
RTVSPost2010PropOp50
 70
     1
102
RTVSPost2010Prop51ColorIndex
 90
      256
102
RTVSPost2010Prop51ColorRGB
 90
-16777216
102
RTVSPost2010PropOp51
 70
     0
102
RTVSPost2010Prop52
140
1.0
102
RTVSPost2010PropOp52
 70
     0
102
RTVSPost2010Prop53
 90
        2
102
RTVSPost2010PropOp53
 70
     1
102
RTVSPost2010Prop54
  1
strokes_ogs.tif
102
RTVSPost2010PropOp54
 70
     1
102
RTVSPost2010Prop55
280
     0
102
RTVSPost2010PropOp55
 70
     1
102
RTVSPost2010Prop56
140
1.0
102
RTVSPost2010PropOp56
 70
     1
102
RTVSPost2010Prop57
140
1.0
102
RTVSPost2010PropOp57
 70
     1
102
RTVSPropertyOp0
 70
     1
102
RTVSPropertyOp1
 70
     1
102
RTVSPropertyOp2
 70
     1
102
RTVSPropertyOp3
 70
     1
102
RTVSPropertyOp4
 70
     1
102
RTVSPropertyOp5
 70
     1
102
RTVSPropertyOp6
 70
     1
102
RTVSPropertyOp7
 70
     1
102
RTVSPropertyOp8
 70
     1
102
RTVSPropertyOp9
 70
     1
102
RTVSPropertyOp10
 70
     1
102
RTVSPropertyOp11
 70
     1
102
RTVSPropertyOp12
 70
     1
102
RTVSPropertyOp13
 70
     1
102
RTVSPropertyOp14
 70
     1
102
RTVSPropertyOp15
 70
     1
102
RTVSPropertyOp16
 70
     1
102
RTVSPropertyOp17
 70
     1
102
RTVSPropertyOp18
 70
     1
102
RTVSPropertyOp19
 70
     1
102
RTVSPropertyOp20
 70
     1
102
RTVSPropertyOp21
 70
     1
102
RTVSPropertyOp22
 70
     1
102
RTVSPropertyOp23
 70
     1
102
RTVSPropertyOp24
 70
     1
102
RTVSPropertyOp25
 70
     1
102
RTVSPropertyOp26
 70
     1
102
RTVSPropertyOp27
 70
     1
102
RTVSPropertyOp28
 70
     1
102
RTVSPropertyOp29
 70
     1
102
RTVSPropertyOp30
 70
     1
102
RTVSPropertyOp31
 70
     1
102
RTVSPropertyOp32
 70
     1
102
RTVSPropertyOp33
 70
     1
102
RTVSPropertyOp34
 70
     1
102
RTVSPropertyOp35
 70
     1
102
RTVSPropertyOp36
 70
     1
102
RTVSPropertyOp37
 70
     1
102
RTVSPropertyOp38
 70
     1
102
RTVSPropertyOp39
 70
     1
102
RTVSPropertyOp40
 70
     1
102
RTVSPropertyOp41
 70
     1
102
RTVSPropertyOp42
 70
     1
102
RTVSPropertyOp43
 70
     1
102
RTVSPropertyOp44
 70
     1
102
RTVSPropertyOp45
 70
     1
102
RTVSPropertyOp46
 70
     1
102
RTVSPropertyOp47
 70
     1
102
RTVSPropertyOp48
 70
     1
102
RTVSPropertyOp49
 70
     1
102
RTVSPropertyOp50
 70
     1
102
RTVSPropertyOp51
 70
     0
102
RTVSPropertyOp52
 70
     0
102
RTVSPropertyOp53
 70
     1
102
RTVSPropertyOp54
 70
     1
102
RTVSPropertyOp55
 70
     1
102
RTVSPropertyOp56
 70
     1
102
RTVSPropertyOp57
 70
     1
102
RTVSPropertyOp58
 70
     1
102
RTVSPropertyOp59
 70
     1
102
RTVSPropertyOp60
 70
     1
102
RTVSPropertyOp61
 70
     1
102
RTVSPropertyOp62
 70
     1
  0
XRECORD
  5
1B5B
102
{ACAD_REACTORS
330
1B5A
102
}
330
1B5A
100
AcDbXrecord
280
     1
102
RTVSPost2010Prop28
280
     0
102
RTVSPost2010PropOp28
 70
     1
102
RTVSPost2010Prop29
280
     1
102
RTVSPost2010PropOp29
 70
     1
102
RTVSPost2010Prop30
280
     1
102
RTVSPost2010PropOp30
 70
     1
102
RTVSPost2010Prop31
280
     0
102
RTVSPost2010PropOp31
 70
     1
102
RTVSPost2010Prop32
280
     0
102
RTVSPost2010PropOp32
 70
     1
102
RTVSPost2010Prop33
280
     0
102
RTVSPost2010PropOp33
 70
     1
102
RTVSPost2010Prop34
280
     0
102
RTVSPost2010PropOp34
 70
     1
102
RTVSPost2010Prop35
280
     0
102
RTVSPost2010PropOp35
 70
     1
102
RTVSPost2010Prop36
280
     0
102
RTVSPost2010PropOp36
 70
     1
102
RTVSPost2010Prop37
 90
       50
102
RTVSPost2010PropOp37
 70
     1
102
RTVSPost2010Prop38
140
0.0
102
RTVSPost2010PropOp38
 70
     1
102
RTVSPost2010Prop39
140
1.0
102
RTVSPost2010PropOp39
 70
     1
102
RTVSPost2010Prop40
 90
        0
102
RTVSPost2010PropOp40
 70
     1
102
RTVSPost2010Prop41ColorIndex
 90
       18
102
RTVSPost2010Prop41ColorRGB
 90
        0
102
RTVSPost2010PropOp41
 70
     1
102
RTVSPost2010Prop42
 90
       50
102
RTVSPost2010PropOp42
 70
     1
102
RTVSPost2010Prop43
 90
        3
102
RTVSPost2010PropOp43
 70
     1
102
RTVSPost2010Prop44ColorIndex
 90
        5
102
RTVSPost2010Prop44ColorRGB
 90
      255
102
RTVSPost2010PropOp44
 70
     1
102
RTVSPost2010Prop45
280
     0
102
RTVSPost2010PropOp45
 70
     1
102
RTVSPost2010Prop46
 90
       50
102
RTVSPost2010PropOp46
 70
     1
102
RTVSPost2010Prop47
 90
       50
102
RTVSPost2010PropOp47
 70
     1
102
RTVSPost2010Prop48
 90
       50
102
RTVSPost2010PropOp48
 70
     1
102
RTVSPost2010Prop49
280
     0
102
RTVSPost2010PropOp49
 70
     1
102
RTVSPost2010Prop50
 90
       50
102
RTVSPost2010PropOp50
 70
     1
102
RTVSPost2010Prop51ColorIndex
 90
      256
102
RTVSPost2010Prop51ColorRGB
 90
-16777216
102
RTVSPost2010PropOp51
 70
     0
102
RTVSPost2010Prop52
140
1.0
102
RTVSPost2010PropOp52
 70
     0
102
RTVSPost2010Prop53
 90
        2
102
RTVSPost2010PropOp53
 70
     1
102
RTVSPost2010Prop54
  1
strokes_ogs.tif
102
RTVSPost2010PropOp54
 70
     1
102
RTVSPost2010Prop55
280
     0
102
RTVSPost2010PropOp55
 70
     1
102
RTVSPost2010Prop56
140
1.0
102
RTVSPost2010PropOp56
 70
     1
102
RTVSPost2010Prop57
140
1.0
102
RTVSPost2010PropOp57
 70
     1
102
RTVSPropertyOp0
 70
     1
102
RTVSPropertyOp1
 70
     1
102
RTVSPropertyOp2
 70
     1
102
RTVSPropertyOp3
 70
     1
102
RTVSPropertyOp4
 70
     1
102
RTVSPropertyOp5
 70
     1
102
RTVSPropertyOp6
 70
     1
102
RTVSPropertyOp7
 70
     1
102
RTVSPropertyOp8
 70
     1
102
RTVSPropertyOp9
 70
     1
102
RTVSPropertyOp10
 70
     1
102
RTVSPropertyOp11
 70
     1
102
RTVSPropertyOp12
 70
     1
102
RTVSPropertyOp13
 70
     1
102
RTVSPropertyOp14
 70
     1
102
RTVSPropertyOp15
 70
     1
102
RTVSPropertyOp16
 70
     1
102
RTVSPropertyOp17
 70
     1
102
RTVSPropertyOp18
 70
     1
102
RTVSPropertyOp19
 70
     1
102
RTVSPropertyOp20
 70
     1
102
RTVSPropertyOp21
 70
     1
102
RTVSPropertyOp22
 70
     1
102
RTVSPropertyOp23
 70
     1
102
RTVSPropertyOp24
 70
     1
102
RTVSPropertyOp25
 70
     1
102
RTVSPropertyOp26
 70
     1
102
RTVSPropertyOp27
 70
     1
102
RTVSPropertyOp28
 70
     1
102
RTVSPropertyOp29
 70
     1
102
RTVSPropertyOp30
 70
     1
102
RTVSPropertyOp31
 70
     1
102
RTVSPropertyOp32
 70
     1
102
RTVSPropertyOp33
 70
     1
102
RTVSPropertyOp34
 70
     1
102
RTVSPropertyOp35
 70
     1
102
RTVSPropertyOp36
 70
     1
102
RTVSPropertyOp37
 70
     1
102
RTVSPropertyOp38
 70
     1
102
RTVSPropertyOp39
 70
     1
102
RTVSPropertyOp40
 70
     1
102
RTVSPropertyOp41
 70
     1
102
RTVSPropertyOp42
 70
     1
102
RTVSPropertyOp43
 70
     1
102
RTVSPropertyOp44
 70
     1
102
RTVSPropertyOp45
 70
     1
102
RTVSPropertyOp46
 70
     1
102
RTVSPropertyOp47
 70
     1
102
RTVSPropertyOp48
 70
     1
102
RTVSPropertyOp49
 70
     1
102
RTVSPropertyOp50
 70
     1
102
RTVSPropertyOp51
 70
     0
102
RTVSPropertyOp52
 70
     0
102
RTVSPropertyOp53
 70
     1
102
RTVSPropertyOp54
 70
     1
102
RTVSPropertyOp55
 70
     1
102
RTVSPropertyOp56
 70
     1
102
RTVSPropertyOp57
 70
     1
102
RTVSPropertyOp58
 70
     1
102
RTVSPropertyOp59
 70
     1
102
RTVSPropertyOp60
 70
     1
102
RTVSPropertyOp61
 70
     1
102
RTVSPropertyOp62
 70
     1
  0
XRECORD
  5
1B63
102
{ACAD_REACTORS
330
1B62
102
}
330
1B62
100
AcDbXrecord
280
     1
102
RTVSPost2010Prop28
280
     0
102
RTVSPost2010PropOp28
 70
     1
102
RTVSPost2010Prop29
280
     1
102
RTVSPost2010PropOp29
 70
     1
102
RTVSPost2010Prop30
280
     1
102
RTVSPost2010PropOp30
 70
     1
102
RTVSPost2010Prop31
280
     0
102
RTVSPost2010PropOp31
 70
     1
102
RTVSPost2010Prop32
280
     0
102
RTVSPost2010PropOp32
 70
     1
102
RTVSPost2010Prop33
280
     0
102
RTVSPost2010PropOp33
 70
     1
102
RTVSPost2010Prop34
280
     0
102
RTVSPost2010PropOp34
 70
     1
102
RTVSPost2010Prop35
280
     0
102
RTVSPost2010PropOp35
 70
     1
102
RTVSPost2010Prop36
280
     0
102
RTVSPost2010PropOp36
 70
     1
102
RTVSPost2010Prop37
 90
       50
102
RTVSPost2010PropOp37
 70
     1
102
RTVSPost2010Prop38
140
0.0
102
RTVSPost2010PropOp38
 70
     1
102
RTVSPost2010Prop39
140
1.0
102
RTVSPost2010PropOp39
 70
     1
102
RTVSPost2010Prop40
 90
        0
102
RTVSPost2010PropOp40
 70
     1
102
RTVSPost2010Prop41ColorIndex
 90
       18
102
RTVSPost2010Prop41ColorRGB
 90
        0
102
RTVSPost2010PropOp41
 70
     1
102
RTVSPost2010Prop42
 90
       50
102
RTVSPost2010PropOp42
 70
     1
102
RTVSPost2010Prop43
 90
        3
102
RTVSPost2010PropOp43
 70
     1
102
RTVSPost2010Prop44ColorIndex
 90
        5
102
RTVSPost2010Prop44ColorRGB
 90
      255
102
RTVSPost2010PropOp44
 70
     1
102
RTVSPost2010Prop45
280
     0
102
RTVSPost2010PropOp45
 70
     1
102
RTVSPost2010Prop46
 90
       50
102
RTVSPost2010PropOp46
 70
     1
102
RTVSPost2010Prop47
 90
       50
102
RTVSPost2010PropOp47
 70
     1
102
RTVSPost2010Prop48
 90
       50
102
RTVSPost2010PropOp48
 70
     1
102
RTVSPost2010Prop49
280
     0
102
RTVSPost2010PropOp49
 70
     1
102
RTVSPost2010Prop50
 90
       50
102
RTVSPost2010PropOp50
 70
     1
102
RTVSPost2010Prop51ColorIndex
 90
      256
102
RTVSPost2010Prop51ColorRGB
 90
-16777216
102
RTVSPost2010PropOp51
 70
     0
102
RTVSPost2010Prop52
140
1.0
102
RTVSPost2010PropOp52
 70
     0
102
RTVSPost2010Prop53
 90
        2
102
RTVSPost2010PropOp53
 70
     1
102
RTVSPost2010Prop54
  1
strokes_ogs.tif
102
RTVSPost2010PropOp54
 70
     1
102
RTVSPost2010Prop55
280
     0
102
RTVSPost2010PropOp55
 70
     1
102
RTVSPost2010Prop56
140
1.0
102
RTVSPost2010PropOp56
 70
     1
102
RTVSPost2010Prop57
140
1.0
102
RTVSPost2010PropOp57
 70
     1
102
RTVSPropertyOp0
 70
     1
102
RTVSPropertyOp1
 70
     1
102
RTVSPropertyOp2
 70
     1
102
RTVSPropertyOp3
 70
     1
102
RTVSPropertyOp4
 70
     1
102
RTVSPropertyOp5
 70
     1
102
RTVSPropertyOp6
 70
     1
102
RTVSPropertyOp7
 70
     1
102
RTVSPropertyOp8
 70
     1
102
RTVSPropertyOp9
 70
     1
102
RTVSPropertyOp10
 70
     1
102
RTVSPropertyOp11
 70
     1
102
RTVSPropertyOp12
 70
     1
102
RTVSPropertyOp13
 70
     1
102
RTVSPropertyOp14
 70
     1
102
RTVSPropertyOp15
 70
     1
102
RTVSPropertyOp16
 70
     1
102
RTVSPropertyOp17
 70
     1
102
RTVSPropertyOp18
 70
     1
102
RTVSPropertyOp19
 70
     1
102
RTVSPropertyOp20
 70
     1
102
RTVSPropertyOp21
 70
     1
102
RTVSPropertyOp22
 70
     1
102
RTVSPropertyOp23
 70
     1
102
RTVSPropertyOp24
 70
     1
102
RTVSPropertyOp25
 70
     1
102
RTVSPropertyOp26
 70
     1
102
RTVSPropertyOp27
 70
     1
102
RTVSPropertyOp28
 70
     1
102
RTVSPropertyOp29
 70
     1
102
RTVSPropertyOp30
 70
     1
102
RTVSPropertyOp31
 70
     1
102
RTVSPropertyOp32
 70
     1
102
RTVSPropertyOp33
 70
     1
102
RTVSPropertyOp34
 70
     1
102
RTVSPropertyOp35
 70
     1
102
RTVSPropertyOp36
 70
     1
102
RTVSPropertyOp37
 70
     1
102
RTVSPropertyOp38
 70
     1
102
RTVSPropertyOp39
 70
     1
102
RTVSPropertyOp40
 70
     1
102
RTVSPropertyOp41
 70
     1
102
RTVSPropertyOp42
 70
     1
102
RTVSPropertyOp43
 70
     1
102
RTVSPropertyOp44
 70
     1
102
RTVSPropertyOp45
 70
     1
102
RTVSPropertyOp46
 70
     1
102
RTVSPropertyOp47
 70
     1
102
RTVSPropertyOp48
 70
     1
102
RTVSPropertyOp49
 70
     1
102
RTVSPropertyOp50
 70
     1
102
RTVSPropertyOp51
 70
     0
102
RTVSPropertyOp52
 70
     0
102
RTVSPropertyOp53
 70
     1
102
RTVSPropertyOp54
 70
     1
102
RTVSPropertyOp55
 70
     1
102
RTVSPropertyOp56
 70
     1
102
RTVSPropertyOp57
 70
     1
102
RTVSPropertyOp58
 70
     1
102
RTVSPropertyOp59
 70
     1
102
RTVSPropertyOp60
 70
     1
102
RTVSPropertyOp61
 70
     1
102
RTVSPropertyOp62
 70
     1
  0
XRECORD
  5
1B55
102
{ACAD_REACTORS
330
1B54
102
}
330
1B54
100
AcDbXrecord
280
     1
102
RTVSPost2010Prop28
280
     0
102
RTVSPost2010PropOp28
 70
     1
102
RTVSPost2010Prop29
280
     1
102
RTVSPost2010PropOp29
 70
     1
102
RTVSPost2010Prop30
280
     1
102
RTVSPost2010PropOp30
 70
     1
102
RTVSPost2010Prop31
280
     0
102
RTVSPost2010PropOp31
 70
     1
102
RTVSPost2010Prop32
280
     0
102
RTVSPost2010PropOp32
 70
     1
102
RTVSPost2010Prop33
280
     0
102
RTVSPost2010PropOp33
 70
     1
102
RTVSPost2010Prop34
280
     0
102
RTVSPost2010PropOp34
 70
     1
102
RTVSPost2010Prop35
280
     0
102
RTVSPost2010PropOp35
 70
     1
102
RTVSPost2010Prop36
280
     0
102
RTVSPost2010PropOp36
 70
     1
102
RTVSPost2010Prop37
 90
       50
102
RTVSPost2010PropOp37
 70
     1
102
RTVSPost2010Prop38
140
0.0
102
RTVSPost2010PropOp38
 70
     1
102
RTVSPost2010Prop39
140
1.0
102
RTVSPost2010PropOp39
 70
     1
102
RTVSPost2010Prop40
 90
        0
102
RTVSPost2010PropOp40
 70
     1
102
RTVSPost2010Prop41ColorIndex
 90
       18
102
RTVSPost2010Prop41ColorRGB
 90
        0
102
RTVSPost2010PropOp41
 70
     1
102
RTVSPost2010Prop42
 90
       50
102
RTVSPost2010PropOp42
 70
     1
102
RTVSPost2010Prop43
 90
        3
102
RTVSPost2010PropOp43
 70
     1
102
RTVSPost2010Prop44ColorIndex
 90
        5
102
RTVSPost2010Prop44ColorRGB
 90
      255
102
RTVSPost2010PropOp44
 70
     1
102
RTVSPost2010Prop45
280
     0
102
RTVSPost2010PropOp45
 70
     1
102
RTVSPost2010Prop46
 90
       50
102
RTVSPost2010PropOp46
 70
     1
102
RTVSPost2010Prop47
 90
       50
102
RTVSPost2010PropOp47
 70
     1
102
RTVSPost2010Prop48
 90
       50
102
RTVSPost2010PropOp48
 70
     1
102
RTVSPost2010Prop49
280
     0
102
RTVSPost2010PropOp49
 70
     1
102
RTVSPost2010Prop50
 90
       50
102
RTVSPost2010PropOp50
 70
     1
102
RTVSPost2010Prop51ColorIndex
 90
      256
102
RTVSPost2010Prop51ColorRGB
 90
-16777216
102
RTVSPost2010PropOp51
 70
     0
102
RTVSPost2010Prop52
140
1.0
102
RTVSPost2010PropOp52
 70
     0
102
RTVSPost2010Prop53
 90
        2
102
RTVSPost2010PropOp53
 70
     1
102
RTVSPost2010Prop54
  1
strokes_ogs.tif
102
RTVSPost2010PropOp54
 70
     1
102
RTVSPost2010Prop55
280
     0
102
RTVSPost2010PropOp55
 70
     1
102
RTVSPost2010Prop56
140
1.0
102
RTVSPost2010PropOp56
 70
     1
102
RTVSPost2010Prop57
140
1.0
102
RTVSPost2010PropOp57
 70
     1
102
RTVSPropertyOp0
 70
     1
102
RTVSPropertyOp1
 70
     1
102
RTVSPropertyOp2
 70
     1
102
RTVSPropertyOp3
 70
     1
102
RTVSPropertyOp4
 70
     1
102
RTVSPropertyOp5
 70
     1
102
RTVSPropertyOp6
 70
     1
102
RTVSPropertyOp7
 70
     1
102
RTVSPropertyOp8
 70
     1
102
RTVSPropertyOp9
 70
     1
102
RTVSPropertyOp10
 70
     1
102
RTVSPropertyOp11
 70
     1
102
RTVSPropertyOp12
 70
     1
102
RTVSPropertyOp13
 70
     1
102
RTVSPropertyOp14
 70
     1
102
RTVSPropertyOp15
 70
     1
102
RTVSPropertyOp16
 70
     1
102
RTVSPropertyOp17
 70
     1
102
RTVSPropertyOp18
 70
     1
102
RTVSPropertyOp19
 70
     1
102
RTVSPropertyOp20
 70
     1
102
RTVSPropertyOp21
 70
     1
102
RTVSPropertyOp22
 70
     1
102
RTVSPropertyOp23
 70
     1
102
RTVSPropertyOp24
 70
     1
102
RTVSPropertyOp25
 70
     1
102
RTVSPropertyOp26
 70
     1
102
RTVSPropertyOp27
 70
     1
102
RTVSPropertyOp28
 70
     1
102
RTVSPropertyOp29
 70
     1
102
RTVSPropertyOp30
 70
     1
102
RTVSPropertyOp31
 70
     1
102
RTVSPropertyOp32
 70
     1
102
RTVSPropertyOp33
 70
     1
102
RTVSPropertyOp34
 70
     1
102
RTVSPropertyOp35
 70
     1
102
RTVSPropertyOp36
 70
     1
102
RTVSPropertyOp37
 70
     1
102
RTVSPropertyOp38
 70
     1
102
RTVSPropertyOp39
 70
     1
102
RTVSPropertyOp40
 70
     1
102
RTVSPropertyOp41
 70
     1
102
RTVSPropertyOp42
 70
     1
102
RTVSPropertyOp43
 70
     1
102
RTVSPropertyOp44
 70
     1
102
RTVSPropertyOp45
 70
     1
102
RTVSPropertyOp46
 70
     1
102
RTVSPropertyOp47
 70
     1
102
RTVSPropertyOp48
 70
     1
102
RTVSPropertyOp49
 70
     1
102
RTVSPropertyOp50
 70
     1
102
RTVSPropertyOp51
 70
     0
102
RTVSPropertyOp52
 70
     0
102
RTVSPropertyOp53
 70
     1
102
RTVSPropertyOp54
 70
     1
102
RTVSPropertyOp55
 70
     1
102
RTVSPropertyOp56
 70
     1
102
RTVSPropertyOp57
 70
     1
102
RTVSPropertyOp58
 70
     1
102
RTVSPropertyOp59
 70
     1
102
RTVSPropertyOp60
 70
     1
102
RTVSPropertyOp61
 70
     1
102
RTVSPropertyOp62
 70
     1
  0
XRECORD
  5
1B59
102
{ACAD_REACTORS
330
1B58
102
}
330
1B58
100
AcDbXrecord
280
     1
102
RTVSPost2010Prop28
280
     0
102
RTVSPost2010PropOp28
 70
     1
102
RTVSPost2010Prop29
280
     1
102
RTVSPost2010PropOp29
 70
     1
102
RTVSPost2010Prop30
280
     1
102
RTVSPost2010PropOp30
 70
     1
102
RTVSPost2010Prop31
280
     0
102
RTVSPost2010PropOp31
 70
     1
102
RTVSPost2010Prop32
280
     0
102
RTVSPost2010PropOp32
 70
     1
102
RTVSPost2010Prop33
280
     0
102
RTVSPost2010PropOp33
 70
     1
102
RTVSPost2010Prop34
280
     0
102
RTVSPost2010PropOp34
 70
     1
102
RTVSPost2010Prop35
280
     0
102
RTVSPost2010PropOp35
 70
     1
102
RTVSPost2010Prop36
280
     0
102
RTVSPost2010PropOp36
 70
     1
102
RTVSPost2010Prop37
 90
       50
102
RTVSPost2010PropOp37
 70
     1
102
RTVSPost2010Prop38
140
0.0
102
RTVSPost2010PropOp38
 70
     1
102
RTVSPost2010Prop39
140
1.0
102
RTVSPost2010PropOp39
 70
     1
102
RTVSPost2010Prop40
 90
        0
102
RTVSPost2010PropOp40
 70
     1
102
RTVSPost2010Prop41ColorIndex
 90
       18
102
RTVSPost2010Prop41ColorRGB
 90
        0
102
RTVSPost2010PropOp41
 70
     1
102
RTVSPost2010Prop42
 90
       50
102
RTVSPost2010PropOp42
 70
     1
102
RTVSPost2010Prop43
 90
        3
102
RTVSPost2010PropOp43
 70
     1
102
RTVSPost2010Prop44ColorIndex
 90
        5
102
RTVSPost2010Prop44ColorRGB
 90
      255
102
RTVSPost2010PropOp44
 70
     1
102
RTVSPost2010Prop45
280
     0
102
RTVSPost2010PropOp45
 70
     1
102
RTVSPost2010Prop46
 90
       50
102
RTVSPost2010PropOp46
 70
     1
102
RTVSPost2010Prop47
 90
       50
102
RTVSPost2010PropOp47
 70
     1
102
RTVSPost2010Prop48
 90
       50
102
RTVSPost2010PropOp48
 70
     1
102
RTVSPost2010Prop49
280
     0
102
RTVSPost2010PropOp49
 70
     1
102
RTVSPost2010Prop50
 90
       50
102
RTVSPost2010PropOp50
 70
     1
102
RTVSPost2010Prop51ColorIndex
 90
      256
102
RTVSPost2010Prop51ColorRGB
 90
-16777216
102
RTVSPost2010PropOp51
 70
     0
102
RTVSPost2010Prop52
140
1.0
102
RTVSPost2010PropOp52
 70
     0
102
RTVSPost2010Prop53
 90
        2
102
RTVSPost2010PropOp53
 70
     1
102
RTVSPost2010Prop54
  1
strokes_ogs.tif
102
RTVSPost2010PropOp54
 70
     1
102
RTVSPost2010Prop55
280
     0
102
RTVSPost2010PropOp55
 70
     1
102
RTVSPost2010Prop56
140
1.0
102
RTVSPost2010PropOp56
 70
     1
102
RTVSPost2010Prop57
140
1.0
102
RTVSPost2010PropOp57
 70
     1
102
RTVSPropertyOp0
 70
     1
102
RTVSPropertyOp1
 70
     1
102
RTVSPropertyOp2
 70
     1
102
RTVSPropertyOp3
 70
     1
102
RTVSPropertyOp4
 70
     1
102
RTVSPropertyOp5
 70
     1
102
RTVSPropertyOp6
 70
     1
102
RTVSPropertyOp7
 70
     1
102
RTVSPropertyOp8
 70
     1
102
RTVSPropertyOp9
 70
     1
102
RTVSPropertyOp10
 70
     1
102
RTVSPropertyOp11
 70
     1
102
RTVSPropertyOp12
 70
     1
102
RTVSPropertyOp13
 70
     1
102
RTVSPropertyOp14
 70
     1
102
RTVSPropertyOp15
 70
     1
102
RTVSPropertyOp16
 70
     1
102
RTVSPropertyOp17
 70
     1
102
RTVSPropertyOp18
 70
     1
102
RTVSPropertyOp19
 70
     1
102
RTVSPropertyOp20
 70
     1
102
RTVSPropertyOp21
 70
     1
102
RTVSPropertyOp22
 70
     1
102
RTVSPropertyOp23
 70
     1
102
RTVSPropertyOp24
 70
     1
102
RTVSPropertyOp25
 70
     1
102
RTVSPropertyOp26
 70
     1
102
RTVSPropertyOp27
 70
     1
102
RTVSPropertyOp28
 70
     1
102
RTVSPropertyOp29
 70
     1
102
RTVSPropertyOp30
 70
     1
102
RTVSPropertyOp31
 70
     1
102
RTVSPropertyOp32
 70
     1
102
RTVSPropertyOp33
 70
     1
102
RTVSPropertyOp34
 70
     1
102
RTVSPropertyOp35
 70
     1
102
RTVSPropertyOp36
 70
     1
102
RTVSPropertyOp37
 70
     1
102
RTVSPropertyOp38
 70
     1
102
RTVSPropertyOp39
 70
     1
102
RTVSPropertyOp40
 70
     1
102
RTVSPropertyOp41
 70
     1
102
RTVSPropertyOp42
 70
     1
102
RTVSPropertyOp43
 70
     1
102
RTVSPropertyOp44
 70
     1
102
RTVSPropertyOp45
 70
     1
102
RTVSPropertyOp46
 70
     1
102
RTVSPropertyOp47
 70
     1
102
RTVSPropertyOp48
 70
     1
102
RTVSPropertyOp49
 70
     1
102
RTVSPropertyOp50
 70
     1
102
RTVSPropertyOp51
 70
     0
102
RTVSPropertyOp52
 70
     0
102
RTVSPropertyOp53
 70
     1
102
RTVSPropertyOp54
 70
     1
102
RTVSPropertyOp55
 70
     1
102
RTVSPropertyOp56
 70
     1
102
RTVSPropertyOp57
 70
     1
102
RTVSPropertyOp58
 70
     1
102
RTVSPropertyOp59
 70
     1
102
RTVSPropertyOp60
 70
     1
102
RTVSPropertyOp61
 70
     1
102
RTVSPropertyOp62
 70
     1
  0
XRECORD
  5
1B73
102
{ACAD_REACTORS
330
1B72
102
}
330
1B72
100
AcDbXrecord
280
     1
102
RTVSPost2010Prop28
280
     0
102
RTVSPost2010PropOp28
 70
     1
102
RTVSPost2010Prop29
280
     1
102
RTVSPost2010PropOp29
 70
     1
102
RTVSPost2010Prop30
280
     1
102
RTVSPost2010PropOp30
 70
     1
102
RTVSPost2010Prop31
280
     0
102
RTVSPost2010PropOp31
 70
     1
102
RTVSPost2010Prop32
280
     0
102
RTVSPost2010PropOp32
 70
     1
102
RTVSPost2010Prop33
280
     0
102
RTVSPost2010PropOp33
 70
     1
102
RTVSPost2010Prop34
280
     0
102
RTVSPost2010PropOp34
 70
     1
102
RTVSPost2010Prop35
280
     0
102
RTVSPost2010PropOp35
 70
     1
102
RTVSPost2010Prop36
280
     0
102
RTVSPost2010PropOp36
 70
     1
102
RTVSPost2010Prop37
 90
       50
102
RTVSPost2010PropOp37
 70
     0
102
RTVSPost2010Prop38
140
0.0
102
RTVSPost2010PropOp38
 70
     0
102
RTVSPost2010Prop39
140
1.0
102
RTVSPost2010PropOp39
 70
     0
102
RTVSPost2010Prop40
 90
        0
102
RTVSPost2010PropOp40
 70
     0
102
RTVSPost2010Prop41ColorIndex
 90
       18
102
RTVSPost2010Prop41ColorRGB
 90
        0
102
RTVSPost2010PropOp41
 70
     0
102
RTVSPost2010Prop42
 90
       50
102
RTVSPost2010PropOp42
 70
     0
102
RTVSPost2010Prop43
 90
        3
102
RTVSPost2010PropOp43
 70
     0
102
RTVSPost2010Prop44ColorIndex
 90
        5
102
RTVSPost2010Prop44ColorRGB
 90
      255
102
RTVSPost2010PropOp44
 70
     0
102
RTVSPost2010Prop45
280
     0
102
RTVSPost2010PropOp45
 70
     1
102
RTVSPost2010Prop46
 90
       50
102
RTVSPost2010PropOp46
 70
     0
102
RTVSPost2010Prop47
 90
       50
102
RTVSPost2010PropOp47
 70
     0
102
RTVSPost2010Prop48
 90
       50
102
RTVSPost2010PropOp48
 70
     0
102
RTVSPost2010Prop49
280
     0
102
RTVSPost2010PropOp49
 70
     1
102
RTVSPost2010Prop50
 90
       50
102
RTVSPost2010PropOp50
 70
     0
102
RTVSPost2010Prop51ColorIndex
 90
      256
102
RTVSPost2010Prop51ColorRGB
 90
-16777216
102
RTVSPost2010PropOp51
 70
     0
102
RTVSPost2010Prop52
140
1.0
102
RTVSPost2010PropOp52
 70
     0
102
RTVSPost2010Prop53
 90
        2
102
RTVSPost2010PropOp53
 70
     0
102
RTVSPost2010Prop54
  1
strokes_ogs.tif
102
RTVSPost2010PropOp54
 70
     0
102
RTVSPost2010Prop55
280
     0
102
RTVSPost2010PropOp55
 70
     1
102
RTVSPost2010Prop56
140
1.0
102
RTVSPost2010PropOp56
 70
     0
102
RTVSPost2010Prop57
140
1.0
102
RTVSPost2010PropOp57
 70
     0
102
RTVSPropertyOp0
 70
     0
102
RTVSPropertyOp1
 70
     0
102
RTVSPropertyOp2
 70
     0
102
RTVSPropertyOp3
 70
     0
102
RTVSPropertyOp4
 70
     0
102
RTVSPropertyOp5
 70
     0
102
RTVSPropertyOp6
 70
     0
102
RTVSPropertyOp7
 70
     0
102
RTVSPropertyOp8
 70
     0
102
RTVSPropertyOp9
 70
     0
102
RTVSPropertyOp10
 70
     0
102
RTVSPropertyOp11
 70
     0
102
RTVSPropertyOp12
 70
     0
102
RTVSPropertyOp13
 70
     0
102
RTVSPropertyOp14
 70
     2
102
RTVSPropertyOp15
 70
     0
102
RTVSPropertyOp16
 70
     0
102
RTVSPropertyOp17
 70
     0
102
RTVSPropertyOp18
 70
     0
102
RTVSPropertyOp19
 70
     0
102
RTVSPropertyOp20
 70
     0
102
RTVSPropertyOp21
 70
     0
102
RTVSPropertyOp22
 70
     0
102
RTVSPropertyOp23
 70
     0
102
RTVSPropertyOp24
 70
     0
102
RTVSPropertyOp25
 70
     0
102
RTVSPropertyOp26
 70
     0
102
RTVSPropertyOp27
 70
     0
102
RTVSPropertyOp28
 70
     1
102
RTVSPropertyOp29
 70
     1
102
RTVSPropertyOp30
 70
     1
102
RTVSPropertyOp31
 70
     1
102
RTVSPropertyOp32
 70
     1
102
RTVSPropertyOp33
 70
     1
102
RTVSPropertyOp34
 70
     1
102
RTVSPropertyOp35
 70
     1
102
RTVSPropertyOp36
 70
     1
102
RTVSPropertyOp37
 70
     0
102
RTVSPropertyOp38
 70
     0
102
RTVSPropertyOp39
 70
     0
102
RTVSPropertyOp40
 70
     0
102
RTVSPropertyOp41
 70
     0
102
RTVSPropertyOp42
 70
     0
102
RTVSPropertyOp43
 70
     0
102
RTVSPropertyOp44
 70
     0
102
RTVSPropertyOp45
 70
     1
102
RTVSPropertyOp46
 70
     0
102
RTVSPropertyOp47
 70
     0
102
RTVSPropertyOp48
 70
     0
102
RTVSPropertyOp49
 70
     1
102
RTVSPropertyOp50
 70
     0
102
RTVSPropertyOp51
 70
     0
102
RTVSPropertyOp52
 70
     0
102
RTVSPropertyOp53
 70
     0
102
RTVSPropertyOp54
 70
     0
102
RTVSPropertyOp55
 70
     1
102
RTVSPropertyOp56
 70
     0
102
RTVSPropertyOp57
 70
     0
102
RTVSPropertyOp58
 70
     0
102
RTVSPropertyOp59
 70
     0
102
RTVSPropertyOp60
 70
     0
102
RTVSPropertyOp61
 70
     0
102
RTVSPropertyOp62
 70
     0
  0
XRECORD
  5
1B61
102
{ACAD_REACTORS
330
1B60
102
}
330
1B60
100
AcDbXrecord
280
     1
102
RTVSPost2010Prop28
280
     0
102
RTVSPost2010PropOp28
 70
     1
102
RTVSPost2010Prop29
280
     1
102
RTVSPost2010PropOp29
 70
     1
102
RTVSPost2010Prop30
280
     1
102
RTVSPost2010PropOp30
 70
     1
102
RTVSPost2010Prop31
280
     0
102
RTVSPost2010PropOp31
 70
     1
102
RTVSPost2010Prop32
280
     0
102
RTVSPost2010PropOp32
 70
     1
102
RTVSPost2010Prop33
280
     0
102
RTVSPost2010PropOp33
 70
     1
102
RTVSPost2010Prop34
280
     0
102
RTVSPost2010PropOp34
 70
     1
102
RTVSPost2010Prop35
280
     0
102
RTVSPost2010PropOp35
 70
     1
102
RTVSPost2010Prop36
280
     0
102
RTVSPost2010PropOp36
 70
     1
102
RTVSPost2010Prop37
 90
       50
102
RTVSPost2010PropOp37
 70
     1
102
RTVSPost2010Prop38
140
0.0
102
RTVSPost2010PropOp38
 70
     1
102
RTVSPost2010Prop39
140
1.0
102
RTVSPost2010PropOp39
 70
     1
102
RTVSPost2010Prop40
 90
        0
102
RTVSPost2010PropOp40
 70
     1
102
RTVSPost2010Prop41ColorIndex
 90
       18
102
RTVSPost2010Prop41ColorRGB
 90
        0
102
RTVSPost2010PropOp41
 70
     1
102
RTVSPost2010Prop42
 90
       50
102
RTVSPost2010PropOp42
 70
     1
102
RTVSPost2010Prop43
 90
        3
102
RTVSPost2010PropOp43
 70
     1
102
RTVSPost2010Prop44ColorIndex
 90
        5
102
RTVSPost2010Prop44ColorRGB
 90
      255
102
RTVSPost2010PropOp44
 70
     1
102
RTVSPost2010Prop45
280
     0
102
RTVSPost2010PropOp45
 70
     1
102
RTVSPost2010Prop46
 90
       50
102
RTVSPost2010PropOp46
 70
     1
102
RTVSPost2010Prop47
 90
       50
102
RTVSPost2010PropOp47
 70
     1
102
RTVSPost2010Prop48
 90
       50
102
RTVSPost2010PropOp48
 70
     1
102
RTVSPost2010Prop49
280
     0
102
RTVSPost2010PropOp49
 70
     1
102
RTVSPost2010Prop50
 90
       50
102
RTVSPost2010PropOp50
 70
     1
102
RTVSPost2010Prop51ColorIndex
 90
      256
102
RTVSPost2010Prop51ColorRGB
 90
-16777216
102
RTVSPost2010PropOp51
 70
     0
102
RTVSPost2010Prop52
140
1.0
102
RTVSPost2010PropOp52
 70
     0
102
RTVSPost2010Prop53
 90
        2
102
RTVSPost2010PropOp53
 70
     1
102
RTVSPost2010Prop54
  1
strokes_ogs.tif
102
RTVSPost2010PropOp54
 70
     1
102
RTVSPost2010Prop55
280
     0
102
RTVSPost2010PropOp55
 70
     1
102
RTVSPost2010Prop56
140
1.0
102
RTVSPost2010PropOp56
 70
     1
102
RTVSPost2010Prop57
140
1.0
102
RTVSPost2010PropOp57
 70
     1
102
RTVSPropertyOp0
 70
     1
102
RTVSPropertyOp1
 70
     1
102
RTVSPropertyOp2
 70
     1
102
RTVSPropertyOp3
 70
     1
102
RTVSPropertyOp4
 70
     1
102
RTVSPropertyOp5
 70
     1
102
RTVSPropertyOp6
 70
     1
102
RTVSPropertyOp7
 70
     1
102
RTVSPropertyOp8
 70
     1
102
RTVSPropertyOp9
 70
     1
102
RTVSPropertyOp10
 70
     1
102
RTVSPropertyOp11
 70
     1
102
RTVSPropertyOp12
 70
     1
102
RTVSPropertyOp13
 70
     1
102
RTVSPropertyOp14
 70
     1
102
RTVSPropertyOp15
 70
     1
102
RTVSPropertyOp16
 70
     1
102
RTVSPropertyOp17
 70
     1
102
RTVSPropertyOp18
 70
     1
102
RTVSPropertyOp19
 70
     1
102
RTVSPropertyOp20
 70
     1
102
RTVSPropertyOp21
 70
     1
102
RTVSPropertyOp22
 70
     1
102
RTVSPropertyOp23
 70
     1
102
RTVSPropertyOp24
 70
     1
102
RTVSPropertyOp25
 70
     1
102
RTVSPropertyOp26
 70
     1
102
RTVSPropertyOp27
 70
     1
102
RTVSPropertyOp28
 70
     1
102
RTVSPropertyOp29
 70
     1
102
RTVSPropertyOp30
 70
     1
102
RTVSPropertyOp31
 70
     1
102
RTVSPropertyOp32
 70
     1
102
RTVSPropertyOp33
 70
     1
102
RTVSPropertyOp34
 70
     1
102
RTVSPropertyOp35
 70
     1
102
RTVSPropertyOp36
 70
     1
102
RTVSPropertyOp37
 70
     1
102
RTVSPropertyOp38
 70
     1
102
RTVSPropertyOp39
 70
     1
102
RTVSPropertyOp40
 70
     1
102
RTVSPropertyOp41
 70
     1
102
RTVSPropertyOp42
 70
     1
102
RTVSPropertyOp43
 70
     1
102
RTVSPropertyOp44
 70
     1
102
RTVSPropertyOp45
 70
     1
102
RTVSPropertyOp46
 70
     1
102
RTVSPropertyOp47
 70
     1
102
RTVSPropertyOp48
 70
     1
102
RTVSPropertyOp49
 70
     1
102
RTVSPropertyOp50
 70
     1
102
RTVSPropertyOp51
 70
     0
102
RTVSPropertyOp52
 70
     0
102
RTVSPropertyOp53
 70
     1
102
RTVSPropertyOp54
 70
     1
102
RTVSPropertyOp55
 70
     1
102
RTVSPropertyOp56
 70
     1
102
RTVSPropertyOp57
 70
     1
102
RTVSPropertyOp58
 70
     1
102
RTVSPropertyOp59
 70
     1
102
RTVSPropertyOp60
 70
     1
102
RTVSPropertyOp61
 70
     1
102
RTVSPropertyOp62
 70
     1
  0
XRECORD
  5
1B45
102
{ACAD_REACTORS
330
1B44
102
}
330
1B44
100
AcDbXrecord
280
     1
102
RTVSPost2010Prop28
280
     0
102
RTVSPost2010PropOp28
 70
     1
102
RTVSPost2010Prop29
280
     1
102
RTVSPost2010PropOp29
 70
     1
102
RTVSPost2010Prop30
280
     1
102
RTVSPost2010PropOp30
 70
     1
102
RTVSPost2010Prop31
280
     0
102
RTVSPost2010PropOp31
 70
     1
102
RTVSPost2010Prop32
280
     0
102
RTVSPost2010PropOp32
 70
     1
102
RTVSPost2010Prop33
280
     0
102
RTVSPost2010PropOp33
 70
     1
102
RTVSPost2010Prop34
280
     0
102
RTVSPost2010PropOp34
 70
     1
102
RTVSPost2010Prop35
280
     0
102
RTVSPost2010PropOp35
 70
     1
102
RTVSPost2010Prop36
280
     0
102
RTVSPost2010PropOp36
 70
     1
102
RTVSPost2010Prop37
 90
       50
102
RTVSPost2010PropOp37
 70
     1
102
RTVSPost2010Prop38
140
0.0
102
RTVSPost2010PropOp38
 70
     1
102
RTVSPost2010Prop39
140
1.0
102
RTVSPost2010PropOp39
 70
     1
102
RTVSPost2010Prop40
 90
        0
102
RTVSPost2010PropOp40
 70
     1
102
RTVSPost2010Prop41ColorIndex
 90
       18
102
RTVSPost2010Prop41ColorRGB
 90
        0
102
RTVSPost2010PropOp41
 70
     1
102
RTVSPost2010Prop42
 90
       50
102
RTVSPost2010PropOp42
 70
     1
102
RTVSPost2010Prop43
 90
        3
102
RTVSPost2010PropOp43
 70
     1
102
RTVSPost2010Prop44ColorIndex
 90
        5
102
RTVSPost2010Prop44ColorRGB
 90
      255
102
RTVSPost2010PropOp44
 70
     1
102
RTVSPost2010Prop45
280
     0
102
RTVSPost2010PropOp45
 70
     1
102
RTVSPost2010Prop46
 90
       50
102
RTVSPost2010PropOp46
 70
     1
102
RTVSPost2010Prop47
 90
       50
102
RTVSPost2010PropOp47
 70
     1
102
RTVSPost2010Prop48
 90
       50
102
RTVSPost2010PropOp48
 70
     1
102
RTVSPost2010Prop49
280
     0
102
RTVSPost2010PropOp49
 70
     1
102
RTVSPost2010Prop50
 90
       50
102
RTVSPost2010PropOp50
 70
     1
102
RTVSPost2010Prop51ColorIndex
 90
      256
102
RTVSPost2010Prop51ColorRGB
 90
-16777216
102
RTVSPost2010PropOp51
 70
     0
102
RTVSPost2010Prop52
140
1.0
102
RTVSPost2010PropOp52
 70
     0
102
RTVSPost2010Prop53
 90
        2
102
RTVSPost2010PropOp53
 70
     1
102
RTVSPost2010Prop54
  1
strokes_ogs.tif
102
RTVSPost2010PropOp54
 70
     1
102
RTVSPost2010Prop55
280
     0
102
RTVSPost2010PropOp55
 70
     1
102
RTVSPost2010Prop56
140
1.0
102
RTVSPost2010PropOp56
 70
     1
102
RTVSPost2010Prop57
140
1.0
102
RTVSPost2010PropOp57
 70
     1
102
RTVSPropertyOp0
 70
     1
102
RTVSPropertyOp1
 70
     1
102
RTVSPropertyOp2
 70
     1
102
RTVSPropertyOp3
 70
     1
102
RTVSPropertyOp4
 70
     1
102
RTVSPropertyOp5
 70
     1
102
RTVSPropertyOp6
 70
     1
102
RTVSPropertyOp7
 70
     1
102
RTVSPropertyOp8
 70
     1
102
RTVSPropertyOp9
 70
     1
102
RTVSPropertyOp10
 70
     1
102
RTVSPropertyOp11
 70
     1
102
RTVSPropertyOp12
 70
     1
102
RTVSPropertyOp13
 70
     1
102
RTVSPropertyOp14
 70
     1
102
RTVSPropertyOp15
 70
     1
102
RTVSPropertyOp16
 70
     1
102
RTVSPropertyOp17
 70
     1
102
RTVSPropertyOp18
 70
     1
102
RTVSPropertyOp19
 70
     1
102
RTVSPropertyOp20
 70
     1
102
RTVSPropertyOp21
 70
     1
102
RTVSPropertyOp22
 70
     1
102
RTVSPropertyOp23
 70
     1
102
RTVSPropertyOp24
 70
     1
102
RTVSPropertyOp25
 70
     1
102
RTVSPropertyOp26
 70
     1
102
RTVSPropertyOp27
 70
     1
102
RTVSPropertyOp28
 70
     1
102
RTVSPropertyOp29
 70
     1
102
RTVSPropertyOp30
 70
     1
102
RTVSPropertyOp31
 70
     1
102
RTVSPropertyOp32
 70
     1
102
RTVSPropertyOp33
 70
     1
102
RTVSPropertyOp34
 70
     1
102
RTVSPropertyOp35
 70
     1
102
RTVSPropertyOp36
 70
     1
102
RTVSPropertyOp37
 70
     1
102
RTVSPropertyOp38
 70
     1
102
RTVSPropertyOp39
 70
     1
102
RTVSPropertyOp40
 70
     1
102
RTVSPropertyOp41
 70
     1
102
RTVSPropertyOp42
 70
     1
102
RTVSPropertyOp43
 70
     1
102
RTVSPropertyOp44
 70
     1
102
RTVSPropertyOp45
 70
     1
102
RTVSPropertyOp46
 70
     1
102
RTVSPropertyOp47
 70
     1
102
RTVSPropertyOp48
 70
     1
102
RTVSPropertyOp49
 70
     1
102
RTVSPropertyOp50
 70
     1
102
RTVSPropertyOp51
 70
     0
102
RTVSPropertyOp52
 70
     0
102
RTVSPropertyOp53
 70
     1
102
RTVSPropertyOp54
 70
     1
102
RTVSPropertyOp55
 70
     1
102
RTVSPropertyOp56
 70
     1
102
RTVSPropertyOp57
 70
     1
102
RTVSPropertyOp58
 70
     1
102
RTVSPropertyOp59
 70
     1
102
RTVSPropertyOp60
 70
     1
102
RTVSPropertyOp61
 70
     1
102
RTVSPropertyOp62
 70
     1
  0
XRECORD
  5
1B47
102
{ACAD_REACTORS
330
1B46
102
}
330
1B46
100
AcDbXrecord
280
     1
102
RTVSPost2010Prop28
280
     0
102
RTVSPost2010PropOp28
 70
     1
102
RTVSPost2010Prop29
280
     1
102
RTVSPost2010PropOp29
 70
     1
102
RTVSPost2010Prop30
280
     1
102
RTVSPost2010PropOp30
 70
     1
102
RTVSPost2010Prop31
280
     0
102
RTVSPost2010PropOp31
 70
     1
102
RTVSPost2010Prop32
280
     0
102
RTVSPost2010PropOp32
 70
     1
102
RTVSPost2010Prop33
280
     0
102
RTVSPost2010PropOp33
 70
     1
102
RTVSPost2010Prop34
280
     0
102
RTVSPost2010PropOp34
 70
     1
102
RTVSPost2010Prop35
280
     0
102
RTVSPost2010PropOp35
 70
     1
102
RTVSPost2010Prop36
280
     0
102
RTVSPost2010PropOp36
 70
     1
102
RTVSPost2010Prop37
 90
       50
102
RTVSPost2010PropOp37
 70
     1
102
RTVSPost2010Prop38
140
0.0
102
RTVSPost2010PropOp38
 70
     1
102
RTVSPost2010Prop39
140
1.0
102
RTVSPost2010PropOp39
 70
     1
102
RTVSPost2010Prop40
 90
        0
102
RTVSPost2010PropOp40
 70
     1
102
RTVSPost2010Prop41ColorIndex
 90
       18
102
RTVSPost2010Prop41ColorRGB
 90
        0
102
RTVSPost2010PropOp41
 70
     1
102
RTVSPost2010Prop42
 90
       50
102
RTVSPost2010PropOp42
 70
     1
102
RTVSPost2010Prop43
 90
        3
102
RTVSPost2010PropOp43
 70
     1
102
RTVSPost2010Prop44ColorIndex
 90
        5
102
RTVSPost2010Prop44ColorRGB
 90
      255
102
RTVSPost2010PropOp44
 70
     1
102
RTVSPost2010Prop45
280
     0
102
RTVSPost2010PropOp45
 70
     1
102
RTVSPost2010Prop46
 90
       50
102
RTVSPost2010PropOp46
 70
     1
102
RTVSPost2010Prop47
 90
       50
102
RTVSPost2010PropOp47
 70
     1
102
RTVSPost2010Prop48
 90
       50
102
RTVSPost2010PropOp48
 70
     1
102
RTVSPost2010Prop49
280
     0
102
RTVSPost2010PropOp49
 70
     1
102
RTVSPost2010Prop50
 90
       50
102
RTVSPost2010PropOp50
 70
     1
102
RTVSPost2010Prop51ColorIndex
 90
      256
102
RTVSPost2010Prop51ColorRGB
 90
-16777216
102
RTVSPost2010PropOp51
 70
     0
102
RTVSPost2010Prop52
140
1.0
102
RTVSPost2010PropOp52
 70
     0
102
RTVSPost2010Prop53
 90
        2
102
RTVSPost2010PropOp53
 70
     1
102
RTVSPost2010Prop54
  1
strokes_ogs.tif
102
RTVSPost2010PropOp54
 70
     1
102
RTVSPost2010Prop55
280
     0
102
RTVSPost2010PropOp55
 70
     1
102
RTVSPost2010Prop56
140
1.0
102
RTVSPost2010PropOp56
 70
     1
102
RTVSPost2010Prop57
140
1.0
102
RTVSPost2010PropOp57
 70
     1
102
RTVSPropertyOp0
 70
     1
102
RTVSPropertyOp1
 70
     1
102
RTVSPropertyOp2
 70
     1
102
RTVSPropertyOp3
 70
     1
102
RTVSPropertyOp4
 70
     1
102
RTVSPropertyOp5
 70
     1
102
RTVSPropertyOp6
 70
     1
102
RTVSPropertyOp7
 70
     1
102
RTVSPropertyOp8
 70
     1
102
RTVSPropertyOp9
 70
     1
102
RTVSPropertyOp10
 70
     1
102
RTVSPropertyOp11
 70
     1
102
RTVSPropertyOp12
 70
     1
102
RTVSPropertyOp13
 70
     1
102
RTVSPropertyOp14
 70
     1
102
RTVSPropertyOp15
 70
     1
102
RTVSPropertyOp16
 70
     1
102
RTVSPropertyOp17
 70
     1
102
RTVSPropertyOp18
 70
     1
102
RTVSPropertyOp19
 70
     1
102
RTVSPropertyOp20
 70
     1
102
RTVSPropertyOp21
 70
     1
102
RTVSPropertyOp22
 70
     1
102
RTVSPropertyOp23
 70
     1
102
RTVSPropertyOp24
 70
     1
102
RTVSPropertyOp25
 70
     1
102
RTVSPropertyOp26
 70
     1
102
RTVSPropertyOp27
 70
     1
102
RTVSPropertyOp28
 70
     1
102
RTVSPropertyOp29
 70
     1
102
RTVSPropertyOp30
 70
     1
102
RTVSPropertyOp31
 70
     1
102
RTVSPropertyOp32
 70
     1
102
RTVSPropertyOp33
 70
     1
102
RTVSPropertyOp34
 70
     1
102
RTVSPropertyOp35
 70
     1
102
RTVSPropertyOp36
 70
     1
102
RTVSPropertyOp37
 70
     1
102
RTVSPropertyOp38
 70
     1
102
RTVSPropertyOp39
 70
     1
102
RTVSPropertyOp40
 70
     1
102
RTVSPropertyOp41
 70
     1
102
RTVSPropertyOp42
 70
     1
102
RTVSPropertyOp43
 70
     1
102
RTVSPropertyOp44
 70
     1
102
RTVSPropertyOp45
 70
     1
102
RTVSPropertyOp46
 70
     1
102
RTVSPropertyOp47
 70
     1
102
RTVSPropertyOp48
 70
     1
102
RTVSPropertyOp49
 70
     1
102
RTVSPropertyOp50
 70
     1
102
RTVSPropertyOp51
 70
     0
102
RTVSPropertyOp52
 70
     0
102
RTVSPropertyOp53
 70
     1
102
RTVSPropertyOp54
 70
     1
102
RTVSPropertyOp55
 70
     1
102
RTVSPropertyOp56
 70
     1
102
RTVSPropertyOp57
 70
     1
102
RTVSPropertyOp58
 70
     1
102
RTVSPropertyOp59
 70
     1
102
RTVSPropertyOp60
 70
     1
102
RTVSPropertyOp61
 70
     1
102
RTVSPropertyOp62
 70
     1
  0
XRECORD
  5
1B49
102
{ACAD_REACTORS
330
1B48
102
}
330
1B48
100
AcDbXrecord
280
     1
102
RTVSPost2010Prop28
280
     0
102
RTVSPost2010PropOp28
 70
     1
102
RTVSPost2010Prop29
280
     1
102
RTVSPost2010PropOp29
 70
     1
102
RTVSPost2010Prop30
280
     1
102
RTVSPost2010PropOp30
 70
     1
102
RTVSPost2010Prop31
280
     0
102
RTVSPost2010PropOp31
 70
     1
102
RTVSPost2010Prop32
280
     0
102
RTVSPost2010PropOp32
 70
     1
102
RTVSPost2010Prop33
280
     0
102
RTVSPost2010PropOp33
 70
     1
102
RTVSPost2010Prop34
280
     0
102
RTVSPost2010PropOp34
 70
     1
102
RTVSPost2010Prop35
280
     0
102
RTVSPost2010PropOp35
 70
     1
102
RTVSPost2010Prop36
280
     0
102
RTVSPost2010PropOp36
 70
     1
102
RTVSPost2010Prop37
 90
       50
102
RTVSPost2010PropOp37
 70
     1
102
RTVSPost2010Prop38
140
0.0
102
RTVSPost2010PropOp38
 70
     1
102
RTVSPost2010Prop39
140
1.0
102
RTVSPost2010PropOp39
 70
     1
102
RTVSPost2010Prop40
 90
        0
102
RTVSPost2010PropOp40
 70
     1
102
RTVSPost2010Prop41ColorIndex
 90
       18
102
RTVSPost2010Prop41ColorRGB
 90
        0
102
RTVSPost2010PropOp41
 70
     1
102
RTVSPost2010Prop42
 90
       50
102
RTVSPost2010PropOp42
 70
     1
102
RTVSPost2010Prop43
 90
        3
102
RTVSPost2010PropOp43
 70
     1
102
RTVSPost2010Prop44ColorIndex
 90
        5
102
RTVSPost2010Prop44ColorRGB
 90
      255
102
RTVSPost2010PropOp44
 70
     1
102
RTVSPost2010Prop45
280
     0
102
RTVSPost2010PropOp45
 70
     1
102
RTVSPost2010Prop46
 90
       50
102
RTVSPost2010PropOp46
 70
     1
102
RTVSPost2010Prop47
 90
       50
102
RTVSPost2010PropOp47
 70
     1
102
RTVSPost2010Prop48
 90
       50
102
RTVSPost2010PropOp48
 70
     1
102
RTVSPost2010Prop49
280
     0
102
RTVSPost2010PropOp49
 70
     1
102
RTVSPost2010Prop50
 90
       50
102
RTVSPost2010PropOp50
 70
     1
102
RTVSPost2010Prop51ColorIndex
 90
      256
102
RTVSPost2010Prop51ColorRGB
 90
-16777216
102
RTVSPost2010PropOp51
 70
     0
102
RTVSPost2010Prop52
140
1.0
102
RTVSPost2010PropOp52
 70
     0
102
RTVSPost2010Prop53
 90
        2
102
RTVSPost2010PropOp53
 70
     1
102
RTVSPost2010Prop54
  1
strokes_ogs.tif
102
RTVSPost2010PropOp54
 70
     1
102
RTVSPost2010Prop55
280
     0
102
RTVSPost2010PropOp55
 70
     1
102
RTVSPost2010Prop56
140
1.0
102
RTVSPost2010PropOp56
 70
     1
102
RTVSPost2010Prop57
140
1.0
102
RTVSPost2010PropOp57
 70
     1
102
RTVSPropertyOp0
 70
     1
102
RTVSPropertyOp1
 70
     1
102
RTVSPropertyOp2
 70
     1
102
RTVSPropertyOp3
 70
     1
102
RTVSPropertyOp4
 70
     1
102
RTVSPropertyOp5
 70
     1
102
RTVSPropertyOp6
 70
     1
102
RTVSPropertyOp7
 70
     1
102
RTVSPropertyOp8
 70
     1
102
RTVSPropertyOp9
 70
     1
102
RTVSPropertyOp10
 70
     1
102
RTVSPropertyOp11
 70
     1
102
RTVSPropertyOp12
 70
     1
102
RTVSPropertyOp13
 70
     1
102
RTVSPropertyOp14
 70
     1
102
RTVSPropertyOp15
 70
     1
102
RTVSPropertyOp16
 70
     1
102
RTVSPropertyOp17
 70
     1
102
RTVSPropertyOp18
 70
     1
102
RTVSPropertyOp19
 70
     1
102
RTVSPropertyOp20
 70
     1
102
RTVSPropertyOp21
 70
     1
102
RTVSPropertyOp22
 70
     1
102
RTVSPropertyOp23
 70
     1
102
RTVSPropertyOp24
 70
     1
102
RTVSPropertyOp25
 70
     1
102
RTVSPropertyOp26
 70
     1
102
RTVSPropertyOp27
 70
     1
102
RTVSPropertyOp28
 70
     1
102
RTVSPropertyOp29
 70
     1
102
RTVSPropertyOp30
 70
     1
102
RTVSPropertyOp31
 70
     1
102
RTVSPropertyOp32
 70
     1
102
RTVSPropertyOp33
 70
     1
102
RTVSPropertyOp34
 70
     1
102
RTVSPropertyOp35
 70
     1
102
RTVSPropertyOp36
 70
     1
102
RTVSPropertyOp37
 70
     1
102
RTVSPropertyOp38
 70
     1
102
RTVSPropertyOp39
 70
     1
102
RTVSPropertyOp40
 70
     1
102
RTVSPropertyOp41
 70
     1
102
RTVSPropertyOp42
 70
     1
102
RTVSPropertyOp43
 70
     1
102
RTVSPropertyOp44
 70
     1
102
RTVSPropertyOp45
 70
     1
102
RTVSPropertyOp46
 70
     1
102
RTVSPropertyOp47
 70
     1
102
RTVSPropertyOp48
 70
     1
102
RTVSPropertyOp49
 70
     1
102
RTVSPropertyOp50
 70
     1
102
RTVSPropertyOp51
 70
     0
102
RTVSPropertyOp52
 70
     0
102
RTVSPropertyOp53
 70
     1
102
RTVSPropertyOp54
 70
     1
102
RTVSPropertyOp55
 70
     1
102
RTVSPropertyOp56
 70
     1
102
RTVSPropertyOp57
 70
     1
102
RTVSPropertyOp58
 70
     1
102
RTVSPropertyOp59
 70
     1
102
RTVSPropertyOp60
 70
     1
102
RTVSPropertyOp61
 70
     1
102
RTVSPropertyOp62
 70
     1
  0
XRECORD
  5
1B4B
102
{ACAD_REACTORS
330
1B4A
102
}
330
1B4A
100
AcDbXrecord
280
     1
102
RTVSPost2010Prop28
280
     0
102
RTVSPost2010PropOp28
 70
     1
102
RTVSPost2010Prop29
280
     1
102
RTVSPost2010PropOp29
 70
     1
102
RTVSPost2010Prop30
280
     1
102
RTVSPost2010PropOp30
 70
     1
102
RTVSPost2010Prop31
280
     0
102
RTVSPost2010PropOp31
 70
     1
102
RTVSPost2010Prop32
280
     0
102
RTVSPost2010PropOp32
 70
     1
102
RTVSPost2010Prop33
280
     0
102
RTVSPost2010PropOp33
 70
     1
102
RTVSPost2010Prop34
280
     0
102
RTVSPost2010PropOp34
 70
     1
102
RTVSPost2010Prop35
280
     0
102
RTVSPost2010PropOp35
 70
     1
102
RTVSPost2010Prop36
280
     0
102
RTVSPost2010PropOp36
 70
     1
102
RTVSPost2010Prop37
 90
       50
102
RTVSPost2010PropOp37
 70
     1
102
RTVSPost2010Prop38
140
0.0
102
RTVSPost2010PropOp38
 70
     1
102
RTVSPost2010Prop39
140
1.0
102
RTVSPost2010PropOp39
 70
     1
102
RTVSPost2010Prop40
 90
        0
102
RTVSPost2010PropOp40
 70
     1
102
RTVSPost2010Prop41ColorIndex
 90
       18
102
RTVSPost2010Prop41ColorRGB
 90
        0
102
RTVSPost2010PropOp41
 70
     1
102
RTVSPost2010Prop42
 90
       50
102
RTVSPost2010PropOp42
 70
     1
102
RTVSPost2010Prop43
 90
        3
102
RTVSPost2010PropOp43
 70
     1
102
RTVSPost2010Prop44ColorIndex
 90
        5
102
RTVSPost2010Prop44ColorRGB
 90
      255
102
RTVSPost2010PropOp44
 70
     1
102
RTVSPost2010Prop45
280
     0
102
RTVSPost2010PropOp45
 70
     1
102
RTVSPost2010Prop46
 90
       50
102
RTVSPost2010PropOp46
 70
     1
102
RTVSPost2010Prop47
 90
       50
102
RTVSPost2010PropOp47
 70
     1
102
RTVSPost2010Prop48
 90
       50
102
RTVSPost2010PropOp48
 70
     1
102
RTVSPost2010Prop49
280
     0
102
RTVSPost2010PropOp49
 70
     1
102
RTVSPost2010Prop50
 90
       50
102
RTVSPost2010PropOp50
 70
     1
102
RTVSPost2010Prop51ColorIndex
 90
      256
102
RTVSPost2010Prop51ColorRGB
 90
-16777216
102
RTVSPost2010PropOp51
 70
     0
102
RTVSPost2010Prop52
140
1.0
102
RTVSPost2010PropOp52
 70
     0
102
RTVSPost2010Prop53
 90
        2
102
RTVSPost2010PropOp53
 70
     1
102
RTVSPost2010Prop54
  1
strokes_ogs.tif
102
RTVSPost2010PropOp54
 70
     1
102
RTVSPost2010Prop55
280
     0
102
RTVSPost2010PropOp55
 70
     1
102
RTVSPost2010Prop56
140
1.0
102
RTVSPost2010PropOp56
 70
     1
102
RTVSPost2010Prop57
140
1.0
102
RTVSPost2010PropOp57
 70
     1
102
RTVSPropertyOp0
 70
     1
102
RTVSPropertyOp1
 70
     1
102
RTVSPropertyOp2
 70
     1
102
RTVSPropertyOp3
 70
     1
102
RTVSPropertyOp4
 70
     1
102
RTVSPropertyOp5
 70
     1
102
RTVSPropertyOp6
 70
     1
102
RTVSPropertyOp7
 70
     1
102
RTVSPropertyOp8
 70
     1
102
RTVSPropertyOp9
 70
     1
102
RTVSPropertyOp10
 70
     1
102
RTVSPropertyOp11
 70
     1
102
RTVSPropertyOp12
 70
     1
102
RTVSPropertyOp13
 70
     1
102
RTVSPropertyOp14
 70
     1
102
RTVSPropertyOp15
 70
     1
102
RTVSPropertyOp16
 70
     1
102
RTVSPropertyOp17
 70
     1
102
RTVSPropertyOp18
 70
     1
102
RTVSPropertyOp19
 70
     1
102
RTVSPropertyOp20
 70
     1
102
RTVSPropertyOp21
 70
     1
102
RTVSPropertyOp22
 70
     1
102
RTVSPropertyOp23
 70
     1
102
RTVSPropertyOp24
 70
     1
102
RTVSPropertyOp25
 70
     1
102
RTVSPropertyOp26
 70
     1
102
RTVSPropertyOp27
 70
     1
102
RTVSPropertyOp28
 70
     1
102
RTVSPropertyOp29
 70
     1
102
RTVSPropertyOp30
 70
     1
102
RTVSPropertyOp31
 70
     1
102
RTVSPropertyOp32
 70
     1
102
RTVSPropertyOp33
 70
     1
102
RTVSPropertyOp34
 70
     1
102
RTVSPropertyOp35
 70
     1
102
RTVSPropertyOp36
 70
     1
102
RTVSPropertyOp37
 70
     1
102
RTVSPropertyOp38
 70
     1
102
RTVSPropertyOp39
 70
     1
102
RTVSPropertyOp40
 70
     1
102
RTVSPropertyOp41
 70
     1
102
RTVSPropertyOp42
 70
     1
102
RTVSPropertyOp43
 70
     1
102
RTVSPropertyOp44
 70
     1
102
RTVSPropertyOp45
 70
     1
102
RTVSPropertyOp46
 70
     1
102
RTVSPropertyOp47
 70
     1
102
RTVSPropertyOp48
 70
     1
102
RTVSPropertyOp49
 70
     1
102
RTVSPropertyOp50
 70
     1
102
RTVSPropertyOp51
 70
     0
102
RTVSPropertyOp52
 70
     0
102
RTVSPropertyOp53
 70
     1
102
RTVSPropertyOp54
 70
     1
102
RTVSPropertyOp55
 70
     1
102
RTVSPropertyOp56
 70
     1
102
RTVSPropertyOp57
 70
     1
102
RTVSPropertyOp58
 70
     1
102
RTVSPropertyOp59
 70
     1
102
RTVSPropertyOp60
 70
     1
102
RTVSPropertyOp61
 70
     1
102
RTVSPropertyOp62
 70
     1
  0
XRECORD
  5
1B53
102
{ACAD_REACTORS
330
1B52
102
}
330
1B52
100
AcDbXrecord
280
     1
102
RTVSPost2010Prop28
280
     0
102
RTVSPost2010PropOp28
 70
     1
102
RTVSPost2010Prop29
280
     1
102
RTVSPost2010PropOp29
 70
     1
102
RTVSPost2010Prop30
280
     1
102
RTVSPost2010PropOp30
 70
     1
102
RTVSPost2010Prop31
280
     0
102
RTVSPost2010PropOp31
 70
     1
102
RTVSPost2010Prop32
280
     0
102
RTVSPost2010PropOp32
 70
     1
102
RTVSPost2010Prop33
280
     0
102
RTVSPost2010PropOp33
 70
     1
102
RTVSPost2010Prop34
280
     0
102
RTVSPost2010PropOp34
 70
     1
102
RTVSPost2010Prop35
280
     0
102
RTVSPost2010PropOp35
 70
     1
102
RTVSPost2010Prop36
280
     0
102
RTVSPost2010PropOp36
 70
     1
102
RTVSPost2010Prop37
 90
       50
102
RTVSPost2010PropOp37
 70
     1
102
RTVSPost2010Prop38
140
0.0
102
RTVSPost2010PropOp38
 70
     1
102
RTVSPost2010Prop39
140
1.0
102
RTVSPost2010PropOp39
 70
     1
102
RTVSPost2010Prop40
 90
        0
102
RTVSPost2010PropOp40
 70
     1
102
RTVSPost2010Prop41ColorIndex
 90
       18
102
RTVSPost2010Prop41ColorRGB
 90
        0
102
RTVSPost2010PropOp41
 70
     1
102
RTVSPost2010Prop42
 90
       50
102
RTVSPost2010PropOp42
 70
     1
102
RTVSPost2010Prop43
 90
        3
102
RTVSPost2010PropOp43
 70
     1
102
RTVSPost2010Prop44ColorIndex
 90
        5
102
RTVSPost2010Prop44ColorRGB
 90
      255
102
RTVSPost2010PropOp44
 70
     1
102
RTVSPost2010Prop45
280
     0
102
RTVSPost2010PropOp45
 70
     1
102
RTVSPost2010Prop46
 90
       50
102
RTVSPost2010PropOp46
 70
     1
102
RTVSPost2010Prop47
 90
       50
102
RTVSPost2010PropOp47
 70
     1
102
RTVSPost2010Prop48
 90
       50
102
RTVSPost2010PropOp48
 70
     1
102
RTVSPost2010Prop49
280
     0
102
RTVSPost2010PropOp49
 70
     1
102
RTVSPost2010Prop50
 90
       50
102
RTVSPost2010PropOp50
 70
     1
102
RTVSPost2010Prop51ColorIndex
 90
      256
102
RTVSPost2010Prop51ColorRGB
 90
-16777216
102
RTVSPost2010PropOp51
 70
     0
102
RTVSPost2010Prop52
140
1.0
102
RTVSPost2010PropOp52
 70
     0
102
RTVSPost2010Prop53
 90
        2
102
RTVSPost2010PropOp53
 70
     1
102
RTVSPost2010Prop54
  1
strokes_ogs.tif
102
RTVSPost2010PropOp54
 70
     1
102
RTVSPost2010Prop55
280
     0
102
RTVSPost2010PropOp55
 70
     1
102
RTVSPost2010Prop56
140
1.0
102
RTVSPost2010PropOp56
 70
     1
102
RTVSPost2010Prop57
140
1.0
102
RTVSPost2010PropOp57
 70
     1
102
RTVSPropertyOp0
 70
     1
102
RTVSPropertyOp1
 70
     1
102
RTVSPropertyOp2
 70
     1
102
RTVSPropertyOp3
 70
     1
102
RTVSPropertyOp4
 70
     1
102
RTVSPropertyOp5
 70
     1
102
RTVSPropertyOp6
 70
     1
102
RTVSPropertyOp7
 70
     1
102
RTVSPropertyOp8
 70
     1
102
RTVSPropertyOp9
 70
     1
102
RTVSPropertyOp10
 70
     1
102
RTVSPropertyOp11
 70
     1
102
RTVSPropertyOp12
 70
     1
102
RTVSPropertyOp13
 70
     1
102
RTVSPropertyOp14
 70
     1
102
RTVSPropertyOp15
 70
     1
102
RTVSPropertyOp16
 70
     1
102
RTVSPropertyOp17
 70
     1
102
RTVSPropertyOp18
 70
     1
102
RTVSPropertyOp19
 70
     1
102
RTVSPropertyOp20
 70
     1
102
RTVSPropertyOp21
 70
     1
102
RTVSPropertyOp22
 70
     1
102
RTVSPropertyOp23
 70
     1
102
RTVSPropertyOp24
 70
     1
102
RTVSPropertyOp25
 70
     1
102
RTVSPropertyOp26
 70
     1
102
RTVSPropertyOp27
 70
     1
102
RTVSPropertyOp28
 70
     1
102
RTVSPropertyOp29
 70
     1
102
RTVSPropertyOp30
 70
     1
102
RTVSPropertyOp31
 70
     1
102
RTVSPropertyOp32
 70
     1
102
RTVSPropertyOp33
 70
     1
102
RTVSPropertyOp34
 70
     1
102
RTVSPropertyOp35
 70
     1
102
RTVSPropertyOp36
 70
     1
102
RTVSPropertyOp37
 70
     1
102
RTVSPropertyOp38
 70
     1
102
RTVSPropertyOp39
 70
     1
102
RTVSPropertyOp40
 70
     1
102
RTVSPropertyOp41
 70
     1
102
RTVSPropertyOp42
 70
     1
102
RTVSPropertyOp43
 70
     1
102
RTVSPropertyOp44
 70
     1
102
RTVSPropertyOp45
 70
     1
102
RTVSPropertyOp46
 70
     1
102
RTVSPropertyOp47
 70
     1
102
RTVSPropertyOp48
 70
     1
102
RTVSPropertyOp49
 70
     1
102
RTVSPropertyOp50
 70
     1
102
RTVSPropertyOp51
 70
     0
102
RTVSPropertyOp52
 70
     0
102
RTVSPropertyOp53
 70
     1
102
RTVSPropertyOp54
 70
     1
102
RTVSPropertyOp55
 70
     1
102
RTVSPropertyOp56
 70
     1
102
RTVSPropertyOp57
 70
     1
102
RTVSPropertyOp58
 70
     1
102
RTVSPropertyOp59
 70
     1
102
RTVSPropertyOp60
 70
     1
102
RTVSPropertyOp61
 70
     1
102
RTVSPropertyOp62
 70
     1
  0
XRECORD
  5
1B6F
102
{ACAD_REACTORS
330
1B6E
102
}
330
1B6E
100
AcDbXrecord
280
     1
102
RTVSPost2010Prop28
280
     0
102
RTVSPost2010PropOp28
 70
     1
102
RTVSPost2010Prop29
280
     1
102
RTVSPost2010PropOp29
 70
     1
102
RTVSPost2010Prop30
280
     1
102
RTVSPost2010PropOp30
 70
     1
102
RTVSPost2010Prop31
280
     0
102
RTVSPost2010PropOp31
 70
     1
102
RTVSPost2010Prop32
280
     0
102
RTVSPost2010PropOp32
 70
     1
102
RTVSPost2010Prop33
280
     0
102
RTVSPost2010PropOp33
 70
     1
102
RTVSPost2010Prop34
280
     0
102
RTVSPost2010PropOp34
 70
     1
102
RTVSPost2010Prop35
280
     0
102
RTVSPost2010PropOp35
 70
     1
102
RTVSPost2010Prop36
280
     0
102
RTVSPost2010PropOp36
 70
     1
102
RTVSPost2010Prop37
 90
       50
102
RTVSPost2010PropOp37
 70
     0
102
RTVSPost2010Prop38
140
0.0
102
RTVSPost2010PropOp38
 70
     0
102
RTVSPost2010Prop39
140
1.0
102
RTVSPost2010PropOp39
 70
     0
102
RTVSPost2010Prop40
 90
        0
102
RTVSPost2010PropOp40
 70
     0
102
RTVSPost2010Prop41ColorIndex
 90
       18
102
RTVSPost2010Prop41ColorRGB
 90
        0
102
RTVSPost2010PropOp41
 70
     0
102
RTVSPost2010Prop42
 90
       50
102
RTVSPost2010PropOp42
 70
     0
102
RTVSPost2010Prop43
 90
        3
102
RTVSPost2010PropOp43
 70
     0
102
RTVSPost2010Prop44ColorIndex
 90
        5
102
RTVSPost2010Prop44ColorRGB
 90
      255
102
RTVSPost2010PropOp44
 70
     0
102
RTVSPost2010Prop45
280
     0
102
RTVSPost2010PropOp45
 70
     1
102
RTVSPost2010Prop46
 90
       50
102
RTVSPost2010PropOp46
 70
     0
102
RTVSPost2010Prop47
 90
       50
102
RTVSPost2010PropOp47
 70
     0
102
RTVSPost2010Prop48
 90
       50
102
RTVSPost2010PropOp48
 70
     0
102
RTVSPost2010Prop49
280
     0
102
RTVSPost2010PropOp49
 70
     1
102
RTVSPost2010Prop50
 90
       50
102
RTVSPost2010PropOp50
 70
     0
102
RTVSPost2010Prop51ColorIndex
 90
      256
102
RTVSPost2010Prop51ColorRGB
 90
-16777216
102
RTVSPost2010PropOp51
 70
     0
102
RTVSPost2010Prop52
140
1.0
102
RTVSPost2010PropOp52
 70
     0
102
RTVSPost2010Prop53
 90
        2
102
RTVSPost2010PropOp53
 70
     0
102
RTVSPost2010Prop54
  1
strokes_ogs.tif
102
RTVSPost2010PropOp54
 70
     0
102
RTVSPost2010Prop55
280
     0
102
RTVSPost2010PropOp55
 70
     1
102
RTVSPost2010Prop56
140
1.0
102
RTVSPost2010PropOp56
 70
     0
102
RTVSPost2010Prop57
140
1.0
102
RTVSPost2010PropOp57
 70
     0
102
RTVSPropertyOp0
 70
     0
102
RTVSPropertyOp1
 70
     0
102
RTVSPropertyOp2
 70
     0
102
RTVSPropertyOp3
 70
     0
102
RTVSPropertyOp4
 70
     0
102
RTVSPropertyOp5
 70
     0
102
RTVSPropertyOp6
 70
     0
102
RTVSPropertyOp7
 70
     0
102
RTVSPropertyOp8
 70
     0
102
RTVSPropertyOp9
 70
     0
102
RTVSPropertyOp10
 70
     0
102
RTVSPropertyOp11
 70
     0
102
RTVSPropertyOp12
 70
     0
102
RTVSPropertyOp13
 70
     0
102
RTVSPropertyOp14
 70
     2
102
RTVSPropertyOp15
 70
     0
102
RTVSPropertyOp16
 70
     0
102
RTVSPropertyOp17
 70
     0
102
RTVSPropertyOp18
 70
     0
102
RTVSPropertyOp19
 70
     0
102
RTVSPropertyOp20
 70
     0
102
RTVSPropertyOp21
 70
     0
102
RTVSPropertyOp22
 70
     0
102
RTVSPropertyOp23
 70
     0
102
RTVSPropertyOp24
 70
     0
102
RTVSPropertyOp25
 70
     0
102
RTVSPropertyOp26
 70
     0
102
RTVSPropertyOp27
 70
     0
102
RTVSPropertyOp28
 70
     1
102
RTVSPropertyOp29
 70
     1
102
RTVSPropertyOp30
 70
     1
102
RTVSPropertyOp31
 70
     1
102
RTVSPropertyOp32
 70
     1
102
RTVSPropertyOp33
 70
     1
102
RTVSPropertyOp34
 70
     1
102
RTVSPropertyOp35
 70
     1
102
RTVSPropertyOp36
 70
     1
102
RTVSPropertyOp37
 70
     0
102
RTVSPropertyOp38
 70
     0
102
RTVSPropertyOp39
 70
     0
102
RTVSPropertyOp40
 70
     0
102
RTVSPropertyOp41
 70
     0
102
RTVSPropertyOp42
 70
     0
102
RTVSPropertyOp43
 70
     0
102
RTVSPropertyOp44
 70
     0
102
RTVSPropertyOp45
 70
     1
102
RTVSPropertyOp46
 70
     0
102
RTVSPropertyOp47
 70
     0
102
RTVSPropertyOp48
 70
     0
102
RTVSPropertyOp49
 70
     1
102
RTVSPropertyOp50
 70
     0
102
RTVSPropertyOp51
 70
     0
102
RTVSPropertyOp52
 70
     0
102
RTVSPropertyOp53
 70
     0
102
RTVSPropertyOp54
 70
     0
102
RTVSPropertyOp55
 70
     1
102
RTVSPropertyOp56
 70
     0
102
RTVSPropertyOp57
 70
     0
102
RTVSPropertyOp58
 70
     0
102
RTVSPropertyOp59
 70
     0
102
RTVSPropertyOp60
 70
     0
102
RTVSPropertyOp61
 70
     0
102
RTVSPropertyOp62
 70
     0
  0
XRECORD
  5
1B5F
102
{ACAD_REACTORS
330
1B5E
102
}
330
1B5E
100
AcDbXrecord
280
     1
102
RTVSPost2010Prop28
280
     0
102
RTVSPost2010PropOp28
 70
     1
102
RTVSPost2010Prop29
280
     1
102
RTVSPost2010PropOp29
 70
     1
102
RTVSPost2010Prop30
280
     1
102
RTVSPost2010PropOp30
 70
     1
102
RTVSPost2010Prop31
280
     0
102
RTVSPost2010PropOp31
 70
     1
102
RTVSPost2010Prop32
280
     0
102
RTVSPost2010PropOp32
 70
     1
102
RTVSPost2010Prop33
280
     0
102
RTVSPost2010PropOp33
 70
     1
102
RTVSPost2010Prop34
280
     0
102
RTVSPost2010PropOp34
 70
     1
102
RTVSPost2010Prop35
280
     0
102
RTVSPost2010PropOp35
 70
     1
102
RTVSPost2010Prop36
280
     0
102
RTVSPost2010PropOp36
 70
     1
102
RTVSPost2010Prop37
 90
       50
102
RTVSPost2010PropOp37
 70
     1
102
RTVSPost2010Prop38
140
0.0
102
RTVSPost2010PropOp38
 70
     1
102
RTVSPost2010Prop39
140
1.0
102
RTVSPost2010PropOp39
 70
     1
102
RTVSPost2010Prop40
 90
        0
102
RTVSPost2010PropOp40
 70
     1
102
RTVSPost2010Prop41ColorIndex
 90
       18
102
RTVSPost2010Prop41ColorRGB
 90
        0
102
RTVSPost2010PropOp41
 70
     1
102
RTVSPost2010Prop42
 90
       50
102
RTVSPost2010PropOp42
 70
     1
102
RTVSPost2010Prop43
 90
        3
102
RTVSPost2010PropOp43
 70
     1
102
RTVSPost2010Prop44ColorIndex
 90
        5
102
RTVSPost2010Prop44ColorRGB
 90
      255
102
RTVSPost2010PropOp44
 70
     1
102
RTVSPost2010Prop45
280
     0
102
RTVSPost2010PropOp45
 70
     1
102
RTVSPost2010Prop46
 90
       50
102
RTVSPost2010PropOp46
 70
     1
102
RTVSPost2010Prop47
 90
       50
102
RTVSPost2010PropOp47
 70
     1
102
RTVSPost2010Prop48
 90
       50
102
RTVSPost2010PropOp48
 70
     1
102
RTVSPost2010Prop49
280
     0
102
RTVSPost2010PropOp49
 70
     1
102
RTVSPost2010Prop50
 90
       50
102
RTVSPost2010PropOp50
 70
     1
102
RTVSPost2010Prop51ColorIndex
 90
      256
102
RTVSPost2010Prop51ColorRGB
 90
-16777216
102
RTVSPost2010PropOp51
 70
     0
102
RTVSPost2010Prop52
140
1.0
102
RTVSPost2010PropOp52
 70
     0
102
RTVSPost2010Prop53
 90
        2
102
RTVSPost2010PropOp53
 70
     1
102
RTVSPost2010Prop54
  1
strokes_ogs.tif
102
RTVSPost2010PropOp54
 70
     1
102
RTVSPost2010Prop55
280
     0
102
RTVSPost2010PropOp55
 70
     1
102
RTVSPost2010Prop56
140
1.0
102
RTVSPost2010PropOp56
 70
     1
102
RTVSPost2010Prop57
140
1.0
102
RTVSPost2010PropOp57
 70
     1
102
RTVSPropertyOp0
 70
     1
102
RTVSPropertyOp1
 70
     1
102
RTVSPropertyOp2
 70
     1
102
RTVSPropertyOp3
 70
     1
102
RTVSPropertyOp4
 70
     1
102
RTVSPropertyOp5
 70
     1
102
RTVSPropertyOp6
 70
     1
102
RTVSPropertyOp7
 70
     1
102
RTVSPropertyOp8
 70
     1
102
RTVSPropertyOp9
 70
     1
102
RTVSPropertyOp10
 70
     1
102
RTVSPropertyOp11
 70
     1
102
RTVSPropertyOp12
 70
     1
102
RTVSPropertyOp13
 70
     1
102
RTVSPropertyOp14
 70
     1
102
RTVSPropertyOp15
 70
     1
102
RTVSPropertyOp16
 70
     1
102
RTVSPropertyOp17
 70
     1
102
RTVSPropertyOp18
 70
     1
102
RTVSPropertyOp19
 70
     1
102
RTVSPropertyOp20
 70
     1
102
RTVSPropertyOp21
 70
     1
102
RTVSPropertyOp22
 70
     1
102
RTVSPropertyOp23
 70
     1
102
RTVSPropertyOp24
 70
     1
102
RTVSPropertyOp25
 70
     1
102
RTVSPropertyOp26
 70
     1
102
RTVSPropertyOp27
 70
     1
102
RTVSPropertyOp28
 70
     1
102
RTVSPropertyOp29
 70
     1
102
RTVSPropertyOp30
 70
     1
102
RTVSPropertyOp31
 70
     1
102
RTVSPropertyOp32
 70
     1
102
RTVSPropertyOp33
 70
     1
102
RTVSPropertyOp34
 70
     1
102
RTVSPropertyOp35
 70
     1
102
RTVSPropertyOp36
 70
     1
102
RTVSPropertyOp37
 70
     1
102
RTVSPropertyOp38
 70
     1
102
RTVSPropertyOp39
 70
     1
102
RTVSPropertyOp40
 70
     1
102
RTVSPropertyOp41
 70
     1
102
RTVSPropertyOp42
 70
     1
102
RTVSPropertyOp43
 70
     1
102
RTVSPropertyOp44
 70
     1
102
RTVSPropertyOp45
 70
     1
102
RTVSPropertyOp46
 70
     1
102
RTVSPropertyOp47
 70
     1
102
RTVSPropertyOp48
 70
     1
102
RTVSPropertyOp49
 70
     1
102
RTVSPropertyOp50
 70
     1
102
RTVSPropertyOp51
 70
     0
102
RTVSPropertyOp52
 70
     0
102
RTVSPropertyOp53
 70
     1
102
RTVSPropertyOp54
 70
     1
102
RTVSPropertyOp55
 70
     1
102
RTVSPropertyOp56
 70
     1
102
RTVSPropertyOp57
 70
     1
102
RTVSPropertyOp58
 70
     1
102
RTVSPropertyOp59
 70
     1
102
RTVSPropertyOp60
 70
     1
102
RTVSPropertyOp61
 70
     1
102
RTVSPropertyOp62
 70
     1
  0
XRECORD
  5
1B71
102
{ACAD_REACTORS
330
1B70
102
}
330
1B70
100
AcDbXrecord
280
     1
102
RTVSPost2010Prop28
280
     0
102
RTVSPost2010PropOp28
 70
     1
102
RTVSPost2010Prop29
280
     1
102
RTVSPost2010PropOp29
 70
     1
102
RTVSPost2010Prop30
280
     1
102
RTVSPost2010PropOp30
 70
     1
102
RTVSPost2010Prop31
280
     0
102
RTVSPost2010PropOp31
 70
     1
102
RTVSPost2010Prop32
280
     0
102
RTVSPost2010PropOp32
 70
     1
102
RTVSPost2010Prop33
280
     0
102
RTVSPost2010PropOp33
 70
     1
102
RTVSPost2010Prop34
280
     0
102
RTVSPost2010PropOp34
 70
     1
102
RTVSPost2010Prop35
280
     0
102
RTVSPost2010PropOp35
 70
     1
102
RTVSPost2010Prop36
280
     0
102
RTVSPost2010PropOp36
 70
     1
102
RTVSPost2010Prop37
 90
       50
102
RTVSPost2010PropOp37
 70
     0
102
RTVSPost2010Prop38
140
0.0
102
RTVSPost2010PropOp38
 70
     0
102
RTVSPost2010Prop39
140
1.0
102
RTVSPost2010PropOp39
 70
     0
102
RTVSPost2010Prop40
 90
        0
102
RTVSPost2010PropOp40
 70
     0
102
RTVSPost2010Prop41ColorIndex
 90
       18
102
RTVSPost2010Prop41ColorRGB
 90
        0
102
RTVSPost2010PropOp41
 70
     0
102
RTVSPost2010Prop42
 90
       50
102
RTVSPost2010PropOp42
 70
     0
102
RTVSPost2010Prop43
 90
        3
102
RTVSPost2010PropOp43
 70
     0
102
RTVSPost2010Prop44ColorIndex
 90
        5
102
RTVSPost2010Prop44ColorRGB
 90
      255
102
RTVSPost2010PropOp44
 70
     0
102
RTVSPost2010Prop45
280
     0
102
RTVSPost2010PropOp45
 70
     1
102
RTVSPost2010Prop46
 90
       50
102
RTVSPost2010PropOp46
 70
     0
102
RTVSPost2010Prop47
 90
       50
102
RTVSPost2010PropOp47
 70
     0
102
RTVSPost2010Prop48
 90
       50
102
RTVSPost2010PropOp48
 70
     0
102
RTVSPost2010Prop49
280
     0
102
RTVSPost2010PropOp49
 70
     1
102
RTVSPost2010Prop50
 90
       50
102
RTVSPost2010PropOp50
 70
     0
102
RTVSPost2010Prop51ColorIndex
 90
      256
102
RTVSPost2010Prop51ColorRGB
 90
-16777216
102
RTVSPost2010PropOp51
 70
     0
102
RTVSPost2010Prop52
140
1.0
102
RTVSPost2010PropOp52
 70
     0
102
RTVSPost2010Prop53
 90
        2
102
RTVSPost2010PropOp53
 70
     0
102
RTVSPost2010Prop54
  1
strokes_ogs.tif
102
RTVSPost2010PropOp54
 70
     0
102
RTVSPost2010Prop55
280
     0
102
RTVSPost2010PropOp55
 70
     1
102
RTVSPost2010Prop56
140
1.0
102
RTVSPost2010PropOp56
 70
     0
102
RTVSPost2010Prop57
140
1.0
102
RTVSPost2010PropOp57
 70
     0
102
RTVSPropertyOp0
 70
     0
102
RTVSPropertyOp1
 70
     0
102
RTVSPropertyOp2
 70
     0
102
RTVSPropertyOp3
 70
     0
102
RTVSPropertyOp4
 70
     0
102
RTVSPropertyOp5
 70
     0
102
RTVSPropertyOp6
 70
     0
102
RTVSPropertyOp7
 70
     0
102
RTVSPropertyOp8
 70
     0
102
RTVSPropertyOp9
 70
     0
102
RTVSPropertyOp10
 70
     0
102
RTVSPropertyOp11
 70
     0
102
RTVSPropertyOp12
 70
     0
102
RTVSPropertyOp13
 70
     0
102
RTVSPropertyOp14
 70
     2
102
RTVSPropertyOp15
 70
     0
102
RTVSPropertyOp16
 70
     0
102
RTVSPropertyOp17
 70
     0
102
RTVSPropertyOp18
 70
     0
102
RTVSPropertyOp19
 70
     0
102
RTVSPropertyOp20
 70
     0
102
RTVSPropertyOp21
 70
     0
102
RTVSPropertyOp22
 70
     0
102
RTVSPropertyOp23
 70
     0
102
RTVSPropertyOp24
 70
     0
102
RTVSPropertyOp25
 70
     0
102
RTVSPropertyOp26
 70
     0
102
RTVSPropertyOp27
 70
     0
102
RTVSPropertyOp28
 70
     1
102
RTVSPropertyOp29
 70
     1
102
RTVSPropertyOp30
 70
     1
102
RTVSPropertyOp31
 70
     1
102
RTVSPropertyOp32
 70
     1
102
RTVSPropertyOp33
 70
     1
102
RTVSPropertyOp34
 70
     1
102
RTVSPropertyOp35
 70
     1
102
RTVSPropertyOp36
 70
     1
102
RTVSPropertyOp37
 70
     0
102
RTVSPropertyOp38
 70
     0
102
RTVSPropertyOp39
 70
     0
102
RTVSPropertyOp40
 70
     0
102
RTVSPropertyOp41
 70
     0
102
RTVSPropertyOp42
 70
     0
102
RTVSPropertyOp43
 70
     0
102
RTVSPropertyOp44
 70
     0
102
RTVSPropertyOp45
 70
     1
102
RTVSPropertyOp46
 70
     0
102
RTVSPropertyOp47
 70
     0
102
RTVSPropertyOp48
 70
     0
102
RTVSPropertyOp49
 70
     1
102
RTVSPropertyOp50
 70
     0
102
RTVSPropertyOp51
 70
     0
102
RTVSPropertyOp52
 70
     0
102
RTVSPropertyOp53
 70
     0
102
RTVSPropertyOp54
 70
     0
102
RTVSPropertyOp55
 70
     1
102
RTVSPropertyOp56
 70
     0
102
RTVSPropertyOp57
 70
     0
102
RTVSPropertyOp58
 70
     0
102
RTVSPropertyOp59
 70
     0
102
RTVSPropertyOp60
 70
     0
102
RTVSPropertyOp61
 70
     0
102
RTVSPropertyOp62
 70
     0
  0
XRECORD
  5
1B57
102
{ACAD_REACTORS
330
1B56
102
}
330
1B56
100
AcDbXrecord
280
     1
102
RTVSPost2010Prop28
280
     0
102
RTVSPost2010PropOp28
 70
     1
102
RTVSPost2010Prop29
280
     1
102
RTVSPost2010PropOp29
 70
     1
102
RTVSPost2010Prop30
280
     1
102
RTVSPost2010PropOp30
 70
     1
102
RTVSPost2010Prop31
280
     0
102
RTVSPost2010PropOp31
 70
     1
102
RTVSPost2010Prop32
280
     0
102
RTVSPost2010PropOp32
 70
     1
102
RTVSPost2010Prop33
280
     0
102
RTVSPost2010PropOp33
 70
     1
102
RTVSPost2010Prop34
280
     0
102
RTVSPost2010PropOp34
 70
     1
102
RTVSPost2010Prop35
280
     0
102
RTVSPost2010PropOp35
 70
     1
102
RTVSPost2010Prop36
280
     0
102
RTVSPost2010PropOp36
 70
     1
102
RTVSPost2010Prop37
 90
       50
102
RTVSPost2010PropOp37
 70
     1
102
RTVSPost2010Prop38
140
0.0
102
RTVSPost2010PropOp38
 70
     1
102
RTVSPost2010Prop39
140
1.0
102
RTVSPost2010PropOp39
 70
     1
102
RTVSPost2010Prop40
 90
        0
102
RTVSPost2010PropOp40
 70
     1
102
RTVSPost2010Prop41ColorIndex
 90
       18
102
RTVSPost2010Prop41ColorRGB
 90
        0
102
RTVSPost2010PropOp41
 70
     1
102
RTVSPost2010Prop42
 90
       50
102
RTVSPost2010PropOp42
 70
     1
102
RTVSPost2010Prop43
 90
        3
102
RTVSPost2010PropOp43
 70
     1
102
RTVSPost2010Prop44ColorIndex
 90
        5
102
RTVSPost2010Prop44ColorRGB
 90
      255
102
RTVSPost2010PropOp44
 70
     1
102
RTVSPost2010Prop45
280
     0
102
RTVSPost2010PropOp45
 70
     1
102
RTVSPost2010Prop46
 90
       50
102
RTVSPost2010PropOp46
 70
     1
102
RTVSPost2010Prop47
 90
       50
102
RTVSPost2010PropOp47
 70
     1
102
RTVSPost2010Prop48
 90
       50
102
RTVSPost2010PropOp48
 70
     1
102
RTVSPost2010Prop49
280
     0
102
RTVSPost2010PropOp49
 70
     1
102
RTVSPost2010Prop50
 90
       50
102
RTVSPost2010PropOp50
 70
     1
102
RTVSPost2010Prop51ColorIndex
 90
      256
102
RTVSPost2010Prop51ColorRGB
 90
-16777216
102
RTVSPost2010PropOp51
 70
     0
102
RTVSPost2010Prop52
140
1.0
102
RTVSPost2010PropOp52
 70
     0
102
RTVSPost2010Prop53
 90
        2
102
RTVSPost2010PropOp53
 70
     1
102
RTVSPost2010Prop54
  1
strokes_ogs.tif
102
RTVSPost2010PropOp54
 70
     1
102
RTVSPost2010Prop55
280
     0
102
RTVSPost2010PropOp55
 70
     1
102
RTVSPost2010Prop56
140
1.0
102
RTVSPost2010PropOp56
 70
     1
102
RTVSPost2010Prop57
140
1.0
102
RTVSPost2010PropOp57
 70
     1
102
RTVSPropertyOp0
 70
     1
102
RTVSPropertyOp1
 70
     1
102
RTVSPropertyOp2
 70
     1
102
RTVSPropertyOp3
 70
     1
102
RTVSPropertyOp4
 70
     1
102
RTVSPropertyOp5
 70
     1
102
RTVSPropertyOp6
 70
     1
102
RTVSPropertyOp7
 70
     1
102
RTVSPropertyOp8
 70
     1
102
RTVSPropertyOp9
 70
     1
102
RTVSPropertyOp10
 70
     1
102
RTVSPropertyOp11
 70
     1
102
RTVSPropertyOp12
 70
     1
102
RTVSPropertyOp13
 70
     1
102
RTVSPropertyOp14
 70
     1
102
RTVSPropertyOp15
 70
     1
102
RTVSPropertyOp16
 70
     1
102
RTVSPropertyOp17
 70
     1
102
RTVSPropertyOp18
 70
     1
102
RTVSPropertyOp19
 70
     1
102
RTVSPropertyOp20
 70
     1
102
RTVSPropertyOp21
 70
     1
102
RTVSPropertyOp22
 70
     1
102
RTVSPropertyOp23
 70
     1
102
RTVSPropertyOp24
 70
     1
102
RTVSPropertyOp25
 70
     1
102
RTVSPropertyOp26
 70
     1
102
RTVSPropertyOp27
 70
     1
102
RTVSPropertyOp28
 70
     1
102
RTVSPropertyOp29
 70
     1
102
RTVSPropertyOp30
 70
     1
102
RTVSPropertyOp31
 70
     1
102
RTVSPropertyOp32
 70
     1
102
RTVSPropertyOp33
 70
     1
102
RTVSPropertyOp34
 70
     1
102
RTVSPropertyOp35
 70
     1
102
RTVSPropertyOp36
 70
     1
102
RTVSPropertyOp37
 70
     1
102
RTVSPropertyOp38
 70
     1
102
RTVSPropertyOp39
 70
     1
102
RTVSPropertyOp40
 70
     1
102
RTVSPropertyOp41
 70
     1
102
RTVSPropertyOp42
 70
     1
102
RTVSPropertyOp43
 70
     1
102
RTVSPropertyOp44
 70
     1
102
RTVSPropertyOp45
 70
     1
102
RTVSPropertyOp46
 70
     1
102
RTVSPropertyOp47
 70
     1
102
RTVSPropertyOp48
 70
     1
102
RTVSPropertyOp49
 70
     1
102
RTVSPropertyOp50
 70
     1
102
RTVSPropertyOp51
 70
     0
102
RTVSPropertyOp52
 70
     0
102
RTVSPropertyOp53
 70
     1
102
RTVSPropertyOp54
 70
     1
102
RTVSPropertyOp55
 70
     1
102
RTVSPropertyOp56
 70
     1
102
RTVSPropertyOp57
 70
     1
102
RTVSPropertyOp58
 70
     1
102
RTVSPropertyOp59
 70
     1
102
RTVSPropertyOp60
 70
     1
102
RTVSPropertyOp61
 70
     1
102
RTVSPropertyOp62
 70
     1
  0
XRECORD
  5
1B6D
102
{ACAD_REACTORS
330
1B6C
102
}
330
1B6C
100
AcDbXrecord
280
     1
102
RTVSPost2010Prop28
280
     0
102
RTVSPost2010PropOp28
 70
     1
102
RTVSPost2010Prop29
280
     1
102
RTVSPost2010PropOp29
 70
     1
102
RTVSPost2010Prop30
280
     1
102
RTVSPost2010PropOp30
 70
     1
102
RTVSPost2010Prop31
280
     0
102
RTVSPost2010PropOp31
 70
     1
102
RTVSPost2010Prop32
280
     0
102
RTVSPost2010PropOp32
 70
     1
102
RTVSPost2010Prop33
280
     0
102
RTVSPost2010PropOp33
 70
     1
102
RTVSPost2010Prop34
280
     0
102
RTVSPost2010PropOp34
 70
     1
102
RTVSPost2010Prop35
280
     0
102
RTVSPost2010PropOp35
 70
     1
102
RTVSPost2010Prop36
280
     0
102
RTVSPost2010PropOp36
 70
     1
102
RTVSPost2010Prop37
 90
       50
102
RTVSPost2010PropOp37
 70
     1
102
RTVSPost2010Prop38
140
0.0
102
RTVSPost2010PropOp38
 70
     1
102
RTVSPost2010Prop39
140
1.0
102
RTVSPost2010PropOp39
 70
     1
102
RTVSPost2010Prop40
 90
        0
102
RTVSPost2010PropOp40
 70
     1
102
RTVSPost2010Prop41ColorIndex
 90
       18
102
RTVSPost2010Prop41ColorRGB
 90
        0
102
RTVSPost2010PropOp41
 70
     1
102
RTVSPost2010Prop42
 90
       50
102
RTVSPost2010PropOp42
 70
     1
102
RTVSPost2010Prop43
 90
        3
102
RTVSPost2010PropOp43
 70
     1
102
RTVSPost2010Prop44ColorIndex
 90
        5
102
RTVSPost2010Prop44ColorRGB
 90
      255
102
RTVSPost2010PropOp44
 70
     1
102
RTVSPost2010Prop45
280
     0
102
RTVSPost2010PropOp45
 70
     1
102
RTVSPost2010Prop46
 90
       50
102
RTVSPost2010PropOp46
 70
     1
102
RTVSPost2010Prop47
 90
       50
102
RTVSPost2010PropOp47
 70
     1
102
RTVSPost2010Prop48
 90
       50
102
RTVSPost2010PropOp48
 70
     1
102
RTVSPost2010Prop49
280
     0
102
RTVSPost2010PropOp49
 70
     1
102
RTVSPost2010Prop50
 90
       50
102
RTVSPost2010PropOp50
 70
     1
102
RTVSPost2010Prop51ColorIndex
 90
      256
102
RTVSPost2010Prop51ColorRGB
 90
-16777216
102
RTVSPost2010PropOp51
 70
     0
102
RTVSPost2010Prop52
140
1.0
102
RTVSPost2010PropOp52
 70
     0
102
RTVSPost2010Prop53
 90
        2
102
RTVSPost2010PropOp53
 70
     1
102
RTVSPost2010Prop54
  1
strokes_ogs.tif
102
RTVSPost2010PropOp54
 70
     1
102
RTVSPost2010Prop55
280
     0
102
RTVSPost2010PropOp55
 70
     1
102
RTVSPost2010Prop56
140
1.0
102
RTVSPost2010PropOp56
 70
     1
102
RTVSPost2010Prop57
140
1.0
102
RTVSPost2010PropOp57
 70
     1
102
RTVSPropertyOp0
 70
     1
102
RTVSPropertyOp1
 70
     1
102
RTVSPropertyOp2
 70
     1
102
RTVSPropertyOp3
 70
     1
102
RTVSPropertyOp4
 70
     1
102
RTVSPropertyOp5
 70
     1
102
RTVSPropertyOp6
 70
     1
102
RTVSPropertyOp7
 70
     1
102
RTVSPropertyOp8
 70
     1
102
RTVSPropertyOp9
 70
     1
102
RTVSPropertyOp10
 70
     1
102
RTVSPropertyOp11
 70
     1
102
RTVSPropertyOp12
 70
     1
102
RTVSPropertyOp13
 70
     1
102
RTVSPropertyOp14
 70
     1
102
RTVSPropertyOp15
 70
     1
102
RTVSPropertyOp16
 70
     1
102
RTVSPropertyOp17
 70
     1
102
RTVSPropertyOp18
 70
     1
102
RTVSPropertyOp19
 70
     1
102
RTVSPropertyOp20
 70
     1
102
RTVSPropertyOp21
 70
     1
102
RTVSPropertyOp22
 70
     1
102
RTVSPropertyOp23
 70
     1
102
RTVSPropertyOp24
 70
     1
102
RTVSPropertyOp25
 70
     1
102
RTVSPropertyOp26
 70
     1
102
RTVSPropertyOp27
 70
     1
102
RTVSPropertyOp28
 70
     1
102
RTVSPropertyOp29
 70
     1
102
RTVSPropertyOp30
 70
     1
102
RTVSPropertyOp31
 70
     1
102
RTVSPropertyOp32
 70
     1
102
RTVSPropertyOp33
 70
     1
102
RTVSPropertyOp34
 70
     1
102
RTVSPropertyOp35
 70
     1
102
RTVSPropertyOp36
 70
     1
102
RTVSPropertyOp37
 70
     1
102
RTVSPropertyOp38
 70
     1
102
RTVSPropertyOp39
 70
     1
102
RTVSPropertyOp40
 70
     1
102
RTVSPropertyOp41
 70
     1
102
RTVSPropertyOp42
 70
     1
102
RTVSPropertyOp43
 70
     1
102
RTVSPropertyOp44
 70
     1
102
RTVSPropertyOp45
 70
     1
102
RTVSPropertyOp46
 70
     1
102
RTVSPropertyOp47
 70
     1
102
RTVSPropertyOp48
 70
     1
102
RTVSPropertyOp49
 70
     1
102
RTVSPropertyOp50
 70
     1
102
RTVSPropertyOp51
 70
     0
102
RTVSPropertyOp52
 70
     0
102
RTVSPropertyOp53
 70
     1
102
RTVSPropertyOp54
 70
     1
102
RTVSPropertyOp55
 70
     1
102
RTVSPropertyOp56
 70
     1
102
RTVSPropertyOp57
 70
     1
102
RTVSPropertyOp58
 70
     1
102
RTVSPropertyOp59
 70
     1
102
RTVSPropertyOp60
 70
     1
102
RTVSPropertyOp61
 70
     1
102
RTVSPropertyOp62
 70
     1
  0
XRECORD
  5
1B6B
102
{ACAD_REACTORS
330
1B6A
102
}
330
1B6A
100
AcDbXrecord
280
     1
102
RTVSPost2010Prop28
280
     0
102
RTVSPost2010PropOp28
 70
     1
102
RTVSPost2010Prop29
280
     1
102
RTVSPost2010PropOp29
 70
     1
102
RTVSPost2010Prop30
280
     1
102
RTVSPost2010PropOp30
 70
     1
102
RTVSPost2010Prop31
280
     0
102
RTVSPost2010PropOp31
 70
     1
102
RTVSPost2010Prop32
280
     0
102
RTVSPost2010PropOp32
 70
     1
102
RTVSPost2010Prop33
280
     0
102
RTVSPost2010PropOp33
 70
     1
102
RTVSPost2010Prop34
280
     0
102
RTVSPost2010PropOp34
 70
     1
102
RTVSPost2010Prop35
280
     0
102
RTVSPost2010PropOp35
 70
     1
102
RTVSPost2010Prop36
280
     0
102
RTVSPost2010PropOp36
 70
     1
102
RTVSPost2010Prop37
 90
       50
102
RTVSPost2010PropOp37
 70
     1
102
RTVSPost2010Prop38
140
0.0
102
RTVSPost2010PropOp38
 70
     1
102
RTVSPost2010Prop39
140
1.0
102
RTVSPost2010PropOp39
 70
     1
102
RTVSPost2010Prop40
 90
        0
102
RTVSPost2010PropOp40
 70
     1
102
RTVSPost2010Prop41ColorIndex
 90
       18
102
RTVSPost2010Prop41ColorRGB
 90
        0
102
RTVSPost2010PropOp41
 70
     1
102
RTVSPost2010Prop42
 90
       50
102
RTVSPost2010PropOp42
 70
     1
102
RTVSPost2010Prop43
 90
        3
102
RTVSPost2010PropOp43
 70
     1
102
RTVSPost2010Prop44ColorIndex
 90
        5
102
RTVSPost2010Prop44ColorRGB
 90
      255
102
RTVSPost2010PropOp44
 70
     1
102
RTVSPost2010Prop45
280
     0
102
RTVSPost2010PropOp45
 70
     1
102
RTVSPost2010Prop46
 90
       50
102
RTVSPost2010PropOp46
 70
     1
102
RTVSPost2010Prop47
 90
       50
102
RTVSPost2010PropOp47
 70
     1
102
RTVSPost2010Prop48
 90
       50
102
RTVSPost2010PropOp48
 70
     1
102
RTVSPost2010Prop49
280
     0
102
RTVSPost2010PropOp49
 70
     1
102
RTVSPost2010Prop50
 90
       50
102
RTVSPost2010PropOp50
 70
     1
102
RTVSPost2010Prop51ColorIndex
 90
      256
102
RTVSPost2010Prop51ColorRGB
 90
-16777216
102
RTVSPost2010PropOp51
 70
     0
102
RTVSPost2010Prop52
140
1.0
102
RTVSPost2010PropOp52
 70
     0
102
RTVSPost2010Prop53
 90
        2
102
RTVSPost2010PropOp53
 70
     1
102
RTVSPost2010Prop54
  1
strokes_ogs.tif
102
RTVSPost2010PropOp54
 70
     1
102
RTVSPost2010Prop55
280
     0
102
RTVSPost2010PropOp55
 70
     1
102
RTVSPost2010Prop56
140
1.0
102
RTVSPost2010PropOp56
 70
     1
102
RTVSPost2010Prop57
140
1.0
102
RTVSPost2010PropOp57
 70
     1
102
RTVSPropertyOp0
 70
     1
102
RTVSPropertyOp1
 70
     1
102
RTVSPropertyOp2
 70
     1
102
RTVSPropertyOp3
 70
     1
102
RTVSPropertyOp4
 70
     1
102
RTVSPropertyOp5
 70
     1
102
RTVSPropertyOp6
 70
     1
102
RTVSPropertyOp7
 70
     1
102
RTVSPropertyOp8
 70
     1
102
RTVSPropertyOp9
 70
     1
102
RTVSPropertyOp10
 70
     1
102
RTVSPropertyOp11
 70
     1
102
RTVSPropertyOp12
 70
     1
102
RTVSPropertyOp13
 70
     1
102
RTVSPropertyOp14
 70
     1
102
RTVSPropertyOp15
 70
     1
102
RTVSPropertyOp16
 70
     1
102
RTVSPropertyOp17
 70
     1
102
RTVSPropertyOp18
 70
     1
102
RTVSPropertyOp19
 70
     1
102
RTVSPropertyOp20
 70
     1
102
RTVSPropertyOp21
 70
     1
102
RTVSPropertyOp22
 70
     1
102
RTVSPropertyOp23
 70
     1
102
RTVSPropertyOp24
 70
     1
102
RTVSPropertyOp25
 70
     1
102
RTVSPropertyOp26
 70
     1
102
RTVSPropertyOp27
 70
     1
102
RTVSPropertyOp28
 70
     1
102
RTVSPropertyOp29
 70
     1
102
RTVSPropertyOp30
 70
     1
102
RTVSPropertyOp31
 70
     1
102
RTVSPropertyOp32
 70
     1
102
RTVSPropertyOp33
 70
     1
102
RTVSPropertyOp34
 70
     1
102
RTVSPropertyOp35
 70
     1
102
RTVSPropertyOp36
 70
     1
102
RTVSPropertyOp37
 70
     1
102
RTVSPropertyOp38
 70
     1
102
RTVSPropertyOp39
 70
     1
102
RTVSPropertyOp40
 70
     1
102
RTVSPropertyOp41
 70
     1
102
RTVSPropertyOp42
 70
     1
102
RTVSPropertyOp43
 70
     1
102
RTVSPropertyOp44
 70
     1
102
RTVSPropertyOp45
 70
     1
102
RTVSPropertyOp46
 70
     1
102
RTVSPropertyOp47
 70
     1
102
RTVSPropertyOp48
 70
     1
102
RTVSPropertyOp49
 70
     1
102
RTVSPropertyOp50
 70
     1
102
RTVSPropertyOp51
 70
     0
102
RTVSPropertyOp52
 70
     0
102
RTVSPropertyOp53
 70
     1
102
RTVSPropertyOp54
 70
     1
102
RTVSPropertyOp55
 70
     1
102
RTVSPropertyOp56
 70
     1
102
RTVSPropertyOp57
 70
     1
102
RTVSPropertyOp58
 70
     1
102
RTVSPropertyOp59
 70
     1
102
RTVSPropertyOp60
 70
     1
102
RTVSPropertyOp61
 70
     1
102
RTVSPropertyOp62
 70
     1
  0
XRECORD
  5
1B65
102
{ACAD_REACTORS
330
1B64
102
}
330
1B64
100
AcDbXrecord
280
     1
102
RTVSPost2010Prop28
280
     0
102
RTVSPost2010PropOp28
 70
     1
102
RTVSPost2010Prop29
280
     1
102
RTVSPost2010PropOp29
 70
     1
102
RTVSPost2010Prop30
280
     1
102
RTVSPost2010PropOp30
 70
     1
102
RTVSPost2010Prop31
280
     0
102
RTVSPost2010PropOp31
 70
     1
102
RTVSPost2010Prop32
280
     0
102
RTVSPost2010PropOp32
 70
     1
102
RTVSPost2010Prop33
280
     0
102
RTVSPost2010PropOp33
 70
     1
102
RTVSPost2010Prop34
280
     0
102
RTVSPost2010PropOp34
 70
     1
102
RTVSPost2010Prop35
280
     0
102
RTVSPost2010PropOp35
 70
     1
102
RTVSPost2010Prop36
280
     0
102
RTVSPost2010PropOp36
 70
     1
102
RTVSPost2010Prop37
 90
       50
102
RTVSPost2010PropOp37
 70
     1
102
RTVSPost2010Prop38
140
0.0
102
RTVSPost2010PropOp38
 70
     1
102
RTVSPost2010Prop39
140
1.0
102
RTVSPost2010PropOp39
 70
     1
102
RTVSPost2010Prop40
 90
        0
102
RTVSPost2010PropOp40
 70
     1
102
RTVSPost2010Prop41ColorIndex
 90
       18
102
RTVSPost2010Prop41ColorRGB
 90
        0
102
RTVSPost2010PropOp41
 70
     1
102
RTVSPost2010Prop42
 90
       50
102
RTVSPost2010PropOp42
 70
     1
102
RTVSPost2010Prop43
 90
        3
102
RTVSPost2010PropOp43
 70
     1
102
RTVSPost2010Prop44ColorIndex
 90
        5
102
RTVSPost2010Prop44ColorRGB
 90
      255
102
RTVSPost2010PropOp44
 70
     1
102
RTVSPost2010Prop45
280
     0
102
RTVSPost2010PropOp45
 70
     1
102
RTVSPost2010Prop46
 90
       50
102
RTVSPost2010PropOp46
 70
     1
102
RTVSPost2010Prop47
 90
       50
102
RTVSPost2010PropOp47
 70
     1
102
RTVSPost2010Prop48
 90
       50
102
RTVSPost2010PropOp48
 70
     1
102
RTVSPost2010Prop49
280
     0
102
RTVSPost2010PropOp49
 70
     1
102
RTVSPost2010Prop50
 90
       50
102
RTVSPost2010PropOp50
 70
     1
102
RTVSPost2010Prop51ColorIndex
 90
      256
102
RTVSPost2010Prop51ColorRGB
 90
-16777216
102
RTVSPost2010PropOp51
 70
     0
102
RTVSPost2010Prop52
140
1.0
102
RTVSPost2010PropOp52
 70
     0
102
RTVSPost2010Prop53
 90
        2
102
RTVSPost2010PropOp53
 70
     1
102
RTVSPost2010Prop54
  1
strokes_ogs.tif
102
RTVSPost2010PropOp54
 70
     1
102
RTVSPost2010Prop55
280
     0
102
RTVSPost2010PropOp55
 70
     1
102
RTVSPost2010Prop56
140
1.0
102
RTVSPost2010PropOp56
 70
     1
102
RTVSPost2010Prop57
140
1.0
102
RTVSPost2010PropOp57
 70
     1
102
RTVSPropertyOp0
 70
     1
102
RTVSPropertyOp1
 70
     1
102
RTVSPropertyOp2
 70
     1
102
RTVSPropertyOp3
 70
     1
102
RTVSPropertyOp4
 70
     1
102
RTVSPropertyOp5
 70
     1
102
RTVSPropertyOp6
 70
     1
102
RTVSPropertyOp7
 70
     1
102
RTVSPropertyOp8
 70
     1
102
RTVSPropertyOp9
 70
     1
102
RTVSPropertyOp10
 70
     1
102
RTVSPropertyOp11
 70
     1
102
RTVSPropertyOp12
 70
     1
102
RTVSPropertyOp13
 70
     1
102
RTVSPropertyOp14
 70
     1
102
RTVSPropertyOp15
 70
     1
102
RTVSPropertyOp16
 70
     1
102
RTVSPropertyOp17
 70
     1
102
RTVSPropertyOp18
 70
     1
102
RTVSPropertyOp19
 70
     1
102
RTVSPropertyOp20
 70
     1
102
RTVSPropertyOp21
 70
     1
102
RTVSPropertyOp22
 70
     1
102
RTVSPropertyOp23
 70
     1
102
RTVSPropertyOp24
 70
     1
102
RTVSPropertyOp25
 70
     1
102
RTVSPropertyOp26
 70
     1
102
RTVSPropertyOp27
 70
     1
102
RTVSPropertyOp28
 70
     1
102
RTVSPropertyOp29
 70
     1
102
RTVSPropertyOp30
 70
     1
102
RTVSPropertyOp31
 70
     1
102
RTVSPropertyOp32
 70
     1
102
RTVSPropertyOp33
 70
     1
102
RTVSPropertyOp34
 70
     1
102
RTVSPropertyOp35
 70
     1
102
RTVSPropertyOp36
 70
     1
102
RTVSPropertyOp37
 70
     1
102
RTVSPropertyOp38
 70
     1
102
RTVSPropertyOp39
 70
     1
102
RTVSPropertyOp40
 70
     1
102
RTVSPropertyOp41
 70
     1
102
RTVSPropertyOp42
 70
     1
102
RTVSPropertyOp43
 70
     1
102
RTVSPropertyOp44
 70
     1
102
RTVSPropertyOp45
 70
     1
102
RTVSPropertyOp46
 70
     1
102
RTVSPropertyOp47
 70
     1
102
RTVSPropertyOp48
 70
     1
102
RTVSPropertyOp49
 70
     1
102
RTVSPropertyOp50
 70
     1
102
RTVSPropertyOp51
 70
     0
102
RTVSPropertyOp52
 70
     0
102
RTVSPropertyOp53
 70
     1
102
RTVSPropertyOp54
 70
     1
102
RTVSPropertyOp55
 70
     1
102
RTVSPropertyOp56
 70
     1
102
RTVSPropertyOp57
 70
     1
102
RTVSPropertyOp58
 70
     1
102
RTVSPropertyOp59
 70
     1
102
RTVSPropertyOp60
 70
     1
102
RTVSPropertyOp61
 70
     1
102
RTVSPropertyOp62
 70
     1
  0
XRECORD
  5
1B67
102
{ACAD_REACTORS
330
1B66
102
}
330
1B66
100
AcDbXrecord
280
     1
102
RTVSPost2010Prop28
280
     0
102
RTVSPost2010PropOp28
 70
     1
102
RTVSPost2010Prop29
280
     1
102
RTVSPost2010PropOp29
 70
     1
102
RTVSPost2010Prop30
280
     1
102
RTVSPost2010PropOp30
 70
     1
102
RTVSPost2010Prop31
280
     0
102
RTVSPost2010PropOp31
 70
     1
102
RTVSPost2010Prop32
280
     0
102
RTVSPost2010PropOp32
 70
     1
102
RTVSPost2010Prop33
280
     0
102
RTVSPost2010PropOp33
 70
     1
102
RTVSPost2010Prop34
280
     0
102
RTVSPost2010PropOp34
 70
     1
102
RTVSPost2010Prop35
280
     0
102
RTVSPost2010PropOp35
 70
     1
102
RTVSPost2010Prop36
280
     0
102
RTVSPost2010PropOp36
 70
     1
102
RTVSPost2010Prop37
 90
       50
102
RTVSPost2010PropOp37
 70
     1
102
RTVSPost2010Prop38
140
0.0
102
RTVSPost2010PropOp38
 70
     1
102
RTVSPost2010Prop39
140
1.0
102
RTVSPost2010PropOp39
 70
     1
102
RTVSPost2010Prop40
 90
        0
102
RTVSPost2010PropOp40
 70
     1
102
RTVSPost2010Prop41ColorIndex
 90
       18
102
RTVSPost2010Prop41ColorRGB
 90
        0
102
RTVSPost2010PropOp41
 70
     1
102
RTVSPost2010Prop42
 90
       50
102
RTVSPost2010PropOp42
 70
     1
102
RTVSPost2010Prop43
 90
        3
102
RTVSPost2010PropOp43
 70
     1
102
RTVSPost2010Prop44ColorIndex
 90
        5
102
RTVSPost2010Prop44ColorRGB
 90
      255
102
RTVSPost2010PropOp44
 70
     1
102
RTVSPost2010Prop45
280
     0
102
RTVSPost2010PropOp45
 70
     1
102
RTVSPost2010Prop46
 90
       50
102
RTVSPost2010PropOp46
 70
     1
102
RTVSPost2010Prop47
 90
       50
102
RTVSPost2010PropOp47
 70
     1
102
RTVSPost2010Prop48
 90
       50
102
RTVSPost2010PropOp48
 70
     1
102
RTVSPost2010Prop49
280
     0
102
RTVSPost2010PropOp49
 70
     1
102
RTVSPost2010Prop50
 90
       50
102
RTVSPost2010PropOp50
 70
     1
102
RTVSPost2010Prop51ColorIndex
 90
      256
102
RTVSPost2010Prop51ColorRGB
 90
-16777216
102
RTVSPost2010PropOp51
 70
     0
102
RTVSPost2010Prop52
140
1.0
102
RTVSPost2010PropOp52
 70
     0
102
RTVSPost2010Prop53
 90
        2
102
RTVSPost2010PropOp53
 70
     1
102
RTVSPost2010Prop54
  1
strokes_ogs.tif
102
RTVSPost2010PropOp54
 70
     1
102
RTVSPost2010Prop55
280
     0
102
RTVSPost2010PropOp55
 70
     1
102
RTVSPost2010Prop56
140
1.0
102
RTVSPost2010PropOp56
 70
     1
102
RTVSPost2010Prop57
140
1.0
102
RTVSPost2010PropOp57
 70
     1
102
RTVSPropertyOp0
 70
     1
102
RTVSPropertyOp1
 70
     1
102
RTVSPropertyOp2
 70
     1
102
RTVSPropertyOp3
 70
     1
102
RTVSPropertyOp4
 70
     1
102
RTVSPropertyOp5
 70
     1
102
RTVSPropertyOp6
 70
     1
102
RTVSPropertyOp7
 70
     1
102
RTVSPropertyOp8
 70
     1
102
RTVSPropertyOp9
 70
     1
102
RTVSPropertyOp10
 70
     1
102
RTVSPropertyOp11
 70
     1
102
RTVSPropertyOp12
 70
     1
102
RTVSPropertyOp13
 70
     1
102
RTVSPropertyOp14
 70
     1
102
RTVSPropertyOp15
 70
     1
102
RTVSPropertyOp16
 70
     1
102
RTVSPropertyOp17
 70
     1
102
RTVSPropertyOp18
 70
     1
102
RTVSPropertyOp19
 70
     1
102
RTVSPropertyOp20
 70
     1
102
RTVSPropertyOp21
 70
     1
102
RTVSPropertyOp22
 70
     1
102
RTVSPropertyOp23
 70
     1
102
RTVSPropertyOp24
 70
     1
102
RTVSPropertyOp25
 70
     1
102
RTVSPropertyOp26
 70
     1
102
RTVSPropertyOp27
 70
     1
102
RTVSPropertyOp28
 70
     1
102
RTVSPropertyOp29
 70
     1
102
RTVSPropertyOp30
 70
     1
102
RTVSPropertyOp31
 70
     1
102
RTVSPropertyOp32
 70
     1
102
RTVSPropertyOp33
 70
     1
102
RTVSPropertyOp34
 70
     1
102
RTVSPropertyOp35
 70
     1
102
RTVSPropertyOp36
 70
     1
102
RTVSPropertyOp37
 70
     1
102
RTVSPropertyOp38
 70
     1
102
RTVSPropertyOp39
 70
     1
102
RTVSPropertyOp40
 70
     1
102
RTVSPropertyOp41
 70
     1
102
RTVSPropertyOp42
 70
     1
102
RTVSPropertyOp43
 70
     1
102
RTVSPropertyOp44
 70
     1
102
RTVSPropertyOp45
 70
     1
102
RTVSPropertyOp46
 70
     1
102
RTVSPropertyOp47
 70
     1
102
RTVSPropertyOp48
 70
     1
102
RTVSPropertyOp49
 70
     1
102
RTVSPropertyOp50
 70
     1
102
RTVSPropertyOp51
 70
     0
102
RTVSPropertyOp52
 70
     0
102
RTVSPropertyOp53
 70
     1
102
RTVSPropertyOp54
 70
     1
102
RTVSPropertyOp55
 70
     1
102
RTVSPropertyOp56
 70
     1
102
RTVSPropertyOp57
 70
     1
102
RTVSPropertyOp58
 70
     1
102
RTVSPropertyOp59
 70
     1
102
RTVSPropertyOp60
 70
     1
102
RTVSPropertyOp61
 70
     1
102
RTVSPropertyOp62
 70
     1
  0
XRECORD
  5
1B5D
102
{ACAD_REACTORS
330
1B5C
102
}
330
1B5C
100
AcDbXrecord
280
     1
102
RTVSPost2010Prop28
280
     0
102
RTVSPost2010PropOp28
 70
     1
102
RTVSPost2010Prop29
280
     1
102
RTVSPost2010PropOp29
 70
     1
102
RTVSPost2010Prop30
280
     1
102
RTVSPost2010PropOp30
 70
     1
102
RTVSPost2010Prop31
280
     0
102
RTVSPost2010PropOp31
 70
     1
102
RTVSPost2010Prop32
280
     0
102
RTVSPost2010PropOp32
 70
     1
102
RTVSPost2010Prop33
280
     0
102
RTVSPost2010PropOp33
 70
     1
102
RTVSPost2010Prop34
280
     0
102
RTVSPost2010PropOp34
 70
     1
102
RTVSPost2010Prop35
280
     0
102
RTVSPost2010PropOp35
 70
     1
102
RTVSPost2010Prop36
280
     0
102
RTVSPost2010PropOp36
 70
     1
102
RTVSPost2010Prop37
 90
       50
102
RTVSPost2010PropOp37
 70
     1
102
RTVSPost2010Prop38
140
0.0
102
RTVSPost2010PropOp38
 70
     1
102
RTVSPost2010Prop39
140
1.0
102
RTVSPost2010PropOp39
 70
     1
102
RTVSPost2010Prop40
 90
        0
102
RTVSPost2010PropOp40
 70
     1
102
RTVSPost2010Prop41ColorIndex
 90
       18
102
RTVSPost2010Prop41ColorRGB
 90
        0
102
RTVSPost2010PropOp41
 70
     1
102
RTVSPost2010Prop42
 90
       50
102
RTVSPost2010PropOp42
 70
     1
102
RTVSPost2010Prop43
 90
        3
102
RTVSPost2010PropOp43
 70
     1
102
RTVSPost2010Prop44ColorIndex
 90
        5
102
RTVSPost2010Prop44ColorRGB
 90
      255
102
RTVSPost2010PropOp44
 70
     1
102
RTVSPost2010Prop45
280
     0
102
RTVSPost2010PropOp45
 70
     1
102
RTVSPost2010Prop46
 90
       50
102
RTVSPost2010PropOp46
 70
     1
102
RTVSPost2010Prop47
 90
       50
102
RTVSPost2010PropOp47
 70
     1
102
RTVSPost2010Prop48
 90
       50
102
RTVSPost2010PropOp48
 70
     1
102
RTVSPost2010Prop49
280
     0
102
RTVSPost2010PropOp49
 70
     1
102
RTVSPost2010Prop50
 90
       50
102
RTVSPost2010PropOp50
 70
     1
102
RTVSPost2010Prop51ColorIndex
 90
      256
102
RTVSPost2010Prop51ColorRGB
 90
-16777216
102
RTVSPost2010PropOp51
 70
     0
102
RTVSPost2010Prop52
140
1.0
102
RTVSPost2010PropOp52
 70
     0
102
RTVSPost2010Prop53
 90
        2
102
RTVSPost2010PropOp53
 70
     1
102
RTVSPost2010Prop54
  1
strokes_ogs.tif
102
RTVSPost2010PropOp54
 70
     1
102
RTVSPost2010Prop55
280
     0
102
RTVSPost2010PropOp55
 70
     1
102
RTVSPost2010Prop56
140
1.0
102
RTVSPost2010PropOp56
 70
     1
102
RTVSPost2010Prop57
140
1.0
102
RTVSPost2010PropOp57
 70
     1
102
RTVSPropertyOp0
 70
     1
102
RTVSPropertyOp1
 70
     1
102
RTVSPropertyOp2
 70
     1
102
RTVSPropertyOp3
 70
     1
102
RTVSPropertyOp4
 70
     1
102
RTVSPropertyOp5
 70
     1
102
RTVSPropertyOp6
 70
     1
102
RTVSPropertyOp7
 70
     1
102
RTVSPropertyOp8
 70
     1
102
RTVSPropertyOp9
 70
     1
102
RTVSPropertyOp10
 70
     1
102
RTVSPropertyOp11
 70
     1
102
RTVSPropertyOp12
 70
     1
102
RTVSPropertyOp13
 70
     1
102
RTVSPropertyOp14
 70
     1
102
RTVSPropertyOp15
 70
     1
102
RTVSPropertyOp16
 70
     1
102
RTVSPropertyOp17
 70
     1
102
RTVSPropertyOp18
 70
     1
102
RTVSPropertyOp19
 70
     1
102
RTVSPropertyOp20
 70
     1
102
RTVSPropertyOp21
 70
     1
102
RTVSPropertyOp22
 70
     1
102
RTVSPropertyOp23
 70
     1
102
RTVSPropertyOp24
 70
     1
102
RTVSPropertyOp25
 70
     1
102
RTVSPropertyOp26
 70
     1
102
RTVSPropertyOp27
 70
     1
102
RTVSPropertyOp28
 70
     1
102
RTVSPropertyOp29
 70
     1
102
RTVSPropertyOp30
 70
     1
102
RTVSPropertyOp31
 70
     1
102
RTVSPropertyOp32
 70
     1
102
RTVSPropertyOp33
 70
     1
102
RTVSPropertyOp34
 70
     1
102
RTVSPropertyOp35
 70
     1
102
RTVSPropertyOp36
 70
     1
102
RTVSPropertyOp37
 70
     1
102
RTVSPropertyOp38
 70
     1
102
RTVSPropertyOp39
 70
     1
102
RTVSPropertyOp40
 70
     1
102
RTVSPropertyOp41
 70
     1
102
RTVSPropertyOp42
 70
     1
102
RTVSPropertyOp43
 70
     1
102
RTVSPropertyOp44
 70
     1
102
RTVSPropertyOp45
 70
     1
102
RTVSPropertyOp46
 70
     1
102
RTVSPropertyOp47
 70
     1
102
RTVSPropertyOp48
 70
     1
102
RTVSPropertyOp49
 70
     1
102
RTVSPropertyOp50
 70
     1
102
RTVSPropertyOp51
 70
     0
102
RTVSPropertyOp52
 70
     0
102
RTVSPropertyOp53
 70
     1
102
RTVSPropertyOp54
 70
     1
102
RTVSPropertyOp55
 70
     1
102
RTVSPropertyOp56
 70
     1
102
RTVSPropertyOp57
 70
     1
102
RTVSPropertyOp58
 70
     1
102
RTVSPropertyOp59
 70
     1
102
RTVSPropertyOp60
 70
     1
102
RTVSPropertyOp61
 70
     1
102
RTVSPropertyOp62
 70
     1
  0
XRECORD
  5
1B51
102
{ACAD_REACTORS
330
1B50
102
}
330
1B50
100
AcDbXrecord
280
     1
102
RTVSPost2010Prop28
280
     0
102
RTVSPost2010PropOp28
 70
     1
102
RTVSPost2010Prop29
280
     1
102
RTVSPost2010PropOp29
 70
     1
102
RTVSPost2010Prop30
280
     1
102
RTVSPost2010PropOp30
 70
     1
102
RTVSPost2010Prop31
280
     0
102
RTVSPost2010PropOp31
 70
     1
102
RTVSPost2010Prop32
280
     0
102
RTVSPost2010PropOp32
 70
     1
102
RTVSPost2010Prop33
280
     0
102
RTVSPost2010PropOp33
 70
     1
102
RTVSPost2010Prop34
280
     0
102
RTVSPost2010PropOp34
 70
     1
102
RTVSPost2010Prop35
280
     0
102
RTVSPost2010PropOp35
 70
     1
102
RTVSPost2010Prop36
280
     0
102
RTVSPost2010PropOp36
 70
     1
102
RTVSPost2010Prop37
 90
       50
102
RTVSPost2010PropOp37
 70
     1
102
RTVSPost2010Prop38
140
0.0
102
RTVSPost2010PropOp38
 70
     1
102
RTVSPost2010Prop39
140
1.0
102
RTVSPost2010PropOp39
 70
     1
102
RTVSPost2010Prop40
 90
        0
102
RTVSPost2010PropOp40
 70
     1
102
RTVSPost2010Prop41ColorIndex
 90
       18
102
RTVSPost2010Prop41ColorRGB
 90
        0
102
RTVSPost2010PropOp41
 70
     1
102
RTVSPost2010Prop42
 90
       50
102
RTVSPost2010PropOp42
 70
     1
102
RTVSPost2010Prop43
 90
        3
102
RTVSPost2010PropOp43
 70
     1
102
RTVSPost2010Prop44ColorIndex
 90
        5
102
RTVSPost2010Prop44ColorRGB
 90
      255
102
RTVSPost2010PropOp44
 70
     1
102
RTVSPost2010Prop45
280
     0
102
RTVSPost2010PropOp45
 70
     1
102
RTVSPost2010Prop46
 90
       50
102
RTVSPost2010PropOp46
 70
     1
102
RTVSPost2010Prop47
 90
       50
102
RTVSPost2010PropOp47
 70
     1
102
RTVSPost2010Prop48
 90
       50
102
RTVSPost2010PropOp48
 70
     1
102
RTVSPost2010Prop49
280
     0
102
RTVSPost2010PropOp49
 70
     1
102
RTVSPost2010Prop50
 90
       50
102
RTVSPost2010PropOp50
 70
     1
102
RTVSPost2010Prop51ColorIndex
 90
      256
102
RTVSPost2010Prop51ColorRGB
 90
-16777216
102
RTVSPost2010PropOp51
 70
     0
102
RTVSPost2010Prop52
140
1.0
102
RTVSPost2010PropOp52
 70
     0
102
RTVSPost2010Prop53
 90
        2
102
RTVSPost2010PropOp53
 70
     1
102
RTVSPost2010Prop54
  1
strokes_ogs.tif
102
RTVSPost2010PropOp54
 70
     1
102
RTVSPost2010Prop55
280
     0
102
RTVSPost2010PropOp55
 70
     1
102
RTVSPost2010Prop56
140
1.0
102
RTVSPost2010PropOp56
 70
     1
102
RTVSPost2010Prop57
140
1.0
102
RTVSPost2010PropOp57
 70
     1
102
RTVSPropertyOp0
 70
     1
102
RTVSPropertyOp1
 70
     1
102
RTVSPropertyOp2
 70
     1
102
RTVSPropertyOp3
 70
     1
102
RTVSPropertyOp4
 70
     1
102
RTVSPropertyOp5
 70
     1
102
RTVSPropertyOp6
 70
     1
102
RTVSPropertyOp7
 70
     1
102
RTVSPropertyOp8
 70
     1
102
RTVSPropertyOp9
 70
     1
102
RTVSPropertyOp10
 70
     1
102
RTVSPropertyOp11
 70
     1
102
RTVSPropertyOp12
 70
     1
102
RTVSPropertyOp13
 70
     1
102
RTVSPropertyOp14
 70
     1
102
RTVSPropertyOp15
 70
     1
102
RTVSPropertyOp16
 70
     1
102
RTVSPropertyOp17
 70
     1
102
RTVSPropertyOp18
 70
     1
102
RTVSPropertyOp19
 70
     1
102
RTVSPropertyOp20
 70
     1
102
RTVSPropertyOp21
 70
     1
102
RTVSPropertyOp22
 70
     1
102
RTVSPropertyOp23
 70
     1
102
RTVSPropertyOp24
 70
     1
102
RTVSPropertyOp25
 70
     1
102
RTVSPropertyOp26
 70
     1
102
RTVSPropertyOp27
 70
     1
102
RTVSPropertyOp28
 70
     1
102
RTVSPropertyOp29
 70
     1
102
RTVSPropertyOp30
 70
     1
102
RTVSPropertyOp31
 70
     1
102
RTVSPropertyOp32
 70
     1
102
RTVSPropertyOp33
 70
     1
102
RTVSPropertyOp34
 70
     1
102
RTVSPropertyOp35
 70
     1
102
RTVSPropertyOp36
 70
     1
102
RTVSPropertyOp37
 70
     1
102
RTVSPropertyOp38
 70
     1
102
RTVSPropertyOp39
 70
     1
102
RTVSPropertyOp40
 70
     1
102
RTVSPropertyOp41
 70
     1
102
RTVSPropertyOp42
 70
     1
102
RTVSPropertyOp43
 70
     1
102
RTVSPropertyOp44
 70
     1
102
RTVSPropertyOp45
 70
     1
102
RTVSPropertyOp46
 70
     1
102
RTVSPropertyOp47
 70
     1
102
RTVSPropertyOp48
 70
     1
102
RTVSPropertyOp49
 70
     1
102
RTVSPropertyOp50
 70
     1
102
RTVSPropertyOp51
 70
     0
102
RTVSPropertyOp52
 70
     0
102
RTVSPropertyOp53
 70
     1
102
RTVSPropertyOp54
 70
     1
102
RTVSPropertyOp55
 70
     1
102
RTVSPropertyOp56
 70
     1
102
RTVSPropertyOp57
 70
     1
102
RTVSPropertyOp58
 70
     1
102
RTVSPropertyOp59
 70
     1
102
RTVSPropertyOp60
 70
     1
102
RTVSPropertyOp61
 70
     1
102
RTVSPropertyOp62
 70
     1
  0
XRECORD
  5
1B69
102
{ACAD_REACTORS
330
1B68
102
}
330
1B68
100
AcDbXrecord
280
     1
102
RTVSPost2010Prop28
280
     0
102
RTVSPost2010PropOp28
 70
     1
102
RTVSPost2010Prop29
280
     1
102
RTVSPost2010PropOp29
 70
     1
102
RTVSPost2010Prop30
280
     1
102
RTVSPost2010PropOp30
 70
     1
102
RTVSPost2010Prop31
280
     0
102
RTVSPost2010PropOp31
 70
     1
102
RTVSPost2010Prop32
280
     0
102
RTVSPost2010PropOp32
 70
     1
102
RTVSPost2010Prop33
280
     0
102
RTVSPost2010PropOp33
 70
     1
102
RTVSPost2010Prop34
280
     0
102
RTVSPost2010PropOp34
 70
     1
102
RTVSPost2010Prop35
280
     0
102
RTVSPost2010PropOp35
 70
     1
102
RTVSPost2010Prop36
280
     0
102
RTVSPost2010PropOp36
 70
     1
102
RTVSPost2010Prop37
 90
       50
102
RTVSPost2010PropOp37
 70
     1
102
RTVSPost2010Prop38
140
0.0
102
RTVSPost2010PropOp38
 70
     1
102
RTVSPost2010Prop39
140
1.0
102
RTVSPost2010PropOp39
 70
     1
102
RTVSPost2010Prop40
 90
        0
102
RTVSPost2010PropOp40
 70
     1
102
RTVSPost2010Prop41ColorIndex
 90
       18
102
RTVSPost2010Prop41ColorRGB
 90
        0
102
RTVSPost2010PropOp41
 70
     1
102
RTVSPost2010Prop42
 90
       50
102
RTVSPost2010PropOp42
 70
     1
102
RTVSPost2010Prop43
 90
        3
102
RTVSPost2010PropOp43
 70
     1
102
RTVSPost2010Prop44ColorIndex
 90
        5
102
RTVSPost2010Prop44ColorRGB
 90
      255
102
RTVSPost2010PropOp44
 70
     1
102
RTVSPost2010Prop45
280
     0
102
RTVSPost2010PropOp45
 70
     1
102
RTVSPost2010Prop46
 90
       50
102
RTVSPost2010PropOp46
 70
     1
102
RTVSPost2010Prop47
 90
       50
102
RTVSPost2010PropOp47
 70
     1
102
RTVSPost2010Prop48
 90
       50
102
RTVSPost2010PropOp48
 70
     1
102
RTVSPost2010Prop49
280
     0
102
RTVSPost2010PropOp49
 70
     1
102
RTVSPost2010Prop50
 90
       50
102
RTVSPost2010PropOp50
 70
     1
102
RTVSPost2010Prop51ColorIndex
 90
      256
102
RTVSPost2010Prop51ColorRGB
 90
-16777216
102
RTVSPost2010PropOp51
 70
     0
102
RTVSPost2010Prop52
140
1.0
102
RTVSPost2010PropOp52
 70
     0
102
RTVSPost2010Prop53
 90
        2
102
RTVSPost2010PropOp53
 70
     1
102
RTVSPost2010Prop54
  1
strokes_ogs.tif
102
RTVSPost2010PropOp54
 70
     1
102
RTVSPost2010Prop55
280
     0
102
RTVSPost2010PropOp55
 70
     1
102
RTVSPost2010Prop56
140
1.0
102
RTVSPost2010PropOp56
 70
     1
102
RTVSPost2010Prop57
140
1.0
102
RTVSPost2010PropOp57
 70
     1
102
RTVSPropertyOp0
 70
     1
102
RTVSPropertyOp1
 70
     1
102
RTVSPropertyOp2
 70
     1
102
RTVSPropertyOp3
 70
     1
102
RTVSPropertyOp4
 70
     1
102
RTVSPropertyOp5
 70
     1
102
RTVSPropertyOp6
 70
     1
102
RTVSPropertyOp7
 70
     1
102
RTVSPropertyOp8
 70
     1
102
RTVSPropertyOp9
 70
     1
102
RTVSPropertyOp10
 70
     1
102
RTVSPropertyOp11
 70
     1
102
RTVSPropertyOp12
 70
     1
102
RTVSPropertyOp13
 70
     1
102
RTVSPropertyOp14
 70
     1
102
RTVSPropertyOp15
 70
     1
102
RTVSPropertyOp16
 70
     1
102
RTVSPropertyOp17
 70
     1
102
RTVSPropertyOp18
 70
     1
102
RTVSPropertyOp19
 70
     1
102
RTVSPropertyOp20
 70
     1
102
RTVSPropertyOp21
 70
     1
102
RTVSPropertyOp22
 70
     1
102
RTVSPropertyOp23
 70
     1
102
RTVSPropertyOp24
 70
     1
102
RTVSPropertyOp25
 70
     1
102
RTVSPropertyOp26
 70
     1
102
RTVSPropertyOp27
 70
     1
102
RTVSPropertyOp28
 70
     1
102
RTVSPropertyOp29
 70
     1
102
RTVSPropertyOp30
 70
     1
102
RTVSPropertyOp31
 70
     1
102
RTVSPropertyOp32
 70
     1
102
RTVSPropertyOp33
 70
     1
102
RTVSPropertyOp34
 70
     1
102
RTVSPropertyOp35
 70
     1
102
RTVSPropertyOp36
 70
     1
102
RTVSPropertyOp37
 70
     1
102
RTVSPropertyOp38
 70
     1
102
RTVSPropertyOp39
 70
     1
102
RTVSPropertyOp40
 70
     1
102
RTVSPropertyOp41
 70
     1
102
RTVSPropertyOp42
 70
     1
102
RTVSPropertyOp43
 70
     1
102
RTVSPropertyOp44
 70
     1
102
RTVSPropertyOp45
 70
     1
102
RTVSPropertyOp46
 70
     1
102
RTVSPropertyOp47
 70
     1
102
RTVSPropertyOp48
 70
     1
102
RTVSPropertyOp49
 70
     1
102
RTVSPropertyOp50
 70
     1
102
RTVSPropertyOp51
 70
     0
102
RTVSPropertyOp52
 70
     0
102
RTVSPropertyOp53
 70
     1
102
RTVSPropertyOp54
 70
     1
102
RTVSPropertyOp55
 70
     1
102
RTVSPropertyOp56
 70
     1
102
RTVSPropertyOp57
 70
     1
102
RTVSPropertyOp58
 70
     1
102
RTVSPropertyOp59
 70
     1
102
RTVSPropertyOp60
 70
     1
102
RTVSPropertyOp61
 70
     1
102
RTVSPropertyOp62
 70
     1
  0
ENDSEC
  0
EOF
