  0
SECTION
  2
HEADER
  9
$ACADVER
  1
AC1015
  9
$ACADMAINTVER
 70
    20
  9
$DWGCODEPAGE
  3
ANSI_1252
  9
$INSBASE
 10
0.0
 20
0.0
 30
0.0
  9
$EXTMIN
 10
1601.770183529998
 20
0.0
 30
0.0
  9
$EXTMAX
 10
2388.003435644243
 20
549.5401534360328
 30
0.0
  9
$LIMMIN
 10
0.0
 20
0.0
  9
$LIMMAX
 10
12.0
 20
9.0
  9
$ORTHOMODE
 70
     1
  9
$REGENMODE
 70
     1
  9
$FILLMODE
 70
     1
  9
$QTEXTMODE
 70
     0
  9
$MIRRTEXT
 70
     0
  9
$LTSCALE
 40
1.0
  9
$ATTMODE
 70
     1
  9
$TEXTSIZE
 40
0.2
  9
$TRACEWID
 40
0.05
  9
$TEXTSTYLE
  7
Standard
  9
$CLAYER
  8
0
  9
$CELTYPE
  6
ByLayer
  9
$CECOLOR
 62
   256
  9
$CELTSCALE
 40
1.0
  9
$DISPSILH
 70
     0
  9
$DIMSCALE
 40
24.0
  9
$DIMASZ
 40
0.18
  9
$DIMEXO
 40
0.0625
  9
$DIMDLI
 40
0.38
  9
$DIMRND
 40
0.0
  9
$DIMDLE
 40
0.0
  9
$DIMEXE
 40
0.18
  9
$DIMTP
 40
0.0
  9
$DIMTM
 40
0.0
  9
$DIMTXT
 40
0.18
  9
$DIMCEN
 40
0.09
  9
$DIMTSZ
 40
0.0
  9
$DIMTOL
 70
     0
  9
$DIMLIM
 70
     0
  9
$DIMTIH
 70
     1
  9
$DIMTOH
 70
     1
  9
$DIMSE1
 70
     0
  9
$DIMSE2
 70
     0
  9
$DIMTAD
 70
     0
  9
$DIMZIN
 70
     0
  9
$DIMBLK
  1

  9
$DIMASO
 70
     1
  9
$DIMSHO
 70
     1
  9
$DIMPOST
  1

  9
$DIMAPOST
  1

  9
$DIMALT
 70
     0
  9
$DIMALTD
 70
     2
  9
$DIMALTF
 40
25.4
  9
$DIMLFAC
 40
1.0
  9
$DIMTOFL
 70
     0
  9
$DIMTVP
 40
0.0
  9
$DIMTIX
 70
     0
  9
$DIMSOXD
 70
     0
  9
$DIMSAH
 70
     0
  9
$DIMBLK1
  1

  9
$DIMBLK2
  1

  9
$DIMSTYLE
  2
Standard
  9
$DIMCLRD
 70
     0
  9
$DIMCLRE
 70
     0
  9
$DIMCLRT
 70
     0
  9
$DIMTFAC
 40
1.0
  9
$DIMGAP
 40
0.09
  9
$DIMJUST
 70
     0
  9
$DIMSD1
 70
     0
  9
$DIMSD2
 70
     0
  9
$DIMTOLJ
 70
     1
  9
$DIMTZIN
 70
     0
  9
$DIMALTZ
 70
     0
  9
$DIMALTTZ
 70
     0
  9
$DIMUPT
 70
     0
  9
$DIMDEC
 70
     3
  9
$DIMTDEC
 70
     3
  9
$DIMALTU
 70
     4
  9
$DIMALTTD
 70
     2
  9
$DIMTXSTY
  7
Standard
  9
$DIMAUNIT
 70
     0
  9
$DIMADEC
 70
     0
  9
$DIMALTRND
 40
0.0
  9
$DIMAZIN
 70
     0
  9
$DIMDSEP
 70
    46
  9
$DIMATFIT
 70
     3
  9
$DIMFRAC
 70
     1
  9
$DIMLDRBLK
  1

  9
$DIMLUNIT
 70
     5
  9
$DIMLWD
 70
    -2
  9
$DIMLWE
 70
    -2
  9
$DIMTMOVE
 70
     0
  9
$LUNITS
 70
     4
  9
$LUPREC
 70
     4
  9
$SKETCHINC
 40
0.1
  9
$FILLETRAD
 40
0.0
  9
$AUNITS
 70
     0
  9
$AUPREC
 70
     0
  9
$MENU
  1
.
  9
$ELEVATION
 40
0.0
  9
$PELEVATION
 40
0.0
  9
$THICKNESS
 40
0.0
  9
$LIMCHECK
 70
     0
  9
$CHAMFERA
 40
0.0
  9
$CHAMFERB
 40
0.0
  9
$CHAMFERC
 40
0.0
  9
$CHAMFERD
 40
0.0
  9
$SKPOLY
 70
     0
  9
$TDCREATE
 40
2457120.750518936
  9
$TDUCREATE
 40
2457120.917185602
  9
$TDUPDATE
 40
2457210.707631285
  9
$TDUUPDATE
 40
2457210.874297952
  9
$TDINDWG
 40
0.0083271065
  9
$TDUSRTIMER
 40
0.0083268981
  9
$USRTIMER
 70
     1
  9
$ANGBASE
 50
0.0
  9
$ANGDIR
 70
     0
  9
$PDMODE
 70
     0
  9
$PDSIZE
 40
0.0
  9
$PLINEWID
 40
0.0
  9
$SPLFRAME
 70
     0
  9
$SPLINETYPE
 70
     6
  9
$SPLINESEGS
 70
     8
  9
$HANDSEED
  5
9CC
  9
$SURFTAB1
 70
     6
  9
$SURFTAB2
 70
     6
  9
$SURFTYPE
 70
     6
  9
$SURFU
 70
     6
  9
$SURFV
 70
     6
  9
$UCSBASE
  2

  9
$UCSNAME
  2

  9
$UCSORG
 10
0.0
 20
0.0
 30
0.0
  9
$UCSXDIR
 10
1.0
 20
0.0
 30
0.0
  9
$UCSYDIR
 10
0.0
 20
1.0
 30
0.0
  9
$UCSORTHOREF
  2

  9
$UCSORTHOVIEW
 70
     0
  9
$UCSORGTOP
 10
0.0
 20
0.0
 30
0.0
  9
$UCSORGBOTTOM
 10
0.0
 20
0.0
 30
0.0
  9
$UCSORGLEFT
 10
0.0
 20
0.0
 30
0.0
  9
$UCSORGRIGHT
 10
0.0
 20
0.0
 30
0.0
  9
$UCSORGFRONT
 10
0.0
 20
0.0
 30
0.0
  9
$UCSORGBACK
 10
0.0
 20
0.0
 30
0.0
  9
$PUCSBASE
  2

  9
$PUCSNAME
  2

  9
$PUCSORG
 10
0.0
 20
0.0
 30
0.0
  9
$PUCSXDIR
 10
1.0
 20
0.0
 30
0.0
  9
$PUCSYDIR
 10
0.0
 20
1.0
 30
0.0
  9
$PUCSORTHOREF
  2

  9
$PUCSORTHOVIEW
 70
     0
  9
$PUCSORGTOP
 10
0.0
 20
0.0
 30
0.0
  9
$PUCSORGBOTTOM
 10
0.0
 20
0.0
 30
0.0
  9
$PUCSORGLEFT
 10
0.0
 20
0.0
 30
0.0
  9
$PUCSORGRIGHT
 10
0.0
 20
0.0
 30
0.0
  9
$PUCSORGFRONT
 10
0.0
 20
0.0
 30
0.0
  9
$PUCSORGBACK
 10
0.0
 20
0.0
 30
0.0
  9
$USERI1
 70
     0
  9
$USERI2
 70
     0
  9
$USERI3
 70
     0
  9
$USERI4
 70
     0
  9
$USERI5
 70
     0
  9
$USERR1
 40
0.0
  9
$USERR2
 40
0.0
  9
$USERR3
 40
0.0
  9
$USERR4
 40
0.0
  9
$USERR5
 40
0.0
  9
$WORLDVIEW
 70
     1
  9
$SHADEDGE
 70
     3
  9
$SHADEDIF
 70
    70
  9
$TILEMODE
 70
     1
  9
$MAXACTVP
 70
    64
  9
$PINSBASE
 10
0.0
 20
0.0
 30
0.0
  9
$PLIMCHECK
 70
     0
  9
$PEXTMIN
 10
1.000000000000000E+20
 20
1.000000000000000E+20
 30
1.000000000000000E+20
  9
$PEXTMAX
 10
-1.000000000000000E+20
 20
-1.000000000000000E+20
 30
-1.000000000000000E+20
  9
$PLIMMIN
 10
457.0559704444398
 20
-936.3798351776614
  9
$PLIMMAX
 10
3103.405920651643
 20
1108.526931389329
  9
$UNITMODE
 70
     0
  9
$VISRETAIN
 70
     1
  9
$PLINEGEN
 70
     0
  9
$PSLTSCALE
 70
     1
  9
$TREEDEPTH
 70
  3020
  9
$CMLSTYLE
  2
Standard
  9
$CMLJUST
 70
     0
  9
$CMLSCALE
 40
1.0
  9
$PROXYGRAPHICS
 70
     1
  9
$MEASUREMENT
 70
     0
  9
$CELWEIGHT
370
    -1
  9
$ENDCAPS
280
     0
  9
$JOINSTYLE
280
     0
  9
$LWDISPLAY
290
     0
  9
$INSUNITS
 70
     1
  9
$HYPERLINKBASE
  1

  9
$STYLESHEET
  1

  9
$XEDIT
290
     1
  9
$CEPSNTYPE
380
     0
  9
$PSTYLEMODE
290
     1
  9
$FINGERPRINTGUID
  2
{7B473454-34B4-4CCF-B45E-EE6A615E563A}
  9
$VERSIONGUID
  2
{9CFDAA49-CEB0-4B8E-B15F-222D260DAB97}
  9
$EXTNAMES
290
     1
  9
$PSVPSCALE
 40
0.0
  9
$OLESTARTUP
290
     0
  0
ENDSEC
  0
SECTION
  2
CLASSES
  0
CLASS
  1
ACDBDICTIONARYWDFLT
  2
AcDbDictionaryWithDefault
  3
ObjectDBX Classes
 90
        0
280
     0
281
     0
  0
CLASS
  1
MATERIAL
  2
AcDbMaterial
  3
ObjectDBX Classes
 90
     1153
280
     0
281
     0
  0
CLASS
  1
VISUALSTYLE
  2
AcDbVisualStyle
  3
ObjectDBX Classes
 90
     4095
280
     0
281
     0
  0
CLASS
  1
SCALE
  2
AcDbScale
  3
ObjectDBX Classes
 90
     1153
280
     0
281
     0
  0
CLASS
  1
TABLESTYLE
  2
AcDbTableStyle
  3
ObjectDBX Classes
 90
     4095
280
     0
281
     0
  0
CLASS
  1
MLEADERSTYLE
  2
AcDbMLeaderStyle
  3
ACDB_MLEADERSTYLE_CLASS
 90
     4095
280
     0
281
     0
  0
CLASS
  1
ACDBSECTIONVIEWSTYLE
  2
AcDbSectionViewStyle
  3
ObjectDBX Classes
 90
     1025
280
     0
281
     0
  0
CLASS
  1
ACDBDETAILVIEWSTYLE
  2
AcDbDetailViewStyle
  3
ObjectDBX Classes
 90
     1025
280
     0
281
     0
  0
CLASS
  1
RASTERVARIABLES
  2
AcDbRasterVariables
  3
ISM
 90
        0
280
     0
281
     0
  0
CLASS
  1
DICTIONARYVAR
  2
AcDbDictionaryVar
  3
ObjectDBX Classes
 90
        0
280
     0
281
     0
  0
CLASS
  1
CELLSTYLEMAP
  2
AcDbCellStyleMap
  3
ObjectDBX Classes
 90
     1152
280
     0
281
     0
  0
CLASS
  1
SORTENTSTABLE
  2
AcDbSortentsTable
  3
ObjectDBX Classes
 90
        0
280
     0
281
     0
  0
CLASS
  1
SUN
  2
AcDbSun
  3
SCENEOE
 90
    33921
280
     0
281
     0
  0
CLASS
  1
EXACXREFPANELOBJECT
  2
ExAcXREFPanelObject
  3
EXAC_ESW
 90
     1025
280
     0
281
     0
  0
CLASS
  1
NPOCOLLECTION
  2
AcDbImpNonPersistentObjectsCollection
  3
ObjectDBX Classes
 90
     1153
280
     0
281
     0
  0
CLASS
  1
DIMASSOC
  2
AcDbDimAssoc
  3
"AcDbDimAssoc|Product Desc:     AcDim ARX App For Dimension|Company:          Autodesk, Inc.|WEB Address:      www.autodesk.com"
 90
    32768
280
     0
281
     0
  0
CLASS
  1
ACDBPLACEHOLDER
  2
AcDbPlaceHolder
  3
ObjectDBX Classes
 90
        0
280
     0
281
     0
  0
CLASS
  1
LAYOUT
  2
AcDbLayout
  3
ObjectDBX Classes
 90
        0
280
     0
281
     0
  0
ENDSEC
  0
SECTION
  2
TABLES
  0
TABLE
  2
VPORT
  5
8
330
0
100
AcDbSymbolTable
 70
     1
  0
VPORT
  5
57
330
8
100
AcDbSymbolTableRecord
100
AcDbViewportTableRecord
  2
*Active
 70
     0
 10
0.0
 20
0.0
 11
1.0
 21
1.0
 12
2072.640782270233
 22
263.5913544912975
 13
0.0
 23
0.0
 14
1.0
 24
1.0
 15
0.0
 25
0.0
 16
0.0
 26
0.0
 36
1.0
 17
0.0
 27
0.0
 37
0.0
 40
823.6330698727726
 41
1.644329896907216
 42
50.0
 43
0.0
 44
0.0
 50
0.0
 51
0.0
 71
     0
 72
  1000
 73
     1
 74
     1
 75
     0
 76
     0
 77
     0
 78
     0
281
     0
 65
     1
110
0.0
120
0.0
130
0.0
111
1.0
121
0.0
131
0.0
112
0.0
122
1.0
132
0.0
 79
     0
146
0.0
1001
ACAD_NAV_VCDISPLAY
1070
     3
  0
ENDTAB
  0
TABLE
  2
LTYPE
  5
5
330
0
100
AcDbSymbolTable
 70
     3
  0
LTYPE
  5
5B
330
5
100
AcDbSymbolTableRecord
100
AcDbLinetypeTableRecord
  2
ByBlock
 70
     0
  3

 72
    65
 73
     0
 40
0.0
  0
LTYPE
  5
5C
330
5
100
AcDbSymbolTableRecord
100
AcDbLinetypeTableRecord
  2
ByLayer
 70
     0
  3

 72
    65
 73
     0
 40
0.0
  0
LTYPE
  5
5D
330
5
100
AcDbSymbolTableRecord
100
AcDbLinetypeTableRecord
  2
Continuous
 70
     0
  3
Solid line
 72
    65
 73
     0
 40
0.0
  0
LTYPE
  5
69
330
5
100
AcDbSymbolTableRecord
100
AcDbLinetypeTableRecord
  2
PHANTOM2
 70
     0
  3
___ _ _ ___ _ _ ___ _ _ ___ _ _
 72
    65
 73
     6
 40
1.25
 49
0.625
 74
     0
 49
-0.125
 74
     0
 49
0.125
 74
     0
 49
-0.125
 74
     0
 49
0.125
 74
     0
 49
-0.125
 74
     0
  0
ENDTAB
  0
TABLE
  2
LAYER
  5
2
102
{ACAD_XDICTIONARY
360
3DE
102
}
330
0
100
AcDbSymbolTable
 70
     2
  0
LAYER
  5
54
330
2
100
AcDbSymbolTableRecord
100
AcDbLayerTableRecord
  2
0
 70
     0
 62
     7
  6
Continuous
370
    -3
390
F
  0
LAYER
  5
318
330
2
100
AcDbSymbolTableRecord
100
AcDbLayerTableRecord
  2
Defpoints
 70
     0
 62
     7
  6
Continuous
290
     0
370
    -3
390
F
  0
ENDTAB
  0
TABLE
  2
STYLE
  5
3
330
0
100
AcDbSymbolTable
 70
     1
  0
STYLE
  5
55
330
3
100
AcDbSymbolTableRecord
100
AcDbTextStyleTableRecord
  2
Standard
 70
     0
 40
0.0
 41
1.0
 50
0.0
 71
     0
 42
0.2
  3
txt
  4

  0
ENDTAB
  0
TABLE
  2
VIEW
  5
6
330
0
100
AcDbSymbolTable
 70
     0
  0
ENDTAB
  0
TABLE
  2
UCS
  5
7
330
0
100
AcDbSymbolTable
 70
     0
  0
ENDTAB
  0
TABLE
  2
APPID
  5
9
330
0
100
AcDbSymbolTable
 70
    11
  0
APPID
  5
56
330
9
100
AcDbSymbolTableRecord
100
AcDbRegAppTableRecord
  2
ACAD
 70
     0
  0
APPID
  5
5E
330
9
100
AcDbSymbolTableRecord
100
AcDbRegAppTableRecord
  2
AcadAnnotative
 70
     0
  0
APPID
  5
79
330
9
100
AcDbSymbolTableRecord
100
AcDbRegAppTableRecord
  2
REVIT
 70
     0
  0
APPID
  5
3D7
330
9
100
AcDbSymbolTableRecord
100
AcDbRegAppTableRecord
  2
ACAD_PSEXT
 70
     0
  0
APPID
  5
5B6
330
9
100
AcDbSymbolTableRecord
100
AcDbRegAppTableRecord
  2
ACAD_EXEMPT_FROM_CAD_STANDARDS
 70
     0
  0
APPID
  5
5C1
330
9
100
AcDbSymbolTableRecord
100
AcDbRegAppTableRecord
  2
ACAD_NAV_VCDISPLAY
 70
     0
  0
APPID
  5
691
330
9
100
AcDbSymbolTableRecord
100
AcDbRegAppTableRecord
  2
GradientColor1ACI
 70
     0
  0
APPID
  5
692
330
9
100
AcDbSymbolTableRecord
100
AcDbRegAppTableRecord
  2
GradientColor2ACI
 70
     0
  0
APPID
  5
694
330
9
100
AcDbSymbolTableRecord
100
AcDbRegAppTableRecord
  2
ACAD_DSTYLE_DIMJAG
 70
     0
  0
APPID
  5
695
330
9
100
AcDbSymbolTableRecord
100
AcDbRegAppTableRecord
  2
ACAD_DSTYLE_DIMTALN
 70
     0
  0
APPID
  5
731
330
9
100
AcDbSymbolTableRecord
100
AcDbRegAppTableRecord
  2
ACAD_MLEADERVER
 70
     0
  0
ENDTAB
  0
TABLE
  2
DIMSTYLE
  5
A
330
0
100
AcDbSymbolTable
 70
     2
100
AcDbDimStyleTable
 71
     1
340
58
  0
DIMSTYLE
105
58
330
A
100
AcDbSymbolTableRecord
100
AcDbDimStyleTableRecord
  2
Standard
 70
     0
340
55
  0
ENDTAB
  0
TABLE
  2
BLOCK_RECORD
  5
1
330
0
100
AcDbSymbolTable
 70
     1
  0
BLOCK_RECORD
  5
71
102
{ACAD_XDICTIONARY
360
3C5
102
}
330
1
100
AcDbSymbolTableRecord
100
AcDbBlockTableRecord
  2
*Model_Space
340
74
  0
BLOCK_RECORD
  5
6D
330
1
100
AcDbSymbolTableRecord
100
AcDbBlockTableRecord
  2
*Paper_Space
340
70
  0
ENDTAB
  0
ENDSEC
  0
SECTION
  2
BLOCKS
  0
BLOCK
  5
72
330
71
100
AcDbEntity
  8
0
100
AcDbBlockBegin
  2
*Model_Space
 70
     0
 10
0.0
 20
0.0
 30
0.0
  3
*Model_Space
  1

  0
ENDBLK
  5
73
330
71
100
AcDbEntity
  8
0
100
AcDbBlockEnd
  0
BLOCK
  5
6E
330
6D
100
AcDbEntity
 67
     1
  8
0
100
AcDbBlockBegin
  2
*Paper_Space
 70
     0
 10
0.0
 20
0.0
 30
0.0
  3
*Paper_Space
  1

  0
ENDBLK
  5
6F
330
6D
100
AcDbEntity
 67
     1
  8
0
100
AcDbBlockEnd
  0
ENDSEC
  0
SECTION
  2
ENTITIES
  0
LINE
  5
40F
330
71
100
AcDbEntity
  8
0
100
AcDbLine
 10
2114.53833293448
 20
452.8348351414797
 30
0.0
 11
2119.53833293448
 21
452.8348351414797
 31
0.0
  0
LINE
  5
410
330
71
100
AcDbEntity
  8
0
100
AcDbLine
 10
2119.53833293448
 20
457.8348351414797
 30
0.0
 11
2114.53833293448
 21
457.8348351414797
 31
0.0
  0
LWPOLYLINE
  5
411
330
71
100
AcDbEntity
  8
0
100
AcDbPolyline
 90
       41
 70
   128
 43
0.0
 10
2119.53833293448
 20
452.8348351414797
 10
2119.698290271226
 20
452.8348351414797
 10
2119.857991710358
 20
452.8348351414797
 10
2120.017181763635
 20
452.8348351414797
 10
2120.175605760938
 20
452.8348351414797
 10
2120.33301025766
 20
452.8348351414797
 10
2120.48914344019
 20
452.8348351414797
 10
2120.643755528737
 20
452.8348351414797
 10
2120.796599176944
 20
452.8348351414797
 10
2120.947429867582
 20
452.8348351414797
 10
2121.096006303716
 20
452.8348351414797
 10
2121.242090794744
 20
452.8348351414797
 10
2121.385449636647
 20
452.8348351414797
 10
2121.525853485856
 20
452.8348351414797
 10
2121.663077726164
 20
452.8348351414797
 10
2121.79690282806
 20
452.8348351414797
 10
2121.927114699931
 20
452.8348351414797
 10
2122.053505030554
 20
452.8348351414797
 10
2122.175871622367
 20
452.8348351414797
 10
2122.294018714923
 20
452.8348351414797
 10
2122.40775729808
 20
452.8348351414797
 10
2122.516905414363
 20
452.8348351414797
 10
2122.621288450076
 20
452.8348351414797
 10
2122.720739414627
 20
452.8348351414797
 10
2122.815099207684
 20
452.8348351414797
 10
2122.904216873712
 20
452.8348351414797
 10
2122.987949843455
 20
452.8348351414797
 10
2123.066164162021
 20
452.8348351414797
 10
2123.138734703188
 20
452.8348351414797
 10
2123.205545369568
 20
452.8348351414797
 10
2123.26648927835
 20
452.8348351414797
 10
2123.32146893228
 20
452.8348351414797
 10
2123.370396375638
 20
452.8348351414797
 10
2123.413193334954
 20
452.8348351414797
 10
2123.449791344223
 20
452.8348351414797
 10
2123.480131854434
 20
452.8348351414797
 10
2123.504166327249
 20
452.8348351414797
 10
2123.521856312632
 20
452.8348351414797
 10
2123.533173510384
 20
452.8348351414797
 10
2123.538099815401
 20
452.8348351414797
 10
2123.538332934481
 20
452.8348351414797
  0
LWPOLYLINE
  5
412
330
71
100
AcDbEntity
  8
0
100
AcDbPolyline
 90
       41
 70
   128
 43
0.0
 10
2123.538332934481
 20
457.8348351414797
 10
2123.535133361125
 20
457.8348351414797
 10
2123.525539759692
 20
457.8348351414797
 10
2123.509567477897
 20
457.8348351414797
 10
2123.487242067984
 20
457.8348351414797
 10
2123.458599245847
 20
457.8348351414797
 10
2123.423684833889
 20
457.8348351414797
 10
2123.382554687724
 20
457.8348351414797
 10
2123.335274606811
 20
457.8348351414797
 10
2123.281920229192
 20
457.8348351414797
 10
2123.222576910492
 20
457.8348351414797
 10
2123.15733958736
 20
457.8348351414797
 10
2123.086312625599
 20
457.8348351414797
 10
2123.009609653192
 20
457.8348351414797
 10
2122.927353378535
 20
457.8348351414797
 10
2122.83967539412
 20
457.8348351414797
 10
2122.746715966017
 20
457.8348351414797
 10
2122.648623809485
 20
457.8348351414797
 10
2122.545555851045
 20
457.8348351414797
 10
2122.437676977444
 20
457.8348351414797
 10
2122.32515977187
 20
457.8348351414797
 10
2122.208184237846
 20
457.8348351414797
 10
2122.086937511275
 20
457.8348351414797
 10
2121.961613561055
 20
457.8348351414797
 10
2121.832412878771
 20
457.8348351414797
 10
2121.699542157954
 20
457.8348351414797
 10
2121.563213963412
 20
457.8348351414797
 10
2121.423646391176
 20
457.8348351414797
 10
2121.281062719588
 20
457.8348351414797
 10
2121.135691052105
 20
457.8348351414797
 10
2120.987763952387
 20
457.8348351414797
 10
2120.837518072236
 20
457.8348351414797
 10
2120.685193773008
 20
457.8348351414797
 10
2120.531034741091
 20
457.8348351414797
 10
2120.375287598045
 20
457.8348351414797
 10
2120.218201506082
 20
457.8348351414797
 10
2120.060027769434
 20
457.8348351414797
 10
2119.901019432338
 20
457.8348351414797
 10
2119.741430874215
 20
457.8348351414797
 10
2119.581517402714
 20
457.8348351414797
 10
2119.53833293448
 20
457.8348351414797
  0
LINE
  5
413
330
71
100
AcDbEntity
  8
0
100
AcDbLine
 10
2140.538332934481
 20
431.984835141482
 30
0.0
 11
2135.53833293448
 21
431.984835141482
 31
0.0
  0
LINE
  5
414
330
71
100
AcDbEntity
  8
0
100
AcDbLine
 10
2135.53833293448
 20
431.984835141482
 30
0.0
 11
2135.53833293448
 21
427.597644910772
 31
0.0
  0
LINE
  5
415
330
71
100
AcDbEntity
  8
0
100
AcDbLine
 10
2140.538332934481
 20
427.597644910772
 30
0.0
 11
2140.538332934481
 21
431.984835141482
 31
0.0
  0
LINE
  5
416
330
71
100
AcDbEntity
  8
0
100
AcDbLine
 10
2121.03833293448
 20
424.584835141483
 30
0.0
 11
2114.538332934483
 21
424.584835141483
 31
0.0
  0
LINE
  5
417
330
71
100
AcDbEntity
  8
0
100
AcDbLine
 10
2126.038332934481
 20
418.1848351414807
 30
0.0
 11
2127.78833293448
 21
418.1848351414807
 31
0.0
  0
LINE
  5
418
330
71
100
AcDbEntity
  8
0
100
AcDbLine
 10
2127.78833293448
 20
426.9848351414828
 30
0.0
 11
2126.038332934481
 21
426.9848351414828
 31
0.0
  0
LWPOLYLINE
  5
419
330
71
100
AcDbEntity
  8
0
100
AcDbPolyline
 90
       41
 70
   128
 43
0.0
 10
2128.53833293448
 20
417.1848351414808
 10
2128.508340933841
 20
417.1854350614852
 10
2128.478396914004
 20
417.1872338617538
 10
2128.448548779013
 20
417.1902286645905
 10
2128.418844279519
 20
417.1944146789488
 10
2128.389330936384
 20
417.1997852080997
 10
2128.360055964661
 20
417.2063316603417
 10
2128.331066198057
 20
417.2140435627476
 10
2128.302408014019
 20
417.2229085779191
 10
2128.274127259525
 20
417.2329125237224
 10
2128.246269177749
 20
417.2440393959788
 10
2128.218878335681
 20
417.2562713940656
 10
2128.191998552825
 20
417.2695889493962
 10
2128.165672831099
 20
417.2839707567227
 10
2128.13994328604
 20
417.2993938082209
 10
2128.114851079434
 20
417.3158334302986
 10
2128.090436353458
 20
417.3332633230677
 10
2128.066738166467
 20
417.3516556024177
 10
2128.043794430502
 20
417.370980844625
 10
2128.021641850648
 20
417.3912081334251
 10
2128.000315866306
 20
417.4123051094705
 10
2127.979850594503
 20
417.4342380220998
 10
2127.960278775307
 20
417.4569717833319
 10
2127.941631719454
 20
417.4804700239984
 10
2127.923939258255
 20
417.5046951519265
 10
2127.907229695875
 20
417.5296084120796
 10
2127.891529764048
 20
417.5551699485563
 10
2127.876864579317
 20
417.5813388683505
 10
2127.863257602848
 20
417.6080733067733
 10
2127.850730602901
 20
417.6353304944261
 10
2127.839303620005
 20
417.6630668256233
 10
2127.828994934894
 20
417.6912379281517
 10
2127.819821039264
 20
417.7197987342569
 10
2127.811796609393
 20
417.7487035527416
 10
2127.804934482653
 20
417.7779061420623
 10
2127.799245636988
 20
417.8073597843058
 10
2127.794739173337
 20
417.8370173599271
 10
2127.791422301077
 20
417.8668314231327
 10
2127.789300326499
 20
417.8967542777805
 10
2127.788376644308
 20
417.9267380536873
 10
2127.78833293448
 20
417.9348351414807
  0
LWPOLYLINE
  5
41A
330
71
100
AcDbEntity
  8
0
100
AcDbPolyline
 90
       41
 70
   128
 43
0.0
 10
2127.78833293448
 20
422.5848351414818
 10
2127.78833293448
 20
422.398884737514
 10
2127.78833293448
 20
422.2132318145252
 10
2127.78833293448
 20
422.0281733775883
 10
2127.78833293448
 20
421.8440054807254
 10
2127.78833293448
 20
421.6610227532846
 10
2127.78833293448
 20
421.4795179285955
 10
2127.78833293448
 20
421.2997813756585
 10
2127.78833293448
 20
421.1221006346166
 10
2127.78833293448
 20
420.9467599567521
 10
2127.78833293448
 20
420.7740398497461
 10
2127.78833293448
 20
420.6042166289246
 10
2127.78833293448
 20
420.4375619752136
 10
2127.78833293448
 20
420.2743425005079
 10
2127.78833293448
 20
420.1148193211492
 10
2127.78833293448
 20
419.9592476401944
 10
2127.78833293448
 20
419.8078763391462
 10
2127.78833293448
 20
419.6609475797954
 10
2127.78833293448
 20
419.5186964168138
 10
2127.78833293448
 20
419.3813504217171
 10
2127.78833293448
 20
419.2491293187985
 10
2127.78833293448
 20
419.1222446336167
 10
2127.78833293448
 20
419.0008993546008
 10
2127.78833293448
 20
418.8852876083121
 10
2127.78833293448
 20
418.7755943488815
 10
2127.78833293448
 20
418.6719950621241
 10
2127.78833293448
 20
418.5746554847993
 10
2127.78833293448
 20
418.4837313394661
 10
2127.78833293448
 20
418.3993680853602
 10
2127.78833293448
 20
418.3217006856922
 10
2127.78833293448
 20
418.2508533917332
 10
2127.78833293448
 20
418.1869395440405
 10
2127.78833293448
 20
418.130061391136
 10
2127.78833293448
 20
418.0803099259308
 10
2127.78833293448
 20
418.0377647401566
 10
2127.78833293448
 20
418.0024938970347
 10
2127.78833293448
 20
417.9745538223895
 10
2127.78833293448
 20
417.9539892143806
 10
2127.78833293448
 20
417.9408329719944
 10
2127.78833293448
 20
417.9351061424116
 10
2127.78833293448
 20
417.9348351414807
  0
LWPOLYLINE
  5
41B
330
71
100
AcDbEntity
  8
0
100
AcDbPolyline
 90
       10
 70
   128
 43
0.0
 10
2127.78833293448
 20
417.9348351414807
 10
2127.78833293448
 20
417.9385546455073
 10
2127.78833293448
 20
417.9497072071736
 10
2127.78833293448
 20
417.9682749847603
 10
2127.78833293448
 20
417.9942282737841
 10
2127.78833293448
 20
418.0275255545191
 10
2127.78833293448
 20
418.0681135584189
 10
2127.78833293448
 20
418.1159273533357
 10
2127.78833293448
 20
418.1708904473975
 10
2127.78833293448
 20
418.1848351414807
  0
LWPOLYLINE
  5
41C
330
71
100
AcDbEntity
  8
0
100
AcDbPolyline
 90
       41
 70
   128
 43
0.0
 10
2127.78833293448
 20
427.234835141483
 10
2127.788932854485
 20
427.2648271421227
 10
2127.790731654753
 20
427.2947711619598
 10
2127.793726457591
 20
427.3246192969494
 10
2127.797912471949
 20
427.3543237964436
 10
2127.803283001099
 20
427.3838371395791
 10
2127.809829453342
 20
427.4131121113033
 10
2127.817541355748
 20
427.4421018779061
 10
2127.826406370918
 20
427.4707600619452
 10
2127.836410316723
 20
427.4990408164391
 10
2127.847537188979
 20
427.5268988982142
 10
2127.859769187065
 20
427.5542897402822
 10
2127.873086742396
 20
427.5811695231388
 10
2127.887468549723
 20
427.6074952448657
 10
2127.902891601221
 20
427.6332247899236
 10
2127.919331223298
 20
427.6583169965291
 10
2127.936761116068
 20
427.6827317225046
 10
2127.955153395417
 20
427.7064299094968
 10
2127.974478637625
 20
427.7293736454615
 10
2127.994705926425
 20
427.7515262253158
 10
2128.015802902471
 20
427.7728522096575
 10
2128.0377358151
 20
427.793317481461
 10
2128.060469576333
 20
427.8128893006571
 10
2128.083967816998
 20
427.8315363565101
 10
2128.108192944926
 20
427.8492288177085
 10
2128.133106205079
 20
427.8659383800886
 10
2128.158667741556
 20
427.8816383119153
 10
2128.18483666135
 20
427.8963034966466
 10
2128.211571099773
 20
427.9099104731151
 10
2128.238828287425
 20
427.9224374730618
 10
2128.266564618622
 20
427.9338644559583
 10
2128.294735721151
 20
427.9441731410701
 10
2128.323296527256
 20
427.9533470366998
 10
2128.35220134574
 20
427.9613714665717
 10
2128.381403935062
 20
427.9682335933093
 10
2128.410857577304
 20
427.9739224389741
 10
2128.440515152926
 20
427.9784289026266
 10
2128.470329216133
 20
427.981745774886
 10
2128.50025207078
 20
427.9838677494646
 10
2128.530235846688
 20
427.9847914316554
 10
2128.53833293448
 20
427.9848351414828
  0
LWPOLYLINE
  5
41D
330
71
100
AcDbEntity
  8
0
100
AcDbPolyline
 90
       10
 70
   128
 43
0.0
 10
2127.78833293448
 20
426.9848351414828
 10
2127.78833293448
 20
427.0396088918277
 10
2127.78833293448
 20
427.0893603570327
 10
2127.78833293448
 20
427.1319055428071
 10
2127.78833293448
 20
427.167176385929
 10
2127.78833293448
 20
427.1951164605741
 10
2127.78833293448
 20
427.2156810685828
 10
2127.78833293448
 20
427.2288373109693
 10
2127.78833293448
 20
427.2345641405522
 10
2127.78833293448
 20
427.234835141483
  0
LWPOLYLINE
  5
41E
330
71
100
AcDbEntity
  8
0
100
AcDbPolyline
 90
       41
 70
   128
 43
0.0
 10
2127.78833293448
 20
427.234835141483
 10
2127.78833293448
 20
427.2311156374563
 10
2127.78833293448
 20
427.2199630757902
 10
2127.78833293448
 20
427.2013952982033
 10
2127.78833293448
 20
427.1754420091796
 10
2127.78833293448
 20
427.1421447284446
 10
2127.78833293448
 20
427.1015567245446
 10
2127.78833293448
 20
427.053742929628
 10
2127.78833293448
 20
426.9987798355661
 10
2127.78833293448
 20
426.9367553715853
 10
2127.78833293448
 20
426.8677687635961
 10
2127.78833293448
 20
426.7919303754557
 10
2127.78833293448
 20
426.7093615324063
 10
2127.78833293448
 20
426.6201943269837
 10
2127.78833293448
 20
426.5245714076951
 10
2127.78833293448
 20
426.4226457508127
 10
2127.78833293448
 20
426.3145804156446
 10
2127.78833293448
 20
426.2005482836745
 10
2127.78833293448
 20
426.080731781988
 10
2127.78833293448
 20
425.9553225914278
 10
2127.78833293448
 20
425.8245213399469
 10
2127.78833293448
 20
425.6885372816445
 10
2127.78833293448
 20
425.5475879620058
 10
2127.78833293448
 20
425.4018988698747
 10
2127.78833293448
 20
425.2517030767193
 10
2127.78833293448
 20
425.0972408637691
 10
2127.78833293448
 20
424.9387593376148
 10
2127.78833293448
 20
424.7765120348902
 10
2127.78833293448
 20
424.6107585166691
 10
2127.78833293448
 20
424.4417639532215
 10
2127.78833293448
 20
424.2697986997987
 10
2127.78833293448
 20
424.0951378641224
 10
2127.78833293448
 20
423.9180608662706
 10
2127.78833293448
 20
423.7388509916656
 10
2127.78833293448
 20
423.5577949378773
 10
2127.78833293448
 20
423.375182355968
 10
2127.78833293448
 20
423.1913053871144
 10
2127.78833293448
 20
423.006458195241
 10
2127.78833293448
 20
422.820936496423
 10
2127.78833293448
 20
422.6350370858027
 10
2127.78833293448
 20
422.5848351414818
  0
LINE
  5
41F
330
71
100
AcDbEntity
  8
0
100
AcDbLine
 10
2128.53833293448
 20
417.1848351414808
 30
0.0
 11
2146.03833293448
 21
417.1848351414808
 31
0.0
  0
LINE
  5
420
330
71
100
AcDbEntity
  8
0
100
AcDbLine
 10
2146.03833293448
 20
427.9848351414828
 30
0.0
 11
2140.53833293448
 21
427.9848351414828
 31
0.0
  0
LINE
  5
421
330
71
100
AcDbEntity
  8
0
100
AcDbLine
 10
2135.53833293448
 20
427.9848351414828
 30
0.0
 11
2128.53833293448
 21
427.9848351414828
 31
0.0
  0
LWPOLYLINE
  5
422
330
71
100
AcDbEntity
  8
0
100
AcDbPolyline
 90
       41
 70
   128
 43
0.0
 10
2147.53833293448
 20
418.6848351414807
 10
2147.537133094472
 20
418.6248511402006
 10
2147.533535493934
 20
418.5649631005269
 10
2147.527545888262
 20
418.5052668305472
 10
2147.519173859544
 20
418.4458578315595
 10
2147.508432801243
 20
418.3868311452883
 10
2147.495339896759
 20
418.3282812018402
 10
2147.479916091947
 20
418.2703016686346
 10
2147.462186061604
 20
418.2129853005566
 10
2147.442178169998
 20
418.1564237915684
 10
2147.419924425485
 20
418.1007076280176
 10
2147.395460429311
 20
418.0459259438818
 10
2147.368825318649
 20
417.9921663781686
 10
2147.340061703997
 20
417.9395149347153
 10
2147.309215601001
 20
417.8880558445995
 10
2147.276336356845
 20
417.8378714313883
 10
2147.241476571307
 20
417.7890419794373
 10
2147.204692012607
 20
417.7416456054531
 10
2147.166041528193
 20
417.6957581335237
 10
2147.125586950592
 20
417.6514529738151
 10
2147.083392998501
 20
417.6088010051317
 10
2147.039527173243
 20
417.5678704615246
 10
2146.994059650779
 20
417.5287268231325
 10
2146.947063169446
 20
417.4914327114263
 10
2146.89861291359
 20
417.4560477890293
 10
2146.848786393285
 20
417.422628664269
 10
2146.79766332033
 20
417.3912288006158
 10
2146.745325480742
 20
417.3618984311533
 10
2146.691856603896
 20
417.3346844782161
 10
2146.63734222859
 20
417.3096304783231
 10
2146.581869566196
 20
417.2867765125301
 10
2146.525527361138
 20
417.2661591423064
 10
2146.468405748929
 20
417.2478113510471
 10
2146.41059611196
 20
417.2317624913033
 10
2146.352190933318
 20
417.2180382378278
 10
2146.293283648831
 20
417.2066605464982
 10
2146.233968497588
 20
417.1976476191933
 10
2146.174340371177
 20
417.1910138746745
 10
2146.114494661881
 20
417.1867699255175
 10
2146.054527110069
 20
417.184922561136
 10
2146.03833293448
 20
417.1848351414808
  0
LWPOLYLINE
  5
423
330
71
100
AcDbEntity
  8
0
100
AcDbPolyline
 90
       41
 70
   128
 43
0.0
 10
2147.53833293448
 20
422.5848351414818
 10
2147.53833293448
 20
422.4288767381538
 10
2147.53833293448
 20
422.2731678350021
 10
2147.53833293448
 20
422.1179575330548
 10
2147.53833293448
 20
421.9634941356861
 10
2147.53833293448
 20
421.8100247513808
 10
2147.53833293448
 20
421.6577948984157
 10
2147.53833293448
 20
421.5070481120815
 10
2147.53833293448
 20
421.3580255550786
 10
2147.53833293448
 20
421.2109656317088
 10
2147.53833293448
 20
421.0661036064776
 10
2147.53833293448
 20
420.9236712277241
 10
2147.53833293448
 20
420.7838963568696
 10
2147.53833293448
 20
420.6470026038908
 10
2147.53833293448
 20
420.5132089695898
 10
2147.53833293448
 20
420.3827294952406
 10
2147.53833293448
 20
420.255772920168
 10
2147.53833293448
 20
420.1325423478092
 10
2147.53833293448
 20
420.0132349207922
 10
2147.53833293448
 20
419.8980415055498
 10
2147.53833293448
 20
419.787146386973
 10
2147.53833293448
 20
419.6807269735947
 10
2147.53833293448
 20
419.5789535137751
 10
2147.53833293448
 20
419.4819888233393
 10
2147.53833293448
 20
419.3899880251071
 10
2147.53833293448
 20
419.3030983007303
 10
2147.53833293448
 20
419.221458655232
 10
2147.53833293448
 20
419.1451996946295
 10
2147.53833293448
 20
419.0744434169927
 10
2147.53833293448
 20
419.0093030172711
 10
2147.53833293448
 20
418.9498827062086
 10
2147.53833293448
 20
418.8962775436276
 10
2147.53833293448
 20
418.8485732863528
 10
2147.53833293448
 20
418.8068462510194
 10
2147.53833293448
 20
418.7711631919832
 10
2147.53833293448
 20
418.7415811945259
 10
2147.53833293448
 20
418.7181475835333
 10
2147.53833293448
 20
418.7008998477841
 10
2147.53833293448
 20
418.6898655799762
 10
2147.53833293448
 20
418.685062432584
 10
2147.53833293448
 20
418.6848351414807
  0
LWPOLYLINE
  5
424
330
71
100
AcDbEntity
  8
0
100
AcDbPolyline
 90
       41
 70
   128
 43
0.0
 10
2147.53833293448
 20
418.6848351414807
 10
2147.53833293448
 20
418.6879547255028
 10
2147.53833293448
 20
418.6973084869007
 10
2147.53833293448
 20
418.7128814616508
 10
2147.53833293448
 20
418.734648736316
 10
2147.53833293448
 20
418.7625754879001
 10
2147.53833293448
 20
418.796617039558
 10
2147.53833293448
 20
418.8367189320689
 10
2147.53833293448
 20
418.8828170109593
 10
2147.53833293448
 20
418.934837529137
 10
2147.53833293448
 20
418.9926972648698
 10
2147.53833293448
 20
419.0563036549231
 10
2147.53833293448
 20
419.1255549426416
 10
2147.53833293448
 20
419.2003403407381
 10
2147.53833293448
 20
419.2805402085283
 10
2147.53833293448
 20
419.3660262433333
 10
2147.53833293448
 20
419.4566616857325
 10
2147.53833293448
 20
419.5523015383525
 10
2147.53833293448
 20
419.6527927978315
 10
2147.53833293448
 20
419.7579746995915
 10
2147.53833293448
 20
419.8676789750271
 10
2147.53833293448
 20
419.9817301207001
 10
2147.53833293448
 20
420.0999456791068
 10
2147.53833293448
 20
420.2221365305716
 10
2147.53833293448
 20
420.3481071957986
 10
2147.53833293448
 20
420.4776561485956
 10
2147.53833293448
 20
420.6105761382734
 10
2147.53833293448
 20
420.7466545212038
 10
2147.53833293448
 20
420.8856736010022
 10
2147.53833293448
 20
421.0274109767969
 10
2147.53833293448
 20
421.1716398990223
 10
2147.53833293448
 20
421.3181296321703
 10
2147.53833293448
 20
421.4666458239166
 10
2147.53833293448
 20
421.6169508800373
 10
2147.53833293448
 20
421.7688043445051
 10
2147.53833293448
 20
421.9219632841705
 10
2147.53833293448
 20
422.076182677403
 10
2147.53833293448
 20
422.2312158060708
 10
2147.53833293448
 20
422.386814650241
 10
2147.53833293448
 20
422.5427302849545
 10
2147.53833293448
 20
422.5848351414818
  0
LWPOLYLINE
  5
425
330
71
100
AcDbEntity
  8
0
100
AcDbPolyline
 90
       41
 70
   128
 43
0.0
 10
2146.03833293448
 20
427.9848351414828
 10
2146.098316935761
 20
427.9836353014744
 10
2146.158204975433
 20
427.9800377009368
 10
2146.217901245414
 20
427.9740480952637
 10
2146.277310244402
 20
427.9656760665463
 10
2146.336336930673
 20
427.9549350082445
 10
2146.394886874121
 20
427.9418421037608
 10
2146.452866407327
 20
427.9264182989491
 10
2146.510182775405
 20
427.9086882686065
 10
2146.566744284392
 20
427.8886803769998
 10
2146.622460447942
 20
427.8664266324873
 10
2146.67724213208
 20
427.8419626363127
 10
2146.731001697792
 20
427.8153275256516
 10
2146.783653141247
 20
427.7865639109992
 10
2146.835112231362
 20
427.7557178080031
 10
2146.885296644573
 20
427.7228385638473
 10
2146.934126096524
 20
427.6879787783093
 10
2146.981522470509
 20
427.6511942196092
 10
2147.027409942438
 20
427.6125437351943
 10
2147.071715102146
 20
427.5720891575941
 10
2147.114367070831
 20
427.5298952055035
 10
2147.155297614437
 20
427.486029380245
 10
2147.194441252829
 20
427.4405618577808
 10
2147.231735364535
 20
427.3935653764481
 10
2147.267120286931
 20
427.3451151205915
 10
2147.300539411693
 20
427.2952886002851
 10
2147.331939275346
 20
427.2441655273321
 10
2147.361269644808
 20
427.1918276877435
 10
2147.388483597746
 20
427.1383588108979
 10
2147.413537597639
 20
427.0838444355923
 10
2147.436391563433
 20
427.0283717731977
 10
2147.457008933656
 20
426.9720295681412
 10
2147.475356724914
 20
426.9149079559308
 10
2147.491405584659
 20
426.8570983189613
 10
2147.505129838133
 20
426.79869314032
 10
2147.516507529464
 20
426.7397858558331
 10
2147.525520456767
 20
426.6804707045898
 10
2147.532154201287
 20
426.6208425781794
 10
2147.536398150444
 20
426.5609968688833
 10
2147.538245514826
 20
426.5010293170702
 10
2147.53833293448
 20
426.4848351414828
  0
LWPOLYLINE
  5
426
330
71
100
AcDbEntity
  8
0
100
AcDbPolyline
 90
       41
 70
   128
 43
0.0
 10
2147.53833293448
 20
422.5848351414818
 10
2147.53833293448
 20
422.7407935448098
 10
2147.53833293448
 20
422.8965024479617
 10
2147.53833293448
 20
423.0517127499088
 10
2147.53833293448
 20
423.2061761472777
 10
2147.53833293448
 20
423.3596455315828
 10
2147.53833293448
 20
423.5118753845478
 10
2147.53833293448
 20
423.6626221708822
 10
2147.53833293448
 20
423.8116447278851
 10
2147.53833293448
 20
423.9587046512551
 10
2147.53833293448
 20
424.1035666764861
 10
2147.53833293448
 20
424.2459990552397
 10
2147.53833293448
 20
424.3857739260942
 10
2147.53833293448
 20
424.522667679073
 10
2147.53833293448
 20
424.6564613133736
 10
2147.53833293448
 20
424.7869407877231
 10
2147.53833293448
 20
424.9138973627958
 10
2147.53833293448
 20
425.0371279351546
 10
2147.53833293448
 20
425.1564353621714
 10
2147.53833293448
 20
425.2716287774137
 10
2147.53833293448
 20
425.3825238959909
 10
2147.53833293448
 20
425.4889433093689
 10
2147.53833293448
 20
425.5907167691885
 10
2147.53833293448
 20
425.6876814596246
 10
2147.53833293448
 20
425.7796822578565
 10
2147.53833293448
 20
425.8665719822336
 10
2147.53833293448
 20
425.9482116277316
 10
2147.53833293448
 20
426.0244705883341
 10
2147.53833293448
 20
426.0952268659711
 10
2147.53833293448
 20
426.1603672656928
 10
2147.53833293448
 20
426.2197875767546
 10
2147.53833293448
 20
426.273392739336
 10
2147.53833293448
 20
426.3210969966109
 10
2147.53833293448
 20
426.3628240319441
 10
2147.53833293448
 20
426.3985070909805
 10
2147.53833293448
 20
426.4280890884378
 10
2147.53833293448
 20
426.4515226994303
 10
2147.53833293448
 20
426.4687704351795
 10
2147.53833293448
 20
426.4798047029874
 10
2147.53833293448
 20
426.4846078503796
 10
2147.53833293448
 20
426.4848351414828
  0
LWPOLYLINE
  5
427
330
71
100
AcDbEntity
  8
0
100
AcDbPolyline
 90
       41
 70
   128
 43
0.0
 10
2147.53833293448
 20
426.4848351414828
 10
2147.53833293448
 20
426.4817155574607
 10
2147.53833293448
 20
426.4723617960632
 10
2147.53833293448
 20
426.4567888213127
 10
2147.53833293448
 20
426.4350215466476
 10
2147.53833293448
 20
426.4070947950637
 10
2147.53833293448
 20
426.3730532434058
 10
2147.53833293448
 20
426.3329513508947
 10
2147.53833293448
 20
426.2868532720044
 10
2147.53833293448
 20
426.2348327538266
 10
2147.53833293448
 20
426.176973018094
 10
2147.53833293448
 20
426.1133666280406
 10
2147.53833293448
 20
426.0441153403219
 10
2147.53833293448
 20
425.9693299422257
 10
2147.53833293448
 20
425.8891300744348
 10
2147.53833293448
 20
425.8036440396303
 10
2147.53833293448
 20
425.7130085972312
 10
2147.53833293448
 20
425.6173687446112
 10
2147.53833293448
 20
425.5168774851321
 10
2147.53833293448
 20
425.4116955833721
 10
2147.53833293448
 20
425.3019913079364
 10
2147.53833293448
 20
425.1879401622636
 10
2147.53833293448
 20
425.0697246038571
 10
2147.53833293448
 20
424.9475337523919
 10
2147.53833293448
 20
424.821563087165
 10
2147.53833293448
 20
424.6920141343681
 10
2147.53833293448
 20
424.5590941446899
 10
2147.53833293448
 20
424.42301576176
 10
2147.53833293448
 20
424.2839966819611
 10
2147.53833293448
 20
424.1422593061667
 10
2147.53833293448
 20
423.9980303839411
 10
2147.53833293448
 20
423.8515406507933
 10
2147.53833293448
 20
423.7030244590467
 10
2147.53833293448
 20
423.5527194029264
 10
2147.53833293448
 20
423.4008659384586
 10
2147.53833293448
 20
423.247706998793
 10
2147.53833293448
 20
423.0934876055608
 10
2147.53833293448
 20
422.9384544768926
 10
2147.53833293448
 20
422.7828556327227
 10
2147.53833293448
 20
422.6269399980091
 10
2147.53833293448
 20
422.5848351414818
  0
LWPOLYLINE
  5
428
330
71
100
AcDbEntity
  8
0
100
AcDbPolyline
 90
        4
 70
   128
 43
0.0
 10
2126.038332934481
 20
416.9348351414821
 10
2126.036333201133
 20
416.8348618060263
 10
2126.030337200238
 20
416.7350484065702
 10
2126.028573802679
 20
416.7174732501369
  0
LWPOLYLINE
  5
429
330
71
100
AcDbEntity
  8
0
100
AcDbPolyline
 90
        4
 70
   128
 43
0.0
 10
2126.0285208796
 20
416.716945784613
 10
2126.020354524115
 20
416.6355546232708
 10
2126.00640114292
 20
416.5365396249573
 10
2126.004414112075
 20
416.5256200448826
  0
LWPOLYLINE
  5
42A
330
71
100
AcDbEntity
  8
0
100
AcDbPolyline
 90
       69
 70
   128
 43
0.0
 10
2125.999882097709
 20
416.5007146973148
 10
2125.988499379084
 20
416.4381618145053
 10
2125.966677871611
 20
416.3405785754251
 10
2125.940971530258
 20
416.2439460200827
 10
2125.911421479687
 20
416.1484187399528
 10
2125.878074993675
 20
416.0541495583052
 10
2125.840985419488
 20
415.9612892857215
 10
2125.800212092531
 20
415.8699864788281
 10
2125.755820241428
 20
415.7803872026394
 10
2125.707880883675
 20
415.6926347968837
 10
2125.656470712015
 20
415.606869646691
 10
2125.601671971755
 20
415.5232289580053
 10
2125.543572329191
 20
415.4418465380871
 10
2125.482264731358
 20
415.3628525814466
 10
2125.417847257333
 20
415.2863734615641
 10
2125.350422961333
 20
415.2125315287166
 10
2125.280099707849
 20
415.1414449142443
 10
2125.206989999084
 20
415.0732273415656
 10
2125.131210794976
 20
415.0079879442456
 10
2125.05288332609
 20
414.9458310914019
 10
2124.972132899663
 20
414.8868562207406
 10
2124.88908869915
 20
414.8311576794733
 10
2124.803883577563
 20
414.7788245733847
 10
2124.716653844915
 20
414.7299406242806
 10
2124.627539050172
 20
414.6845840360517
 10
2124.536681757996
 20
414.6428273695637
 10
2124.444227320672
 20
414.604737426575
 10
2124.350323645578
 20
414.5703751428693
 10
2124.255120958561
 20
414.5397954907696
 10
2124.158771563612
 20
414.5130473911975
 10
2124.061429599209
 20
414.4901736354047
 10
2123.963250791732
 20
414.471210816522
 10
2123.864392206326
 20
414.4561892710138
 10
2123.765011995642
 20
414.445133030149
 10
2123.665269146814
 20
414.438059781554
 10
2123.565323227127
 20
414.4349808409181
 10
2123.465334128728
 20
414.4359011338893
 10
2123.365461812846
 20
414.4408191881951
 10
2123.265866053881
 20
414.449727135998
 10
2123.166706183802
 20
414.462610726481
 10
2123.068140837248
 20
414.4794493486489
 10
2122.970327697748
 20
414.5002160642976
 10
2122.873423245459
 20
414.5248776511119
 10
2122.777582506831
 20
414.5533946558138
 10
2122.682958806604
 20
414.5857214572798
 10
2122.58970352251
 20
414.6218063395226
 10
2122.497965843113
 20
414.6615915744289
 10
2122.407892529129
 20
414.7050135141096
 10
2122.319627678645
 20
414.7520026927243
 10
2122.233312496593
 20
414.8024839376106
 10
2122.149085068855
 20
414.8563764895461
 10
2122.067080141341
 20
414.9135941319441
 10
2121.987428904448
 20
414.974045328782
 10
2121.910258783161
 20
415.0376333710406
 10
2121.835693233213
 20
415.1042565314175
 10
2121.763851543576
 20
415.1738082270676
 10
2121.694848645628
 20
415.2461771901151
 10
2121.628794929286
 20
415.3212476456571
 10
2121.565796066407
 20
415.3988994969789
 10
2121.505952841731
 20
415.479008517683
 10
2121.449360991652
 20
415.5614465504253
 10
2121.396111051058
 20
415.6460817119394
 10
2121.346288208495
 20
415.7327786040215
 10
2121.299972169882
 20
415.8213985301385
 10
2121.257237031001
 20
415.911799717313
 10
2121.218151158958
 20
416.0038375429301
 10
2121.182777082809
 20
416.0973647661032
 10
2121.151171393532
 20
416.1922317632259
 10
2121.123384653486
 20
416.2882867673403
  0
LWPOLYLINE
  5
42B
330
71
100
AcDbEntity
  8
0
100
AcDbPolyline
 90
        4
 70
   128
 43
0.0
 10
2121.120581185016
 20
416.2996642312233
 10
2121.099461315528
 20
416.3853761109304
 10
2121.079439651896
 20
416.4833444717575
 10
2121.076608061706
 20
416.5007146973148
  0
LWPOLYLINE
  5
42C
330
71
100
AcDbEntity
  8
0
100
AcDbPolyline
 90
        6
 70
   128
 43
0.0
 10
2121.075030800292
 20
416.5103903158577
 10
2121.06335169298
 20
416.5820351213436
 10
2121.051223176081
 20
416.6812901757015
 10
2121.043073504243
 20
416.7809508479184
 10
2121.038915715198
 20
416.8808577021778
 10
2121.03833293448
 20
416.9348351414821
  0
LWPOLYLINE
  5
42D
330
71
100
AcDbEntity
  8
0
100
AcDbPolyline
 90
        6
 70
   128
 43
0.0
 10
2121.03833293448
 20
418.075849530137
 10
2121.03833293448
 20
417.9564027805902
 10
2121.03833293448
 20
417.8305240773267
 10
2121.03833293448
 20
417.7122512575666
 10
2121.03833293448
 20
417.6017735325918
 10
2121.03833293448
 20
417.5572716887749
  0
LWPOLYLINE
  5
42E
330
71
100
AcDbEntity
  8
0
100
AcDbPolyline
 90
        6
 70
   128
 43
0.0
 10
2121.03833293448
 20
417.3798307260556
 10
2121.03833293448
 20
417.3188143057774
 10
2121.03833293448
 20
417.2411555446026
 10
2121.03833293448
 20
417.1720455308584
 10
2121.03833293448
 20
417.1115948258246
 10
2121.03833293448
 20
417.0736752774137
  0
LWPOLYLINE
  5
42F
330
71
100
AcDbEntity
  8
0
100
AcDbPolyline
 90
        6
 70
   128
 43
0.0
 10
2121.03833293448
 20
417.0736752774137
 10
2121.03833293448
 20
417.0967755835787
 10
2121.03833293448
 20
417.1548719150368
 10
2121.03833293448
 20
417.2216550293267
 10
2121.03833293448
 20
417.297018087712
 10
2121.03833293448
 20
417.3798307260556
  0
LWPOLYLINE
  5
430
330
71
100
AcDbEntity
  8
0
100
AcDbPolyline
 90
        7
 70
   128
 43
0.0
 10
2121.03833293448
 20
417.5572716887749
 10
2121.03833293448
 20
417.5733138277888
 10
2121.03833293448
 20
417.6816567763126
 10
2121.03833293448
 20
417.7978437642653
 10
2121.03833293448
 20
417.9216889172512
 10
2121.03833293448
 20
418.0529941094446
 10
2121.03833293448
 20
418.075849530137
  0
LWPOLYLINE
  5
431
330
71
100
AcDbEntity
  8
0
100
AcDbPolyline
 90
        5
 70
   128
 43
0.0
 10
2126.038332934481
 20
417.912797082122
 10
2126.038332934481
 20
417.8305240773267
 10
2126.038332934481
 20
417.7122512575666
 10
2126.038332934481
 20
417.6017735325918
 10
2126.038332934481
 20
417.5906250431461
  0
LWPOLYLINE
  5
432
330
71
100
AcDbEntity
  8
0
100
AcDbPolyline
 90
        8
 70
   128
 43
0.0
 10
2126.038332934481
 20
417.1851353976886
 10
2126.038332934481
 20
417.1720455308584
 10
2126.038332934481
 20
417.1115948258246
 10
2126.038332934481
 20
417.0599001377331
 10
2126.038332934481
 20
417.017044167058
 10
2126.038332934481
 20
416.9830954742098
 10
2126.038332934481
 20
416.9581083698552
 10
2126.038332934481
 20
416.9550517397566
  0
LWPOLYLINE
  5
433
330
71
100
AcDbEntity
  8
0
100
AcDbPolyline
 90
        7
 70
   128
 43
0.0
 10
2126.038332934481
 20
416.9550517397566
 10
2126.038332934481
 20
416.9754663489185
 10
2126.038332934481
 20
417.0070009904207
 10
2126.038332934481
 20
417.0474589766896
 10
2126.038332934481
 20
417.0967755835787
 10
2126.038332934481
 20
417.1548719150368
 10
2126.038332934481
 20
417.1851353976886
  0
LWPOLYLINE
  5
434
330
71
100
AcDbEntity
  8
0
100
AcDbPolyline
 90
        4
 70
   128
 43
0.0
 10
2126.038332934481
 20
417.5906250431461
 10
2126.038332934481
 20
417.6816567763126
 10
2126.038332934481
 20
417.7978437642653
 10
2126.038332934481
 20
417.912797082122
  0
LWPOLYLINE
  5
435
330
71
100
AcDbEntity
  8
0
100
AcDbPolyline
 90
        5
 70
   128
 43
0.0
 10
2126.038332934481
 20
418.4478072230205
 10
2126.038332934481
 20
418.4895116808038
 10
2126.038332934481
 20
418.6484422336782
 10
2126.038332934481
 20
418.8136701754858
 10
2126.038332934481
 20
418.880146970753
  0
LWPOLYLINE
  5
436
330
71
100
AcDbEntity
  8
0
100
AcDbPolyline
 90
        7
 70
   128
 43
0.0
 10
2126.038332934481
 20
419.3051337365575
 10
2126.038332934481
 20
419.3444472201789
 10
2126.038332934481
 20
419.5321271133328
 10
2126.038332934481
 20
419.7246906881223
 10
2126.038332934481
 20
419.9218298839054
 10
2126.038332934481
 20
420.1232293200233
 10
2126.038332934481
 20
420.1760637397359
  0
LWPOLYLINE
  5
437
330
71
100
AcDbEntity
  8
0
100
AcDbPolyline
 90
       41
 70
   128
 43
0.0
 10
2126.038332934481
 20
416.9348351414821
 10
2126.038332934481
 20
416.9380347148381
 10
2126.038332934481
 20
416.9476283162715
 10
2126.038332934481
 20
416.9636005980667
 10
2126.038332934481
 20
416.9859260079796
 10
2126.038332934481
 20
417.0145688301172
 10
2126.038332934481
 20
417.0494832420741
 10
2126.038332934481
 20
417.090613388239
 10
2126.038332934481
 20
417.1378934691523
 10
2126.038332934481
 20
417.1912478467704
 10
2126.038332934481
 20
417.2505911654702
 10
2126.038332934481
 20
417.3158284886023
 10
2126.038332934481
 20
417.3868554503648
 10
2126.038332934481
 20
417.4635584227716
 10
2126.038332934481
 20
417.5458146974283
 10
2126.038332934481
 20
417.6334926818433
 10
2126.038332934481
 20
417.7264521099448
 10
2126.038332934481
 20
417.8245442664783
 10
2126.038332934481
 20
417.9276122249186
 10
2126.038332934481
 20
418.0354910985185
 10
2126.038332934481
 20
418.1480083040934
 10
2126.038332934481
 20
418.2649838381169
 10
2126.038332934481
 20
418.3862305646876
 10
2126.038332934481
 20
418.5115545149082
 10
2126.038332934481
 20
418.6407551971921
 10
2126.038332934481
 20
418.7736259180095
 10
2126.038332934481
 20
418.9099541125509
 10
2126.038332934481
 20
419.0495216847872
 10
2126.038332934481
 20
419.1921053563751
 10
2126.038332934481
 20
419.337477023857
 10
2126.038332934481
 20
419.4854041235752
 10
2126.038332934481
 20
419.635650003727
 10
2126.038332934481
 20
419.7879743029544
 10
2126.038332934481
 20
419.9421333348726
 10
2126.038332934481
 20
420.0978804779164
 10
2126.038332934481
 20
420.2549665698811
 10
2126.038332934481
 20
420.4131403065294
 10
2126.038332934481
 20
420.5721486436248
 10
2126.038332934481
 20
420.7317372017476
 10
2126.038332934481
 20
420.891650673249
 10
2126.038332934481
 20
420.934835141482
  0
LWPOLYLINE
  5
438
330
71
100
AcDbEntity
  8
0
100
AcDbPolyline
 90
       29
 70
   128
 43
0.0
 10
2121.03833293448
 20
418.9598351414818
 10
2121.03833293448
 20
418.9473145901072
 10
2121.03833293448
 20
418.8100903497985
 10
2121.03833293448
 20
418.6762652479018
 10
2121.03833293448
 20
418.5460533760326
 10
2121.03833293448
 20
418.419663045408
 10
2121.03833293448
 20
418.2972964535961
 10
2121.03833293448
 20
418.1791493610399
 10
2121.03833293448
 20
418.0654107778841
 10
2121.03833293448
 20
417.9562626615986
 10
2121.03833293448
 20
417.8518796258861
 10
2121.03833293448
 20
417.7524286613365
 10
2121.03833293448
 20
417.6580688682778
 10
2121.03833293448
 20
417.5689512022505
 10
2121.03833293448
 20
417.4852182325086
 10
2121.03833293448
 20
417.4070039139423
 10
2121.03833293448
 20
417.334433372776
 10
2121.03833293448
 20
417.267622706395
 10
2121.03833293448
 20
417.2066787976132
 10
2121.03833293448
 20
417.1516991436837
 10
2121.03833293448
 20
417.1027717003251
 10
2121.03833293448
 20
417.0599747410091
 10
2121.03833293448
 20
417.0233767317409
 10
2121.03833293448
 20
416.993036221528
 10
2121.03833293448
 20
416.9690017487154
 10
2121.03833293448
 20
416.9513117633315
 10
2121.03833293448
 20
416.9399945655795
 10
2121.03833293448
 20
416.9350682605623
 10
2121.03833293448
 20
416.9348351414821
  0
LINE
  5
439
330
71
100
AcDbEntity
  8
0
100
AcDbLine
 10
2126.038332934481
 20
420.934835141482
 30
0.0
 11
2126.038332934481
 21
451.3348351414817
 31
0.0
  0
LINE
  5
43A
330
71
100
AcDbEntity
  8
0
100
AcDbLine
 10
2121.03833293448
 20
451.3348351414817
 30
0.0
 11
2121.03833293448
 21
422.9598351414818
 31
0.0
  0
LWPOLYLINE
  5
43F
330
71
100
AcDbEntity
  8
0
100
AcDbPolyline
 90
       41
 70
   128
 43
0.0
 10
2126.038332934481
 20
455.3348351414817
 10
2126.038332934481
 20
455.3316355681258
 10
2126.038332934481
 20
455.3220419666923
 10
2126.038332934481
 20
455.3060696848975
 10
2126.038332934481
 20
455.2837442749842
 10
2126.038332934481
 20
455.255101452847
 10
2126.038332934481
 20
455.22018704089
 10
2126.038332934481
 20
455.1790568947247
 10
2126.038332934481
 20
455.1317768138117
 10
2126.038332934481
 20
455.0784224361937
 10
2126.038332934481
 20
455.0190791174934
 10
2126.038332934481
 20
454.9538417943617
 10
2126.038332934481
 20
454.882814832599
 10
2126.038332934481
 20
454.8061118601925
 10
2126.038332934481
 20
454.7238555855356
 10
2126.038332934481
 20
454.6361776011205
 10
2126.038332934481
 20
454.5432181730189
 10
2126.038332934481
 20
454.4451260164855
 10
2126.038332934481
 20
454.3420580580455
 10
2126.038332934481
 20
454.2341791844455
 10
2126.038332934481
 20
454.1216619788705
 10
2126.038332934481
 20
454.0046864448471
 10
2126.038332934481
 20
453.8834397182762
 10
2126.038332934481
 20
453.7581157680556
 10
2126.038332934481
 20
453.6289150857718
 10
2126.038332934481
 20
453.4960443649544
 10
2126.038332934481
 20
453.3597161704129
 10
2126.038332934481
 20
453.2201485981769
 10
2126.038332934481
 20
453.0775649265885
 10
2126.038332934481
 20
452.9321932591071
 10
2126.038332934481
 20
452.7842661593885
 10
2126.038332934481
 20
452.6340202792368
 10
2126.038332934481
 20
452.4816959800097
 10
2126.038332934481
 20
452.3275369480912
 10
2126.038332934481
 20
452.1717898050475
 10
2126.038332934481
 20
452.0147037130826
 10
2126.038332934481
 20
451.8565299764343
 10
2126.038332934481
 20
451.6975216393392
 10
2126.038332934481
 20
451.5379330812161
 10
2126.038332934481
 20
451.3780196097148
 10
2126.038332934481
 20
451.3348351414817
  0
LWPOLYLINE
  5
440
330
71
100
AcDbEntity
  8
0
100
AcDbPolyline
 90
       11
 70
   128
 43
0.0
 10
2121.03833293448
 20
451.3348351414817
 10
2121.03833293448
 20
451.4947924782283
 10
2121.03833293448
 20
451.6544939173586
 10
2121.03833293448
 20
451.8136839706376
 10
2121.03833293448
 20
451.9721079679388
 10
2121.03833293448
 20
452.1295124646622
 10
2121.03833293448
 20
452.2856456471903
 10
2121.03833293448
 20
452.4402577357384
 10
2121.03833293448
 20
452.5931013839461
 10
2121.03833293448
 20
452.7439320745823
 10
2121.03833293448
 20
452.8360429812781
  0
LINE
  5
441
330
71
100
AcDbEntity
  8
0
100
AcDbLine
 10
2114.538332934462
 20
384.3348351415169
 30
0.0
 11
2114.538332934462
 21
526.3348351415169
 31
0.0
  0
LINE
  5
442
330
71
100
AcDbEntity
  8
0
100
AcDbLine
 10
2114.538332934462
 20
526.3348351415169
 30
0.0
 11
1874.788332934462
 21
526.3348351415169
 31
0.0
  0
LINE
  5
443
330
71
100
AcDbEntity
  8
0
100
AcDbLine
 10
1874.788332934462
 20
526.3348351415169
 30
0.0
 11
1874.788332934462
 21
384.3348351415171
 31
0.0
  0
LINE
  5
444
330
71
100
AcDbEntity
  8
0
100
AcDbLine
 10
1874.788332934462
 20
384.3348351415171
 30
0.0
 11
2114.538332934462
 21
384.3348351415169
 31
0.0
  0
ARC
  5
445
330
71
100
AcDbEntity
  8
0
100
AcDbCircle
 10
1994.66333293448
 20
455.3348351414782
 30
0.0
 40
69.7499999999999
100
AcDbArc
 50
0.0
 51
180.0
  0
ARC
  5
446
330
71
100
AcDbEntity
  8
0
100
AcDbCircle
 10
1994.66333293448
 20
455.3348351414782
 30
0.0
 40
69.7499999999999
100
AcDbArc
 50
180.0
 51
0.0
  0
ARC
  5
447
330
71
100
AcDbEntity
  8
0
100
AcDbCircle
 10
1994.66333293448
 20
455.3348351414777
 30
0.0
 40
68.24999999999988
100
AcDbArc
 50
0.0
 51
180.0
  0
ARC
  5
448
330
71
100
AcDbEntity
  8
0
100
AcDbCircle
 10
1994.66333293448
 20
455.3348351414777
 30
0.0
 40
68.24999999999993
100
AcDbArc
 50
180.0
 51
0.0
  0
ARC
  5
449
330
71
100
AcDbEntity
  8
0
100
AcDbCircle
 10
1994.66333293448
 20
455.3348351414776
 30
0.0
 40
2.999999999999993
100
AcDbArc
 50
0.0
 51
180.0
  0
ARC
  5
44A
330
71
100
AcDbEntity
  8
0
100
AcDbCircle
 10
1994.66333293448
 20
455.3348351414776
 30
0.0
 40
3.0
100
AcDbArc
 50
180.0
 51
0.0
  0
LINE
  5
44B
330
71
100
AcDbEntity
  8
0
100
AcDbLine
 10
2114.78833293448
 20
468.9598351414817
 30
0.0
 11
2114.538332934483
 21
468.9598351414817
 31
0.0
  0
LINE
  5
44C
330
71
100
AcDbEntity
  8
0
100
AcDbLine
 10
2114.538332934483
 20
465.9598351414817
 30
0.0
 11
2114.78833293448
 21
465.9598351414817
 31
0.0
  0
LINE
  5
44D
330
71
100
AcDbEntity
  8
0
100
AcDbLine
 10
2114.78833293448
 20
393.5848351414816
 30
0.0
 11
2114.538332934483
 21
393.5848351414816
 31
0.0
  0
LINE
  5
44E
330
71
100
AcDbEntity
  8
0
100
AcDbLine
 10
2114.538332934483
 20
391.5848351414817
 30
0.0
 11
2114.78833293448
 21
391.5848351414817
 31
0.0
  0
LINE
  5
44F
330
71
100
AcDbEntity
  8
0
100
AcDbLine
 10
2114.78833293448
 20
516.5848351414816
 30
0.0
 11
2114.538332934483
 21
516.5848351414816
 31
0.0
  0
LINE
  5
450
330
71
100
AcDbEntity
  8
0
100
AcDbLine
 10
2114.538332934483
 20
515.0848351414818
 30
0.0
 11
2114.78833293448
 21
515.0848351414818
 31
0.0
  0
LINE
  5
451
330
71
100
AcDbEntity
  8
0
100
AcDbLine
 10
2114.78833293448
 20
468.9598351414813
 30
0.0
 11
2114.78833293448
 21
465.9598351414813
 31
0.0
  0
LINE
  5
452
330
71
100
AcDbEntity
  8
0
100
AcDbLine
 10
2114.78833293448
 20
393.5848351414814
 30
0.0
 11
2114.78833293448
 21
391.5848351414814
 31
0.0
  0
LINE
  5
453
330
71
100
AcDbEntity
  8
0
100
AcDbLine
 10
2114.78833293448
 20
516.5848351414813
 30
0.0
 11
2114.78833293448
 21
515.0848351414813
 31
0.0
  0
LINE
  5
454
330
71
100
AcDbEntity
  8
0
100
AcDbLine
 10
2123.538332934479
 20
422.9598351414818
 30
0.0
 11
2114.53833293448
 21
422.9598351414818
 31
0.0
  0
LINE
  5
455
330
71
100
AcDbEntity
  8
0
100
AcDbLine
 10
2114.53833293448
 20
418.9598351414818
 30
0.0
 11
2123.538332934479
 21
418.9598351414818
 31
0.0
  0
LINE
  5
456
330
71
100
AcDbEntity
  8
0
100
AcDbLine
 10
2123.538332934481
 20
491.7098351414818
 30
0.0
 11
2114.53833293448
 21
491.7098351414818
 31
0.0
  0
LINE
  5
457
330
71
100
AcDbEntity
  8
0
100
AcDbLine
 10
2114.53833293448
 20
487.709835141482
 30
0.0
 11
2123.538332934481
 21
487.709835141482
 31
0.0
  0
LINE
  5
458
330
71
100
AcDbEntity
  8
0
100
AcDbLine
 10
2123.538332934479
 20
422.9598351414817
 30
0.0
 11
2123.538332934479
 21
418.9598351414817
 31
0.0
  0
LINE
  5
459
330
71
100
AcDbEntity
  8
0
100
AcDbLine
 10
2123.538332934479
 20
491.7098351414817
 30
0.0
 11
2123.538332934479
 21
487.7098351414817
 31
0.0
  0
LINE
  5
45A
330
71
100
AcDbEntity
  8
0
100
AcDbLine
 10
1601.770183529998
 20
198.9999999999972
 30
0.0
 11
1743.770183529997
 21
198.9999999999976
 31
0.0
  0
LINE
  5
45B
330
71
100
AcDbEntity
  8
0
100
AcDbLine
 10
1743.770183529998
 20
158.2450353879073
 30
0.0
 11
1601.770183529998
 21
158.2450353879068
 31
0.0
  0
LINE
  5
45C
330
71
100
AcDbEntity
  8
0
100
AcDbLine
 10
1601.770183529998
 20
158.2450353879068
 30
0.0
 11
1601.770183529998
 21
198.9999999999972
 31
0.0
  0
LINE
  5
45D
330
71
100
AcDbEntity
  8
0
100
AcDbLine
 10
1743.770183529998
 20
158.2450353879073
 30
0.0
 11
1743.770183529997
 21
198.9999999999976
 31
0.0
  0
LWPOLYLINE
  5
45E
330
71
100
AcDbEntity
  8
0
100
AcDbPolyline
 90
       41
 70
   128
 43
0.0
 10
1603.020183530036
 20
199.0000000000013
 10
1603.140151532596
 20
199.0023996800182
 10
1603.259927611943
 20
199.0095948810934
 10
1603.379320151903
 20
199.0215740924397
 10
1603.498138149879
 20
199.0383181498745
 10
1603.616191522421
 20
199.0598002664776
 10
1603.733291409317
 20
199.0859860754451
 10
1603.849250475728
 20
199.1168336850688
 10
1603.963883211885
 20
199.152293745754
 10
1604.077006229861
 20
199.1923095289675
 10
1604.188438556962
 20
199.2368170179925
 10
1604.298001925234
 20
199.2857450103413
 10
1604.40552105666
 20
199.3390152316635
 10
1604.510823943567
 20
199.3965424609683
 10
1604.613742123799
 20
199.4582346669609
 10
1604.714110950221
 20
199.5239931552721
 10
1604.811769854123
 20
199.5937127263484
 10
1604.906562602091
 20
199.6672818437484
 10
1604.99833754595
 20
199.7445828125787
 10
1605.086947865367
 20
199.8254919677784
 10
1605.172251802734
 20
199.9098798719596
 10
1605.254112889948
 20
199.9976115224773
 10
1605.332400166733
 20
200.0885465674055
 10
1605.406988390145
 20
200.1825395300709
 10
1605.477758234939
 20
200.2794400417838
 10
1605.54459648446
 20
200.3790930823967
 10
1605.607396211766
 20
200.481339228303
 10
1605.666056950691
 20
200.58601490748
 10
1605.720484856566
 20
200.692952661171
 10
1605.770592856351
 20
200.8019814117824
 10
1605.816300787938
 20
200.9129267365712
 10
1605.857535528384
 20
201.0256111466849
 10
1605.894231110904
 20
201.1398543711054
 10
1605.926328830391
 20
201.255473645044
 10
1605.953777337342
 20
201.3722840023269
 10
1605.976532720001
 20
201.4900985713005
 10
1605.994558574611
 20
201.6087288737867
 10
1606.007826063649
 20
201.7279851266082
 10
1606.016313961963
 20
201.8476765452005
 10
1606.020008690726
 20
201.9676116488263
 10
1606.020183530036
 20
202.0000000000013
  0
LWPOLYLINE
  5
45F
330
71
100
AcDbEntity
  8
0
100
AcDbPolyline
 90
       41
 70
   128
 43
0.0
 10
1739.520183530036
 20
201.9999999999992
 10
1739.522583210053
 20
201.8800319974394
 10
1739.529778411128
 20
201.7602559180919
 10
1739.541757622474
 20
201.6408633781327
 10
1739.558501679909
 20
201.5220453801566
 10
1739.579983796512
 20
201.4039920076141
 10
1739.60616960548
 20
201.2868921207179
 10
1739.637017215104
 20
201.1709330543071
 10
1739.672477275789
 20
201.0563003181508
 10
1739.712493059002
 20
200.9431773001741
 10
1739.757000548027
 20
200.8317449730734
 10
1739.805928540376
 20
200.7221816048014
 10
1739.859198761698
 20
200.6146624733749
 10
1739.916725991003
 20
200.5093595864682
 10
1739.978418196996
 20
200.4064414062366
 10
1740.044176685307
 20
200.3060725798142
 10
1740.113896256383
 20
200.2084136759123
 10
1740.187465373783
 20
200.1136209279439
 10
1740.264766342613
 20
200.0218459840849
 10
1740.345675497813
 20
199.9332356646677
 10
1740.430063401995
 20
199.8479317273009
 10
1740.517795052512
 20
199.7660706400868
 10
1740.60873009744
 20
199.6877833633025
 10
1740.702723060106
 20
199.6131951398901
 10
1740.799623571819
 20
199.5424252950961
 10
1740.899276612432
 20
199.4755870455756
 10
1741.001522758338
 20
199.412787318269
 10
1741.106198437515
 20
199.3541265793446
 10
1741.213136191206
 20
199.2996986734697
 10
1741.322164941817
 20
199.2495906736841
 10
1741.433110266606
 20
199.2038827420977
 10
1741.54579467672
 20
199.1626480016505
 10
1741.66003790114
 20
199.1259524191318
 10
1741.775657175079
 20
199.0938546996445
 10
1741.892467532362
 20
199.0664061926931
 10
1742.010282101335
 20
199.0436508100339
 10
1742.128912403822
 20
199.0256249554242
 10
1742.248168656643
 20
199.0123574663864
 10
1742.367860075235
 20
199.0038695680726
 10
1742.487795178861
 20
199.0001748393095
 10
1742.520183530036
 20
198.9999999999994
  0
LINE
  5
460
330
71
100
AcDbEntity
  8
0
100
AcDbLine
 10
1606.020183530036
 20
211.6250000000012
 30
0.0
 11
1606.020183530036
 21
202.0000000000013
 31
0.0
  0
LINE
  5
461
330
71
100
AcDbEntity
  8
0
100
AcDbLine
 10
1739.520183530036
 20
201.9999999999992
 30
0.0
 11
1739.520183530036
 21
211.6249999999994
 31
0.0
  0
LINE
  5
462
330
71
100
AcDbEntity
  8
0
100
AcDbLine
 10
1604.520183530036
 20
211.8750000000013
 30
0.0
 11
1604.520183530036
 21
211.6250000000012
 31
0.0
  0
LINE
  5
463
330
71
100
AcDbEntity
  8
0
100
AcDbLine
 10
1741.020183530036
 20
211.6249999999994
 30
0.0
 11
1741.020183530036
 21
211.8749999999993
 31
0.0
  0
LINE
  5
464
330
71
100
AcDbEntity
  8
0
100
AcDbLine
 10
1669.770183530036
 20
223.0000000000004
 30
0.0
 11
1604.520183530036
 21
211.8750000000013
 31
0.0
  0
LINE
  5
465
330
71
100
AcDbEntity
  8
0
100
AcDbLine
 10
1741.020183530036
 20
211.8749999999993
 30
0.0
 11
1675.770183530036
 21
223.0000000000002
 31
0.0
  0
LINE
  5
466
330
71
100
AcDbEntity
  8
0
100
AcDbLine
 10
1672.770183530037
 20
211.625
 30
0.0
 11
1604.581679086567
 21
211.6250000000009
 31
0.0
  0
LINE
  5
467
330
71
100
AcDbEntity
  8
0
100
AcDbLine
 10
1740.958687973506
 20
211.624999999999
 30
0.0
 11
1672.770183530037
 21
211.625
 31
0.0
  0
LINE
  5
468
330
71
100
AcDbEntity
  8
0
100
AcDbLine
 10
1672.770183530037
 20
211.875
 30
0.0
 11
1604.581679086567
 21
211.8750000000009
 31
0.0
  0
LINE
  5
469
330
71
100
AcDbEntity
  8
0
100
AcDbLine
 10
1740.958687973506
 20
211.8749999999991
 30
0.0
 11
1672.770183530037
 21
211.875
 31
0.0
  0
LINE
  5
46A
330
71
100
AcDbEntity
  8
0
100
AcDbLine
 10
1672.770183530037
 20
223.0
 30
0.0
 11
1669.770183530037
 21
223.0000000000001
 31
0.0
  0
LINE
  5
46B
330
71
100
AcDbEntity
  8
0
100
AcDbLine
 10
1675.770183530036
 20
223.0
 30
0.0
 11
1672.770183530037
 21
223.0
 31
0.0
  0
LINE
  5
46C
330
71
100
AcDbEntity
  8
0
100
AcDbLine
 10
1601.770183530031
 20
158.0
 30
0.0
 11
1743.770183530031
 21
158.0
 31
0.0
  0
LINE
  5
46D
330
71
100
AcDbEntity
  8
0
100
AcDbLine
 10
1743.770183530031
 20
69.625
 30
0.0
 11
1601.770183530031
 21
69.625
 31
0.0
  0
LINE
  5
46E
330
71
100
AcDbEntity
  8
0
100
AcDbLine
 10
1601.770183530031
 20
69.625
 30
0.0
 11
1601.770183530031
 21
158.0
 31
0.0
  0
LINE
  5
46F
330
71
100
AcDbEntity
  8
0
100
AcDbLine
 10
1743.770183530031
 20
69.625
 30
0.0
 11
1743.770183530031
 21
158.0
 31
0.0
  0
LINE
  5
473
330
71
100
AcDbEntity
  8
0
100
AcDbLine
 10
1601.770183530032
 20
69.625
 30
0.0
 11
1743.770183530032
 21
69.625
 31
0.0
  0
LINE
  5
474
330
71
100
AcDbEntity
  8
0
100
AcDbLine
 10
1743.770183530032
 20
0.0
 30
0.0
 11
1601.770183530032
 21
0.0
 31
0.0
  0
LINE
  5
475
330
71
100
AcDbEntity
  8
0
100
AcDbLine
 10
1601.770183530032
 20
63.75000000000087
 30
0.0
 11
1601.770183530032
 21
69.625
 31
0.0
  0
LINE
  5
476
102
{ACAD_REACTORS
330
989
102
}
330
71
100
AcDbEntity
  8
0
100
AcDbLine
 10
1601.770183530032
 20
63.75000000000087
 30
0.0
 11
1743.770183530032
 21
63.75000000000087
 31
0.0
  0
LINE
  5
477
102
{ACAD_REACTORS
330
989
102
}
330
71
100
AcDbEntity
  8
0
100
AcDbLine
 10
1743.770183530032
 20
21.75000000000045
 30
0.0
 11
1601.770183530032
 21
21.75000000000045
 31
0.0
  0
LINE
  5
478
330
71
100
AcDbEntity
  8
0
100
AcDbLine
 10
1601.770183530032
 20
0.0
 30
0.0
 11
1601.770183530032
 21
21.75000000000045
 31
0.0
  0
LINE
  5
479
330
71
100
AcDbEntity
  8
0
100
AcDbLine
 10
1743.770183530032
 20
63.75000000000087
 30
0.0
 11
1743.770183530032
 21
69.625
 31
0.0
  0
LINE
  5
47A
330
71
100
AcDbEntity
  8
0
100
AcDbLine
 10
1743.770183530032
 20
0.0
 30
0.0
 11
1743.770183530032
 21
21.75000000000045
 31
0.0
  0
LINE
  5
47B
330
71
100
AcDbEntity
  8
0
100
AcDbLine
 10
1742.770183530032
 20
63.75000000000085
 30
0.0
 11
1742.770183530032
 21
21.75000000000042
 31
0.0
  0
LINE
  5
47C
330
71
100
AcDbEntity
  8
0
100
AcDbLine
 10
1741.395183530032
 20
63.75000000000085
 30
0.0
 11
1741.395183530032
 21
21.75000000000043
 31
0.0
  0
LINE
  5
47D
102
{ACAD_REACTORS
330
989
102
}
330
71
100
AcDbEntity
  8
0
100
AcDbLine
 10
1738.020183530032
 20
63.75000000000087
 30
0.0
 11
1738.020183530032
 21
21.75000000000043
 31
0.0
  0
LINE
  5
47E
102
{ACAD_REACTORS
330
989
102
}
330
71
100
AcDbEntity
  8
0
100
AcDbLine
 10
1674.520183530033
 20
63.75000000000087
 30
0.0
 11
1674.520183530033
 21
21.75000000000043
 31
0.0
  0
LINE
  5
47F
102
{ACAD_REACTORS
330
989
102
}
330
71
100
AcDbEntity
  8
0
100
AcDbLine
 10
1671.020183530033
 20
21.75000000000043
 30
0.0
 11
1671.020183530033
 21
63.75000000000087
 31
0.0
  0
LINE
  5
480
102
{ACAD_REACTORS
330
989
102
}
330
71
100
AcDbEntity
  8
0
100
AcDbLine
 10
1607.520183530033
 20
63.75000000000087
 30
0.0
 11
1607.520183530033
 21
21.75000000000043
 31
0.0
  0
LINE
  5
481
330
71
100
AcDbEntity
  8
0
100
AcDbLine
 10
1604.145183530032
 20
63.75000000000085
 30
0.0
 11
1604.145183530032
 21
21.75000000000043
 31
0.0
  0
LINE
  5
482
330
71
100
AcDbEntity
  8
0
100
AcDbLine
 10
1602.770183530032
 20
63.75000000000085
 30
0.0
 11
1602.770183530032
 21
21.75000000000042
 31
0.0
  0
LINE
  5
483
330
71
100
AcDbEntity
  8
0
100
AcDbLine
 10
2119.538332934478
 20
150.8750000000034
 30
0.0
 11
2114.538332934478
 21
150.8750000000034
 31
0.0
  0
LINE
  5
484
330
71
100
AcDbEntity
  8
0
100
AcDbLine
 10
2114.538332934478
 20
145.8750000000033
 30
0.0
 11
2119.538332934478
 21
145.8750000000033
 31
0.0
  0
LWPOLYLINE
  5
485
330
71
100
AcDbEntity
  8
0
100
AcDbPolyline
 90
       41
 70
   128
 43
0.0
 10
2126.038332934479
 20
144.375000000003
 10
2126.033133627776
 20
144.6349306722162
 10
2126.017544025446
 20
144.8944455108026
 10
2125.991589067529
 20
145.1531293473809
 10
2125.955310276421
 20
145.4105683429957
 10
2125.908765690447
 20
145.6663506501711
 10
2125.852029771017
 20
145.9200670717795
 10
2125.785193283499
 20
146.1713117156697
 10
2125.708363152015
 20
146.4196826440078
 10
2125.621662288386
 20
146.6647825162912
 10
2125.525229395497
 20
146.9062192250092
 10
2125.419218745409
 20
147.1436065229321
 10
2125.303799932544
 20
147.3765646410228
 10
2125.179157602383
 20
147.6047208959876
 10
2125.045491156066
 20
147.827710286489
 10
2124.903014431392
 20
148.0451760770709
 10
2124.751955360727
 20
148.2567703688588
 10
2124.59255560636
 20
148.4621546561232
 10
2124.425070173895
 20
148.6610003678179
 10
2124.249767004295
 20
148.8529893932221
 10
2124.066926545235
 20
149.0378145908502
 10
2123.876841302447
 20
149.2151802798137
 10
2123.67981537177
 20
149.3848027128468
 10
2123.476163952661
 20
149.5464105302398
 10
2123.26621284395
 20
149.6997451939599
 10
2123.050297922622
 20
149.8445614012548
 10
2122.828764606492
 20
149.9806274770851
 10
2122.601967301608
 20
150.1077257447555
 10
2122.370268835277
 20
150.2256528741507
 10
2122.134039875619
 20
150.3342202070199
 10
2121.893658338577
 20
150.4332540587903
 10
2121.649508783331
 20
150.5225959964254
 10
2121.401981797086
 20
150.6021030918833
 10
2121.15147337022
 20
150.6716481507722
 10
2120.898384262773
 20
150.7311199158329
 10
2120.643119363331
 20
150.7804232449283
 10
2120.386087041276
 20
150.8194792632494
 10
2120.127698493496
 20
150.848225489498
 10
2119.868367086547
 20
150.8666159358448
 10
2119.608507695357
 20
150.8746211814982
 10
2119.538332934478
 20
150.8750000000034
  0
LWPOLYLINE
  5
486
330
71
100
AcDbEntity
  8
0
100
AcDbPolyline
 90
       41
 70
   128
 43
0.0
 10
2119.538332934478
 20
145.8750000000033
 10
2119.598316935758
 20
145.8738001599948
 10
2119.658204975432
 20
145.8702025594572
 10
2119.717901245412
 20
145.8642129537842
 10
2119.7773102444
 20
145.8558409250668
 10
2119.836336930671
 20
145.8450998667653
 10
2119.89488687412
 20
145.8320069622815
 10
2119.952866407325
 20
145.8165831574694
 10
2120.010182775402
 20
145.7988531271269
 10
2120.066744284391
 20
145.7788452355202
 10
2120.122460447942
 20
145.7565914910077
 10
2120.177242132077
 20
145.7321274948334
 10
2120.231001697792
 20
145.7054923841723
 10
2120.283653141244
 20
145.6767287695199
 10
2120.33511223136
 20
145.6458826665235
 10
2120.385296644571
 20
145.6130034223679
 10
2120.434126096522
 20
145.5781436368297
 10
2120.481522470507
 20
145.5413590781297
 10
2120.527409942436
 20
145.5027085937147
 10
2120.571715102145
 20
145.4622540161147
 10
2120.614367070828
 20
145.4200600640239
 10
2120.655297614435
 20
145.3761942387653
 10
2120.694441252827
 20
145.3307267163011
 10
2120.731735364533
 20
145.2837302349685
 10
2120.76712028693
 20
145.2352799791117
 10
2120.800539411691
 20
145.1854534588055
 10
2120.831939275344
 20
145.1343303858523
 10
2120.861269644807
 20
145.0819925462637
 10
2120.888483597744
 20
145.0285236694181
 10
2120.913537597636
 20
144.9740092941125
 10
2120.93639156343
 20
144.918536631718
 10
2120.957008933653
 20
144.8621944266611
 10
2120.975356724913
 20
144.805072814451
 10
2120.991405584657
 20
144.7472631774815
 10
2121.005129838132
 20
144.6888579988401
 10
2121.016507529462
 20
144.6299507143533
 10
2121.025520456766
 20
144.5706355631102
 10
2121.032154201285
 20
144.5110074366994
 10
2121.036398150442
 20
144.4511617274033
 10
2121.038245514824
 20
144.3911941755904
 10
2121.038332934479
 20
144.3750000000028
  0
LINE
  5
487
330
71
100
AcDbEntity
  8
0
100
AcDbLine
 10
2126.038332934479
 20
136.3750000000029
 30
0.0
 11
2126.038332934479
 21
144.3750000000028
 31
0.0
  0
LINE
  5
488
330
71
100
AcDbEntity
  8
0
100
AcDbLine
 10
2121.038332934479
 20
144.3750000000028
 30
0.0
 11
2121.038332934479
 21
141.7500000000001
 31
0.0
  0
LINE
  5
489
330
71
100
AcDbEntity
  8
0
100
AcDbLine
 10
2121.038332934479
 20
137.7500000000002
 30
0.0
 11
2121.038332934479
 21
136.3750000000029
 31
0.0
  0
LINE
  5
48B
330
71
100
AcDbEntity
  8
0
100
AcDbLine
 10
2114.53833293448
 20
12.24999999999824
 30
0.0
 11
2121.038332934478
 21
12.24999999999824
 31
0.0
  0
LINE
  5
48C
330
71
100
AcDbEntity
  8
0
100
AcDbLine
 10
2121.038332934478
 20
16.25000000000022
 30
0.0
 11
2114.53833293448
 21
16.25000000000022
 31
0.0
  0
LINE
  5
48D
330
71
100
AcDbEntity
  8
0
100
AcDbLine
 10
2126.038332934478
 20
9.849999999998198
 30
0.0
 11
2127.788332934478
 21
9.849999999998198
 31
0.0
  0
LINE
  5
48E
330
71
100
AcDbEntity
  8
0
100
AcDbLine
 10
2127.788332934478
 20
18.65000000000026
 30
0.0
 11
2126.038332934478
 21
18.65000000000026
 31
0.0
  0
LWPOLYLINE
  5
48F
330
71
100
AcDbEntity
  8
0
100
AcDbPolyline
 90
       80
 70
   128
 43
0.0
 10
2127.788332934478
 20
18.9000000000002
 10
2127.788332934478
 20
18.89628049597382
 10
2127.788332934478
 20
18.88512793430754
 10
2127.788332934478
 20
18.86656015672059
 10
2127.788332934478
 20
18.84060686769709
 10
2127.788332934478
 20
18.80730958696199
 10
2127.788332934478
 20
18.76672158306211
 10
2127.788332934478
 20
18.7189077881452
 10
2127.788332934478
 20
18.66394469408356
 10
2127.788332934478
 20
18.60192023010267
 10
2127.788332934478
 20
18.5329336221136
 10
2127.788332934478
 20
18.45709523397289
 10
2127.788332934478
 20
18.3745263909239
 10
2127.788332934478
 20
18.28535918550113
 10
2127.788332934478
 20
18.18973626621254
 10
2127.788332934478
 20
18.08781060933
 10
2127.788332934478
 20
17.97974527416198
 10
2127.788332934478
 20
17.8657131421919
 10
2127.788332934478
 20
17.74589664050517
 10
2127.788332934478
 20
17.62048744994524
 10
2127.788332934478
 20
17.48968619846436
 10
2127.788332934478
 20
17.35370214016199
 10
2127.788332934478
 20
17.21275282052329
 10
2127.788332934478
 20
17.06706372839192
 10
2127.788332934478
 20
16.91686793523672
 10
2127.788332934478
 20
16.76240572228669
 10
2127.788332934478
 20
16.60392419613236
 10
2127.788332934478
 20
16.44167689340758
 10
2127.788332934478
 20
16.2759233751866
 10
2127.788332934478
 20
16.10692881173878
 10
2127.788332934478
 20
15.93496355831632
 10
2127.788332934478
 20
15.76030272263994
 10
2127.788332934478
 20
15.58322572478823
 10
2127.788332934478
 20
15.40401585018293
 10
2127.788332934478
 20
15.22295979639454
 10
2127.788332934478
 20
15.04034721448556
 10
2127.788332934478
 20
14.85647024563178
 10
2127.788332934478
 20
14.67162305375842
 10
2127.788332934478
 20
14.48610135494038
 10
2127.788332934478
 20
14.30020194432012
 10
2127.788332934478
 20
14.11422222129834
 10
2127.788332934478
 20
13.92845971375771
 10
2127.788332934478
 20
13.74321160208387
 10
2127.788332934478
 20
13.55877424373716
 10
2127.788332934478
 20
13.37544269914713
 10
2127.788332934478
 20
13.19351025967625
 10
2127.788332934478
 20
13.01326797841722
 10
2127.788332934478
 20
12.83500420457073
 10
2127.788332934478
 20
12.65900412214728
 10
2127.788332934478
 20
12.48554929373398
 10
2127.788332934478
 20
12.31491721005466
 10
2127.788332934478
 20
12.14738084604357
 10
2127.788332934478
 20
11.98320822414387
 10
2127.788332934478
 20
11.8226619855294
 10
2127.788332934478
 20
11.66599896993346
 10
2127.788332934478
 20
11.51346980476148
 10
2127.788332934478
 20
11.36531850413973
 10
2127.788332934478
 20
11.22178207854551
 10
2127.788332934478
 20
11.08309015564043
 10
2127.788332934478
 20
10.94946461291465
 10
2127.788332934478
 20
10.8211192227319
 10
2127.788332934478
 20
10.69825931033688
 10
2127.788332934478
 20
10.58108142538117
 10
2127.788332934478
 20
10.46977302748393
 10
2127.788332934478
 20
10.36451218633738
 10
2127.788332934478
 20
10.26546729683286
 10
2127.788332934478
 20
10.1727968096651
 10
2127.788332934478
 20
10.08664897784484
 10
2127.788332934478
 20
10.00716161952579
 10
2127.788332934478
 20
9.934461897524952
 10
2127.788332934478
 20
9.868666115889141
 10
2127.788332934478
 20
9.809879533833107
 10
2127.788332934478
 20
9.758196197347782
 10
2127.788332934478
 20
9.71369878874634
 10
2127.788332934478
 20
9.676458494390193
 10
2127.788332934478
 20
9.646534890806206
 10
2127.788332934478
 20
9.623975849376732
 10
2127.788332934478
 20
9.608817459755924
 10
2127.788332934478
 20
9.601083972133263
 10
2127.788332934478
 20
9.599999999998088
  0
LWPOLYLINE
  5
490
330
71
100
AcDbEntity
  8
0
100
AcDbPolyline
 90
       41
 70
   128
 43
0.0
 10
2127.788332934478
 20
18.9000000000002
 10
2127.788932854483
 20
18.92999200064019
 10
2127.790731654751
 20
18.95993602047707
 10
2127.793726457588
 20
18.98978415546696
 10
2127.797912471947
 20
19.01948865496086
 10
2127.803283001097
 20
19.04900199809657
 10
2127.809829453339
 20
19.0782769698207
 10
2127.817541355745
 20
19.10726673642341
 10
2127.826406370916
 20
19.13592492046234
 10
2127.83641031672
 20
19.16420567495663
 10
2127.847537188976
 20
19.19206375673178
 10
2127.859769187063
 20
19.21945459879987
 10
2127.873086742394
 20
19.24633438165636
 10
2127.88746854972
 20
19.27266010338325
 10
2127.902891601219
 20
19.29838964844094
 10
2127.919331223296
 20
19.32348185504645
 10
2127.936761116065
 20
19.34789658102214
 10
2127.955153395415
 20
19.37159476801423
 10
2127.974478637623
 20
19.39453850397887
 10
2127.994705926423
 20
19.41669108383325
 10
2128.015802902468
 20
19.43801706817504
 10
2128.037735815098
 20
19.45848233997827
 10
2128.06046957633
 20
19.47805415917446
 10
2128.083967816996
 20
19.49670121502754
 10
2128.108192944925
 20
19.51439367622595
 10
2128.133106205078
 20
19.53110323860636
 10
2128.158667741554
 20
19.54680317043272
 10
2128.184836661348
 20
19.56146835516403
 10
2128.211571099771
 20
19.57507533163266
 10
2128.238828287424
 20
19.58760233157903
 10
2128.266564618621
 20
19.59902931447567
 10
2128.29473572115
 20
19.60933799958735
 10
2128.323296527254
 20
19.61851189521723
 10
2128.352201345739
 20
19.62653632508892
 10
2128.38140393506
 20
19.63339845182673
 10
2128.410857577303
 20
19.63908729749169
 10
2128.440515152925
 20
19.64359376114407
 10
2128.47032921613
 20
19.64691063340342
 10
2128.500252070778
 20
19.64903260798189
 10
2128.530235846685
 20
19.64995629017272
 10
2128.538332934478
 20
19.6500000000002
  0
LWPOLYLINE
  5
491
330
71
100
AcDbEntity
  8
0
100
AcDbPolyline
 90
       41
 70
   128
 43
0.0
 10
2128.538332934478
 20
8.849999999998258
 10
2128.508340933838
 20
8.850599920002535
 10
2128.478396914001
 20
8.852398720271422
 10
2128.448548779012
 20
8.855393523107863
 10
2128.418844279518
 20
8.859579537466514
 10
2128.389330936382
 20
8.86495006661738
 10
2128.360055964658
 20
8.871496518859201
 10
2128.331066198055
 20
8.879208421265216
 10
2128.302408014016
 20
8.888073436436568
 10
2128.274127259522
 20
8.898077382239819
 10
2128.246269177747
 20
8.909204254495987
 10
2128.218878335679
 20
8.921436252583132
 10
2128.191998552822
 20
8.934753807913693
 10
2128.165672831096
 20
8.949135615240091
 10
2128.139943286038
 20
8.964558666738296
 10
2128.114851079432
 20
8.980998288815893
 10
2128.090436353457
 20
8.998428181585095
 10
2128.066738166464
 20
9.016820460935091
 10
2128.043794430499
 20
9.036145703142606
 10
2128.021641850645
 20
9.056372991942676
 10
2128.000315866303
 20
9.077469967987893
 10
2127.9798505945
 20
9.099402880617443
 10
2127.960278775304
 20
9.122136641849404
 10
2127.941631719451
 20
9.145634882515707
 10
2127.923939258253
 20
9.169860010443812
 10
2127.907229695872
 20
9.194773270597123
 10
2127.891529764045
 20
9.220334807073641
 10
2127.876864579315
 20
9.246503726867898
 10
2127.863257602847
 20
9.273238165290649
 10
2127.8507306029
 20
9.300495352943583
 10
2127.839303620003
 20
9.328231684140687
 10
2127.828994934891
 20
9.356402786669091
 10
2127.819821039262
 20
9.384963592774337
 10
2127.81179660939
 20
9.413868411259043
 10
2127.804934482652
 20
9.443071000579662
 10
2127.799245636987
 20
9.472524642823199
 10
2127.794739173335
 20
9.502182218444655
 10
2127.791422301076
 20
9.531996281650091
 10
2127.789300326497
 20
9.561919136298113
 10
2127.788376644306
 20
9.591902912204655
 10
2127.788332934478
 20
9.599999999998088
  0
LWPOLYLINE
  5
492
330
71
100
AcDbEntity
  8
0
100
AcDbPolyline
 90
        4
 70
   128
 43
0.0
 10
2127.788332934478
 20
9.599999999998088
 10
2127.788332934478
 20
9.603719504024807
 10
2127.788332934478
 20
9.614872065691086
 10
2127.788332934478
 20
9.622553189619905
  0
LWPOLYLINE
  5
493
330
71
100
AcDbEntity
  8
0
100
AcDbPolyline
 90
        4
 70
   128
 43
0.0
 10
2127.788332934478
 20
18.87805018983056
 10
2127.788332934478
 20
18.8911825402427
 10
2127.788332934478
 20
18.89891602786536
 10
2127.788332934478
 20
18.9000000000002
  0
LINE
  5
494
330
71
100
AcDbEntity
  8
0
100
AcDbLine
 10
2128.538332934478
 20
8.849999999998258
 30
0.0
 11
2146.038332934478
 21
8.849999999998258
 31
0.0
  0
LINE
  5
495
330
71
100
AcDbEntity
  8
0
100
AcDbLine
 10
2146.038332934478
 20
19.6500000000002
 30
0.0
 11
2128.538332934478
 21
19.6500000000002
 31
0.0
  0
LWPOLYLINE
  5
496
330
71
100
AcDbEntity
  8
0
100
AcDbPolyline
 90
       80
 70
   128
 43
0.0
 10
2147.538332934479
 20
10.34999999999809
 10
2147.538332934479
 20
10.35311958402053
 10
2147.538332934479
 20
10.36247334541809
 10
2147.538332934479
 20
10.37804632016826
 10
2147.538332934479
 20
10.39981359483346
 10
2147.538332934479
 20
10.42774034641752
 10
2147.538332934479
 20
10.4617818980754
 10
2147.538332934479
 20
10.5018837905863
 10
2147.538332934479
 20
10.54798186947675
 10
2147.538332934479
 20
10.60000238765439
 10
2147.538332934479
 20
10.65786212338696
 10
2147.538332934479
 20
10.72146851344052
 10
2147.538332934479
 20
10.79071980115912
 10
2147.538332934479
 20
10.86550519925549
 10
2147.538332934479
 20
10.94570506704604
 10
2147.538332934479
 20
11.03119110185082
 10
2147.538332934479
 20
11.12182654424981
 10
2147.538332934479
 20
11.21746639686989
 10
2147.538332934479
 20
11.3179576563491
 10
2147.538332934479
 20
11.42313955810897
 10
2147.538332934479
 20
11.5328438335448
 10
2147.538332934479
 20
11.64689497921745
 10
2147.538332934479
 20
11.76511053762419
 10
2147.538332934479
 20
11.88730138908925
 10
2147.538332934479
 20
12.01327205431619
 10
2147.538332934479
 20
12.14282100711307
 10
2147.538332934479
 20
12.27574099679088
 10
2147.538332934479
 20
12.41181937972123
 10
2147.538332934479
 20
12.55083845951963
 10
2147.538332934479
 20
12.69257583531435
 10
2147.538332934479
 20
12.83680475754005
 10
2147.538332934479
 20
12.98329449068768
 10
2147.538332934479
 20
13.13181068243432
 10
2147.538332934479
 20
13.28211573855492
 10
2147.538332934479
 20
13.43396920302268
 10
2147.538332934479
 20
13.58712814268813
 10
2147.538332934479
 20
13.74134753592045
 10
2147.538332934479
 20
13.89638066458837
 10
2147.538332934479
 20
14.05197950875839
 10
2147.538332934479
 20
14.20789514347194
 10
2147.538332934479
 20
14.36387813697433
 10
2147.538332934479
 20
14.51967894975024
 10
2147.538332934479
 20
14.67504833373487
 10
2147.538332934479
 20
14.82973773105771
 10
2147.538332934479
 20
14.98349967168172
 10
2147.538332934479
 20
15.13608816930246
 10
2147.538332934479
 20
15.28725911487464
 10
2147.538332934479
 20
15.43677066713286
 10
2147.538332934479
 20
15.58438363948812
 10
2147.538332934479
 20
15.7298618826735
 10
2147.538332934479
 20
15.87297266253364
 10
2147.538332934479
 20
16.01348703234924
 10
2147.538332934479
 20
16.15118019910386
 10
2147.538332934479
 20
16.28583188310318
 10
2147.538332934479
 20
16.4172266703772
 10
2147.538332934479
 20
16.54515435729575
 10
2147.538332934479
 20
16.66941028684942
 10
2147.538332934479
 20
16.78979567605739
 10
2147.538332934479
 20
16.90611793397772
 10
2147.538332934479
 20
17.01819096981222
 10
2147.538332934479
 20
17.12583549061082
 10
2147.538332934479
 20
17.22887928810348
 10
2147.538332934479
 20
17.32715751419522
 10
2147.538332934479
 20
17.42051294468978
 10
2147.538332934479
 20
17.50879623081277
 10
2147.538332934479
 20
17.59186613813915
 10
2147.538332934479
 20
17.66958977253801
 10
2147.538332934479
 20
17.7418427927742
 10
2147.538332934479
 20
17.80850960942893
 10
2147.538332934479
 20
17.8694835698165
 10
2147.538332934479
 20
17.924667128608
 10
2147.538332934479
 20
17.9739720038808
 10
2147.538332934479
 20
18.01731931835229
 10
2147.538332934479
 20
18.05463972556634
 10
2147.538332934479
 20
18.08587352083293
 10
2147.538332934479
 20
18.11097073674204
 10
2147.538332934479
 20
18.12989122310216
 10
2147.538332934479
 20
18.14260471117131
 10
2147.538332934479
 20
18.14909086208086
 10
2147.538332934479
 20
18.1500000000002
  0
LWPOLYLINE
  5
497
330
71
100
AcDbEntity
  8
0
100
AcDbPolyline
 90
       41
 70
   128
 43
0.0
 10
2146.038332934478
 20
19.6500000000002
 10
2146.098316935759
 20
19.64880015999182
 10
2146.158204975432
 20
19.64520255945421
 10
2146.217901245412
 20
19.63921295378099
 10
2146.277310244399
 20
19.63084092506369
 10
2146.336336930671
 20
19.6200998667623
 10
2146.394886874119
 20
19.60700696227831
 10
2146.452866407325
 20
19.59158315746645
 10
2146.510182775404
 20
19.57385312712392
 10
2146.566744284391
 20
19.55384523551708
 10
2146.622460447941
 20
19.53159149100474
 10
2146.677242132078
 20
19.50712749483028
 10
2146.73100169779
 20
19.48049238416916
 10
2146.783653141244
 20
19.4517287695167
 10
2146.835112231359
 20
19.42088266652046
 10
2146.885296644571
 20
19.38800342236493
 10
2146.934126096522
 20
19.35314363682669
 10
2146.981522470506
 20
19.31635907812653
 10
2147.027409942436
 20
19.27770859371167
 10
2147.071715102144
 20
19.2372540161117
 10
2147.114367070828
 20
19.19506006402093
 10
2147.155297614435
 20
19.15119423876234
 10
2147.194441252828
 20
19.10572671629807
 10
2147.231735364533
 20
19.05873023496548
 10
2147.26712028693
 20
19.0102799791091
 10
2147.300539411691
 20
18.96045345880247
 10
2147.331939275343
 20
18.90933038584944
 10
2147.361269644806
 20
18.85699254626092
 10
2147.388483597743
 20
18.80352366941542
 10
2147.413537597637
 20
18.74900929410972
 10
2147.436391563429
 20
18.69353663171534
 10
2147.457008933653
 20
18.63719442665836
 10
2147.475356724912
 20
18.58007281444821
 10
2147.491405584656
 20
18.52226317747897
 10
2147.505129838132
 20
18.46385799883739
 10
2147.516507529461
 20
18.40495071435066
 10
2147.525520456766
 20
18.3456355631074
 10
2147.532154201285
 20
18.28600743669687
 10
2147.536398150442
 20
18.22616172740066
 10
2147.538245514823
 20
18.16619417558774
 10
2147.538332934479
 20
18.1500000000002
  0
LWPOLYLINE
  5
498
330
71
100
AcDbEntity
  8
0
100
AcDbPolyline
 90
       41
 70
   128
 43
0.0
 10
2147.538332934479
 20
10.34999999999809
 10
2147.53713309447
 20
10.29001599871827
 10
2147.533535493932
 20
10.23012795904452
 10
2147.527545888259
 20
10.17043168906491
 10
2147.519173859542
 20
10.11102269007676
 10
2147.508432801242
 20
10.05199600380552
 10
2147.495339896756
 20
9.993446060357424
 10
2147.479916091944
 20
9.935466527152014
 10
2147.462186061601
 20
9.87815015907415
 10
2147.442178169995
 20
9.821588650085571
 10
2147.419924425484
 20
9.765872486535267
 10
2147.395460429308
 20
9.711090802399267
 10
2147.368825318647
 20
9.657331236686102
 10
2147.340061703995
 20
9.604679793232831
 10
2147.309215600998
 20
9.553220703116775
 10
2147.276336356843
 20
9.503036289905592
 10
2147.241476571305
 20
9.454206837954695
 10
2147.204692012605
 20
9.406810463970712
 10
2147.16604152819
 20
9.36092299204091
 10
2147.12558695059
 20
9.316617832332322
 10
2147.083392998499
 20
9.273965863649094
 10
2147.03952717324
 20
9.233035320041947
 10
2146.994059650776
 20
9.193891681649914
 10
2146.947063169444
 20
9.156597569943754
 10
2146.898612913587
 20
9.121212647546766
 10
2146.84878639328
 20
9.087793522786451
 10
2146.797663320328
 20
9.056393659133386
 10
2146.745325480739
 20
9.027063289670927
 10
2146.691856603893
 20
8.999849336733346
 10
2146.637342228588
 20
8.974795336840596
 10
2146.581869566193
 20
8.951941371047494
 10
2146.525527361137
 20
8.931324000823789
 10
2146.468405748926
 20
8.912976209564359
 10
2146.410596111957
 20
8.896927349820826
 10
2146.352190933315
 20
8.883203096345367
 10
2146.293283648829
 20
8.871825405015611
 10
2146.233968497585
 20
8.862812477710685
 10
2146.174340371175
 20
8.856178733191653
 10
2146.114494661879
 20
8.851934784034879
 10
2146.054527110066
 20
8.850087419653387
 10
2146.038332934478
 20
8.849999999998258
  0
LWPOLYLINE
  5
499
330
71
100
AcDbEntity
  8
0
100
AcDbPolyline
 90
        5
 70
   128
 43
0.0
 10
2147.538332934479
 20
18.1500000000002
 10
2147.538332934479
 20
18.1468804159781
 10
2147.538332934479
 20
18.13752665458054
 10
2147.538332934479
 20
18.12195367983036
 10
2147.538332934479
 20
18.11966692624723
  0
LWPOLYLINE
  5
49A
330
71
100
AcDbEntity
  8
0
100
AcDbPolyline
 90
        5
 70
   128
 43
0.0
 10
2147.538332934479
 20
10.38125048933659
 10
2147.538332934479
 20
10.3701087768963
 10
2147.538332934479
 20
10.35739528882714
 10
2147.538332934479
 20
10.35090913791793
 10
2147.538332934479
 20
10.34999999999809
  0
LWPOLYLINE
  5
49B
330
71
100
AcDbEntity
  8
0
100
AcDbPolyline
 90
       47
 70
   128
 43
0.0
 10
2121.038332934478
 20
15.55299794656446
 10
2121.038332934478
 20
15.43219846228334
 10
2121.038332934478
 20
15.21031435738388
 10
2121.038332934478
 20
14.98689395436832
 10
2121.038332934478
 20
14.76229467822156
 10
2121.038332934478
 20
14.5368758398734
 10
2121.038332934478
 20
14.31099806137825
 10
2121.038332934478
 20
14.0850226989973
 10
2121.038332934478
 20
13.85931126510451
 10
2121.038332934478
 20
13.63422484984516
 10
2121.038332934478
 20
13.41012354346776
 10
2121.038332934478
 20
13.1873658602567
 10
2121.038332934478
 20
12.96630816498589
 10
2121.038332934478
 20
12.74730410281148
 10
2121.038332934478
 20
12.53070403351461
 10
2121.038332934478
 20
12.31685447100045
 10
2121.038332934478
 20
12.10609752895044
 10
2121.038332934478
 20
11.89877037351254
 10
2121.038332934478
 20
11.69520468390828
 10
2121.038332934478
 20
11.49572612181555
 10
2121.038332934478
 20
11.3006538103811
 10
2121.038332934478
 20
11.11029982368967
 10
2121.038332934478
 20
10.92496868751323
 10
2121.038332934478
 20
10.74495689213455
 10
2121.038332934478
 20
10.57055241802584
 10
2121.038332934478
 20
10.40203427514143
 10
2121.038332934478
 20
10.23967205656117
 10
2121.038332934478
 20
10.08372550719946
 10
2121.038332934478
 20
9.934444108268335
 10
2121.038332934478
 20
9.792066678161175
 10
2121.038332934478
 20
9.656820990394122
 10
2121.038332934478
 20
9.528923409216183
 10
2121.038332934478
 20
9.408578543474446
 10
2121.038332934478
 20
9.295978919281363
 10
2121.038332934478
 20
9.191304672016027
 10
2121.038332934478
 20
9.094723258144879
 10
2121.038332934478
 20
9.006389187327043
 10
2121.038332934478
 20
8.926443775231915
 10
2121.038332934478
 20
8.855014917464982
 10
2121.038332934478
 20
8.792216884961531
 10
2121.038332934478
 20
8.738150141177182
 10
2121.038332934478
 20
8.692901181368254
 10
2121.038332934478
 20
8.656542394217693
 10
2121.038332934478
 20
8.629131946029527
 10
2121.038332934478
 20
8.610713687672896
 10
2121.038332934478
 20
8.601317084432363
 10
2121.038332934478
 20
8.600000000010592
  0
LWPOLYLINE
  5
49C
330
71
100
AcDbEntity
  8
0
100
AcDbPolyline
 90
       47
 70
   128
 43
0.0
 10
2126.038332934478
 20
8.600000000010592
 10
2126.038332934478
 20
8.604519397375947
 10
2126.038332934478
 20
8.618070359400631
 10
2126.038332934478
 20
8.640631207435996
 10
2126.038332934478
 20
8.672165848937932
 10
2126.038332934478
 20
8.71262383520718
 10
2126.038332934478
 20
8.761940442096202
 10
2126.038332934478
 20
8.820036773554132
 10
2126.038332934478
 20
8.886819887844067
 10
2126.038332934478
 20
8.962182946229402
 10
2126.038332934478
 20
9.046005383893428
 10
2126.038332934478
 20
9.138153102816712
 10
2126.038332934478
 20
9.238478686306219
 10
2126.038332934478
 20
9.346821634830288
 10
2126.038332934478
 20
9.463008622782977
 10
2126.038332934478
 20
9.586853775768814
 10
2126.038332934478
 20
9.718158967962036
 10
2126.038332934478
 20
9.856714139065216
 10
2126.038332934478
 20
10.00229763036179
 10
2126.038332934478
 20
10.15467653932131
 10
2126.038332934478
 20
10.31360709219558
 10
2126.038332934478
 20
10.47883503400328
 10
2126.038332934478
 20
10.65009603528437
 10
2126.038332934478
 20
10.82711611497046
 10
2126.038332934478
 20
11.00961207869647
 10
2126.038332934478
 20
11.19729197185028
 10
2126.038332934478
 20
11.38985554663975
 10
2126.038332934478
 20
11.58699474242286
 10
2126.038332934478
 20
11.78839417854072
 10
2126.038332934478
 20
11.99373165885828
 10
2126.038332934478
 20
12.20267868721004
 10
2126.038332934478
 20
12.41490099292389
 10
2126.038332934478
 20
12.63005906558197
 10
2126.038332934478
 20
12.8478086981662
 10
2126.038332934478
 20
13.06780153771512
 10
2126.038332934478
 20
13.28968564261475
 10
2126.038332934478
 20
13.51310604563013
 10
2126.038332934478
 20
13.73770532177707
 10
2126.038332934478
 20
13.96312416012523
 10
2126.038332934478
 20
14.1890019386202
 10
2126.038332934478
 20
14.41497730100133
 10
2126.038332934478
 20
14.64068873489395
 10
2126.038332934478
 20
14.86577515015346
 10
2126.038332934478
 20
15.08987645653087
 10
2126.038332934478
 20
15.3126341397421
 10
2126.038332934478
 20
15.53369183501274
 10
2126.038332934478
 20
15.55604223190317
  0
LINE
  5
49D
330
71
100
AcDbEntity
  8
0
100
AcDbLine
 10
2126.038332934478
 20
19.89562789803801
 30
0.0
 11
2126.038332934478
 21
19.89868291556626
 31
0.0
  0
LWPOLYLINE
  5
49E
330
71
100
AcDbEntity
  8
0
100
AcDbPolyline
 90
       80
 70
   128
 43
0.0
 10
2126.038332934478
 20
8.600000000010592
 10
2126.036333201131
 20
8.500026664543836
 10
2126.030337200235
 20
8.400213265087584
 10
2126.020354524113
 20
8.300719481788231
 10
2126.006401142917
 20
8.201704483474939
 10
2125.988499379082
 20
8.103326673022817
 10
2125.966677871609
 20
8.005743433942766
 10
2125.940971530255
 20
7.909110878600187
 10
2125.911421479684
 20
7.813583598470187
 10
2125.878074993673
 20
7.719314416822668
 10
2125.840985419486
 20
7.62645414423872
 10
2125.800212092528
 20
7.535151337345437
 10
2125.755820241427
 20
7.445552061156603
 10
2125.707880883672
 20
7.357799655401035
 10
2125.656470712012
 20
7.272034505208177
 10
2125.601671971752
 20
7.188393816522986
 10
2125.54357232919
 20
7.10701139660449
 10
2125.482264731356
 20
7.028017439964115
 10
2125.417847257331
 20
6.951538320081737
 10
2125.35042296133
 20
6.877696387234037
 10
2125.280099707846
 20
6.806609772761587
 10
2125.206989999082
 20
6.738392200083294
 10
2125.131210794974
 20
6.673152802762955
 10
2125.052883326087
 20
6.610995949919526
 10
2124.972132899659
 20
6.552021079257882
 10
2124.889088699148
 20
6.496322537990693
 10
2124.80388357756
 20
6.443989431902079
 10
2124.716653844913
 20
6.395105482797986
 10
2124.62753905017
 20
6.349748894569299
 10
2124.536681757994
 20
6.30799222808099
 10
2124.44422732067
 20
6.269902285092312
 10
2124.350323645575
 20
6.235540001386537
 10
2124.255120958558
 20
6.204960349287487
 10
2124.158771563609
 20
6.178212249714702
 10
2124.061429599207
 20
6.155338493922156
 10
2123.963250791729
 20
6.136375675039231
 10
2123.864392206324
 20
6.121354129531252
 10
2123.765011995639
 20
6.110297888666422
 10
2123.665269146812
 20
6.103224640071458
 10
2123.565323227124
 20
6.100145699435527
 10
2123.465334128725
 20
6.101065992406742
 10
2123.365461812843
 20
6.105984046712475
 10
2123.265866053879
 20
6.114891994515402
 10
2123.1667061838
 20
6.127775584998627
 10
2123.068140837246
 20
6.144614207166452
 10
2122.970327697746
 20
6.165380922814847
 10
2122.873423245456
 20
6.190042509629222
 10
2122.777582506829
 20
6.218559514331387
 10
2122.682958806601
 20
6.250886315797227
 10
2122.589703522508
 20
6.286971198039902
 10
2122.49796584311
 20
6.326756432946182
 10
2122.407892529126
 20
6.370178372627092
 10
2122.319627678643
 20
6.41716755124156
 10
2122.233312496591
 20
6.467648796128227
 10
2122.149085068852
 20
6.521541348063745
 10
2122.06708014134
 20
6.578758990461436
 10
2121.987428904447
 20
6.639210187299567
 10
2121.910258783159
 20
6.702798229558081
 10
2121.835693233212
 20
6.769421389934902
 10
2121.763851543573
 20
6.838973085584994
 10
2121.694848645625
 20
6.911342048632548
 10
2121.628794929284
 20
6.986412504174547
 10
2121.565796066406
 20
7.064064355496267
 10
2121.505952841729
 20
7.144173376200341
 10
2121.44936099165
 20
7.226611408942571
 10
2121.396111051056
 20
7.311246570456884
 10
2121.346288208493
 20
7.397943462538761
 10
2121.299972169879
 20
7.486563388655837
 10
2121.257237030998
 20
7.576964575830457
 10
2121.218151158955
 20
7.669002401447809
 10
2121.182777082808
 20
7.762529624620639
 10
2121.151171393529
 20
7.85739662174353
 10
2121.123384653484
 20
7.953451625857722
 10
2121.099461315525
 20
8.050540969447636
 10
2121.079439651893
 20
8.148509330274917
 10
2121.063351692977
 20
8.247199979860964
 10
2121.051223176079
 20
8.346455034219102
 10
2121.043073504241
 20
8.446115706435646
 10
2121.038915715196
 20
8.546022560695346
 10
2121.038332934478
 20
8.600000000010592
  0
LWPOLYLINE
  5
49F
330
71
100
AcDbEntity
  8
0
100
AcDbPolyline
 90
        4
 70
   128
 43
0.0
 10
2121.038332934478
 20
8.600000000010592
 10
2121.038332934478
 20
8.604519397375947
 10
2121.038332934478
 20
8.618070359400631
 10
2121.038332934478
 20
8.640631207435996
  0
LINE
  5
4A0
330
71
100
AcDbEntity
  8
0
100
AcDbLine
 10
2121.038332934478
 20
19.89640678802732
 30
0.0
 11
2121.038332934478
 21
19.89868291556626
 31
0.0
  0
LWPOLYLINE
  5
4A1
330
71
100
AcDbEntity
  8
0
100
AcDbPolyline
 90
        5
 70
   128
 43
0.0
 10
2126.038332934478
 20
8.640140031115093
 10
2126.038332934478
 20
8.629131946029527
 10
2126.038332934478
 20
8.610713687672896
 10
2126.038332934478
 20
8.601317084432363
 10
2126.038332934478
 20
8.600000000010592
  0
LINE
  5
4A2
330
71
100
AcDbEntity
  8
0
100
AcDbLine
 10
2126.038332934478
 20
21.70000000000311
 30
0.0
 11
2126.038332934478
 21
34.25000000000005
 31
0.0
  0
LINE
  5
4A3
330
71
100
AcDbEntity
  8
0
100
AcDbLine
 10
2121.038332934478
 20
34.25000000000005
 30
0.0
 11
2121.038332934478
 21
21.70000000000311
 31
0.0
  0
LWPOLYLINE
  5
4A4
330
71
100
AcDbEntity
  8
0
100
AcDbPolyline
 90
       41
 70
   128
 43
0.0
 10
2126.038332934478
 20
34.25000000000005
 10
2126.038332934478
 20
34.40995733674662
 10
2126.038332934478
 20
34.56965877587663
 10
2126.038332934478
 20
34.72884882915559
 10
2126.038332934478
 20
34.88727282645704
 10
2126.038332934478
 20
35.04467732318039
 10
2126.038332934478
 20
35.20081050570854
 10
2126.038332934478
 20
35.35542259425636
 10
2126.038332934478
 20
35.50826624246457
 10
2126.038332934478
 20
35.65909693310032
 10
2126.038332934478
 20
35.80767336923457
 10
2126.038332934478
 20
35.95375786026403
 10
2126.038332934478
 20
36.09711670216603
 10
2126.038332934478
 20
36.23752055137487
 10
2126.038332934478
 20
36.37474479168343
 10
2126.038332934478
 20
36.50856989358015
 10
2126.038332934478
 20
36.63878176544955
 10
2126.038332934478
 20
36.76517209607391
 10
2126.038332934478
 20
36.88753868788591
 10
2126.038332934478
 20
37.00568578044237
 10
2126.038332934478
 20
37.11942436359804
 10
2126.038332934478
 20
37.2285724798835
 10
2126.038332934478
 20
37.33295551559586
 10
2126.038332934478
 20
37.43240648014545
 10
2126.038332934478
 20
37.52676627320408
 10
2126.038332934478
 20
37.6158839392316
 10
2126.038332934478
 20
37.69961690897326
 10
2126.038332934478
 20
37.77783122753981
 10
2126.038332934478
 20
37.85040176870609
 10
2126.038332934478
 20
37.91721243508714
 10
2126.038332934478
 20
37.97815634386893
 10
2126.038332934478
 20
38.03313599779806
 10
2126.038332934478
 20
38.08206344115689
 10
2126.038332934478
 20
38.12486040047303
 10
2126.038332934478
 20
38.16145840974139
 10
2126.038332934478
 20
38.19179891995389
 10
2126.038332934478
 20
38.21583339276662
 10
2126.038332934478
 20
38.23352337815066
 10
2126.038332934478
 20
38.2448405759024
 10
2126.038332934478
 20
38.24976688091981
 10
2126.038332934478
 20
38.24999999999999
  0
LWPOLYLINE
  5
4A5
330
71
100
AcDbEntity
  8
0
100
AcDbPolyline
 90
       41
 70
   128
 43
0.0
 10
2121.038332934478
 20
38.24999999999999
 10
2121.038332934478
 20
38.24680042664408
 10
2121.038332934478
 20
38.23720682521047
 10
2121.038332934478
 20
38.22123454341543
 10
2121.038332934478
 20
38.19890913350258
 10
2121.038332934478
 20
38.17026631136496
 10
2121.038332934478
 20
38.13535189940818
 10
2121.038332934478
 20
38.09422175324311
 10
2121.038332934478
 20
38.04694167232975
 10
2121.038332934478
 20
37.9935872947118
 10
2121.038332934478
 20
37.93424397601165
 10
2121.038332934478
 20
37.86900665287998
 10
2121.038332934478
 20
37.79797969111723
 10
2121.038332934478
 20
37.72127671871067
 10
2121.038332934478
 20
37.63902044405375
 10
2121.038332934478
 20
37.55134245963871
 10
2121.038332934478
 20
37.4583830315372
 10
2121.038332934478
 20
37.36029087500361
 10
2121.038332934478
 20
37.25722291656353
 10
2121.038332934478
 20
37.14934404296366
 10
2121.038332934478
 20
37.03682683738872
 10
2121.038332934478
 20
36.91985130336536
 10
2121.038332934478
 20
36.79860457679444
 10
2121.038332934478
 20
36.67328062657384
 10
2121.038332934478
 20
36.54407994428976
 10
2121.038332934478
 20
36.41120922347255
 10
2121.038332934478
 20
36.27488102893102
 10
2121.038332934478
 20
36.13531345669497
 10
2121.038332934478
 20
35.99272978510691
 10
2121.038332934478
 20
35.84735811762528
 10
2121.038332934478
 20
35.6994310179067
 10
2121.038332934478
 20
35.5491851377551
 10
2121.038332934478
 20
35.39686083852791
 10
2121.038332934478
 20
35.24270180660947
 10
2121.038332934478
 20
35.08695466356562
 10
2121.038332934478
 20
34.92986857160082
 10
2121.038332934478
 20
34.7716948349527
 10
2121.038332934478
 20
34.61268649785722
 10
2121.038332934478
 20
34.45309793973433
 10
2121.038332934478
 20
34.2931844682331
 10
2121.038332934478
 20
34.25000000000005
  0
LINE
  5
4A6
330
71
100
AcDbEntity
  8
0
100
AcDbLine
 10
2126.037994144338
 20
38.23306275166493
 30
0.0
 11
2126.036333201131
 21
38.15002666453341
 31
0.0
  0
LWPOLYLINE
  5
4A7
330
71
100
AcDbEntity
  8
0
100
AcDbPolyline
 90
       37
 70
   128
 43
0.0
 10
2126.038332934478
 20
42.25000000000011
 10
2126.038332934478
 20
42.09004266325353
 10
2126.038332934478
 20
41.93034122412319
 10
2126.038332934478
 20
41.77115117084421
 10
2126.038332934478
 20
41.61272717354314
 10
2126.038332934478
 20
41.45532267681978
 10
2126.038332934478
 20
41.29918949429145
 10
2126.038332934478
 20
41.14457740574343
 10
2126.038332934478
 20
40.9917337575356
 10
2126.038332934478
 20
40.84090306689964
 10
2126.038332934478
 20
40.69232663076539
 10
2126.038332934478
 20
40.54624213973595
 10
2126.038332934478
 20
40.40288329783414
 10
2126.038332934478
 20
40.26247944862495
 10
2126.038332934478
 20
40.12525520831638
 10
2126.038332934478
 20
39.99143010641983
 10
2126.038332934478
 20
39.86121823455043
 10
2126.038332934478
 20
39.73482790392607
 10
2126.038332934478
 20
39.61246131211407
 10
2126.038332934478
 20
39.49431421955779
 10
2126.038332934478
 20
39.38057563640194
 10
2126.038332934478
 20
39.27142752011667
 10
2126.038332934478
 20
39.16704448440429
 10
2126.038332934478
 20
39.06759351985453
 10
2126.038332934478
 20
38.97323372679608
 10
2126.038332934478
 20
38.88411606076857
 10
2126.038332934478
 20
38.80038309102655
 10
2126.038332934478
 20
38.72216877246017
 10
2126.038332934478
 20
38.64959823129407
 10
2126.038332934478
 20
38.58278756491301
 10
2126.038332934478
 20
38.52184365613106
 10
2126.038332934478
 20
38.46686400220175
 10
2126.038332934478
 20
38.4179365588431
 10
2126.038332934478
 20
38.37513959952696
 10
2126.038332934478
 20
38.33854159025878
 10
2126.038332934478
 20
38.30820108004628
 10
2126.038332934478
 20
38.28738597622407
  0
LWPOLYLINE
  5
4A8
330
71
100
AcDbEntity
  8
0
100
AcDbPolyline
 90
       41
 70
   128
 43
0.0
 10
2121.038332934478
 20
38.24999999999999
 10
2121.038332934478
 20
38.25319957335608
 10
2121.038332934478
 20
38.26279317478952
 10
2121.038332934478
 20
38.27876545658437
 10
2121.038332934478
 20
38.30109086649758
 10
2121.038332934478
 20
38.3297336886352
 10
2121.038332934478
 20
38.36464810059197
 10
2121.038332934478
 20
38.40577824675687
 10
2121.038332934478
 20
38.45305832767024
 10
2121.038332934478
 20
38.50641270528836
 10
2121.038332934478
 20
38.56575602398851
 10
2121.038332934478
 20
38.63099334712018
 10
2121.038332934478
 20
38.70202030888293
 10
2121.038332934478
 20
38.7787232812895
 10
2121.038332934478
 20
38.86097955594624
 10
2121.038332934478
 20
38.94865754036129
 10
2121.038332934478
 20
39.04161696846296
 10
2121.038332934478
 20
39.13970912499621
 10
2121.038332934478
 20
39.24277708343664
 10
2121.038332934478
 20
39.35065595703633
 10
2121.038332934478
 20
39.46317316261144
 10
2121.038332934478
 20
39.5801486966348
 10
2121.038332934478
 20
39.70139542320572
 10
2121.038332934478
 20
39.82671937342614
 10
2121.038332934478
 20
39.95592005571006
 10
2121.038332934478
 20
40.08879077652744
 10
2121.038332934478
 20
40.2251189710688
 10
2121.038332934478
 20
40.36468654330517
 10
2121.038332934478
 20
40.50727021489325
 10
2121.038332934478
 20
40.65264188237486
 10
2121.038332934478
 20
40.80056898209329
 10
2121.038332934478
 20
40.95081486224506
 10
2121.038332934478
 20
41.10313916147225
 10
2121.038332934478
 20
41.25729819339047
 10
2121.038332934478
 20
41.41304533643437
 10
2121.038332934478
 20
41.57013142839899
 10
2121.038332934478
 20
41.72830516504745
 10
2121.038332934478
 20
41.88731350214292
 10
2121.038332934478
 20
42.04690206026582
 10
2121.038332934478
 20
42.20681553176688
 10
2121.038332934478
 20
42.25000000000011
  0
LINE
  5
4A9
330
71
100
AcDbEntity
  8
0
100
AcDbLine
 10
2126.038332934478
 20
42.24999999999993
 30
0.0
 11
2126.038332934478
 21
136.3750000000004
 31
0.0
  0
LINE
  5
4AA
330
71
100
AcDbEntity
  8
0
100
AcDbLine
 10
2121.038332934478
 20
136.3750000000004
 30
0.0
 11
2121.038332934478
 21
85.62500000000019
 31
0.0
  0
LINE
  5
4AB
330
71
100
AcDbEntity
  8
0
100
AcDbLine
 10
2121.038332934478
 20
81.62500000000028
 30
0.0
 11
2121.038332934478
 21
42.25000000000011
 31
0.0
  0
LINE
  5
4B0
330
71
100
AcDbEntity
  8
0
100
AcDbLine
 10
2126.038332934478
 20
14.24999999999966
 30
0.0
 11
2126.038332934478
 21
21.69999999999953
 31
0.0
  0
LINE
  5
4B1
330
71
100
AcDbEntity
  8
0
100
AcDbLine
 10
2121.038332934478
 20
21.6999999999997
 30
0.0
 11
2121.038332934478
 21
14.24999999999966
 31
0.0
  0
LINE
  5
4C1
330
71
100
AcDbEntity
  8
0
100
AcDbLine
 10
1874.78833293446
 20
198.9999999999976
 30
0.0
 11
2114.53833293446
 21
198.9999999999976
 31
0.0
  0
LINE
  5
4C2
330
71
100
AcDbEntity
  8
0
100
AcDbLine
 10
2114.53833293446
 20
158.2450353879073
 30
0.0
 11
1874.78833293446
 21
158.2450353879073
 31
0.0
  0
LINE
  5
4C3
330
71
100
AcDbEntity
  8
0
100
AcDbLine
 10
2114.53833293446
 20
198.9999999999976
 30
0.0
 11
2114.53833293446
 21
158.2450353879073
 31
0.0
  0
LINE
  5
4C4
330
71
100
AcDbEntity
  8
0
100
AcDbLine
 10
1874.78833293446
 20
158.2450353879073
 30
0.0
 11
1874.78833293446
 21
198.9999999999976
 31
0.0
  0
LWPOLYLINE
  5
4C5
330
71
100
AcDbEntity
  8
0
100
AcDbPolyline
 90
       41
 70
   128
 43
0.0
 10
1924.913332934479
 20
199.0000000000002
 10
1925.033300937038
 20
199.0023996800173
 10
1925.153077016386
 20
199.0095948810925
 10
1925.272469556345
 20
199.0215740924386
 10
1925.391287554321
 20
199.0383181498732
 10
1925.509340926864
 20
199.0598002664766
 10
1925.62644081376
 20
199.0859860754442
 10
1925.742399880171
 20
199.1168336850679
 10
1925.857032616326
 20
199.152293745753
 10
1925.970155634304
 20
199.1923095289665
 10
1926.081587961405
 20
199.2368170179917
 10
1926.191151329676
 20
199.2857450103404
 10
1926.298670461102
 20
199.3390152316623
 10
1926.40397334801
 20
199.3965424609671
 10
1926.506891528241
 20
199.4582346669599
 10
1926.607260354663
 20
199.5239931552713
 10
1926.704919258566
 20
199.5937127263472
 10
1926.799712006534
 20
199.6672818437476
 10
1926.891486950393
 20
199.7445828125776
 10
1926.98009726981
 20
199.8254919677776
 10
1927.065401207177
 20
199.9098798719588
 10
1927.147262294391
 20
199.9976115224763
 10
1927.225549571176
 20
200.0885465674045
 10
1927.300137794588
 20
200.1825395300699
 10
1927.370907639382
 20
200.279440041783
 10
1927.437745888902
 20
200.3790930823959
 10
1927.500545616208
 20
200.4813392283021
 10
1927.559206355133
 20
200.5860149074791
 10
1927.613634261008
 20
200.69295266117
 10
1927.663742260794
 20
200.8019814117814
 10
1927.70945019238
 20
200.9129267365703
 10
1927.750684932827
 20
201.0256111466839
 10
1927.787380515346
 20
201.1398543711044
 10
1927.819478234833
 20
201.2554736450432
 10
1927.846926741784
 20
201.372284002326
 10
1927.869682124444
 20
201.4900985712997
 10
1927.887707979053
 20
201.6087288737858
 10
1927.900975468091
 20
201.7279851266074
 10
1927.909463366405
 20
201.8476765451995
 10
1927.913158095168
 20
201.9676116488255
 10
1927.913332934479
 20
202.0000000000004
  0
LWPOLYLINE
  5
4C6
330
71
100
AcDbEntity
  8
0
100
AcDbPolyline
 90
       41
 70
   128
 43
0.0
 10
2061.413332934479
 20
202.0000000000004
 10
2061.415732614495
 20
201.8800319974404
 10
2061.422927815571
 20
201.7602559180928
 10
2061.434907026917
 20
201.6408633781335
 10
2061.451651084352
 20
201.5220453801574
 10
2061.473133200955
 20
201.4039920076149
 10
2061.499319009923
 20
201.2868921207187
 10
2061.530166619546
 20
201.1709330543079
 10
2061.565626680231
 20
201.056300318152
 10
2061.605642463446
 20
200.943177300175
 10
2061.65014995247
 20
200.8317449730743
 10
2061.699077944819
 20
200.7221816048021
 10
2061.752348166141
 20
200.6146624733758
 10
2061.809875395446
 20
200.509359586469
 10
2061.871567601438
 20
200.4064414062376
 10
2061.93732608975
 20
200.3060725798151
 10
2062.007045660826
 20
200.2084136759131
 10
2062.080614778226
 20
200.1136209279448
 10
2062.157915747056
 20
200.0218459840859
 10
2062.238824902256
 20
199.9332356646687
 10
2062.323212806437
 20
199.8479317273016
 10
2062.410944456955
 20
199.7660706400876
 10
2062.501879501883
 20
199.6877833633034
 10
2062.595872464549
 20
199.6131951398912
 10
2062.692772976261
 20
199.5424252950974
 10
2062.792426016875
 20
199.4755870455764
 10
2062.89467216278
 20
199.4127873182702
 10
2062.999347841957
 20
199.3541265793454
 10
2063.106285595648
 20
199.2996986734707
 10
2063.21531434626
 20
199.2495906736849
 10
2063.326259671049
 20
199.2038827420985
 10
2063.438944081163
 20
199.1626480016518
 10
2063.553187305583
 20
199.1259524191326
 10
2063.668806579522
 20
199.0938546996455
 10
2063.785616936804
 20
199.0664061926944
 10
2063.903431505778
 20
199.0436508100349
 10
2064.022061808264
 20
199.0256249554253
 10
2064.141318061086
 20
199.0123574663874
 10
2064.261009479678
 20
199.0038695680735
 10
2064.380944583304
 20
199.0001748393105
 10
2064.413332934479
 20
199.0000000000002
  0
LINE
  5
4C7
330
71
100
AcDbEntity
  8
0
100
AcDbLine
 10
2061.413332934479
 20
202.0000000000004
 30
0.0
 11
2061.413332934479
 21
211.625
 31
0.0
  0
LINE
  5
4C8
330
71
100
AcDbEntity
  8
0
100
AcDbLine
 10
1927.913332934479
 20
211.625
 30
0.0
 11
1927.913332934479
 21
202.0000000000004
 31
0.0
  0
LINE
  5
4C9
330
71
100
AcDbEntity
  8
0
100
AcDbLine
 10
2062.913332934479
 20
211.6250000000002
 30
0.0
 11
2062.913332934479
 21
211.8750000000001
 31
0.0
  0
LINE
  5
4CA
330
71
100
AcDbEntity
  8
0
100
AcDbLine
 10
1926.413332934478
 20
211.8750000000001
 30
0.0
 11
1926.413332934478
 21
211.6250000000002
 31
0.0
  0
LINE
  5
4CB
330
71
100
AcDbEntity
  8
0
100
AcDbLine
 10
2062.913332934479
 20
211.8750000000001
 30
0.0
 11
1997.663332934478
 21
223.0000000000002
 31
0.0
  0
LINE
  5
4CC
330
71
100
AcDbEntity
  8
0
100
AcDbLine
 10
1991.663332934479
 20
223.0000000000002
 30
0.0
 11
1926.413332934478
 21
211.8750000000001
 31
0.0
  0
LINE
  5
4CD
330
71
100
AcDbEntity
  8
0
100
AcDbLine
 10
2062.913332934479
 20
211.625
 30
0.0
 11
1926.413332934479
 21
211.625
 31
0.0
  0
LINE
  5
4CE
330
71
100
AcDbEntity
  8
0
100
AcDbLine
 10
2062.913332934479
 20
211.875
 30
0.0
 11
1926.413332934479
 21
211.875
 31
0.0
  0
LINE
  5
4CF
330
71
100
AcDbEntity
  8
0
100
AcDbLine
 10
1997.663332934478
 20
223.0
 30
0.0
 11
1991.663332934479
 21
223.0
 31
0.0
  0
LINE
  5
4D0
330
71
100
AcDbEntity
  8
0
100
AcDbLine
 10
1874.788332934477
 20
158.0
 30
0.0
 11
2114.538332934477
 21
158.0
 31
0.0
  0
LINE
  5
4D1
330
71
100
AcDbEntity
  8
0
100
AcDbLine
 10
2114.538332934477
 20
69.625
 30
0.0
 11
1874.788332934477
 21
69.625
 31
0.0
  0
LINE
  5
4D2
330
71
100
AcDbEntity
  8
0
100
AcDbLine
 10
1874.788332934477
 20
69.625
 30
0.0
 11
1874.788332934477
 21
158.0
 31
0.0
  0
LINE
  5
4D3
330
71
100
AcDbEntity
  8
0
100
AcDbLine
 10
2037.163332934478
 20
135.3750000000035
 30
0.0
 11
2071.663332934478
 21
135.3750000000035
 31
0.0
  0
LINE
  5
4D4
330
71
100
AcDbEntity
  8
0
100
AcDbLine
 10
2071.663332934478
 20
135.3750000000035
 30
0.0
 11
2071.663332934478
 21
90.37500000000319
 31
0.0
  0
LINE
  5
4D5
330
71
100
AcDbEntity
  8
0
100
AcDbLine
 10
2071.663332934478
 20
90.37500000000322
 30
0.0
 11
2037.163332934478
 21
90.37500000000322
 31
0.0
  0
LINE
  5
4D6
330
71
100
AcDbEntity
  8
0
100
AcDbLine
 10
2037.163332934478
 20
90.37500000000322
 30
0.0
 11
2037.163332934478
 21
135.3750000000037
 31
0.0
  0
LINE
  5
4D7
330
71
100
AcDbEntity
  8
0
100
AcDbLine
 10
1917.663332934478
 20
90.37500000000322
 30
0.0
 11
1917.663332934478
 21
135.3750000000035
 31
0.0
  0
LINE
  5
4D8
330
71
100
AcDbEntity
  8
0
100
AcDbLine
 10
1917.663332934478
 20
135.3750000000035
 30
0.0
 11
1952.163332934478
 21
135.3750000000035
 31
0.0
  0
LINE
  5
4D9
330
71
100
AcDbEntity
  8
0
100
AcDbLine
 10
1952.163332934478
 20
135.3750000000035
 30
0.0
 11
1952.163332934478
 21
90.37500000000322
 31
0.0
  0
LINE
  5
4DA
330
71
100
AcDbEntity
  8
0
100
AcDbLine
 10
1952.163332934478
 20
90.37500000000322
 30
0.0
 11
1917.663332934478
 21
90.37500000000322
 31
0.0
  0
LINE
  5
4DB
330
71
100
AcDbEntity
  8
0
100
AcDbLine
 10
1977.413332934478
 20
135.3750000000035
 30
0.0
 11
2011.913332934478
 21
135.3750000000035
 31
0.0
  0
LINE
  5
4DC
330
71
100
AcDbEntity
  8
0
100
AcDbLine
 10
2011.913332934478
 20
135.3750000000035
 30
0.0
 11
2011.913332934478
 21
90.37500000000319
 31
0.0
  0
LINE
  5
4DD
330
71
100
AcDbEntity
  8
0
100
AcDbLine
 10
2011.913332934478
 20
90.37500000000322
 30
0.0
 11
1977.413332934478
 21
90.37500000000322
 31
0.0
  0
LINE
  5
4DE
330
71
100
AcDbEntity
  8
0
100
AcDbLine
 10
1977.413332934478
 20
90.37500000000322
 30
0.0
 11
1977.413332934478
 21
135.3750000000037
 31
0.0
  0
LINE
  5
4DF
330
71
100
AcDbEntity
  8
0
100
AcDbLine
 10
2114.538332934477
 20
69.625
 30
0.0
 11
2114.538332934477
 21
158.0
 31
0.0
  0
LINE
  5
4E3
330
71
100
AcDbEntity
  8
0
100
AcDbLine
 10
1874.788332934481
 20
69.625
 30
0.0
 11
2114.53833293448
 21
69.625
 31
0.0
  0
LINE
  5
4E4
330
71
100
AcDbEntity
  8
0
100
AcDbLine
 10
2114.53833293448
 20
0.0
 30
0.0
 11
1874.788332934481
 21
0.0
 31
0.0
  0
LINE
  5
4E5
330
71
100
AcDbEntity
  8
0
100
AcDbLine
 10
2114.53833293448
 20
69.625
 30
0.0
 11
2114.53833293448
 21
63.75000000000017
 31
0.0
  0
LINE
  5
4E6
330
71
100
AcDbEntity
  8
0
100
AcDbLine
 10
2114.53833293448
 20
21.74999999999974
 30
0.0
 11
2114.53833293448
 21
0.0
 31
0.0
  0
LINE
  5
4E7
330
71
100
AcDbEntity
  8
0
100
AcDbLine
 10
1874.788332934481
 20
63.75000000000087
 30
0.0
 11
1874.788332934481
 21
69.625
 31
0.0
  0
LINE
  5
4E8
102
{ACAD_REACTORS
330
989
102
}
330
71
100
AcDbEntity
  8
0
100
AcDbLine
 10
1874.788332934481
 20
63.75000000000087
 30
0.0
 11
2114.53833293448
 21
63.75000000000017
 31
0.0
  0
LINE
  5
4E9
102
{ACAD_REACTORS
330
989
102
}
330
71
100
AcDbEntity
  8
0
100
AcDbLine
 10
2114.53833293448
 20
21.74999999999974
 30
0.0
 11
1874.788332934481
 21
21.75000000000045
 31
0.0
  0
LINE
  5
4EA
330
71
100
AcDbEntity
  8
0
100
AcDbLine
 10
1874.788332934481
 20
0.0
 30
0.0
 11
1874.788332934481
 21
21.75000000000045
 31
0.0
  0
LINE
  5
4EB
330
71
100
AcDbEntity
  8
0
100
AcDbLine
 10
2113.538332934481
 20
63.75000000000017
 30
0.0
 11
2113.538332934481
 21
21.74999999999975
 31
0.0
  0
LINE
  5
4EC
330
71
100
AcDbEntity
  8
0
100
AcDbLine
 10
2112.163332934481
 20
63.75000000000017
 30
0.0
 11
2112.163332934481
 21
21.74999999999975
 31
0.0
  0
LINE
  5
4ED
102
{ACAD_REACTORS
330
989
102
}
330
71
100
AcDbEntity
  8
0
100
AcDbLine
 10
2108.78833293448
 20
63.75000000000018
 30
0.0
 11
2108.78833293448
 21
21.74999999999976
 31
0.0
  0
LINE
  5
4EE
102
{ACAD_REACTORS
330
989
102
}
330
71
100
AcDbEntity
  8
0
100
AcDbLine
 10
2032.413332934481
 20
63.75000000000039
 30
0.0
 11
2032.413332934481
 21
21.74999999999997
 31
0.0
  0
LINE
  5
4F0
102
{ACAD_REACTORS
330
989
102
}
330
71
100
AcDbEntity
  8
0
100
AcDbLine
 10
2028.913332934481
 20
21.74999999999998
 30
0.0
 11
2028.913332934481
 21
63.75000000000039
 31
0.0
  0
LINE
  5
4F2
102
{ACAD_REACTORS
330
989
102
}
330
71
100
AcDbEntity
  8
0
100
AcDbLine
 10
1960.413332934481
 20
63.75000000000062
 30
0.0
 11
1960.413332934481
 21
21.75000000000021
 31
0.0
  0
LINE
  5
4F3
102
{ACAD_REACTORS
330
989
102
}
330
71
100
AcDbEntity
  8
0
100
AcDbLine
 10
1956.913332934481
 20
21.75000000000022
 30
0.0
 11
1956.913332934481
 21
63.75000000000063
 31
0.0
  0
LINE
  5
4F4
102
{ACAD_REACTORS
330
989
102
}
330
71
100
AcDbEntity
  8
0
100
AcDbLine
 10
1880.538332934481
 20
63.75000000000085
 30
0.0
 11
1880.53833293448
 21
21.75000000000042
 31
0.0
  0
LINE
  5
4F5
330
71
100
AcDbEntity
  8
0
100
AcDbLine
 10
1877.16333293448
 20
63.75000000000085
 30
0.0
 11
1877.16333293448
 21
21.75000000000043
 31
0.0
  0
LINE
  5
4F6
330
71
100
AcDbEntity
  8
0
100
AcDbLine
 10
1875.788332934481
 20
63.75000000000087
 30
0.0
 11
1875.78833293448
 21
21.75000000000043
 31
0.0
  0
ARC
  5
4F7
330
71
100
AcDbEntity
  8
0
100
AcDbCircle
 10
2078.538332934478
 20
178.500000000001
 30
0.0
 40
8.250000000000008
100
AcDbArc
 50
179.9999999999998
 51
359.9999999999986
  0
ARC
  5
4F8
330
71
100
AcDbEntity
  8
0
100
AcDbCircle
 10
2078.538332934478
 20
178.500000000001
 30
0.0
 40
8.249999999999996
100
AcDbArc
 50
359.9999999999995
 51
179.9999999999998
  0
ARC
  5
4F9
330
71
100
AcDbEntity
  8
0
100
AcDbCircle
 10
2078.538332934478
 20
178.500000000001
 30
0.0
 40
7.687500000000002
100
AcDbArc
 50
0.0000000000006107
 51
180.0000000000002
  0
ARC
  5
4FA
330
71
100
AcDbEntity
  8
0
100
AcDbCircle
 10
2078.538332934478
 20
178.500000000001
 30
0.0
 40
7.687499999999982
100
AcDbArc
 50
180.0000000000003
 51
359.9999999999996
  0
LINE
  5
4FB
330
71
100
AcDbEntity
  8
0
100
AcDbLine
 10
2083.660833708465
 20
176.0581441512037
 30
0.0
 11
2083.465893232275
 21
175.609235421045
 31
0.0
  0
LINE
  5
4FC
330
71
100
AcDbEntity
  8
0
100
AcDbLine
 10
2083.465893232275
 20
175.609235421045
 30
0.0
 11
2083.015000375132
 21
175.4519933575529
 31
0.0
  0
LINE
  5
4FD
330
71
100
AcDbEntity
  8
0
100
AcDbLine
 10
2083.015000375132
 20
175.4519933575529
 30
0.0
 11
2082.690471605292
 21
175.516229468664
 31
0.0
  0
LINE
  5
4FE
330
71
100
AcDbEntity
  8
0
100
AcDbLine
 10
2082.690471605292
 20
175.516229468664
 30
0.0
 11
2082.454980533862
 21
175.7089378019974
 31
0.0
  0
LINE
  5
4FF
330
71
100
AcDbEntity
  8
0
100
AcDbLine
 10
2082.454980533862
 20
175.7089378019974
 30
0.0
 11
2082.26400831164
 21
176.4668743099339
 31
0.0
  0
LINE
  5
500
330
71
100
AcDbEntity
  8
0
100
AcDbLine
 10
2082.26400831164
 20
176.4668743099339
 30
0.0
 11
2082.448036089418
 21
177.2307631988228
 31
0.0
  0
LINE
  5
501
330
71
100
AcDbEntity
  8
0
100
AcDbLine
 10
2082.448036089418
 20
177.2307631988228
 30
0.0
 11
2082.677822795767
 21
177.4204953416799
 31
0.0
  0
LINE
  5
502
330
71
100
AcDbEntity
  8
0
100
AcDbLine
 10
2082.677822795767
 20
177.4204953416799
 30
0.0
 11
2082.999127359259
 21
177.483739389299
 31
0.0
  0
LINE
  5
503
330
71
100
AcDbEntity
  8
0
100
AcDbLine
 10
2082.999127359259
 20
177.483739389299
 30
0.0
 11
2083.467381327513
 21
177.3403862146958
 31
0.0
  0
LINE
  5
504
330
71
100
AcDbEntity
  8
0
100
AcDbLine
 10
2083.467381327513
 20
177.3403862146958
 30
0.0
 11
2083.660833708465
 21
176.9152870083466
 31
0.0
  0
LINE
  5
505
330
71
100
AcDbEntity
  8
0
100
AcDbLine
 10
2083.660833708465
 20
176.9152870083466
 30
0.0
 11
2084.803690851322
 21
176.9152870083466
 31
0.0
  0
LINE
  5
506
330
71
100
AcDbEntity
  8
0
100
AcDbLine
 10
2084.803690851322
 20
176.9152870083466
 30
0.0
 11
2084.643472597354
 21
177.5629804607276
 31
0.0
  0
LINE
  5
507
330
71
100
AcDbEntity
  8
0
100
AcDbLine
 10
2084.643472597354
 20
177.5629804607276
 30
0.0
 11
2084.275913073545
 21
178.0417751035846
 31
0.0
  0
LINE
  5
508
330
71
100
AcDbEntity
  8
0
100
AcDbLine
 10
2084.275913073545
 20
178.0417751035846
 30
0.0
 11
2083.716885295767
 21
178.3375340321561
 31
0.0
  0
LINE
  5
509
330
71
100
AcDbEntity
  8
0
100
AcDbLine
 10
2083.716885295767
 20
178.3375340321561
 30
0.0
 11
2082.982262279895
 21
178.4361203416799
 31
0.0
  0
LINE
  5
50A
330
71
100
AcDbEntity
  8
0
100
AcDbLine
 10
2082.982262279895
 20
178.4361203416799
 30
0.0
 11
2082.184271208465
 21
178.3041758972355
 31
0.0
  0
LINE
  5
50B
330
71
100
AcDbEntity
  8
0
100
AcDbLine
 10
2082.184271208465
 20
178.3041758972355
 30
0.0
 11
2081.57402815291
 21
177.9083425639021
 31
0.0
  0
LINE
  5
50C
330
71
100
AcDbEntity
  8
0
100
AcDbLine
 10
2081.57402815291
 20
177.9083425639021
 30
0.0
 11
2081.186751367196
 21
177.2843346273941
 31
0.0
  0
LINE
  5
50D
330
71
100
AcDbEntity
  8
0
100
AcDbLine
 10
2081.186751367196
 20
177.2843346273941
 30
0.0
 11
2081.057659105292
 21
176.467866373426
 31
0.0
  0
LINE
  5
50E
330
71
100
AcDbEntity
  8
0
100
AcDbLine
 10
2081.057659105292
 20
176.467866373426
 30
0.0
 11
2081.187371406878
 21
175.6495380004101
 31
0.0
  0
LINE
  5
50F
330
71
100
AcDbEntity
  8
0
100
AcDbLine
 10
2081.187371406878
 20
175.6495380004101
 30
0.0
 11
2081.57650831164
 21
175.0259020877116
 31
0.0
  0
LINE
  5
510
330
71
100
AcDbEntity
  8
0
100
AcDbLine
 10
2081.57650831164
 20
175.0259020877116
 30
0.0
 11
2082.191835692592
 21
174.6311848258069
 31
0.0
  0
LINE
  5
511
330
71
100
AcDbEntity
  8
0
100
AcDbLine
 10
2082.191835692592
 20
174.6311848258069
 30
0.0
 11
2083.00011942275
 21
174.499612405172
 31
0.0
  0
LINE
  5
512
330
71
100
AcDbEntity
  8
0
100
AcDbLine
 10
2083.00011942275
 20
174.499612405172
 30
0.0
 11
2083.723209700529
 21
174.6017949448545
 31
0.0
  0
LINE
  5
513
330
71
100
AcDbEntity
  8
0
100
AcDbLine
 10
2083.723209700529
 20
174.6017949448545
 30
0.0
 11
2084.279385295767
 21
174.9083425639021
 31
0.0
  0
LINE
  5
514
330
71
100
AcDbEntity
  8
0
100
AcDbLine
 10
2084.279385295767
 20
174.9083425639021
 30
0.0
 11
2084.64682081164
 21
175.4001580400926
 31
0.0
  0
LINE
  5
515
330
71
100
AcDbEntity
  8
0
100
AcDbLine
 10
2084.64682081164
 20
175.4001580400926
 30
0.0
 11
2084.803690851322
 21
176.0581441512037
 31
0.0
  0
LINE
  5
516
330
71
100
AcDbEntity
  8
0
100
AcDbLine
 10
2084.803690851322
 20
176.0581441512037
 30
0.0
 11
2083.660833708465
 21
176.0581441512037
 31
0.0
  0
LINE
  5
517
330
71
100
AcDbEntity
  8
0
100
AcDbLine
 10
2076.439106330698
 20
176.8322183401269
 30
0.0
 11
2077.616685695777
 21
176.8322183401269
 31
0.0
  0
LINE
  5
518
330
71
100
AcDbEntity
  8
0
100
AcDbLine
 10
2077.616685695777
 20
176.8322183401269
 30
0.0
 11
2077.763511092603
 21
177.3401548480634
 31
0.0
  0
LINE
  5
519
330
71
100
AcDbEntity
  8
0
100
AcDbLine
 10
2077.763511092603
 20
177.3401548480634
 30
0.0
 11
2078.966884108476
 21
177.3401548480634
 31
0.0
  0
LINE
  5
51A
330
71
100
AcDbEntity
  8
0
100
AcDbLine
 10
2078.966884108476
 20
177.3401548480634
 30
0.0
 11
2079.108749187841
 21
176.8322183401269
 31
0.0
  0
LINE
  5
51B
330
71
100
AcDbEntity
  8
0
100
AcDbLine
 10
2079.108749187841
 20
176.8322183401269
 30
0.0
 11
2080.312122203713
 21
176.8322183401269
 31
0.0
  0
LINE
  5
51C
330
71
100
AcDbEntity
  8
0
100
AcDbLine
 10
2080.312122203713
 20
176.8322183401269
 30
0.0
 11
2078.982757124348
 21
180.6417421496508
 31
0.0
  0
LINE
  5
51D
330
71
100
AcDbEntity
  8
0
100
AcDbLine
 10
2078.982757124348
 20
180.6417421496508
 30
0.0
 11
2077.753590457682
 21
180.6417421496508
 31
0.0
  0
LINE
  5
51E
330
71
100
AcDbEntity
  8
0
100
AcDbLine
 10
2077.753590457682
 20
180.6417421496508
 30
0.0
 11
2076.439106330698
 21
176.8322183401269
 31
0.0
  0
LINE
  5
51F
330
71
100
AcDbEntity
  8
0
100
AcDbLine
 10
2077.983749187841
 20
178.1655516734602
 30
0.0
 11
2078.369661886253
 21
179.4691231020316
 31
0.0
  0
LINE
  5
520
330
71
100
AcDbEntity
  8
0
100
AcDbLine
 10
2078.369661886253
 20
179.4691231020316
 30
0.0
 11
2078.746646013238
 21
178.1655516734602
 31
0.0
  0
LINE
  5
521
330
71
100
AcDbEntity
  8
0
100
AcDbLine
 10
2078.746646013238
 20
178.1655516734602
 30
0.0
 11
2077.983749187841
 21
178.1655516734602
 31
0.0
  0
LINE
  5
522
330
71
100
AcDbEntity
  8
0
100
AcDbLine
 10
2072.678375140437
 20
178.5726066493072
 30
0.0
 11
2074.377779902341
 21
178.5726066493072
 31
0.0
  0
LINE
  5
523
330
71
100
AcDbEntity
  8
0
100
AcDbLine
 10
2074.377779902341
 20
178.5726066493072
 30
0.0
 11
2075.145637045198
 21
178.6112971254977
 31
0.0
  0
LINE
  5
524
330
71
100
AcDbEntity
  8
0
100
AcDbLine
 10
2075.145637045198
 20
178.6112971254977
 30
0.0
 11
2075.558335457897
 21
178.7432415699421
 31
0.0
  0
LINE
  5
525
330
71
100
AcDbEntity
  8
0
100
AcDbLine
 10
2075.558335457897
 20
178.7432415699421
 30
0.0
 11
2075.966569584881
 21
179.1261780778786
 31
0.0
  0
LINE
  5
526
330
71
100
AcDbEntity
  8
0
100
AcDbLine
 10
2075.966569584881
 20
179.1261780778786
 30
0.0
 11
2076.106946569007
 21
179.7134796651802
 31
0.0
  0
LINE
  5
527
330
71
100
AcDbEntity
  8
0
100
AcDbLine
 10
2076.106946569007
 20
179.7134796651802
 30
0.0
 11
2075.963097362659
 21
180.2764756969262
 31
0.0
  0
LINE
  5
528
330
71
100
AcDbEntity
  8
0
100
AcDbLine
 10
2075.963097362659
 20
180.2764756969262
 30
0.0
 11
2075.519644981707
 21
180.601376490577
 31
0.0
  0
LINE
  5
529
330
71
100
AcDbEntity
  8
0
100
AcDbLine
 10
2075.519644981707
 20
180.601376490577
 30
0.0
 11
2075.864883076945
 21
180.9188368080373
 31
0.0
  0
LINE
  5
52A
330
71
100
AcDbEntity
  8
0
100
AcDbLine
 10
2075.864883076945
 20
180.9188368080373
 30
0.0
 11
2075.979962442024
 21
181.3712177604183
 31
0.0
  0
LINE
  5
52B
330
71
100
AcDbEntity
  8
0
100
AcDbLine
 10
2075.979962442024
 20
181.3712177604183
 30
0.0
 11
2075.826192600754
 21
181.931237601688
 31
0.0
  0
LINE
  5
52C
330
71
100
AcDbEntity
  8
0
100
AcDbLine
 10
2075.826192600754
 20
181.931237601688
 30
0.0
 11
2075.383732283293
 21
182.2710193477199
 31
0.0
  0
LINE
  5
52D
330
71
100
AcDbEntity
  8
0
100
AcDbLine
 10
2075.383732283293
 20
182.2710193477199
 30
0.0
 11
2074.988394981707
 21
182.3563368080374
 31
0.0
  0
LINE
  5
52E
330
71
100
AcDbEntity
  8
0
100
AcDbLine
 10
2074.988394981707
 20
182.3563368080374
 30
0.0
 11
2074.254764029325
 21
182.382130458831
 31
0.0
  0
LINE
  5
52F
330
71
100
AcDbEntity
  8
0
100
AcDbLine
 10
2074.254764029325
 20
182.382130458831
 30
0.0
 11
2072.678375140437
 21
182.382130458831
 31
0.0
  0
LINE
  5
530
330
71
100
AcDbEntity
  8
0
100
AcDbLine
 10
2072.678375140437
 20
182.382130458831
 30
0.0
 11
2072.678375140437
 21
178.5726066493072
 31
0.0
  0
LINE
  5
531
330
71
100
AcDbEntity
  8
0
100
AcDbLine
 10
2073.884724346786
 20
179.4614955381961
 30
0.0
 11
2073.884724346786
 21
180.1599082366088
 31
0.0
  0
LINE
  5
532
330
71
100
AcDbEntity
  8
0
100
AcDbLine
 10
2073.884724346786
 20
180.1599082366088
 30
0.0
 11
2074.433335457896
 21
180.1599082366088
 31
0.0
  0
LINE
  5
533
330
71
100
AcDbEntity
  8
0
100
AcDbLine
 10
2074.433335457896
 20
180.1599082366088
 30
0.0
 11
2074.842561648373
 21
180.0805431572437
 31
0.0
  0
LINE
  5
534
330
71
100
AcDbEntity
  8
0
100
AcDbLine
 10
2074.842561648373
 20
180.0805431572437
 30
0.0
 11
2074.964089426151
 21
179.8136780778786
 31
0.0
  0
LINE
  5
535
330
71
100
AcDbEntity
  8
0
100
AcDbLine
 10
2074.964089426151
 20
179.8136780778786
 30
0.0
 11
2074.845041807103
 21
179.5438368080374
 31
0.0
  0
LINE
  5
536
330
71
100
AcDbEntity
  8
0
100
AcDbLine
 10
2074.845041807103
 20
179.5438368080374
 30
0.0
 11
2074.444248156309
 21
179.4614955381961
 31
0.0
  0
LINE
  5
537
330
71
100
AcDbEntity
  8
0
100
AcDbLine
 10
2074.444248156309
 20
179.4614955381961
 30
0.0
 11
2073.884724346786
 21
179.4614955381961
 31
0.0
  0
LINE
  5
538
330
71
100
AcDbEntity
  8
0
100
AcDbLine
 10
2073.884724346786
 20
180.8583209350214
 30
0.0
 11
2073.884724346786
 21
181.4932415699421
 31
0.0
  0
LINE
  5
539
330
71
100
AcDbEntity
  8
0
100
AcDbLine
 10
2073.884724346786
 20
181.4932415699421
 30
0.0
 11
2074.219049743611
 21
181.4932415699421
 31
0.0
  0
LINE
  5
53A
330
71
100
AcDbEntity
  8
0
100
AcDbLine
 10
2074.219049743611
 20
181.4932415699421
 30
0.0
 11
2074.727482283293
 21
181.4257812524818
 31
0.0
  0
LINE
  5
53B
330
71
100
AcDbEntity
  8
0
100
AcDbLine
 10
2074.727482283293
 20
181.4257812524818
 30
0.0
 11
2074.837105299167
 21
181.1757812524818
 31
0.0
  0
LINE
  5
53C
330
71
100
AcDbEntity
  8
0
100
AcDbLine
 10
2074.837105299167
 20
181.1757812524818
 30
0.0
 11
2074.734922759484
 21
180.9307415699421
 31
0.0
  0
LINE
  5
53D
330
71
100
AcDbEntity
  8
0
100
AcDbLine
 10
2074.734922759484
 20
180.9307415699421
 30
0.0
 11
2074.382740219801
 21
180.8583209350214
 31
0.0
  0
LINE
  5
53E
330
71
100
AcDbEntity
  8
0
100
AcDbLine
 10
2074.382740219801
 20
180.8583209350214
 30
0.0
 11
2073.884724346786
 21
180.8583209350214
 31
0.0
  0
ARC
  5
53F
330
71
100
AcDbEntity
  8
0
100
AcDbCircle
 10
2078.538332934477
 20
178.5000000000018
 30
0.0
 40
9.000000000000017
100
AcDbArc
 50
179.9999999999997
 51
359.9999999999986
  0
ARC
  5
540
330
71
100
AcDbEntity
  8
0
100
AcDbCircle
 10
2078.538332934477
 20
178.5000000000018
 30
0.0
 40
8.999999999999994
100
AcDbArc
 50
359.9999999999995
 51
179.9999999999998
  0
LINE
  5
541
330
71
100
AcDbEntity
  8
0
100
AcDbLine
 10
2114.53833293448
 20
16.75000000000011
 30
0.0
 11
2114.788332934478
 21
16.75000000000011
 31
0.0
  0
LINE
  5
542
330
71
100
AcDbEntity
  8
0
100
AcDbLine
 10
2114.788332934478
 20
19.74999999999994
 30
0.0
 11
2114.53833293448
 21
19.74999999999994
 31
0.0
  0
LINE
  5
543
330
71
100
AcDbEntity
  8
0
100
AcDbLine
 10
2114.53833293448
 20
6.124999999999884
 30
0.0
 11
2114.788332934478
 21
6.124999999999884
 31
0.0
  0
LINE
  5
544
330
71
100
AcDbEntity
  8
0
100
AcDbLine
 10
2114.788332934478
 20
8.12500000000011
 30
0.0
 11
2114.53833293448
 21
8.12500000000011
 31
0.0
  0
LINE
  5
545
330
71
100
AcDbEntity
  8
0
100
AcDbLine
 10
2113.538332934481
 20
26.50000000000011
 30
0.0
 11
2114.788332934478
 21
26.50000000000011
 31
0.0
  0
LINE
  5
546
330
71
100
AcDbEntity
  8
0
100
AcDbLine
 10
2114.788332934478
 20
28.00000000000011
 30
0.0
 11
2113.538332934481
 21
28.00000000000011
 31
0.0
  0
LINE
  5
549
330
71
100
AcDbEntity
  8
0
100
AcDbLine
 10
2114.788332934478
 20
19.75
 30
0.0
 11
2114.788332934478
 21
18.25000000000001
 31
0.0
  0
LINE
  5
54A
330
71
100
AcDbEntity
  8
0
100
AcDbLine
 10
2114.788332934478
 20
18.24999999999999
 30
0.0
 11
2114.788332934478
 21
16.75
 31
0.0
  0
LINE
  5
54B
330
71
100
AcDbEntity
  8
0
100
AcDbLine
 10
2114.788332934478
 20
8.125
 30
0.0
 11
2114.788332934478
 21
7.125000000000007
 31
0.0
  0
LINE
  5
54C
330
71
100
AcDbEntity
  8
0
100
AcDbLine
 10
2114.788332934478
 20
7.124999999999992
 30
0.0
 11
2114.788332934478
 21
6.125
 31
0.0
  0
LINE
  5
54D
330
71
100
AcDbEntity
  8
0
100
AcDbLine
 10
2114.788332934478
 20
28.0
 30
0.0
 11
2114.788332934478
 21
27.25
 31
0.0
  0
LINE
  5
54E
330
71
100
AcDbEntity
  8
0
100
AcDbLine
 10
2114.788332934478
 20
27.25
 30
0.0
 11
2114.788332934478
 21
26.5
 31
0.0
  0
LINE
  5
54F
330
71
100
AcDbEntity
  8
0
100
AcDbLine
 10
2114.538332934478
 20
137.7500000000002
 30
0.0
 11
2123.538332934478
 21
137.7500000000002
 31
0.0
  0
LINE
  5
550
330
71
100
AcDbEntity
  8
0
100
AcDbLine
 10
2123.538332934478
 20
141.7500000000001
 30
0.0
 11
2114.538332934478
 21
141.7500000000001
 31
0.0
  0
LINE
  5
551
330
71
100
AcDbEntity
  8
0
100
AcDbLine
 10
2114.538332934478
 20
81.62500000000028
 30
0.0
 11
2123.538332934478
 21
81.62500000000028
 31
0.0
  0
LINE
  5
552
330
71
100
AcDbEntity
  8
0
100
AcDbLine
 10
2123.538332934478
 20
85.62500000000019
 30
0.0
 11
2114.538332934478
 21
85.62500000000019
 31
0.0
  0
LINE
  5
553
330
71
100
AcDbEntity
  8
0
100
AcDbLine
 10
2123.538332934478
 20
141.75
 30
0.0
 11
2123.538332934478
 21
139.75
 31
0.0
  0
LINE
  5
554
330
71
100
AcDbEntity
  8
0
100
AcDbLine
 10
2123.538332934478
 20
139.75
 30
0.0
 11
2123.538332934478
 21
137.75
 31
0.0
  0
LINE
  5
555
330
71
100
AcDbEntity
  8
0
100
AcDbLine
 10
2123.538332934478
 20
85.625
 30
0.0
 11
2123.538332934478
 21
83.62500000000002
 31
0.0
  0
LINE
  5
556
330
71
100
AcDbEntity
  8
0
100
AcDbLine
 10
2123.538332934478
 20
83.62499999999998
 30
0.0
 11
2123.538332934478
 21
81.62499999999999
 31
0.0
  0
LWPOLYLINE
  5
557
330
71
100
AcDbEntity
  8
0
100
AcDbPolyline
 90
       41
 70
   128
 43
0.0
 10
2314.503435644206
 20
148.3750000000035
 10
2314.503435644206
 20
148.3718004266471
 10
2314.503435644206
 20
148.3622068252138
 10
2314.503435644206
 20
148.3462345434189
 10
2314.503435644206
 20
148.3239091335059
 10
2314.503435644206
 20
148.2952663113683
 10
2314.503435644206
 20
148.2603518994115
 10
2314.503435644206
 20
148.2192217532466
 10
2314.503435644206
 20
148.171941672333
 10
2314.503435644206
 20
148.1185872947151
 10
2314.503435644206
 20
148.0592439760149
 10
2314.503435644206
 20
147.9940066528831
 10
2314.503435644206
 20
147.9229796911204
 10
2314.503435644206
 20
147.8462767187138
 10
2314.503435644206
 20
147.7640204440571
 10
2314.503435644206
 20
147.676342459642
 10
2314.503435644206
 20
147.5833830315405
 10
2314.503435644206
 20
147.4852908750071
 10
2314.503435644206
 20
147.3822229165668
 10
2314.503435644206
 20
147.274344042967
 10
2314.503435644206
 20
147.1618268373918
 10
2314.503435644206
 20
147.0448513033685
 10
2314.503435644206
 20
146.9236045767974
 10
2314.503435644206
 20
146.798280626577
 10
2314.503435644206
 20
146.6690799442931
 10
2314.503435644206
 20
146.5362092234756
 10
2314.503435644206
 20
146.3998810289343
 10
2314.503435644206
 20
146.2603134566979
 10
2314.503435644206
 20
146.1177297851099
 10
2314.503435644206
 20
145.9723581176282
 10
2314.503435644206
 20
145.8244310179097
 10
2314.503435644206
 20
145.6741851377582
 10
2314.503435644206
 20
145.5218608385307
 10
2314.503435644206
 20
145.3677018066124
 10
2314.503435644206
 20
145.2119546635686
 10
2314.503435644206
 20
145.0548685716039
 10
2314.503435644206
 20
144.8966948349555
 10
2314.503435644206
 20
144.7376864978602
 10
2314.503435644206
 20
144.5780979397371
 10
2314.503435644206
 20
144.4181844682359
 10
2314.503435644206
 20
144.3750000000028
  0
LWPOLYLINE
  5
558
330
71
100
AcDbEntity
  8
0
100
AcDbPolyline
 90
       41
 70
   128
 43
0.0
 10
2319.503435644206
 20
144.375000000003
 10
2319.503435644206
 20
144.5349573367494
 10
2319.503435644206
 20
144.6946587758796
 10
2319.503435644206
 20
144.8538488291587
 10
2319.503435644206
 20
145.01227282646
 10
2319.503435644206
 20
145.1696773231834
 10
2319.503435644206
 20
145.3258105057115
 10
2319.503435644206
 20
145.4804225942595
 10
2319.503435644206
 20
145.6332662424675
 10
2319.503435644206
 20
145.7840969331035
 10
2319.503435644206
 20
145.9326733692376
 10
2319.503435644206
 20
146.0787578602672
 10
2319.503435644206
 20
146.222116702169
 10
2319.503435644206
 20
146.3625205513782
 10
2319.503435644206
 20
146.4997447916867
 10
2319.503435644206
 20
146.6335698935833
 10
2319.503435644206
 20
146.7637817654529
 10
2319.503435644206
 20
146.890172096077
 10
2319.503435644206
 20
147.0125386878891
 10
2319.503435644206
 20
147.1306857804455
 10
2319.503435644206
 20
147.2444243636015
 10
2319.503435644206
 20
147.3535724798866
 10
2319.503435644206
 20
147.4579555155992
 10
2319.503435644206
 20
147.5574064801489
 10
2319.503435644206
 20
147.6517662732072
 10
2319.503435644206
 20
147.7408839392351
 10
2319.503435644206
 20
147.8246169089768
 10
2319.503435644206
 20
147.9028312275433
 10
2319.503435644206
 20
147.9754017687096
 10
2319.503435644206
 20
148.0422124350905
 10
2319.503435644206
 20
148.1031563438724
 10
2319.503435644206
 20
148.1581359978015
 10
2319.503435644206
 20
148.2070634411602
 10
2319.503435644206
 20
148.2498604004765
 10
2319.503435644206
 20
148.2864584097449
 10
2319.503435644206
 20
148.3167989199574
 10
2319.503435644206
 20
148.3408333927701
 10
2319.503435644206
 20
148.358523378154
 10
2319.503435644206
 20
148.3698405759059
 10
2319.503435644206
 20
148.3747668809233
 10
2319.503435644206
 20
148.3750000000035
  0
LINE
  5
559
330
71
100
AcDbEntity
  8
0
100
AcDbLine
 10
2314.503435644206
 20
144.3750000000028
 30
0.0
 11
2314.503435644206
 21
136.3750000000028
 31
0.0
  0
LINE
  5
55A
330
71
100
AcDbEntity
  8
0
100
AcDbLine
 10
2319.503435644206
 20
136.3750000000029
 30
0.0
 11
2319.503435644206
 21
144.375000000003
 31
0.0
  0
LINE
  5
55D
330
71
100
AcDbEntity
  8
0
100
AcDbLine
 10
2289.266245413498
 20
16.24989559934299
 30
0.0
 11
2293.653435644208
 21
16.24989559934299
 31
0.0
  0
LINE
  5
55E
330
71
100
AcDbEntity
  8
0
100
AcDbLine
 10
2293.653435644208
 20
12.25010440065591
 30
0.0
 11
2289.266245413498
 21
12.25010440065591
 31
0.0
  0
LINE
  5
55F
330
71
100
AcDbEntity
  8
0
100
AcDbLine
 10
2293.653435644208
 20
16.24989559934299
 30
0.0
 11
2293.653435644208
 21
12.25010440065591
 31
0.0
  0
LWPOLYLINE
  5
560
330
71
100
AcDbEntity
  8
0
100
AcDbPolyline
 90
       80
 70
   128
 43
0.0
 10
2284.253435644208
 20
19.6500000000002
 10
2284.0374932396
 20
19.64568057596972
 10
2283.821896296775
 20
19.63272921403438
 10
2283.606989724848
 20
19.61116663361116
 10
2283.393117328491
 20
19.58102733022866
 10
2283.180621257915
 20
19.54235952034285
 10
2282.969841461501
 20
19.49522506420117
 10
2282.761115141962
 20
19.43969936687841
 10
2282.554776216882
 20
19.37587125764542
 10
2282.351154784523
 20
19.3038428478611
 10
2282.150576595741
 20
19.22372936761587
 10
2281.953362532851
 20
19.13565898138801
 10
2281.759828096284
 20
19.0397725830083
 10
2281.570282899851
 20
18.93622357025947
 10
2281.385030175435
 20
18.82517759947267
 10
2281.204366287874
 20
18.70681232051219
 10
2281.02858026085
 20
18.5813170925753
 10
2280.857953314507
 20
18.44889268125507
 10
2280.692758415562
 20
18.30975093736083
 10
2280.53325984061
 20
18.16411445800082
 10
2280.37971275335
 20
18.01221623047473
 10
2280.232362796365
 20
17.85429925954298
 10
2280.091445698153
 20
17.69061617867231
 10
2279.957186896011
 20
17.52142884587448
 10
2279.829801175382
 20
17.34700792479117
 10
2279.709492326245
 20
17.16763245168783
 10
2279.596452817093
 20
16.98358938905681
 10
2279.490863487029
 20
16.79517316653793
 10
2279.392893256454
 20
16.60268520989386
 10
2279.30269885684
 20
16.40643345879361
 10
2279.220424579984
 20
16.20673187417372
 10
2279.146202047181
 20
16.00389993596911
 10
2279.080149998645
 20
15.79826213201215
 10
2279.022374103568
 20
15.59014743892231
 10
2278.972966791056
 20
15.37988879581314
 10
2278.93200710227
 20
15.16782257166078
 10
2278.899560563972
 20
14.95428802718538
 10
2278.875679083704
 20
14.73962677210676
 10
2278.860400866739
 20
14.5241822186407
 10
2278.853750354965
 20
14.30829903211389
 10
2278.855738187783
 20
14.09232257957222
 10
2278.866361185083
 20
13.87659837726721
 10
2278.885602352338
 20
13.66147153790382
 10
2278.913430907782
 20
13.44728621853392
 10
2278.949802331664
 20
13.23438506997752
 10
2278.994658437465
 20
13.02310868865635
 10
2279.047927464985
 20
12.81379507171044
 10
2279.10952419514
 20
12.60677907627587
 10
2279.179350086306
 20
12.40239188378404
 10
2279.257293431951
 20
12.20096047014283
 10
2279.343229539349
 20
12.00280708264432
 10
2279.437020929059
 20
11.80824872443793
 10
2279.538517554867
 20
11.61759664739332
 10
2279.647557043821
 20
11.43115585416335
 10
2279.763964956002
 20
11.2492246102455
 10
2279.887555063582
 20
11.07209396681975
 10
2280.018129648751
 20
10.90004729513026
 10
2280.15547982003
 20
10.73335983314979
 10
2280.299385846444
 20
10.57229824526012
 10
2280.449617509049
 20
10.41712019564306
 10
2280.605934469231
 20
10.26807393607583
 10
2280.768086653202
 20
10.12539790877843
 10
2280.935814652057
 20
9.989320364958928
 10
2281.108850136777
 20
9.860058999659022
 10
2281.286916287501
 20
9.737820603488898
 10
2281.469728236372
 20
9.62280073180608
 10
2281.656993523269
 20
9.515183391869411
 10
2281.848412563681
 20
9.415140748465091
 10
2282.043679127979
 20
9.322832848481708
 10
2282.242480831312
 20
9.238407364867953
 10
2282.444499633365
 20
9.161999360387483
 10
2282.649412347151
 20
9.093731071548234
 10
2282.856891156038
 20
9.033711713049056
 10
2283.066604138193
 20
8.982037303060394
 10
2283.278215797579
 20
8.938790509614705
 10
2283.491387600685
 20
8.904040518355827
 10
2283.705778518098
 20
8.877842921857334
 10
2283.921045570087
 20
8.860239630684533
 10
2284.136844375287
 20
8.851258806348425
 10
2284.253435644208
 20
8.849999999998258
  0
LWPOLYLINE
  5
561
330
71
100
AcDbEntity
  8
0
100
AcDbPolyline
 90
       80
 70
   128
 43
0.0
 10
2284.253435644208
 20
8.849999999998258
 10
2284.469378048816
 20
8.854319424028911
 10
2284.684974991642
 20
8.86727078596408
 10
2284.899881563568
 20
8.888833366387471
 10
2285.113753959925
 20
8.9189726697698
 10
2285.326250030502
 20
8.957640479655591
 10
2285.537029826915
 20
9.004774935797287
 10
2285.745756146454
 20
9.06030063312005
 10
2285.952095071536
 20
9.124128742353038
 10
2286.155716503894
 20
9.196157152137516
 10
2286.356294692675
 20
9.276270632382759
 10
2286.553508755565
 20
9.364341018610446
 10
2286.747043192133
 20
9.460227416990335
 10
2286.936588388565
 20
9.563776429739164
 10
2287.121841112981
 20
9.674822400525952
 10
2287.302505000542
 20
9.793187679486095
 10
2287.478291027565
 20
9.918682907423146
 10
2287.648917973908
 20
10.05110731874356
 10
2287.814112872855
 20
10.1902490626378
 10
2287.973611447806
 20
10.33588554199764
 10
2288.127158535066
 20
10.48778376952373
 10
2288.274508492051
 20
10.64570074045548
 10
2288.415425590264
 20
10.80938382132632
 10
2288.549684392405
 20
10.97857115412398
 10
2288.677070113034
 20
11.15299207520727
 10
2288.797378962172
 20
11.33236754831079
 10
2288.910418471323
 20
11.51641061094181
 10
2289.016007801388
 20
11.70482683346068
 10
2289.113978031962
 20
11.89731479010458
 10
2289.204172431576
 20
12.093566541205
 10
2289.286446708432
 20
12.29326812582473
 10
2289.360669241236
 20
12.49610006402952
 10
2289.426721289771
 20
12.70173786798631
 10
2289.484497184847
 20
12.90985256107632
 10
2289.533904497361
 20
13.12011120418532
 10
2289.574864186147
 20
13.33217742833767
 10
2289.607310724445
 20
13.54571197281308
 10
2289.631192204712
 20
13.76037322789204
 10
2289.646470421677
 20
13.97581778135793
 10
2289.653120933451
 20
14.19170096788457
 10
2289.651133100633
 20
14.40767742042607
 10
2289.640510103334
 20
14.62340162273125
 10
2289.621268936079
 20
14.83852846209464
 10
2289.593440380634
 20
15.05271378146471
 10
2289.557068956752
 20
15.26561493002111
 10
2289.512212850952
 20
15.47689131134228
 10
2289.458943823432
 20
15.68620492828819
 10
2289.397347093276
 20
15.89322092372276
 10
2289.32752120211
 20
16.09760811621441
 10
2289.249577856466
 20
16.29903952985563
 10
2289.163641749068
 20
16.49719291735431
 10
2289.069850359357
 20
16.69175127556069
 10
2288.96835373355
 20
16.88240335260513
 10
2288.859314244595
 20
17.06884414583527
 10
2288.742906332414
 20
17.25077538975313
 10
2288.619316224835
 20
17.42790603317854
 10
2288.488741639665
 20
17.59995270486837
 10
2288.351391468386
 20
17.76664016684867
 10
2288.207485441972
 20
17.9277017547385
 10
2288.057253779367
 20
18.08287980435556
 10
2287.900936819185
 20
18.23192606392278
 10
2287.738784635215
 20
18.37460209122002
 10
2287.571056636359
 20
18.51067963503936
 10
2287.39802115164
 20
18.63994100033943
 10
2287.219955000915
 20
18.76217939650973
 10
2287.037143052045
 20
18.87719926819238
 10
2286.849877765147
 20
18.98481660812922
 10
2286.658458724735
 20
19.08485925153354
 10
2286.463192160438
 20
19.17716715151675
 10
2286.264390457104
 20
19.26159263513051
 10
2286.06237165505
 20
19.33800063961098
 10
2285.857458941265
 20
19.40626892845022
 10
2285.649980132379
 20
19.46628828694923
 10
2285.440267150224
 20
19.51796269693824
 10
2285.228655490837
 20
19.56120949038393
 10
2285.015483687732
 20
19.59595948164262
 10
2284.801092770317
 20
19.62215707814128
 10
2284.58582571833
 20
19.6397603693141
 10
2284.370026913129
 20
19.64874119365003
 10
2284.253435644208
 20
19.6500000000002
  0
LWPOLYLINE
  5
562
102
{ACAD_REACTORS
330
989
102
}
330
71
100
AcDbEntity
  8
0
100
AcDbPolyline
 90
       11
 70
   128
 43
0.0
 10
2284.253435644208
 20
22.39999999998815
 10
2283.927522570587
 20
22.39348086927509
 10
2283.60213088836
 20
22.37393390635441
 10
2283.277781154804
 20
22.34139038219706
 10
2282.954992260304
 20
22.29590235949956
 10
2282.63428059823
 20
22.23754260939443
 10
2282.316159238829
 20
22.16640449503228
 10
2282.001137108414
 20
22.08260182222131
 10
2281.68971817519
 20
21.98626865736037
 10
2281.38240064302
 20
21.87755911296392
 10
2281.096917939769
 20
21.7635336895305
  0
LWPOLYLINE
  5
563
330
71
100
AcDbEntity
  8
0
100
AcDbPolyline
 90
       42
 70
   128
 43
0.0
 10
2276.109953348648
 20
14.5341420670365
 10
2276.103910624345
 20
14.33798835402393
 10
2276.106910779431
 20
14.01202389324419
 10
2276.122943636468
 20
13.68644014346944
 10
2276.151983546304
 20
13.3617579692455
 10
2276.193984051281
 20
13.03849679278931
 10
2276.248877959548
 20
12.71717376302433
 10
2276.316577452561
 20
12.39830292825314
 10
2276.396974225576
 20
12.08239441378913
 10
2276.489939660905
 20
11.76995360586515
 10
2276.595325033683
 20
11.46148034312324
 10
2276.712961749794
 20
11.15746811698
 10
2276.842661615589
 20
10.85840328214465
 10
2276.984217138948
 20
10.56476427855591
 10
2277.137401861232
 20
10.2770208659798
 10
2277.301970719562
 20
9.99563337249441
 10
2277.477660438871
 20
9.721051958063126
 10
2277.664189953087
 20
9.45371589437485
 10
2277.861260854779
 20
9.194052862102919
 10
2278.068557872542
 20
8.942478266707212
 10
2278.28574937537
 20
8.699394573873632
 10
2278.512487903189
 20
8.465190665655825
 10
2278.748410722724
 20
8.240241218346341
 10
2278.99314040779
 20
8.024906103073872
 10
2279.246285443099
 20
7.819529810087487
 10
2279.507440850593
 20
7.624440897644261
 10
2279.776188837333
 20
7.43995146638764
 10
2280.052099463869
 20
7.266356660052053
 10
2280.334731332056
 20
7.103934193295684
 10
2280.623632291197
 20
6.952943907417477
 10
2280.918340161385
 20
6.813627354664903
 10
2281.218383472898
 20
6.686207411803707
 10
2281.523282220441
 20
6.570887923560118
 10
2281.832548631061
 20
6.467853376515847
 10
2282.145687944473
 20
6.37726860396674
 10
2282.462199204577
 20
6.299278522224367
 10
2282.781576060872
 20
6.234007898783032
 10
2283.103307578522
 20
6.181561152716822
 10
2283.426879055729
 20
6.142022187630741
 10
2283.751772847155
 20
6.115454257435146
 10
2284.077469192041
 20
6.101899865150016
 10
2284.253435644208
 20
6.100000000010652
  0
LWPOLYLINE
  5
564
330
71
100
AcDbEntity
  8
0
100
AcDbPolyline
 90
       35
 70
   128
 43
0.0
 10
2284.253435644208
 20
6.100000000010652
 10
2284.579348717828
 20
6.10651913072354
 10
2284.904740400056
 20
6.126066093644054
 10
2285.229090133611
 20
6.158609617801232
 10
2285.551879028113
 20
6.20409764049907
 10
2285.872590690186
 20
6.262457390604196
 10
2286.190712049586
 20
6.333595504966011
 10
2286.505734180003
 20
6.41739817777733
 10
2286.817153113226
 20
6.513731342637925
 10
2287.124470645396
 20
6.622440887034542
 10
2287.42719513402
 20
6.743352898886199
 10
2287.724842284491
 20
6.876273944766691
 10
2288.016935924866
 20
7.020991379358007
 10
2288.303008767629
 20
7.177273685636007
 10
2288.582603157257
 20
7.344870845249544
 10
2288.855271802371
 20
7.523514738494722
 10
2289.120578491305
 20
7.712919573251213
 10
2289.378098789951
 20
7.912782342187994
 10
2289.627420720768
 20
8.12278330750928
 10
2289.868145421852
 20
8.34258651246904
 10
2290.099887785031
 20
8.571840318827637
 10
2290.322277071962
 20
8.810177969399942
 10
2290.534957507226
 20
9.057218174788033
 10
2290.737588847495
 20
9.312565723361782
 10
2290.929846925852
 20
9.575812113515157
 10
2291.111424170383
 20
9.846536207180065
 10
2291.282030096231
 20
10.12430490355768
 10
2291.441391770311
 20
10.40867383198865
 10
2291.589254247937
 20
10.69918806284891
 10
2291.725380980688
 20
10.99538283534275
 10
2291.849554194831
 20
11.29678430101853
 10
2291.961575239712
 20
11.60291028182683
 10
2292.061264905555
 20
11.91327104150195
 10
2292.148463710161
 20
12.2273700690352
 10
2292.153805903046
 20
12.25010440065591
  0
LWPOLYLINE
  5
565
102
{ACAD_REACTORS
330
989
102
}
330
71
100
AcDbEntity
  8
0
100
AcDbPolyline
 90
       35
 70
   128
 43
0.0
 10
2292.152578222507
 20
16.24989559934306
 10
2292.109897062839
 20
16.4176055862095
 10
2292.016931627511
 20
16.73004639413363
 10
2291.911546254733
 20
17.03851965687522
 10
2291.793909538621
 20
17.34253188301846
 10
2291.664209672827
 20
17.64159671785381
 10
2291.522654149468
 20
17.93523572144272
 10
2291.369469427184
 20
18.22297913401881
 10
2291.204900568855
 20
18.50436662750422
 10
2291.029210849545
 20
18.7789480419355
 10
2290.842681335329
 20
19.04628410562378
 10
2290.645610433637
 20
19.30594713789571
 10
2290.438313415874
 20
19.55752173329159
 10
2290.221121913047
 20
19.800605426125
 10
2289.994383385227
 20
20.03480933434264
 10
2289.758460565692
 20
20.25975878165212
 10
2289.513730880626
 20
20.47509389692459
 10
2289.260585845318
 20
20.68047018991097
 10
2288.999430437823
 20
20.8755591023542
 10
2288.730682451083
 20
21.06004853361099
 10
2288.454771824547
 20
21.23364333994675
 10
2288.17213995636
 20
21.39606580670278
 10
2287.88323899722
 20
21.54705609258114
 10
2287.588531127031
 20
21.68637264533356
 10
2287.288487815518
 20
21.81379258819493
 10
2286.983589067975
 20
21.92911207643835
 10
2286.674322657356
 20
22.03214662348245
 10
2286.361183343943
 20
22.1227313960319
 10
2286.04467208384
 20
22.20072147777427
 10
2285.725295227544
 20
22.26599210121543
 10
2285.403563709895
 20
22.31843884728181
 10
2285.079992232688
 20
22.35797781236772
 10
2284.755098441261
 20
22.38454574256365
 10
2284.429402096376
 20
22.39810013484845
 10
2284.253435644208
 20
22.39999999998815
  0
LINE
  5
566
102
{ACAD_REACTORS
330
989
102
}
330
71
100
AcDbEntity
  8
0
100
AcDbLine
 10
2276.103435644208
 20
34.25000000000006
 30
0.0
 11
2276.103435644208
 21
21.70000000000311
 31
0.0
  0
LINE
  5
567
102
{ACAD_REACTORS
330
989
102
}
330
71
100
AcDbEntity
  8
0
100
AcDbLine
 10
2281.103435644208
 20
21.75607111739236
 30
0.0
 11
2281.103435644208
 21
34.25000000000006
 31
0.0
  0
LWPOLYLINE
  5
568
102
{ACAD_REACTORS
330
989
102
}
330
71
100
AcDbEntity
  8
0
100
AcDbPolyline
 90
       41
 70
   128
 43
0.0
 10
2282.603435644208
 20
40.75000000000009
 10
2282.343504971995
 20
40.74480069329633
 10
2282.08399013341
 20
40.72921109096704
 10
2281.825306296831
 20
40.70325613305004
 10
2281.567867301216
 20
40.66697734194145
 10
2281.31208499404
 20
40.62043275596812
 10
2281.058368572432
 20
40.56369683653835
 10
2280.807123928541
 20
40.49686034902006
 10
2280.558753000204
 20
40.42003021753589
 10
2280.31365312792
 20
40.33332935390649
 10
2280.072216419202
 20
40.2368964610187
 10
2279.834829121279
 20
40.13088581092964
 10
2279.601871003189
 20
40.0154669980654
 10
2279.373714748224
 20
39.89082466790494
 10
2279.150725357723
 20
39.75715822158718
 10
2278.93325956714
 20
39.61468149691297
 10
2278.721665275353
 20
39.46362242624786
 10
2278.516280988088
 20
39.30422267188118
 10
2278.317435276393
 20
39.13673723941587
 10
2278.125446250991
 20
38.96143406981594
 10
2277.940621053361
 20
38.7785936107565
 10
2277.763255364398
 20
38.58850836796853
 10
2277.593632931365
 20
38.39148243729079
 10
2277.432025113972
 20
38.18783101818251
 10
2277.278690450252
 20
37.97787990947091
 10
2277.133874242957
 20
37.76196498814293
 10
2276.997808167127
 20
37.54043167201309
 10
2276.870709899456
 20
37.31363436712932
 10
2276.752782770061
 20
37.08193590079873
 10
2276.644215437192
 20
36.84570694114081
 10
2276.545181585421
 20
36.60532540409838
 10
2276.455839647786
 20
36.36117584885216
 10
2276.376332552328
 20
36.11364886260775
 10
2276.30678749344
 20
35.86314043574049
 10
2276.247315728379
 20
35.61005132829432
 10
2276.198012399284
 20
35.35478642885147
 10
2276.158956380962
 20
35.09775410679799
 10
2276.130210154713
 20
34.83936555901806
 10
2276.111819708367
 20
34.58003415206832
 10
2276.103814462715
 20
34.32017476087878
 10
2276.103435644208
 20
34.25000000000006
  0
LWPOLYLINE
  5
569
102
{ACAD_REACTORS
330
989
102
}
330
71
100
AcDbEntity
  8
0
100
AcDbPolyline
 90
       41
 70
   128
 43
0.0
 10
2281.103435644208
 20
34.25000000000006
 10
2281.104635484217
 20
34.30998400128004
 10
2281.108233084754
 20
34.36987204095379
 10
2281.114222690427
 20
34.42956831093324
 10
2281.122594719144
 20
34.48897730992138
 10
2281.133335777447
 20
34.54800399619261
 10
2281.14642868193
 20
34.60655393964072
 10
2281.161852486742
 20
34.66453347284613
 10
2281.179582517085
 20
34.72184984092417
 10
2281.199590408691
 20
34.77841134991257
 10
2281.221844153204
 20
34.83412751346288
 10
2281.246308149379
 20
34.88890919759905
 10
2281.27294326004
 20
34.94266876331238
 10
2281.301706874693
 20
34.99532020676566
 10
2281.332552977688
 20
35.04677929688137
 10
2281.365432221844
 20
35.09696371009255
 10
2281.400292007382
 20
35.14579316204362
 10
2281.437076566082
 20
35.19318953602777
 10
2281.475727050497
 20
35.23907700795724
 10
2281.516181628097
 20
35.28338216766582
 10
2281.558375580188
 20
35.3260341363494
 10
2281.602241405447
 20
35.36696467995637
 10
2281.64770892791
 20
35.40610831834857
 10
2281.694705409243
 20
35.44340243005456
 10
2281.743155665099
 20
35.47878735245155
 10
2281.792982185407
 20
35.51220647721186
 10
2281.844105258359
 20
35.5436063408651
 10
2281.896443097948
 20
35.57293671032756
 10
2281.949911974793
 20
35.6001506632648
 10
2282.004426350098
 20
35.62520466315755
 10
2282.059899012493
 20
35.64805862895099
 10
2282.11624121755
 20
35.66867599917435
 10
2282.173362829761
 20
35.68702379043378
 10
2282.23117246673
 20
35.7030726501775
 10
2282.289577645371
 20
35.71679690365312
 10
2282.348484929858
 20
35.72817459498287
 10
2282.407800081101
 20
35.73718752228764
 10
2282.467428207512
 20
35.74382126680649
 10
2282.527273916808
 20
35.74806521596328
 10
2282.587241468621
 20
35.7499125803451
 10
2282.603435644208
 20
35.75000000000006
  0
LINE
  5
56A
102
{ACAD_REACTORS
330
989
102
}
330
71
100
AcDbEntity
  8
0
100
AcDbLine
 10
2313.003435644208
 20
40.75000000000009
 30
0.0
 11
2282.603435644208
 21
40.75000000000009
 31
0.0
  0
LINE
  5
56B
102
{ACAD_REACTORS
330
989
102
}
330
71
100
AcDbEntity
  8
0
100
AcDbLine
 10
2282.603435644208
 20
35.75000000000006
 30
0.0
 11
2313.003435644208
 21
35.75000000000006
 31
0.0
  0
LWPOLYLINE
  5
56C
102
{ACAD_REACTORS
330
989
102
}
330
71
100
AcDbEntity
  8
0
100
AcDbPolyline
 90
       41
 70
   128
 43
0.0
 10
2313.003435644208
 20
35.75000000000006
 10
2313.263366316421
 20
35.75519930670367
 10
2313.522881155008
 20
35.77078890903294
 10
2313.781564991586
 20
35.79674386694995
 10
2314.039003987201
 20
35.83302265805837
 10
2314.294786294376
 20
35.87956724403188
 10
2314.548502715984
 20
35.93630316346179
 10
2314.799747359875
 20
36.00313965098008
 10
2315.048118288213
 20
36.07996978246428
 10
2315.293218160496
 20
36.16667064609334
 10
2315.534654869214
 20
36.26310353898129
 10
2315.772042167137
 20
36.36911418907015
 10
2316.005000285228
 20
36.48453300193472
 10
2316.233156540192
 20
36.60917533209522
 10
2316.456145930694
 20
36.7428417784128
 10
2316.673611721276
 20
36.88531850308705
 10
2316.885206013064
 20
37.03637757375214
 10
2317.090590300328
 20
37.19577732811899
 10
2317.289436012023
 20
37.36326276058412
 10
2317.481425037426
 20
37.53856593018424
 10
2317.666250235055
 20
37.7214063892435
 10
2317.843615924019
 20
37.91149163203146
 10
2318.013238357051
 20
38.10851756270937
 10
2318.174846174445
 20
38.31216898181747
 10
2318.328180838165
 20
38.52212009052909
 10
2318.47299704546
 20
38.73803501185721
 10
2318.609063121289
 20
38.95956832798709
 10
2318.73616138896
 20
39.18636563287082
 10
2318.854088518355
 20
39.41806409920145
 10
2318.962655851224
 20
39.65429305885937
 10
2319.061689702995
 20
39.89467459590161
 10
2319.15103164063
 20
40.138824151148
 10
2319.230538736088
 20
40.3863511373922
 10
2319.300083794977
 20
40.63685956425968
 10
2319.359555560037
 20
40.88994867170582
 10
2319.408858889133
 20
41.14521357114853
 10
2319.447914907454
 20
41.402245893202
 10
2319.476661133703
 20
41.6606344409821
 10
2319.49505158005
 20
41.91996584793168
 10
2319.503056825703
 20
42.17982523912136
 10
2319.503435644208
 20
42.25000000000011
  0
LWPOLYLINE
  5
56D
102
{ACAD_REACTORS
330
989
102
}
330
71
100
AcDbEntity
  8
0
100
AcDbPolyline
 90
       41
 70
   128
 43
0.0
 10
2314.503435644208
 20
42.25000000000011
 10
2314.5022358042
 20
42.19001599872011
 10
2314.498638203662
 20
42.1301279590462
 10
2314.492648597989
 20
42.07043168906657
 10
2314.484276569272
 20
42.0110226900786
 10
2314.47353551097
 20
41.95199600380735
 10
2314.460442606486
 20
41.89344606035928
 10
2314.445018801674
 20
41.83546652715387
 10
2314.427288771332
 20
41.778150159076
 10
2314.407280879725
 20
41.72158865008724
 10
2314.385027135212
 20
41.66587248653693
 10
2314.360563139038
 20
41.61109080240112
 10
2314.333928028377
 20
41.55733123668778
 10
2314.305164413724
 20
41.5046797932345
 10
2314.274318310728
 20
41.4532207031188
 10
2314.241439066573
 20
41.40303628990743
 10
2314.206579281035
 20
41.35420683795635
 10
2314.169794722334
 20
41.30681046397238
 10
2314.131144237919
 20
41.26092299204294
 10
2314.090689660319
 20
41.21661783233435
 10
2314.048495708229
 20
41.17396586365077
 10
2314.00462988297
 20
41.13303532004379
 10
2313.959162360506
 20
41.0938916816516
 10
2313.912165879173
 20
41.05659756994543
 10
2313.863715623317
 20
41.02121264754845
 10
2313.81388910301
 20
40.98779352278813
 10
2313.762766030057
 20
40.95639365913505
 10
2313.710428190469
 20
40.92706328967262
 10
2313.656959313624
 20
40.89984933673536
 10
2313.602444938318
 20
40.87479533684228
 10
2313.546972275923
 20
40.85194137104918
 10
2313.490630070866
 20
40.83132400082582
 10
2313.433508458656
 20
40.81297620956603
 10
2313.375698821687
 20
40.79692734982268
 10
2313.317293643045
 20
40.78320309634704
 10
2313.258386358558
 20
40.7718254050173
 10
2313.199071207316
 20
40.76281247771254
 10
2313.139443080904
 20
40.75617873319368
 10
2313.079597371609
 20
40.75193478403654
 10
2313.019629819795
 20
40.75008741965507
 10
2313.003435644208
 20
40.75000000000009
  0
LINE
  5
56E
102
{ACAD_REACTORS
330
989
102
}
330
71
100
AcDbEntity
  8
0
100
AcDbLine
 10
2314.503435644208
 20
136.3750000000004
 30
0.0
 11
2314.503435644208
 21
42.25000000000011
 31
0.0
  0
LINE
  5
56F
102
{ACAD_REACTORS
330
989
102
}
330
71
100
AcDbEntity
  8
0
100
AcDbLine
 10
2319.503435644208
 20
42.25000000000011
 30
0.0
 11
2319.503435644208
 21
136.3750000000004
 31
0.0
  0
LINE
  5
572
330
71
100
AcDbEntity
  8
0
100
AcDbLine
 10
2276.103435644208
 20
21.69999999999953
 30
0.0
 11
2276.103435644208
 21
14.24999999999966
 31
0.0
  0
LINE
  5
57B
330
71
100
AcDbEntity
  8
0
100
AcDbLine
 10
2246.003435644243
 20
198.9999999999976
 30
0.0
 11
2388.003435644243
 21
198.9999999999972
 31
0.0
  0
LINE
  5
57C
330
71
100
AcDbEntity
  8
0
100
AcDbLine
 10
2388.003435644243
 20
158.2450353879068
 30
0.0
 11
2246.003435644243
 21
158.2450353879073
 31
0.0
  0
LINE
  5
57D
330
71
100
AcDbEntity
  8
0
100
AcDbLine
 10
2246.003435644243
 20
198.9999999999976
 30
0.0
 11
2246.003435644243
 21
158.2450353879073
 31
0.0
  0
LINE
  5
57E
330
71
100
AcDbEntity
  8
0
100
AcDbLine
 10
2388.003435644243
 20
158.2450353879068
 30
0.0
 11
2388.003435644243
 21
198.9999999999972
 31
0.0
  0
LWPOLYLINE
  5
57F
330
71
100
AcDbEntity
  8
0
100
AcDbPolyline
 90
       41
 70
   128
 43
0.0
 10
2383.753435644205
 20
202.0000000000013
 10
2383.755835324222
 20
201.8800319974413
 10
2383.763030525297
 20
201.7602559180938
 10
2383.775009736643
 20
201.6408633781344
 10
2383.791753794078
 20
201.5220453801585
 10
2383.813235910681
 20
201.403992007616
 10
2383.839421719649
 20
201.2868921207199
 10
2383.870269329272
 20
201.1709330543088
 10
2383.905729389957
 20
201.0563003181529
 10
2383.94574517317
 20
200.9431773001759
 10
2383.990252662196
 20
200.8317449730751
 10
2384.039180654545
 20
200.7221816048031
 10
2384.092450875867
 20
200.6146624733768
 10
2384.149978105172
 20
200.5093595864699
 10
2384.211670311165
 20
200.4064414062385
 10
2384.277428799476
 20
200.3060725798161
 10
2384.347148370552
 20
200.208413675914
 10
2384.420717487952
 20
200.1136209279457
 10
2384.498018456782
 20
200.0218459840867
 10
2384.578927611983
 20
199.9332356646696
 10
2384.663315516163
 20
199.8479317273026
 10
2384.75104716668
 20
199.7660706400885
 10
2384.841982211609
 20
199.6877833633044
 10
2384.935975174274
 20
199.613195139892
 10
2385.032875685987
 20
199.5424252950983
 10
2385.1325287266
 20
199.4755870455776
 10
2385.234774872507
 20
199.4127873182711
 10
2385.339450551684
 20
199.3541265793464
 10
2385.446388305375
 20
199.2996986734716
 10
2385.555417055986
 20
199.2495906736859
 10
2385.666362380774
 20
199.2038827420995
 10
2385.779046790888
 20
199.1626480016527
 10
2385.893290015308
 20
199.1259524191336
 10
2386.008909289248
 20
199.0938546996464
 10
2386.12571964653
 20
199.0664061926953
 10
2386.243534215504
 20
199.0436508100358
 10
2386.36216451799
 20
199.0256249554261
 10
2386.481420770812
 20
199.0123574663882
 10
2386.601112189404
 20
199.0038695680745
 10
2386.72104729303
 20
199.0001748393113
 10
2386.753435644205
 20
199.0000000000013
  0
LWPOLYLINE
  5
580
330
71
100
AcDbEntity
  8
0
100
AcDbPolyline
 90
       41
 70
   128
 43
0.0
 10
2247.253435644205
 20
198.9999999999994
 10
2247.373403646764
 20
199.0023996800163
 10
2247.493179726112
 20
199.0095948810915
 10
2247.612572266072
 20
199.0215740924378
 10
2247.731390264047
 20
199.0383181498724
 10
2247.84944363659
 20
199.0598002664755
 10
2247.966543523486
 20
199.0859860754433
 10
2248.082502589896
 20
199.116833685067
 10
2248.197135326053
 20
199.1522937457521
 10
2248.31025834403
 20
199.1923095289656
 10
2248.42169067113
 20
199.2368170179906
 10
2248.531254039403
 20
199.2857450103393
 10
2248.638773170829
 20
199.3390152316615
 10
2248.744076057736
 20
199.3965424609664
 10
2248.846994237968
 20
199.458234666959
 10
2248.94736306439
 20
199.5239931552703
 10
2249.045021968292
 20
199.5937127263464
 10
2249.13981471626
 20
199.6672818437467
 10
2249.231589660119
 20
199.7445828125768
 10
2249.320199979536
 20
199.8254919677765
 10
2249.405503916903
 20
199.9098798719577
 10
2249.487365004117
 20
199.9976115224754
 10
2249.565652280901
 20
200.0885465674036
 10
2249.640240504314
 20
200.182539530069
 10
2249.711010349108
 20
200.2794400417819
 10
2249.777848598629
 20
200.3790930823948
 10
2249.840648325934
 20
200.4813392283011
 10
2249.89930906486
 20
200.5860149074783
 10
2249.953736970734
 20
200.6929526611691
 10
2250.00384497052
 20
200.8019814117805
 10
2250.049552902106
 20
200.9129267365694
 10
2250.090787642553
 20
201.0256111466831
 10
2250.127483225072
 20
201.1398543711035
 10
2250.15958094456
 20
201.2554736450422
 10
2250.187029451511
 20
201.372284002325
 10
2250.20978483417
 20
201.4900985712986
 10
2250.227810688779
 20
201.608728873785
 10
2250.241078177818
 20
201.7279851266064
 10
2250.249566076131
 20
201.8476765451986
 10
2250.253260804894
 20
201.9676116488246
 10
2250.253435644205
 20
201.9999999999992
  0
LINE
  5
581
330
71
100
AcDbEntity
  8
0
100
AcDbLine
 10
2383.753435644205
 20
202.0000000000013
 30
0.0
 11
2383.753435644204
 21
211.6250000000012
 31
0.0
  0
LINE
  5
582
330
71
100
AcDbEntity
  8
0
100
AcDbLine
 10
2250.253435644204
 20
211.6249999999994
 30
0.0
 11
2250.253435644205
 21
201.9999999999992
 31
0.0
  0
LINE
  5
583
330
71
100
AcDbEntity
  8
0
100
AcDbLine
 10
2385.253435644204
 20
211.6250000000012
 30
0.0
 11
2385.253435644204
 21
211.8750000000013
 31
0.0
  0
LINE
  5
584
330
71
100
AcDbEntity
  8
0
100
AcDbLine
 10
2248.753435644204
 20
211.8749999999993
 30
0.0
 11
2248.753435644204
 21
211.6249999999994
 31
0.0
  0
LINE
  5
585
330
71
100
AcDbEntity
  8
0
100
AcDbLine
 10
2385.253435644204
 20
211.8750000000013
 30
0.0
 11
2320.003435644204
 21
223.0000000000005
 31
0.0
  0
LINE
  5
586
330
71
100
AcDbEntity
  8
0
100
AcDbLine
 10
2314.003435644204
 20
223.0000000000002
 30
0.0
 11
2248.753435644204
 21
211.8749999999993
 31
0.0
  0
LINE
  5
587
330
71
100
AcDbEntity
  8
0
100
AcDbLine
 10
2385.191940087674
 20
211.6250000000009
 30
0.0
 11
2317.003435644205
 21
211.625
 31
0.0
  0
LINE
  5
588
330
71
100
AcDbEntity
  8
0
100
AcDbLine
 10
2317.003435644205
 20
211.625
 30
0.0
 11
2248.814931200735
 21
211.624999999999
 31
0.0
  0
LINE
  5
589
330
71
100
AcDbEntity
  8
0
100
AcDbLine
 10
2385.191940087674
 20
211.8750000000009
 30
0.0
 11
2317.003435644205
 21
211.875
 31
0.0
  0
LINE
  5
58A
330
71
100
AcDbEntity
  8
0
100
AcDbLine
 10
2317.003435644205
 20
211.875
 30
0.0
 11
2248.814931200735
 21
211.8749999999991
 31
0.0
  0
LINE
  5
58B
330
71
100
AcDbEntity
  8
0
100
AcDbLine
 10
2320.003435644204
 20
223.0000000000001
 30
0.0
 11
2317.003435644204
 21
223.0
 31
0.0
  0
LINE
  5
58C
330
71
100
AcDbEntity
  8
0
100
AcDbLine
 10
2317.003435644204
 20
223.0
 30
0.0
 11
2314.003435644204
 21
223.0
 31
0.0
  0
LINE
  5
58D
330
71
100
AcDbEntity
  8
0
100
AcDbLine
 10
2246.00343564421
 20
158.0
 30
0.0
 11
2388.00343564421
 21
158.0
 31
0.0
  0
LINE
  5
58E
330
71
100
AcDbEntity
  8
0
100
AcDbLine
 10
2388.00343564421
 20
69.625
 30
0.0
 11
2319.503435644208
 21
69.625
 31
0.0
  0
LINE
  5
58F
330
71
100
AcDbEntity
  8
0
100
AcDbLine
 10
2314.503435644208
 20
69.625
 30
0.0
 11
2246.00343564421
 21
69.625
 31
0.0
  0
LINE
  5
590
330
71
100
AcDbEntity
  8
0
100
AcDbLine
 10
2388.00343564421
 20
158.0
 30
0.0
 11
2388.00343564421
 21
69.625
 31
0.0
  0
LINE
  5
591
330
71
100
AcDbEntity
  8
0
100
AcDbLine
 10
2246.00343564421
 20
69.625
 30
0.0
 11
2246.00343564421
 21
158.0
 31
0.0
  0
LINE
  5
595
330
71
100
AcDbEntity
  8
0
100
AcDbLine
 10
2246.003435644208
 20
69.625
 30
0.0
 11
2314.503435644208
 21
69.625
 31
0.0
  0
LINE
  5
596
330
71
100
AcDbEntity
  8
0
100
AcDbLine
 10
2319.503435644208
 20
69.625
 30
0.0
 11
2388.003435644209
 21
69.625
 31
0.0
  0
LINE
  5
597
330
71
100
AcDbEntity
  8
0
100
AcDbLine
 10
2388.003435644209
 20
0.0
 30
0.0
 11
2246.003435644208
 21
0.0
 31
0.0
  0
LINE
  5
598
330
71
100
AcDbEntity
  8
0
100
AcDbLine
 10
2246.003435644208
 20
69.625
 30
0.0
 11
2246.003435644208
 21
63.75000000000017
 31
0.0
  0
LINE
  5
599
102
{ACAD_REACTORS
330
989
102
}
330
71
100
AcDbEntity
  8
0
100
AcDbLine
 10
2246.003435644208
 20
63.75000000000017
 30
0.0
 11
2314.503435644208
 21
63.75000000000017
 31
0.0
  0
LINE
  5
59A
102
{ACAD_REACTORS
330
989
102
}
330
71
100
AcDbEntity
  8
0
100
AcDbLine
 10
2319.503435644208
 20
63.75000000000017
 30
0.0
 11
2388.003435644209
 21
63.75000000000017
 31
0.0
  0
LINE
  5
59B
102
{ACAD_REACTORS
330
989
102
}
330
71
100
AcDbEntity
  8
0
100
AcDbLine
 10
2388.003435644209
 20
21.74999999999974
 30
0.0
 11
2287.430346514749
 21
21.74999999999974
 31
0.0
  0
LINE
  5
59C
102
{ACAD_REACTORS
330
989
102
}
330
71
100
AcDbEntity
  8
0
100
AcDbLine
 10
2276.103473545621
 20
21.74999999999974
 30
0.0
 11
2246.003435644208
 21
21.74999999999974
 31
0.0
  0
LINE
  5
59D
330
71
100
AcDbEntity
  8
0
100
AcDbLine
 10
2246.003435644208
 20
21.74999999999974
 30
0.0
 11
2246.003435644208
 21
0.0
 31
0.0
  0
LINE
  5
59E
330
71
100
AcDbEntity
  8
0
100
AcDbLine
 10
2388.003435644209
 20
63.75000000000017
 30
0.0
 11
2388.003435644209
 21
69.625
 31
0.0
  0
LINE
  5
59F
330
71
100
AcDbEntity
  8
0
100
AcDbLine
 10
2388.003435644209
 20
0.0
 30
0.0
 11
2388.003435644209
 21
21.74999999999975
 31
0.0
  0
LINE
  5
5A0
330
71
100
AcDbEntity
  8
0
100
AcDbLine
 10
2387.003435644208
 20
21.74999999999976
 30
0.0
 11
2387.003435644208
 21
63.75000000000018
 31
0.0
  0
LINE
  5
5A1
330
71
100
AcDbEntity
  8
0
100
AcDbLine
 10
2385.628435644209
 20
63.75000000000017
 30
0.0
 11
2385.628435644209
 21
21.74999999999975
 31
0.0
  0
LINE
  5
5A2
102
{ACAD_REACTORS
330
989
102
}
330
71
100
AcDbEntity
  8
0
100
AcDbLine
 10
2382.253435644209
 20
63.75000000000017
 30
0.0
 11
2382.253435644209
 21
21.74999999999975
 31
0.0
  0
LINE
  5
5A3
102
{ACAD_REACTORS
330
989
102
}
330
71
100
AcDbEntity
  8
0
100
AcDbLine
 10
2318.753435644208
 20
39.2321216359604
 30
0.0
 11
2318.753435644208
 21
21.74999999999975
 31
0.0
  0
LINE
  5
5A4
102
{ACAD_REACTORS
330
989
102
}
330
71
100
AcDbEntity
  8
0
100
AcDbLine
 10
2315.253435644208
 20
21.74999999999975
 30
0.0
 11
2315.253435644208
 21
36.15312749742418
 31
0.0
  0
LINE
  5
5A5
102
{ACAD_REACTORS
330
989
102
}
330
71
100
AcDbEntity
  8
0
100
AcDbLine
 10
2251.753435644209
 20
63.75000000000017
 30
0.0
 11
2251.753435644209
 21
21.74999999999975
 31
0.0
  0
LINE
  5
5A6
330
71
100
AcDbEntity
  8
0
100
AcDbLine
 10
2248.378435644208
 20
63.75000000000017
 30
0.0
 11
2248.378435644208
 21
21.74999999999975
 31
0.0
  0
LINE
  5
5A7
330
71
100
AcDbEntity
  8
0
100
AcDbLine
 10
2247.003435644209
 20
63.75000000000018
 30
0.0
 11
2247.003435644209
 21
21.74999999999976
 31
0.0
  0
ARC
  5
5A8
330
71
100
AcDbEntity
  8
0
100
AcDbCircle
 10
2329.128435644207
 20
18.25
 30
0.0
 40
1.500000000000024
100
AcDbArc
 50
359.9999999999984
 51
179.9999999999984
  0
ARC
  5
5A9
330
71
100
AcDbEntity
  8
0
100
AcDbCircle
 10
2329.128435644207
 20
18.25
 30
0.0
 40
1.499999999999974
100
AcDbArc
 50
180.0000000000012
 51
0.0000000000008142
  0
ARC
  5
5AA
330
71
100
AcDbEntity
  8
0
100
AcDbCircle
 10
2254.253435644208
 20
7.125
 30
0.0
 40
0.9999999999999978
100
AcDbArc
 50
359.9999999999996
 51
179.9999999999996
  0
ARC
  5
5AB
330
71
100
AcDbEntity
  8
0
100
AcDbCircle
 10
2254.253435644208
 20
7.125
 30
0.0
 40
1.0
100
AcDbArc
 50
180.0
 51
359.9999999999992
  0
ARC
  5
5AC
102
{ACAD_REACTORS
330
989
102
}
330
71
100
AcDbEntity
  8
0
100
AcDbCircle
 10
2377.503435644207
 20
27.25
 30
0.0
 40
0.7499999999999984
100
AcDbArc
 50
359.9999999999996
 51
179.9999999999996
  0
ARC
  5
5AD
102
{ACAD_REACTORS
330
989
102
}
330
71
100
AcDbEntity
  8
0
100
AcDbCircle
 10
2377.503435644207
 20
27.25
 30
0.0
 40
0.7500000000000018
100
AcDbArc
 50
180.0
 51
359.9999999999992
  0
ARC
  5
5AE
330
71
100
AcDbEntity
  8
0
100
AcDbCircle
 10
2282.628435644208
 20
139.75
 30
0.0
 40
2.000000000000014
100
AcDbArc
 50
359.9999999999992
 51
179.9999999999988
  0
ARC
  5
5AF
330
71
100
AcDbEntity
  8
0
100
AcDbCircle
 10
2282.628435644208
 20
139.75
 30
0.0
 40
1.999999999999956
100
AcDbArc
 50
180.0000000000004
 51
0.0000000000004071
  0
ARC
  5
5B0
330
71
100
AcDbEntity
  8
0
100
AcDbCircle
 10
2282.628435644208
 20
83.625
 30
0.0
 40
2.000000000000014
100
AcDbArc
 50
359.9999999999992
 51
179.9999999999992
  0
ARC
  5
5B1
330
71
100
AcDbEntity
  8
0
100
AcDbCircle
 10
2282.628435644208
 20
83.625
 30
0.0
 40
1.999999999999968
100
AcDbArc
 50
180.0000000000004
 51
0.0000000000004071
  0
ARC
  5
5B2
330
71
100
AcDbEntity
  8
0
100
AcDbCircle
 10
2351.378435644208
 20
139.75
 30
0.0
 40
2.0
100
AcDbArc
 50
0.0
 51
179.9999999999992
  0
ARC
  5
5B3
330
71
100
AcDbEntity
  8
0
100
AcDbCircle
 10
2351.378435644208
 20
139.75
 30
0.0
 40
2.000000000000024
100
AcDbArc
 50
180.0
 51
0.0
  0
ARC
  5
5B4
330
71
100
AcDbEntity
  8
0
100
AcDbCircle
 10
2351.378435644208
 20
83.625
 30
0.0
 40
2.0
100
AcDbArc
 50
0.0
 51
179.9999999999996
  0
ARC
  5
5B5
330
71
100
AcDbEntity
  8
0
100
AcDbCircle
 10
2351.378435644208
 20
83.625
 30
0.0
 40
2.00000000000003
100
AcDbArc
 50
180.0
 51
359.9999999999992
  0
ARC
  5
5BD
330
71
100
AcDbEntity
  8
0
100
AcDbCircle
 10
2317.003435644206
 20
148.3750000000035
 30
0.0
 40
2.5
100
AcDbArc
 50
0.0
 51
180.0
  0
ARC
  5
5BE
330
71
100
AcDbEntity
  8
0
100
AcDbCircle
 10
2123.538332934481
 20
455.3348351414798
 30
0.0
 40
2.5
100
AcDbArc
 50
270.0
 51
90.0
  0
HATCH
  5
989
330
71
100
AcDbEntity
  8
0
100
AcDbHatch
 10
0.0
 20
0.0
 30
0.0
210
0.0
220
0.0
230
1.0
  2
HONEY
 70
     0
 71
     1
 91
        9
 92
        7
 72
     0
 73
     1
 93
        4
 10
1671.020183530033
 20
63.75000000000087
 10
1607.520183530033
 20
63.75000000000087
 10
1607.520183530033
 20
21.75000000000045
 10
1671.020183530033
 20
21.75000000000045
 97
        4
330
476
330
480
330
477
330
47F
 92
        7
 72
     0
 73
     1
 93
        4
 10
1738.020183530032
 20
63.75000000000087
 10
1674.520183530033
 20
63.75000000000087
 10
1674.520183530033
 20
21.75000000000045
 10
1738.020183530032
 20
21.75000000000045
 97
        4
330
476
330
47E
330
477
330
47D
 92
        7
 72
     0
 73
     1
 93
        4
 10
1956.913332934481
 20
63.75000000000063
 10
1880.538332934481
 20
63.75000000000085
 10
1880.53833293448
 20
21.75000000000043
 10
1956.913332934481
 20
21.7500000000002
 97
        4
330
4E8
330
4F4
330
4E9
330
4F3
 92
        7
 72
     0
 73
     1
 93
        4
 10
2028.913332934481
 20
63.75000000000042
 10
1960.413332934481
 20
63.75000000000062
 10
1960.413332934481
 20
21.7500000000002
 10
2028.913332934481
 20
21.74999999999999
 97
        4
330
4E8
330
4F2
330
4E9
330
4F0
 92
        7
 72
     0
 73
     1
 93
        4
 10
2108.78833293448
 20
63.75000000000018
 10
2032.413332934481
 20
63.75000000000041
 10
2032.413332934481
 20
21.74999999999998
 10
2108.78833293448
 20
21.74999999999975
 97
        4
330
4E8
330
4EE
330
4E9
330
4ED
 92
        7
 72
     0
 73
     1
 93
       85
 10
2276.30678749344
 20
35.86314043574017
 10
2276.376332552328
 20
36.11364886260843
 10
2276.455839647786
 20
36.36117584885416
 10
2276.545181585421
 20
36.60532540409727
 10
2276.644215437192
 20
36.84570694114251
 10
2276.75278277006
 20
37.08193590079816
 10
2276.870709899457
 20
37.31363436712838
 10
2276.997808167128
 20
37.54043167201488
 10
2277.133874242956
 20
37.7619649881436
 10
2277.278690450251
 20
37.97787990946858
 10
2277.432025113972
 20
38.18783101818338
 10
2277.593632931365
 20
38.39148243729104
 10
2277.763255364398
 20
38.58850836796815
 10
2277.940621053361
 20
38.77859361075565
 10
2278.125446250991
 20
38.96143406981585
 10
2278.317435276394
 20
39.13673723941688
 10
2278.516280988091
 20
39.30422267188274
 10
2278.721665275353
 20
39.46362242624753
 10
2278.93325956714
 20
39.61468149691184
 10
2279.150725357723
 20
39.75715822158679
 10
2279.373714748225
 20
39.89082466790516
 10
2279.60187100319
 20
40.01546699806556
 10
2279.834829121278
 20
40.13088581092919
 10
2280.072216419202
 20
40.23689646101862
 10
2280.313653127921
 20
40.33332935390633
 10
2280.558753000204
 20
40.42003021753585
 10
2280.807123928541
 20
40.49686034901987
 10
2281.058368572431
 20
40.56369683653822
 10
2281.31208499404
 20
40.62043275596813
 10
2281.567867301216
 20
40.66697734194153
 10
2281.825306296831
 20
40.70325613305004
 10
2282.08399013341
 20
40.72921109096703
 10
2282.343504971995
 20
40.74480069329633
 10
2282.603435644208
 20
40.75000000000009
 10
2313.003435644208
 20
40.75000000000009
 10
2313.019629819795
 20
40.75008741965507
 10
2313.079597371609
 20
40.75193478403654
 10
2313.139443080904
 20
40.75617873319368
 10
2313.199071207316
 20
40.76281247771258
 10
2313.258386358559
 20
40.77182540501728
 10
2313.317293643045
 20
40.78320309634712
 10
2313.375698821687
 20
40.79692734982283
 10
2313.433508458656
 20
40.8129762095661
 10
2313.490630070865
 20
40.83132400082568
 10
2313.546972275922
 20
40.85194137104925
 10
2313.602444938319
 20
40.87479533684222
 10
2313.656959313624
 20
40.89984933673523
 10
2313.710428190468
 20
40.92706328967216
 10
2313.762766030058
 20
40.9563936591364
 10
2313.81388910301
 20
40.98779352278873
 10
2313.863715623316
 20
41.02121264754784
 10
2313.912165879172
 20
41.05659756994454
 10
2313.959162360506
 20
41.0938916816505
 10
2314.004629882969
 20
41.13303532004334
 10
2314.048495708229
 20
41.17396586365161
 10
2314.09068966032
 20
41.21661783233572
 10
2314.13114423792
 20
41.26092299204287
 10
2314.169794722334
 20
41.30681046397224
 10
2314.206579281036
 20
41.35420683795645
 10
2314.241439066573
 20
41.40303628990748
 10
2314.274318310728
 20
41.45322070311574
 10
2314.305164413726
 20
41.50467979323577
 10
2314.333928028377
 20
41.55733123668682
 10
2314.360563139037
 20
41.61109080240069
 10
2314.385027135211
 20
41.66587248653434
 10
2314.407280879725
 20
41.72158865008949
 10
2314.427288771333
 20
41.77815015907912
 10
2314.445018801674
 20
41.83546652715845
 10
2314.460442606486
 20
41.89344606036011
 10
2314.47353551097
 20
41.95199600380884
 10
2314.484276569271
 20
42.01102269007313
 10
2314.492648597989
 20
42.07043168907154
 10
2314.498638203662
 20
42.13012795904519
 10
2314.5022358042
 20
42.19001599871879
 10
2314.503435644208
 20
42.24999999999794
 10
2314.503435644208
 20
63.75000000000017
 10
2251.753435644209
 20
63.75000000000017
 10
2251.753435644209
 20
21.74999999999974
 10
2276.103435644208
 20
21.74999999999974
 10
2276.103435644208
 20
34.30787788070488
 10
2276.111819708367
 20
34.58003415207014
 10
2276.130210154713
 20
34.839365559018
 10
2276.158956380962
 20
35.09775410679703
 10
2276.198012399284
 20
35.35478642885164
 10
2276.247315728379
 20
35.6100513282918
 97
        8
330
568
330
56A
330
56D
330
56E
330
599
330
5A5
330
59C
330
566
 92
        7
 72
     0
 73
     1
 93
       74
 10
2315.253435644208
 20
36.15259810298103
 10
2315.048118288213
 20
36.07996978246443
 10
2314.799747359874
 20
36.00313965098005
 10
2314.548502715984
 20
35.93630316346207
 10
2314.294786294377
 20
35.87956724403188
 10
2314.0390039872
 20
35.83302265805832
 10
2313.781564991586
 20
35.79674386694992
 10
2313.522881155008
 20
35.77078890903294
 10
2313.263366316422
 20
35.75519930670367
 10
2313.003435644208
 20
35.75000000000006
 10
2282.603435644208
 20
35.75000000000006
 10
2282.587241468621
 20
35.7499125803451
 10
2282.527273916808
 20
35.74806521596329
 10
2282.467428207512
 20
35.7438212668065
 10
2282.407800081101
 20
35.73718752228764
 10
2282.348484929858
 20
35.72817459498276
 10
2282.289577645371
 20
35.71679690365314
 10
2282.231172466731
 20
35.70307265017766
 10
2282.173362829762
 20
35.68702379043376
 10
2282.11624121755
 20
35.6686759991744
 10
2282.059899012494
 20
35.64805862895121
 10
2282.004426350099
 20
35.62520466315741
 10
2281.949911974793
 20
35.60015066326471
 10
2281.89644309795
 20
35.57293671032811
 10
2281.84410525836
 20
35.54360634086588
 10
2281.792982185406
 20
35.51220647721186
 10
2281.743155665099
 20
35.47878735245126
 10
2281.694705409242
 20
35.44340243005384
 10
2281.647708927911
 20
35.40610831834814
 10
2281.602241405448
 20
35.36696467995628
 10
2281.55837558019
 20
35.32603413635138
 10
2281.516181628096
 20
35.2833821676638
 10
2281.475727050497
 20
35.23907700795561
 10
2281.437076566083
 20
35.19318953602902
 10
2281.400292007382
 20
35.14579316204338
 10
2281.365432221842
 20
35.09696371008971
 10
2281.332552977687
 20
35.04677929688044
 10
2281.301706874695
 20
34.99532020676614
 10
2281.27294326004
 20
34.94266876331374
 10
2281.246308149379
 20
34.88890919759989
 10
2281.221844153205
 20
34.83412751346324
 10
2281.199590408692
 20
34.77841134991192
 10
2281.179582517085
 20
34.72184984092707
 10
2281.161852486742
 20
34.66453347284686
 10
2281.146428681931
 20
34.60655393964005
 10
2281.133335777448
 20
34.54800399619433
 10
2281.122594719144
 20
34.48897730992111
 10
2281.114222690427
 20
34.42956831093294
 10
2281.108233084754
 20
34.3698720409548
 10
2281.104635484217
 20
34.30998400128157
 10
2281.103435644208
 20
34.24999999999922
 10
2281.103435644208
 20
21.76613694359829
 10
2281.382400643021
 20
21.87755911296425
 10
2281.689718175189
 20
21.98626865736014
 10
2282.001137108414
 20
22.08260182222157
 10
2282.316159238829
 20
22.16640449503225
 10
2282.63428059823
 20
22.23754260939442
 10
2282.954992260304
 20
22.29590235949953
 10
2283.277781154804
 20
22.34139038219705
 10
2283.602130888361
 20
22.37393390635444
 10
2283.927522570587
 20
22.39348086927509
 10
2284.253435644208
 20
22.39999999998815
 10
2284.429402096376
 20
22.39810013484845
 10
2284.755098441261
 20
22.38454574256365
 10
2285.079992232688
 20
22.3579778123677
 10
2285.403563709895
 20
22.3184388472818
 10
2285.725295227544
 20
22.26599210121548
 10
2286.044672083841
 20
22.20072147777405
 10
2286.361183343943
 20
22.12273139603183
 10
2286.674322657356
 20
22.03214662348258
 10
2286.983589067974
 20
21.92911207643824
 10
2287.288487815517
 20
21.81379258819476
 10
2287.438704013879
 20
21.74999999999974
 10
2315.253435644208
 20
21.74999999999974
 97
        8
330
56C
330
56B
330
569
330
567
330
562
330
565
330
59B
330
5A4
 92
        7
 72
     0
 73
     1
 93
       17
 10
2382.253435644209
 20
63.75000000000017
 10
2319.503435644208
 20
63.75000000000017
 10
2319.503435644208
 20
42.19212211923202
 10
2319.49505158005
 20
41.91996584792939
 10
2319.476661133703
 20
41.66063444098086
 10
2319.447914907454
 20
41.40224589320488
 10
2319.408858889134
 20
41.14521357115033
 10
2319.359555560037
 20
40.88994867170299
 10
2319.300083794978
 20
40.63685956426014
 10
2319.230538736088
 20
40.38635113739431
 10
2319.151031640631
 20
40.13882415115075
 10
2319.061689702995
 20
39.8946745959032
 10
2318.962655851225
 20
39.65429305886146
 10
2318.854088518354
 20
39.41806409920067
 10
2318.753435644208
 20
39.22030539269107
 10
2318.753435644208
 20
21.74999999999974
 10
2382.253435644209
 20
21.74999999999974
 97
        6
330
59A
330
56F
330
56C
330
5A3
330
59B
330
5A2
 92
       22
 72
     1
 73
     1
 93
        2
 10
2378.253435644207
 20
27.25
 42
-1.0
 10
2376.753435644207
 20
27.25
 42
-1.0
 97
        2
330
5AD
330
5AC
 75
     1
 76
     1
 52
0.0
 41
8.0
 77
     0
 78
     3
 53
0.0
 43
0.0
 44
0.0
 45
1.5
 46
0.8660254037844385
 79
     2
 49
1.0
 49
-2.0
 53
120.0
 43
0.0
 44
0.0
 45
-1.499999999999999
 46
0.8660254037844389
 79
     2
 49
0.9999999999999998
 49
-1.999999999999999
 53
60.0
 43
0.0
 44
0.0
 45
0.0000000000000003
 46
1.732050807568877
 79
     2
 49
-2.0
 49
1.0
 47
0.1294299004876692
 98
        9
 10
1644.988409242958
 20
38.26974308147783
 10
1705.980339884885
 20
44.57670631061477
 10
1932.672257308304
 20
39.27227173141682
 10
1986.381795256721
 20
41.54368005588003
 10
2053.312142918981
 20
41.95666377489942
 10
2264.705104155011
 20
35.58628830117573
 10
2292.543767502296
 20
27.94992375778225
 10
2330.611520821081
 20
39.21032502562139
 10
2330.611520821081
 20
39.21032502562139
1001
GradientColor1ACI
1070
     5
1001
GradientColor2ACI
1070
     2
1001
ACAD
1010
0.0
1020
0.0
1030
0.0
  0
VIEWPORT
  5
39E
102
{ACAD_XDICTIONARY
360
9CA
102
}
330
6D
100
AcDbEntity
 67
     1
  8
0
100
AcDbViewport
 10
1062.103023275114
 20
110.9484142308463
 30
0.0
 40
7546.642522079324
 41
3077.769091250106
 68
     1
 69
     1
 12
1062.103023275114
 22
110.9484142308463
 13
0.0
 23
0.0
 14
0.0
 24
0.0
 15
0.0
 25
0.0
 16
0.0
 26
0.0
 36
1.0
 17
0.0
 27
0.0
 37
0.0
 42
50.0
 43
0.0
 44
0.0
 45
3077.769091250106
 50
0.0
 51
0.0
 72
   100
 90
    32800
  1

281
     0
 71
     1
 74
     1
110
0.0
120
0.0
130
0.0
111
1.0
121
0.0
131
0.0
112
0.0
122
1.0
132
0.0
 79
     0
146
0.0
  0
ENDSEC
  0
SECTION
  2
OBJECTS
  0
DICTIONARY
  5
C
330
0
100
AcDbDictionary
281
     1
  3
ACAD_CIP_PREVIOUS_PRODUCT_INFO
350
7A
  3
ACAD_COLOR
350
63
  3
ACAD_DETAILVIEWSTYLE
350
6B
  3
ACAD_GROUP
350
D
  3
ACAD_IMAGE_VARS
350
7B
  3
ACAD_LAYOUT
350
62
  3
ACAD_MATERIAL
350
10
  3
ACAD_MLEADERSTYLE
350
66
  3
ACAD_MLINESTYLE
350
5F
  3
ACAD_PLOTSETTINGS
350
61
  3
ACAD_PLOTSTYLENAME
350
E
  3
ACAD_SCALELIST
350
42
  3
ACAD_SECTIONVIEWSTYLE
350
68
  3
ACAD_TABLESTYLE
350
64
  3
ACAD_VISUALSTYLE
350
29
  3
ACDB_RECOMPOSE_DATA
350
991
  3
AcDbVariableDictionary
350
7C
  3
DWGPROPS
350
992
  3
REVIT_DICTIONARY
350
3C1
  0
DICTIONARY
  5
3DE
330
2
100
AcDbDictionary
280
     1
281
     1
  3
ACAD_LAYERSTATES
360
3DF
  0
DICTIONARY
  5
3C5
330
71
100
AcDbDictionary
280
     1
281
     1
  3
ACAD_SORTENTS
360
3C6
  0
DICTIONARY
  5
9CA
330
39E
100
AcDbDictionary
280
     1
281
     1
  3
ACAD_XREC_ROUNDTRIP
360
9CB
  0
XRECORD
  5
7A
102
{ACAD_REACTORS
330
C
102
}
330
C
100
AcDbXrecord
280
     1
300
ACD
300
2013
300
85946BDSPRM_2013_0F
  0
DICTIONARY
  5
63
102
{ACAD_REACTORS
330
C
102
}
330
C
100
AcDbDictionary
281
     1
  0
DICTIONARY
  5
6B
102
{ACAD_REACTORS
330
C
102
}
330
C
100
AcDbDictionary
281
     1
  3
Imperial24
350
6C
  0
DICTIONARY
  5
D
102
{ACAD_REACTORS
330
C
102
}
330
C
100
AcDbDictionary
281
     1
  0
RASTERVARIABLES
  5
7B
102
{ACAD_REACTORS
330
C
102
}
330
C
100
AcDbRasterVariables
 90
        0
 70
     0
 71
     1
 72
     5
  0
DICTIONARY
  5
62
102
{ACAD_REACTORS
330
C
102
}
330
C
100
AcDbDictionary
281
     1
  3
Layout1
350
70
  3
Model
350
74
  0
DICTIONARY
  5
10
102
{ACAD_REACTORS
330
C
102
}
330
C
100
AcDbDictionary
281
     1
  3
ByBlock
350
19
  3
ByLayer
350
11
  3
Global
350
21
  0
DICTIONARY
  5
66
102
{ACAD_REACTORS
330
C
102
}
330
C
100
AcDbDictionary
281
     1
  3
Standard
350
67
  0
DICTIONARY
  5
5F
102
{ACAD_REACTORS
330
C
102
}
330
C
100
AcDbDictionary
281
     1
  3
Standard
350
60
  0
DICTIONARY
  5
61
102
{ACAD_REACTORS
330
C
102
}
330
C
100
AcDbDictionary
281
     1
  0
ACDBDICTIONARYWDFLT
  5
E
102
{ACAD_REACTORS
330
C
102
}
330
C
100
AcDbDictionary
281
     1
  3
Normal
350
F
100
AcDbDictionaryWithDefault
340
F
  0
DICTIONARY
  5
42
102
{ACAD_REACTORS
330
C
102
}
330
C
100
AcDbDictionary
281
     1
  3
A0
350
43
  3
A1
350
44
  3
A2
350
45
  3
A3
350
46
  3
A4
350
47
  3
A5
350
48
  3
A6
350
49
  3
A7
350
4A
  3
A8
350
4B
  3
A9
350
4C
  3
B0
350
4D
  3
B1
350
4E
  3
B2
350
4F
  3
B3
350
50
  3
B4
350
51
  3
B5
350
52
  3
B6
350
53
  0
DICTIONARY
  5
68
102
{ACAD_REACTORS
330
C
102
}
330
C
100
AcDbDictionary
281
     1
  3
Imperial24
350
6A
  0
DICTIONARY
  5
64
102
{ACAD_REACTORS
330
C
102
}
330
C
100
AcDbDictionary
281
     1
  3
Standard
350
65
  0
DICTIONARY
  5
29
102
{ACAD_REACTORS
330
C
102
}
330
C
100
AcDbDictionary
281
     1
  3
2dWireframe
350
2F
  3
Basic
350
2E
  3
Brighten
350
35
  3
ColorChange
350
39
  3
Conceptual
350
32
  3
Dim
350
34
  3
EdgeColorOff
350
41
  3
Facepattern
350
38
  3
Flat
350
2A
  3
FlatWithEdges
350
2B
  3
Gouraud
350
2C
  3
GouraudWithEdges
350
2D
  3
Hidden
350
31
  3
JitterOff
350
3F
  3
Linepattern
350
37
  3
OverhangOff
350
40
  3
Realistic
350
33
  3
Shaded
350
3E
  3
Shaded with edges
350
3D
  3
Shades of Gray
350
3A
  3
Sketchy
350
3B
  3
Thicken
350
36
  3
Wireframe
350
30
  3
X-Ray
350
3C
  0
XRECORD
  5
991
102
{ACAD_REACTORS
330
C
102
}
330
C
100
AcDbXrecord
280
     1
 90
        1
330
65
  0
DICTIONARY
  5
7C
102
{ACAD_REACTORS
330
C
102
}
330
C
100
AcDbDictionary
281
     1
  3
CANNOSCALE
350
81
  3
CMLEADERSTYLE
350
7E
  3
CTABLESTYLE
350
7D
  3
CVIEWDETAILSTYLE
350
7F
  3
CVIEWSECTIONSTYLE
350
80
  3
DIMASSOC
350
6EB
  3
HIDETEXT
350
6EA
  3
INDEXCTL
350
6E9
  3
LATITUDE
350
98C
  3
LAYEREVAL
350
6E6
  3
LAYERNOTIFY
350
6E7
  3
LIGHTINGUNITS
350
6E5
  3
LOFTANG1
350
98A
  3
LOFTANG2
350
98B
  3
LONGITUDE
350
98D
  3
MSLTSCALE
350
6E4
  3
SORTENTS
350
6E8
  3
TIMEZONE
350
98E
  3
XCLIPFRAME
350
98F
  0
XRECORD
  5
992
102
{ACAD_REACTORS
330
C
102
}
330
C
100
AcDbXrecord
280
     1
  1
DWGPROPS COOKIE
  2

  3

  4

  6

  7

  8
jcl
  9

300
=
301
=
302
=
303
=
304
=
305
=
306
=
307
=
308
=
309
=
 40
0.0083256712962963
 41
2457120.750518936
 42
2457210.707631285
  1

 90
        0
  0
DICTIONARY
  5
3C1
102
{ACAD_REACTORS
330
C
102
}
330
C
100
AcDbDictionary
281
     1
  3
REVIT_CATEGORY_MAPPING
350
3C3
  3
REVIT_SUB_CATEGORY_MAPPING
350
3C4
  3
REVIT_TYPE_MAPPING
350
3C2
  0
DICTIONARY
  5
3DF
102
{ACAD_REACTORS
330
3DE
102
}
330
3DE
100
AcDbDictionary
281
     1
  0
SORTENTSTABLE
  5
3C6
102
{ACAD_REACTORS
330
3C5
102
}
330
3C5
100
AcDbSortentsTable
330
71
331
446
  5
5B0
331
442
  5
5AC
331
40F
  5
579
331
47D
  5
573
331
43A
  5
5A8
331
479
  5
56F
331
5B4
  5
474
331
5B0
  5
470
331
5AF
  5
46F
331
5AB
  5
46B
331
4C6
  5
4B9
331
53C
  5
535
331
4C2
  5
4B5
331
538
  5
52F
331
4FD
  5
4F4
331
534
  5
52B
331
4F9
  5
4F0
331
530
  5
527
331
436
  5
5A4
331
475
  5
56B
331
432
  5
5A0
331
42E
  5
59C
331
46D
  5
566
331
5A7
  5
466
331
42A
  5
594
331
469
  5
561
331
5A3
  5
461
331
59F
  5
45D
331
59B
  5
459
331
4F5
  5
4EC
331
56F
  5
437
331
4AA
  5
4B0
331
52C
  5
523
331
56B
  5
42A
331
4ED
  5
4E6
331
4A6
  5
4AC
331
528
  5
51F
331
567
  5
423
331
4E9
  5
4E2
331
4A2
  5
495
331
524
  5
51B
331
563
  5
41E
331
520
  5
517
331
426
  5
590
331
465
  5
55C
331
422
  5
58C
331
461
  5
555
331
41E
  5
588
331
45D
  5
551
331
597
  5
455
331
459
  5
8C0
331
41A
  5
584
331
58F
  5
450
331
58B
  5
449
331
4E5
  5
4DE
331
49E
  5
491
331
55F
  5
417
331
51C
  5
513
331
49A
  5
48D
331
4DD
  5
4D3
331
496
  5
489
331
518
  5
50F
331
557
  5
40F
331
4D9
  5
4CF
331
553
  5
54A
331
492
  5
485
331
514
  5
50B
331
510
  5
507
331
455
  5
8BC
331
416
  5
580
331
451
  5
5C5
331
412
  5
57C
331
44D
  5
5BE
331
587
  5
445
331
449
  5
5B3
331
583
  5
441
331
57F
  5
43D
331
57B
  5
439
331
4D5
  5
4C8
331
54F
  5
546
331
48E
  5
481
331
54B
  5
542
331
4D1
  5
4C4
331
50C
  5
503
331
4CD
  5
4C0
331
508
  5
4FF
331
486
  5
47A
331
482
  5
578
331
4C9
  5
4BC
331
543
  5
53C
331
504
  5
4FB
331
500
  5
4F7
331
445
  5
5AF
331
441
  5
5AB
331
5BE
  5
8C2
331
47C
  5
572
331
439
  5
5A7
331
478
  5
56E
331
5B3
  5
473
331
5AE
  5
46E
331
5AA
  5
469
331
989
  5
41C
331
53F
  5
538
331
4C5
  5
4B8
331
53B
  5
534
331
4C1
  5
4B4
331
537
  5
52E
331
4FC
  5
4F3
331
4F8
  5
4EF
331
4B1
  5
4B3
331
533
  5
52A
331
572
  5
438
331
435
  5
5A3
331
474
  5
56A
331
431
  5
59F
331
42D
  5
59B
331
46C
  5
565
331
5A6
  5
464
331
429
  5
593
331
468
  5
560
331
5A2
  5
460
331
59E
  5
45C
331
59A
  5
458
331
4F4
  5
4EB
331
52F
  5
526
331
56E
  5
436
331
4F0
  5
4E8
331
4A9
  5
4AF
331
52B
  5
522
331
56A
  5
427
331
4EC
  5
4E5
331
4A5
  5
49C
331
527
  5
51E
331
566
  5
422
331
4E8
  5
4E1
331
4A1
  5
494
331
523
  5
51A
331
562
  5
41D
331
425
  5
58F
331
464
  5
55B
331
421
  5
58B
331
460
  5
554
331
41D
  5
587
331
45C
  5
550
331
596
  5
454
331
458
  5
8BF
331
419
  5
583
331
58E
  5
44F
331
58A
  5
448
331
4E4
  5
4DD
331
49D
  5
490
331
51F
  5
516
331
55E
  5
416
331
499
  5
48C
331
51B
  5
512
331
55A
  5
412
331
4DC
  5
4D2
331
556
  5
54D
331
495
  5
488
331
517
  5
50E
331
4D8
  5
4CE
331
552
  5
549
331
491
  5
484
331
513
  5
50A
331
454
  5
8BB
331
415
  5
57F
331
450
  5
5C4
331
411
  5
57B
331
44C
  5
5BD
331
586
  5
444
331
448
  5
5B2
331
582
  5
440
331
57E
  5
43C
331
4D4
  5
4C7
331
54E
  5
545
331
48D
  5
480
331
50F
  5
506
331
4D0
  5
4C3
331
54A
  5
541
331
489
  5
47D
331
50B
  5
502
331
4CC
  5
4BF
331
546
  5
53F
331
485
  5
479
331
507
  5
4FE
331
481
  5
577
331
4C8
  5
4BB
331
542
  5
53B
331
503
  5
4FA
331
444
  5
5AE
331
440
  5
5AA
331
47F
  5
575
331
5BD
  5
8C1
331
47B
  5
571
331
438
  5
5A6
331
5B2
  5
472
331
5AD
  5
46D
331
5A9
  5
468
331
53E
  5
537
331
4C4
  5
4B7
331
53A
  5
531
331
4FF
  5
4F6
331
536
  5
52D
331
4FB
  5
4F2
331
532
  5
529
331
4B0
  5
4B2
331
477
  5
56D
331
434
  5
5A2
331
473
  5
569
331
430
  5
59E
331
46F
  5
568
331
42C
  5
596
331
46B
  5
563
331
5A5
  5
463
331
428
  5
592
331
5A1
  5
45F
331
59D
  5
45B
331
599
  5
457
331
4F7
  5
4EE
331
4F3
  5
4EA
331
52E
  5
525
331
56D
  5
435
331
4A8
  5
4AE
331
52A
  5
521
331
569
  5
426
331
4EB
  5
4E4
331
4A4
  5
49B
331
526
  5
51D
331
565
  5
421
331
4A0
  5
493
331
522
  5
519
331
561
  5
419
331
467
  5
55E
331
424
  5
58E
331
463
  5
557
331
420
  5
58A
331
45F
  5
553
331
41C
  5
586
331
45B
  5
54F
331
595
  5
453
331
418
  5
582
331
591
  5
452
331
58D
  5
44E
331
589
  5
447
331
4E7
  5
4E0
331
4E3
  5
4D8
331
49C
  5
48F
331
51E
  5
515
331
55D
  5
415
331
4DF
  5
4D6
331
498
  5
48B
331
51A
  5
511
331
559
  5
411
331
4DB
  5
4D1
331
555
  5
54C
331
494
  5
487
331
516
  5
50D
331
551
  5
548
331
490
  5
483
331
512
  5
509
331
457
  5
8BE
331
453
  5
8B9
331
414
  5
57E
331
44F
  5
5C3
331
410
  5
57A
331
44B
  5
5B5
331
585
  5
443
331
581
  5
43F
331
57D
  5
43B
331
4D7
  5
4CA
331
4D3
  5
4C6
331
54D
  5
544
331
48C
  5
47F
331
50E
  5
505
331
4CF
  5
4C2
331
549
  5
540
331
488
  5
47C
331
50A
  5
501
331
4CB
  5
4BE
331
545
  5
53E
331
484
  5
478
331
506
  5
4FD
331
480
  5
576
331
541
  5
53A
331
502
  5
4F9
331
447
  5
5B1
331
443
  5
5AD
331
43F
  5
5A9
331
47E
  5
574
331
47A
  5
570
331
5B5
  5
476
331
5B1
  5
471
331
5AC
  5
46C
331
5A8
  5
467
331
4C7
  5
4BA
331
53D
  5
536
331
4C3
  5
4B6
331
539
  5
530
331
4FE
  5
4F5
331
535
  5
52C
331
4FA
  5
4F1
331
531
  5
528
331
437
  5
5A5
331
476
  5
56C
331
433
  5
5A1
331
42F
  5
59D
331
46E
  5
567
331
42B
  5
595
331
46A
  5
562
331
5A4
  5
462
331
5A0
  5
45E
331
59C
  5
45A
331
598
  5
456
331
4F6
  5
4ED
331
4F2
  5
4E9
331
4AB
  5
4B1
331
52D
  5
524
331
56C
  5
434
331
4EE
  5
4E7
331
4A7
  5
4AD
331
529
  5
520
331
568
  5
424
331
4EA
  5
4E3
331
4A3
  5
496
331
525
  5
51C
331
564
  5
420
331
521
  5
518
331
560
  5
418
331
427
  5
591
331
466
  5
55D
331
423
  5
58D
331
462
  5
556
331
41F
  5
589
331
45E
  5
552
331
41B
  5
585
331
45A
  5
54E
331
590
  5
451
331
58C
  5
44D
331
588
  5
446
331
4E6
  5
4DF
331
49F
  5
492
331
51D
  5
514
331
49B
  5
48E
331
4DE
  5
4D5
331
497
  5
48A
331
519
  5
510
331
558
  5
410
331
4DA
  5
4D0
331
554
  5
54B
331
493
  5
486
331
515
  5
50C
331
550
  5
547
331
511
  5
508
331
456
  5
8BD
331
417
  5
581
331
452
  5
5C6
331
413
  5
57D
331
44E
  5
5C0
331
44A
  5
5B4
331
584
  5
442
331
580
  5
43E
331
57C
  5
43A
331
4D6
  5
4C9
331
48F
  5
482
331
4D2
  5
4C5
331
54C
  5
543
331
48B
  5
47E
331
50D
  5
504
331
4CE
  5
4C1
331
509
  5
500
331
487
  5
47B
331
4CA
  5
4BD
331
544
  5
53D
331
483
  5
477
331
505
  5
4FC
331
540
  5
539
331
501
  5
4F8
  0
XRECORD
  5
9CB
102
{ACAD_REACTORS
330
9CA
102
}
330
9CA
100
AcDbXrecord
280
     1
102
SHADEPLOT
 70
     0
  0
ACDBDETAILVIEWSTYLE
  5
6C
102
{ACAD_REACTORS
330
6B
102
}
330
6B
100
AcDbModelDocViewStyle
 70
     0
  3
Imperial24
290
     0
100
AcDbDetailViewStyle
 70
     0
 71
     0
 90
        3
 71
     1
340
55
 40
0.24
340
0
 40
0.24
300

 40
0.36
280
     3
 71
     2
340
5D
 90
       25
 71
     3
340
55
 40
0.24
 90
        1
 40
0.75
 90
        1
300
%<\AcVar ViewType \f "%tc1">% %<\AcVar ViewDetailId>%\PSCALE %<\AcVar ViewScale \f "%sn">%
 71
     4
340
5D
 90
       25
340
5D
 90
       25
280
     0
  0
LAYOUT
  5
70
102
{ACAD_XDICTIONARY
360
9C6
102
}
102
{ACAD_REACTORS
330
62
102
}
330
62
100
AcDbPlotSettings
  1

  2
\\USJESR-FS01\MD_ENGR_Copier
  4
Letter
  6

 40
7.143749713897705
 41
5.027099609375
 42
7.14373779296875
 43
5.027069091796875
 44
215.8999938964844
 45
279.3999938964844
 46
0.0
 47
0.0
 48
0.0
 49
0.0
140
0.0
141
0.0
142
1.0
143
240.5772734560848
 70
   688
 72
     0
 73
     1
 74
     1
  7

 75
     0
147
0.004156668606449
148
-12818.62022486862
149
22065.4239850904
100
AcDbLayout
  1
Layout1
 70
     1
 71
     1
 10
457.0559704444398
 20
-936.3798351776614
 11
3103.405920651643
 21
1108.526931389329
 12
0.0
 22
0.0
 32
0.0
 14
1.000000000000000E+20
 24
1.000000000000000E+20
 34
1.000000000000000E+20
 15
-1.000000000000000E+20
 25
-1.000000000000000E+20
 35
-1.000000000000000E+20
146
0.0
 13
0.0
 23
0.0
 33
0.0
 16
1.0
 26
0.0
 36
0.0
 17
0.0
 27
1.0
 37
0.0
 76
     0
330
6D
331
39E
1001
ACAD_PSEXT
1000
\\USJESR-FS01\MD_ENGR_Copier
1000
SAVIN C6055 PCL 5c
1000
2nd Floor Left Rear - near room 230
1000

1070
     0
  0
LAYOUT
  5
74
102
{ACAD_XDICTIONARY
360
9C8
102
}
102
{ACAD_REACTORS
330
62
102
}
330
62
100
AcDbPlotSettings
  1

  2

  4

  6

 40
0.0
 41
0.0
 42
0.0
 43
0.0
 44
0.0
 45
0.0
 46
0.0
 47
0.0
 48
0.0
 49
0.0
140
0.0
141
0.0
142
1.0
143
1.0
 70
  1712
 72
     0
 73
     0
 74
     0
  7

 75
     0
147
1.0
148
0.0
149
0.0
100
AcDbLayout
  1
Model
 70
     1
 71
     0
 10
0.0
 20
0.0
 11
12.0
 21
9.0
 12
0.0
 22
0.0
 32
0.0
 14
0.0
 24
0.0
 34
0.0
 15
0.0
 25
0.0
 35
0.0
146
0.0
 13
0.0
 23
0.0
 33
0.0
 16
1.0
 26
0.0
 36
0.0
 17
0.0
 27
1.0
 37
0.0
 76
     0
330
71
331
57
  0
MATERIAL
  5
19
102
{ACAD_XDICTIONARY
360
1A
102
}
102
{ACAD_REACTORS
330
10
102
}
330
10
100
AcDbMaterial
  1
ByBlock
 72
     0
 43
0.0208333333333333
 43
0.0
 43
0.0
 43
0.0
 43
0.0
 43
0.0208333333333333
 43
0.0
 43
0.0
 43
0.0
 43
0.0
 43
1.0
 43
0.0
 43
0.0
 43
0.0
 43
0.0
 43
1.0
 77
     0
 47
0.0208333333333333
 47
0.0
 47
0.0
 47
0.0
 47
0.0
 47
0.0208333333333333
 47
0.0
 47
0.0
 47
0.0
 47
0.0
 47
1.0
 47
0.0
 47
0.0
 47
0.0
 47
0.0
 47
1.0
171
     0
 49
0.0208333333333333
 49
0.0
 49
0.0
 49
0.0
 49
0.0
 49
0.0208333333333333
 49
0.0
 49
0.0
 49
0.0
 49
0.0
 49
1.0
 49
0.0
 49
0.0
 49
0.0
 49
0.0
 49
1.0
175
     0
142
0.0208333333333333
142
0.0
142
0.0
142
0.0
142
0.0
142
0.0208333333333333
142
0.0
142
0.0
142
0.0
142
0.0
142
1.0
142
0.0
142
0.0
142
0.0
142
0.0
142
1.0
179
     0
144
0.0208333333333333
144
0.0
144
0.0
144
0.0
144
0.0
144
0.0208333333333333
144
0.0
144
0.0
144
0.0
144
0.0
144
1.0
144
0.0
144
0.0
144
0.0
144
0.0
144
1.0
147
0.0208333333333333
147
0.0
147
0.0
147
0.0
147
0.0
147
0.0208333333333333
147
0.0
147
0.0
147
0.0
147
0.0
147
1.0
147
0.0
147
0.0
147
0.0
147
0.0
147
1.0
  0
MATERIAL
  5
11
102
{ACAD_XDICTIONARY
360
12
102
}
102
{ACAD_REACTORS
330
10
102
}
330
10
100
AcDbMaterial
  1
ByLayer
 72
     0
 43
0.0208333333333333
 43
0.0
 43
0.0
 43
0.0
 43
0.0
 43
0.0208333333333333
 43
0.0
 43
0.0
 43
0.0
 43
0.0
 43
1.0
 43
0.0
 43
0.0
 43
0.0
 43
0.0
 43
1.0
 77
     0
 47
0.0208333333333333
 47
0.0
 47
0.0
 47
0.0
 47
0.0
 47
0.0208333333333333
 47
0.0
 47
0.0
 47
0.0
 47
0.0
 47
1.0
 47
0.0
 47
0.0
 47
0.0
 47
0.0
 47
1.0
171
     0
 49
0.0208333333333333
 49
0.0
 49
0.0
 49
0.0
 49
0.0
 49
0.0208333333333333
 49
0.0
 49
0.0
 49
0.0
 49
0.0
 49
1.0
 49
0.0
 49
0.0
 49
0.0
 49
0.0
 49
1.0
175
     0
142
0.0208333333333333
142
0.0
142
0.0
142
0.0
142
0.0
142
0.0208333333333333
142
0.0
142
0.0
142
0.0
142
0.0
142
1.0
142
0.0
142
0.0
142
0.0
142
0.0
142
1.0
179
     0
144
0.0208333333333333
144
0.0
144
0.0
144
0.0
144
0.0
144
0.0208333333333333
144
0.0
144
0.0
144
0.0
144
0.0
144
1.0
144
0.0
144
0.0
144
0.0
144
0.0
144
1.0
147
0.0208333333333333
147
0.0
147
0.0
147
0.0
147
0.0
147
0.0208333333333333
147
0.0
147
0.0
147
0.0
147
0.0
147
1.0
147
0.0
147
0.0
147
0.0
147
0.0
147
1.0
  0
MATERIAL
  5
21
102
{ACAD_XDICTIONARY
360
22
102
}
102
{ACAD_REACTORS
330
10
102
}
330
10
100
AcDbMaterial
  1
Global
 72
     0
 43
0.0208333333333333
 43
0.0
 43
0.0
 43
0.0
 43
0.0
 43
0.0208333333333333
 43
0.0
 43
0.0
 43
0.0
 43
0.0
 43
1.0
 43
0.0
 43
0.0
 43
0.0
 43
0.0
 43
1.0
 77
     0
 47
0.0208333333333333
 47
0.0
 47
0.0
 47
0.0
 47
0.0
 47
0.0208333333333333
 47
0.0
 47
0.0
 47
0.0
 47
0.0
 47
1.0
 47
0.0
 47
0.0
 47
0.0
 47
0.0
 47
1.0
171
     0
 49
0.0208333333333333
 49
0.0
 49
0.0
 49
0.0
 49
0.0
 49
0.0208333333333333
 49
0.0
 49
0.0
 49
0.0
 49
0.0
 49
1.0
 49
0.0
 49
0.0
 49
0.0
 49
0.0
 49
1.0
175
     0
142
0.0208333333333333
142
0.0
142
0.0
142
0.0
142
0.0
142
0.0208333333333333
142
0.0
142
0.0
142
0.0
142
0.0
142
1.0
142
0.0
142
0.0
142
0.0
142
0.0
142
1.0
179
     0
144
0.0208333333333333
144
0.0
144
0.0
144
0.0
144
0.0
144
0.0208333333333333
144
0.0
144
0.0
144
0.0
144
0.0
144
1.0
144
0.0
144
0.0
144
0.0
144
0.0
144
1.0
147
0.0208333333333333
147
0.0
147
0.0
147
0.0
147
0.0
147
0.0208333333333333
147
0.0
147
0.0
147
0.0
147
0.0
147
1.0
147
0.0
147
0.0
147
0.0
147
0.0
147
1.0
  0
MLEADERSTYLE
  5
67
102
{ACAD_XDICTIONARY
360
9C4
102
}
102
{ACAD_REACTORS
330
66
102
}
330
66
100
AcDbMLeaderStyle
170
     2
171
     1
172
     0
 90
        2
 40
0.0
 41
0.0
173
     1
 91
-1056964608
340
5B
 92
       -2
290
     1
 42
0.09
291
     1
 43
0.36
  3
Standard
 44
0.18
300

342
55
174
     1
178
     6
175
     1
176
     0
 93
-1056964608
 45
0.18
292
     0
297
     0
 46
0.18
 94
-1056964608
 47
1.0
 49
1.0
140
1.0
293
     1
141
0.0
294
     1
177
     0
142
1.0
295
     0
296
     0
143
0.125
1001
ACAD_MLEADERVER
1070
     2
  0
MLINESTYLE
  5
60
102
{ACAD_REACTORS
330
5F
102
}
330
5F
100
AcDbMlineStyle
  2
STANDARD
 70
     0
  3

 62
   256
 51
90.0
 52
90.0
 71
     2
 49
0.5
 62
   256
  6
BYLAYER
 49
-0.5
 62
   256
  6
BYLAYER
  0
ACDBPLACEHOLDER
  5
F
102
{ACAD_REACTORS
330
E
102
}
330
E
  0
SCALE
  5
43
102
{ACAD_REACTORS
330
42
102
}
330
42
100
AcDbScale
 70
     0
300
1:1
140
1.0
141
1.0
290
     1
  0
SCALE
  5
44
102
{ACAD_REACTORS
330
42
102
}
330
42
100
AcDbScale
 70
     0
300
1/128" = 1'-0"
140
0.0078125
141
12.0
290
     0
  0
SCALE
  5
45
102
{ACAD_REACTORS
330
42
102
}
330
42
100
AcDbScale
 70
     0
300
1/64" = 1'-0"
140
0.015625
141
12.0
290
     0
  0
SCALE
  5
46
102
{ACAD_REACTORS
330
42
102
}
330
42
100
AcDbScale
 70
     0
300
1/32" = 1'-0"
140
0.03125
141
12.0
290
     0
  0
SCALE
  5
47
102
{ACAD_REACTORS
330
42
102
}
330
42
100
AcDbScale
 70
     0
300
1/16" = 1'-0"
140
0.0625
141
12.0
290
     0
  0
SCALE
  5
48
102
{ACAD_REACTORS
330
42
102
}
330
42
100
AcDbScale
 70
     0
300
3/32" = 1'-0"
140
0.09375
141
12.0
290
     0
  0
SCALE
  5
49
102
{ACAD_REACTORS
330
42
102
}
330
42
100
AcDbScale
 70
     0
300
1/8" = 1'-0"
140
0.125
141
12.0
290
     0
  0
SCALE
  5
4A
102
{ACAD_REACTORS
330
42
102
}
330
42
100
AcDbScale
 70
     0
300
3/16" = 1'-0"
140
0.1875
141
12.0
290
     0
  0
SCALE
  5
4B
102
{ACAD_REACTORS
330
42
102
}
330
42
100
AcDbScale
 70
     0
300
1/4" = 1'-0"
140
0.25
141
12.0
290
     0
  0
SCALE
  5
4C
102
{ACAD_REACTORS
330
42
102
}
330
42
100
AcDbScale
 70
     0
300
3/8" = 1'-0"
140
0.375
141
12.0
290
     0
  0
SCALE
  5
4D
102
{ACAD_REACTORS
330
42
102
}
330
42
100
AcDbScale
 70
     0
300
1/2" = 1'-0"
140
0.5
141
12.0
290
     0
  0
SCALE
  5
4E
102
{ACAD_REACTORS
330
42
102
}
330
42
100
AcDbScale
 70
     0
300
3/4" = 1'-0"
140
0.75
141
12.0
290
     0
  0
SCALE
  5
4F
102
{ACAD_REACTORS
330
42
102
}
330
42
100
AcDbScale
 70
     0
300
1" = 1'-0"
140
1.0
141
12.0
290
     0
  0
SCALE
  5
50
102
{ACAD_REACTORS
330
42
102
}
330
42
100
AcDbScale
 70
     0
300
1-1/2" = 1'-0"
140
1.5
141
12.0
290
     0
  0
SCALE
  5
51
102
{ACAD_REACTORS
330
42
102
}
330
42
100
AcDbScale
 70
     0
300
3" = 1'-0"
140
3.0
141
12.0
290
     0
  0
SCALE
  5
52
102
{ACAD_REACTORS
330
42
102
}
330
42
100
AcDbScale
 70
     0
300
6" = 1'-0"
140
6.0
141
12.0
290
     0
  0
SCALE
  5
53
102
{ACAD_REACTORS
330
42
102
}
330
42
100
AcDbScale
 70
     0
300
1'-0" = 1'-0"
140
12.0
141
12.0
290
     0
  0
ACDBSECTIONVIEWSTYLE
  5
6A
102
{ACAD_REACTORS
330
68
102
}
330
68
100
AcDbModelDocViewStyle
 70
     0
  3
Imperial24
290
     0
100
AcDbSectionViewStyle
 70
     0
 71
     0
 90
       78
 71
     1
340
55
 40
0.24
340
0
340
0
 40
0.24
300
I, O, Q, S, X, Z
 40
0.48
 90
        3
 40
0.18
 90
        1
 71
     2
340
69
 90
       25
340
5D
 90
       50
 40
0.24
 40
0.0
 40
0.24
 71
     3
340
55
 40
0.24
 90
        1
 40
0.75
 90
        1
300
%<\AcVar ViewType \f "%tc1">% %<\AcVar ViewSectionStartId>%-%<\AcVar ViewSectionEndId>%\PSCALE %<\AcVar ViewScale \f "%sn">%
 71
     4
300
ANSI31
 40
1.0
 90
        0
290
     0
290
     0
 90
        6
 40
0.0
 40
1.570796326794896
 40
0.2617993877991494
 40
1.308996938995747
 40
-0.2617993877991494
 40
1.832595714594044
  0
TABLESTYLE
  5
65
102
{ACAD_XDICTIONARY
360
3C8
102
}
102
{ACAD_REACTORS
330
64
102
}
330
64
100
AcDbTableStyle
  3
Standard
 70
     0
 71
     0
 40
0.06
 41
0.06
280
     0
281
     0
  7
Standard
140
0.18
170
     2
 62
     0
 63
     7
283
     0
274
    -2
284
     1
 64
     0
275
    -2
285
     1
 65
     0
276
    -2
286
     1
 66
     0
277
    -2
287
     1
 67
     0
278
    -2
288
     1
 68
     0
279
    -2
289
     1
 69
     0
  7
Standard
140
0.25
170
     5
 62
     0
 63
     7
283
     0
274
    -2
284
     1
 64
     0
275
    -2
285
     1
 65
     0
276
    -2
286
     1
 66
     0
277
    -2
287
     1
 67
     0
278
    -2
288
     1
 68
     0
279
    -2
289
     1
 69
     0
  7
Standard
140
0.18
170
     5
 62
     0
 63
     7
283
     0
274
    -2
284
     1
 64
     0
275
    -2
285
     1
 65
     0
276
    -2
286
     1
 66
     0
277
    -2
287
     1
 67
     0
278
    -2
288
     1
 68
     0
279
    -2
289
     1
 69
     0
  0
VISUALSTYLE
  5
2F
102
{ACAD_XDICTIONARY
360
99D
102
}
102
{ACAD_REACTORS
330
29
102
}
330
29
100
AcDbVisualStyle
  2

 70
     4
 71
     0
 72
     2
 73
     0
 90
        0
 40
-0.6
 41
-30.0
 62
     5
 63
     7
 74
     1
 91
        4
 64
     7
 65
   257
 75
     1
175
     1
 42
1.0
 92
        0
 66
   257
 43
1.0
 76
     1
 77
     6
 78
     2
 67
     7
 79
     5
170
     0
171
     0
290
     0
174
     0
 93
        1
 44
0.0
173
     0
291
     0
 45
0.0
1001
ACAD
1000
AcDbSavedByObjectVersion
1070
     0
  0
VISUALSTYLE
  5
2E
102
{ACAD_XDICTIONARY
360
99B
102
}
102
{ACAD_REACTORS
330
29
102
}
330
29
100
AcDbVisualStyle
  2

 70
     7
 71
     1
 72
     0
 73
     1
 90
        0
 40
-0.6
 41
-30.0
 62
     5
 63
     7
 74
     0
 91
        4
 64
     7
 65
   257
 75
     1
175
     1
 42
1.0
 92
        8
 66
     7
 43
1.0
 76
     1
 77
     6
 78
     2
 67
     7
 79
     5
170
     0
171
     0
290
     0
174
     0
 93
        1
 44
0.0
173
     0
291
     1
 45
0.0
1001
ACAD
1000
AcDbSavedByObjectVersion
1070
     0
  0
VISUALSTYLE
  5
35
102
{ACAD_XDICTIONARY
360
9A9
102
}
102
{ACAD_REACTORS
330
29
102
}
330
29
100
AcDbVisualStyle
  2

 70
    12
 71
     2
 72
     2
 73
     0
 90
        0
 40
-0.6
 41
-30.0
 62
     5
 63
     7
 74
     1
 91
        4
 64
     7
 65
   257
 75
     1
175
     1
 42
1.0
 92
        8
 66
     7
 43
1.0
 76
     1
 77
     6
 78
     2
 67
     7
 79
     5
170
     0
171
     0
290
     0
174
     0
 93
        1
 44
50.0
173
     0
291
     1
 45
0.0
1001
ACAD
1000
AcDbSavedByObjectVersion
1070
     0
  0
VISUALSTYLE
  5
39
102
{ACAD_XDICTIONARY
360
9B1
102
}
102
{ACAD_REACTORS
330
29
102
}
330
29
100
AcDbVisualStyle
  2

 70
    16
 71
     2
 72
     2
 73
     3
 90
        0
 40
-0.6
 41
-30.0
 62
     5
 63
     8
 74
     1
 91
        4
 64
     7
 65
   257
 75
     1
175
     1
 42
1.0
 92
        8
 66
     8
 43
1.0
 76
     1
 77
     6
 78
     2
 67
     7
 79
     5
170
     0
171
     0
290
     0
174
     0
 93
        1
 44
0.0
173
     0
291
     1
 45
0.0
1001
ACAD
1000
AcDbSavedByObjectVersion
1070
     0
  0
VISUALSTYLE
  5
32
102
{ACAD_XDICTIONARY
360
9A3
102
}
102
{ACAD_REACTORS
330
29
102
}
330
29
100
AcDbVisualStyle
  2

 70
     9
 71
     3
 72
     2
 73
     0
 90
        0
 40
-0.6
 41
-30.0
 62
     5
 63
     7
 74
     2
 91
        2
 64
     7
 65
   257
 75
     1
175
     1
 42
179.0
 92
        8
 66
     7
 43
1.0
 76
     1
 77
     6
 78
     2
 67
     7
 79
     3
170
     0
171
     0
290
     0
174
     0
 93
        1
 44
0.0
173
     0
291
     0
 45
0.0
1001
ACAD
1000
AcDbSavedByObjectVersion
1070
     0
  0
VISUALSTYLE
  5
34
102
{ACAD_XDICTIONARY
360
9A7
102
}
102
{ACAD_REACTORS
330
29
102
}
330
29
100
AcDbVisualStyle
  2

 70
    11
 71
     2
 72
     2
 73
     0
 90
        0
 40
-0.6
 41
-30.0
 62
     5
 63
     7
 74
     1
 91
        4
 64
     7
 65
   257
 75
     1
175
     1
 42
1.0
 92
        8
 66
     7
 43
1.0
 76
     1
 77
     6
 78
     2
 67
     7
 79
     5
170
     0
171
     0
290
     0
174
     0
 93
        1
 44
-50.0
173
     0
291
     1
 45
0.0
1001
ACAD
1000
AcDbSavedByObjectVersion
1070
     0
  0
VISUALSTYLE
  5
41
102
{ACAD_XDICTIONARY
360
9C1
102
}
102
{ACAD_REACTORS
330
29
102
}
330
29
100
AcDbVisualStyle
  2

 70
    22
 71
     2
 72
     2
 73
     0
 90
        0
 40
-0.6
 41
-30.0
 62
     5
 63
     7
 74
     1
 91
        4
 64
     7
 65
   257
 75
     1
175
     1
 42
1.0
 92
        8
 66
     7
 43
1.0
 76
     1
 77
     6
 78
     2
 67
     7
 79
     5
170
     0
171
     0
290
     0
174
     0
 93
        1
 44
0.0
173
     0
291
     1
 45
0.0
1001
ACAD
1000
AcDbSavedByObjectVersion
1070
     0
  0
VISUALSTYLE
  5
38
102
{ACAD_XDICTIONARY
360
9AF
102
}
102
{ACAD_REACTORS
330
29
102
}
330
29
100
AcDbVisualStyle
  2

 70
    15
 71
     2
 72
     2
 73
     0
 90
        0
 40
-0.6
 41
-30.0
 62
     5
 63
     7
 74
     1
 91
        4
 64
     7
 65
   257
 75
     1
175
     1
 42
1.0
 92
        8
 66
     7
 43
1.0
 76
     1
 77
     6
 78
     2
 67
     7
 79
     5
170
     0
171
     0
290
     0
174
     0
 93
        1
 44
0.0
173
     0
291
     1
 45
0.0
1001
ACAD
1000
AcDbSavedByObjectVersion
1070
     0
  0
VISUALSTYLE
  5
2A
102
{ACAD_XDICTIONARY
360
993
102
}
102
{ACAD_REACTORS
330
29
102
}
330
29
100
AcDbVisualStyle
  2

 70
     0
 71
     2
 72
     1
 73
     1
 90
        2
 40
-0.6
 41
30.0
 62
     5
 63
     7
 74
     0
 91
        0
 64
     7
 65
   257
 75
     1
175
     1
 42
1.0
 92
        8
 66
     7
 43
1.0
 76
     1
 77
     6
 78
     2
 67
     7
 79
     5
170
     0
171
     0
290
     0
174
     0
 93
       13
 44
0.0
173
     0
291
     1
 45
0.0
1001
ACAD
1000
AcDbSavedByObjectVersion
1070
     0
  0
VISUALSTYLE
  5
2B
102
{ACAD_XDICTIONARY
360
995
102
}
102
{ACAD_REACTORS
330
29
102
}
330
29
100
AcDbVisualStyle
  2

 70
     1
 71
     2
 72
     1
 73
     1
 90
        2
 40
-0.6
 41
30.0
 62
     5
 63
     7
 74
     1
 91
        0
 64
     7
 65
   257
 75
     1
175
     1
 42
1.0
 92
        0
 66
   257
 43
1.0
 76
     1
 77
     6
 78
     2
 67
     7
 79
     5
170
     0
171
     0
290
     0
174
     0
 93
       13
 44
0.0
173
     0
291
     1
 45
0.0
1001
ACAD
1000
AcDbSavedByObjectVersion
1070
     0
  0
VISUALSTYLE
  5
2C
102
{ACAD_XDICTIONARY
360
997
102
}
102
{ACAD_REACTORS
330
29
102
}
330
29
100
AcDbVisualStyle
  2

 70
     2
 71
     2
 72
     2
 73
     1
 90
        2
 40
-0.6
 41
30.0
 62
     5
 63
     7
 74
     0
 91
        0
 64
     7
 65
   257
 75
     1
175
     1
 42
1.0
 92
        0
 66
     7
 43
1.0
 76
     1
 77
     6
 78
     2
 67
     7
 79
     5
170
     0
171
     0
290
     0
174
     0
 93
       13
 44
0.0
173
     0
291
     1
 45
0.0
1001
ACAD
1000
AcDbSavedByObjectVersion
1070
     0
  0
VISUALSTYLE
  5
2D
102
{ACAD_XDICTIONARY
360
999
102
}
102
{ACAD_REACTORS
330
29
102
}
330
29
100
AcDbVisualStyle
  2

 70
     3
 71
     2
 72
     2
 73
     1
 90
        2
 40
-0.6
 41
30.0
 62
     5
 63
     7
 74
     1
 91
        0
 64
     7
 65
   257
 75
     1
175
     1
 42
1.0
 92
        0
 66
   257
 43
1.0
 76
     1
 77
     6
 78
     2
 67
     7
 79
     5
170
     0
171
     0
290
     0
174
     0
 93
       13
 44
0.0
173
     0
291
     1
 45
0.0
1001
ACAD
1000
AcDbSavedByObjectVersion
1070
     0
  0
VISUALSTYLE
  5
31
102
{ACAD_XDICTIONARY
360
9A1
102
}
102
{ACAD_REACTORS
330
29
102
}
330
29
100
AcDbVisualStyle
  2

 70
     6
 71
     1
 72
     2
 73
     2
 90
        0
 40
-0.6
 41
-30.0
 62
     5
 63
     7
 74
     2
 91
        2
 64
     7
 65
   257
 75
     2
175
     1
 42
40.0
 92
        0
 66
   257
 43
1.0
 76
     1
 77
     6
 78
     2
 67
     7
 79
     3
170
     0
171
     0
290
     0
174
     0
 93
        1
 44
0.0
173
     0
291
     0
 45
0.0
1001
ACAD
1000
AcDbSavedByObjectVersion
1070
     0
  0
VISUALSTYLE
  5
3F
102
{ACAD_XDICTIONARY
360
9BD
102
}
102
{ACAD_REACTORS
330
29
102
}
330
29
100
AcDbVisualStyle
  2

 70
    20
 71
     2
 72
     2
 73
     0
 90
        0
 40
-0.6
 41
-30.0
 62
     5
 63
     7
 74
     1
 91
        4
 64
     7
 65
   257
 75
     1
175
     1
 42
1.0
 92
       10
 66
     7
 43
1.0
 76
     1
 77
     6
 78
     2
 67
     7
 79
     5
170
     0
171
     0
290
     0
174
     0
 93
        1
 44
0.0
173
     0
291
     1
 45
0.0
1001
ACAD
1000
AcDbSavedByObjectVersion
1070
     0
  0
VISUALSTYLE
  5
37
102
{ACAD_XDICTIONARY
360
9AD
102
}
102
{ACAD_REACTORS
330
29
102
}
330
29
100
AcDbVisualStyle
  2

 70
    14
 71
     2
 72
     2
 73
     0
 90
        0
 40
-0.6
 41
-30.0
 62
     5
 63
     7
 74
     1
 91
        4
 64
     7
 65
   257
 75
     7
175
     7
 42
1.0
 92
        8
 66
     7
 43
1.0
 76
     1
 77
     6
 78
     2
 67
     7
 79
     5
170
     0
171
     0
290
     0
174
     0
 93
        1
 44
0.0
173
     0
291
     1
 45
0.0
1001
ACAD
1000
AcDbSavedByObjectVersion
1070
     0
  0
VISUALSTYLE
  5
40
102
{ACAD_XDICTIONARY
360
9BF
102
}
102
{ACAD_REACTORS
330
29
102
}
330
29
100
AcDbVisualStyle
  2

 70
    21
 71
     2
 72
     2
 73
     0
 90
        0
 40
-0.6
 41
-30.0
 62
     5
 63
     7
 74
     1
 91
        4
 64
     7
 65
   257
 75
     1
175
     1
 42
1.0
 92
        9
 66
     7
 43
1.0
 76
     1
 77
     6
 78
     2
 67
     7
 79
     5
170
     0
171
     0
290
     0
174
     0
 93
        1
 44
0.0
173
     0
291
     1
 45
0.0
1001
ACAD
1000
AcDbSavedByObjectVersion
1070
     0
  0
VISUALSTYLE
  5
33
102
{ACAD_XDICTIONARY
360
9A5
102
}
102
{ACAD_REACTORS
330
29
102
}
330
29
100
AcDbVisualStyle
  2

 70
     8
 71
     2
 72
     3
 73
     0
 90
        2
 40
-0.6
 41
30.0
 62
     5
 63
     7
 74
     0
 91
        0
 64
     7
 65
   257
 75
     1
175
     1
 42
1.0
 92
        8
 66
   257
 43
1.0
 76
     1
 77
     6
 78
     2
 67
     7
 79
     3
170
     0
171
     0
290
     0
174
     0
 93
       13
 44
0.0
173
     0
291
     0
 45
0.0
1001
ACAD
1000
AcDbSavedByObjectVersion
1070
     0
  0
VISUALSTYLE
  5
3E
102
{ACAD_XDICTIONARY
360
9BB
102
}
102
{ACAD_REACTORS
330
29
102
}
330
29
100
AcDbVisualStyle
  2

 70
    27
 71
     2
 72
     2
 73
     1
 90
        2
 40
-0.6
 41
30.0
 62
     5
 63
     7
 74
     0
 91
        4
 64
     7
 65
   257
 75
     1
175
     1
 42
1.0
 92
        8
 66
   257
 43
1.0
 76
     1
 77
     6
 78
     2
 67
     8
 79
     3
170
     0
171
     0
290
     0
174
     0
 93
        5
 44
0.0
173
     0
291
     0
 45
0.0
1001
ACAD
1000
AcDbSavedByObjectVersion
1070
     0
  0
VISUALSTYLE
  5
3D
102
{ACAD_XDICTIONARY
360
9B9
102
}
102
{ACAD_REACTORS
330
29
102
}
330
29
100
AcDbVisualStyle
  2

 70
    26
 71
     2
 72
     2
 73
     1
 90
        2
 40
-0.6
 41
30.0
 62
     5
 63
     7
 74
     1
 91
       10
 64
     7
 65
   257
 75
     2
175
     1
 42
1.0
 92
        8
 66
   257
 43
1.0
 76
     1
 77
     6
 78
     2
 67
     7
 79
     3
170
     0
171
     0
290
     0
174
     0
 93
        5
 44
0.0
173
     0
291
     0
 45
0.0
1001
ACAD
1000
AcDbSavedByObjectVersion
1070
     0
  0
VISUALSTYLE
  5
3A
102
{ACAD_XDICTIONARY
360
9B3
102
}
102
{ACAD_REACTORS
330
29
102
}
330
29
100
AcDbVisualStyle
  2

 70
    23
 71
     2
 72
     2
 73
     3
 90
        0
 40
-0.6
 41
-30.0
 62
     5
 63
     7
 74
     2
 91
        2
 64
     7
 65
     7
 75
     1
175
     1
 42
40.0
 92
        8
 66
     7
 43
1.0
 76
     1
 77
     6
 78
     2
 67
     7
 79
     3
170
     0
171
     0
290
     0
174
     0
 93
        1
 44
0.0
173
     0
291
     0
 45
0.0
1001
ACAD
1000
AcDbSavedByObjectVersion
1070
     0
  0
VISUALSTYLE
  5
3B
102
{ACAD_XDICTIONARY
360
9B5
102
}
102
{ACAD_REACTORS
330
29
102
}
330
29
100
AcDbVisualStyle
  2

 70
    24
 71
     1
 72
     2
 73
     2
 90
        0
 40
-0.6
 41
-30.0
 62
     5
 63
     7
 74
     2
 91
        2
 64
     7
 65
     7
 75
     1
175
     1
 42
40.0
 92
       11
 66
     7
 43
1.0
 76
     1
 77
     6
 78
     2
 67
     7
 79
     6
170
     0
171
     0
290
     0
174
     0
 93
        1
 44
0.0
173
     0
291
     0
 45
0.0
1001
ACAD
1000
AcDbSavedByObjectVersion
1070
     0
  0
VISUALSTYLE
  5
36
102
{ACAD_XDICTIONARY
360
9AB
102
}
102
{ACAD_REACTORS
330
29
102
}
330
29
100
AcDbVisualStyle
  2

 70
    13
 71
     2
 72
     2
 73
     0
 90
        0
 40
-0.6
 41
-30.0
 62
     5
 63
     7
 74
     1
 91
        4
 64
     7
 65
   257
 75
     1
175
     1
 42
1.0
 92
       12
 66
     7
 43
1.0
 76
     1
 77
     6
 78
     2
 67
     7
 79
     5
170
     0
171
     0
290
     0
174
     0
 93
        1
 44
0.0
173
     0
291
     1
 45
0.0
1001
ACAD
1000
AcDbSavedByObjectVersion
1070
     0
  0
VISUALSTYLE
  5
30
102
{ACAD_XDICTIONARY
360
99F
102
}
102
{ACAD_REACTORS
330
29
102
}
330
29
100
AcDbVisualStyle
  2

 70
     5
 71
     0
 72
     2
 73
     0
 90
        0
 40
-0.6
 41
-30.0
 62
     5
 63
     7
 74
     1
 91
        4
 64
     7
 65
   257
 75
     1
175
     1
 42
1.0
 92
        0
 66
   257
 43
1.0
 76
     1
 77
     6
 78
     2
 67
     7
 79
     3
170
     0
171
     0
290
     0
174
     0
 93
        1
 44
0.0
173
     0
291
     0
 45
0.0
1001
ACAD
1000
AcDbSavedByObjectVersion
1070
     0
  0
VISUALSTYLE
  5
3C
102
{ACAD_XDICTIONARY
360
9B7
102
}
102
{ACAD_REACTORS
330
29
102
}
330
29
100
AcDbVisualStyle
  2

 70
    25
 71
     2
 72
     2
 73
     1
 90
        1
 40
0.5
 41
-30.0
 62
     5
 63
     7
 74
     1
 91
        0
 64
     7
 65
   257
 75
     1
175
     1
 42
1.0
 92
        8
 66
     7
 43
1.0
 76
     1
 77
     6
 78
     2
 67
     7
 79
     3
170
     0
171
     0
290
     0
174
     0
 93
       13
 44
0.0
173
     0
291
     0
 45
0.0
1001
ACAD
1000
AcDbSavedByObjectVersion
1070
     0
  0
DICTIONARYVAR
  5
81
102
{ACAD_REACTORS
330
7C
102
}
330
7C
100
DictionaryVariables
280
     0
  1
1:1
  0
DICTIONARYVAR
  5
7E
102
{ACAD_REACTORS
330
7C
102
}
330
7C
100
DictionaryVariables
280
     0
  1
STANDARD
  0
DICTIONARYVAR
  5
7D
102
{ACAD_REACTORS
330
7C
102
}
330
7C
100
DictionaryVariables
280
     0
  1
STANDARD
  0
DICTIONARYVAR
  5
7F
102
{ACAD_REACTORS
330
7C
102
}
330
7C
100
DictionaryVariables
280
     0
  1
Imperial24
  0
DICTIONARYVAR
  5
80
102
{ACAD_REACTORS
330
7C
102
}
330
7C
100
DictionaryVariables
280
     0
  1
Imperial24
  0
DICTIONARYVAR
  5
6EB
102
{ACAD_REACTORS
330
7C
102
}
330
7C
100
DictionaryVariables
280
     0
  1
2
  0
DICTIONARYVAR
  5
6EA
102
{ACAD_REACTORS
330
7C
102
}
330
7C
100
DictionaryVariables
280
     0
  1
1
  0
DICTIONARYVAR
  5
6E9
102
{ACAD_REACTORS
330
7C
102
}
330
7C
100
DictionaryVariables
280
     0
  1
0
  0
DICTIONARYVAR
  5
98C
102
{ACAD_REACTORS
330
7C
102
}
330
7C
100
DictionaryVariables
280
     0
  1
0.000000
  0
DICTIONARYVAR
  5
6E6
102
{ACAD_REACTORS
330
7C
102
}
330
7C
100
DictionaryVariables
280
     0
  1
0
  0
DICTIONARYVAR
  5
6E7
102
{ACAD_REACTORS
330
7C
102
}
330
7C
100
DictionaryVariables
280
     0
  1
0
  0
DICTIONARYVAR
  5
6E5
102
{ACAD_REACTORS
330
7C
102
}
330
7C
100
DictionaryVariables
280
     0
  1
2
  0
DICTIONARYVAR
  5
98A
102
{ACAD_REACTORS
330
7C
102
}
330
7C
100
DictionaryVariables
280
     0
  1
1.570796
  0
DICTIONARYVAR
  5
98B
102
{ACAD_REACTORS
330
7C
102
}
330
7C
100
DictionaryVariables
280
     0
  1
1.570796
  0
DICTIONARYVAR
  5
98D
102
{ACAD_REACTORS
330
7C
102
}
330
7C
100
DictionaryVariables
280
     0
  1
0.000000
  0
DICTIONARYVAR
  5
6E4
102
{ACAD_REACTORS
330
7C
102
}
330
7C
100
DictionaryVariables
280
     0
  1
1
  0
DICTIONARYVAR
  5
6E8
102
{ACAD_REACTORS
330
7C
102
}
330
7C
100
DictionaryVariables
280
     0
  1
127
  0
DICTIONARYVAR
  5
98E
102
{ACAD_REACTORS
330
7C
102
}
330
7C
100
DictionaryVariables
280
     0
  1
0
  0
DICTIONARYVAR
  5
98F
102
{ACAD_REACTORS
330
7C
102
}
330
7C
100
DictionaryVariables
280
     0
  1
2
  0
XRECORD
  5
3C3
102
{ACAD_REACTORS
330
3C1
102
}
330
3C1
100
AcDbXrecord
280
     1
  1
-2000051
  1
Lines
  1
-2000240
  1
Levels
  1
-2000260
  1
Dimensions
  1
-2000510
  1
Viewports
  1
-2000515
  1
View Titles
  1
-2000535
  1
Elevations
  1
-2001140
  1
Mechanical Equipment
  1
-2006020
  1
Level Heads
  0
XRECORD
  5
3C4
102
{ACAD_REACTORS
330
3C1
102
}
330
3C1
100
AcDbXrecord
280
     1
  1
161512
  1
MEP Hidden
  0
XRECORD
  5
3C2
102
{ACAD_REACTORS
330
3C1
102
}
330
3C1
100
AcDbXrecord
280
     1
  1
16
  1
Linear Dimension Style : Linear - 3/32" Arial
  1
27
  1
Level : 1/4" Head
  1
661160
  1
CCCT_-_BAC_-_PFI_-_1_Cell_-_S-Double_Connection_-_RH : PFI-1218N-2D1DS-N1
  1
75910
  1
Elevation : Building Elevation
  1
9835
  1
Viewport : Viewport 1
  0
DICTIONARY
  5
9C6
330
70
100
AcDbDictionary
280
     1
281
     1
  3
ACAD_XREC_ROUNDTRIP
360
9C7
  0
DICTIONARY
  5
9C8
330
74
100
AcDbDictionary
280
     1
281
     1
  3
ACAD_XREC_ROUNDTRIP
360
9C9
  0
DICTIONARY
  5
1A
330
19
100
AcDbDictionary
280
     1
281
     1
  3
ACAD_XREC_ROUNDTRIP
360
6FE
  3
BUMPTILE
360
1C
  3
DIFFUSETILE
360
1B
  3
OPACITYTILE
360
1F
  3
REFLECTIONTILE
360
1E
  3
REFRACTIONTILE
360
20
  3
SPECULARTILE
360
1D
  0
DICTIONARY
  5
12
330
11
100
AcDbDictionary
280
     1
281
     1
  3
ACAD_XREC_ROUNDTRIP
360
6FD
  3
BUMPTILE
360
14
  3
DIFFUSETILE
360
13
  3
OPACITYTILE
360
17
  3
REFLECTIONTILE
360
16
  3
REFRACTIONTILE
360
18
  3
SPECULARTILE
360
15
  0
DICTIONARY
  5
22
330
21
100
AcDbDictionary
280
     1
281
     1
  3
ACAD_XREC_ROUNDTRIP
360
6FF
  3
BUMPTILE
360
24
  3
DIFFUSETILE
360
23
  3
OPACITYTILE
360
27
  3
REFLECTIONTILE
360
26
  3
REFRACTIONTILE
360
28
  3
SPECULARTILE
360
25
  0
DICTIONARY
  5
9C4
330
67
100
AcDbDictionary
280
     1
281
     1
  3
ACAD_XREC_ROUNDTRIP
360
9C5
  0
DICTIONARY
  5
3C8
330
65
100
AcDbDictionary
280
     1
281
     1
  3
ACAD_ROUNDTRIP_2008_TABLESTYLE_CELLSTYLEMAP
360
990
  3
ACAD_XREC_ROUNDTRIP
360
9C3
  0
DICTIONARY
  5
99D
330
2F
100
AcDbDictionary
280
     1
281
     1
  3
ACAD_XREC_ROUNDTRIP
360
99E
  0
DICTIONARY
  5
99B
330
2E
100
AcDbDictionary
280
     1
281
     1
  3
ACAD_XREC_ROUNDTRIP
360
99C
  0
DICTIONARY
  5
9A9
330
35
100
AcDbDictionary
280
     1
281
     1
  3
ACAD_XREC_ROUNDTRIP
360
9AA
  0
DICTIONARY
  5
9B1
330
39
100
AcDbDictionary
280
     1
281
     1
  3
ACAD_XREC_ROUNDTRIP
360
9B2
  0
DICTIONARY
  5
9A3
330
32
100
AcDbDictionary
280
     1
281
     1
  3
ACAD_XREC_ROUNDTRIP
360
9A4
  0
DICTIONARY
  5
9A7
330
34
100
AcDbDictionary
280
     1
281
     1
  3
ACAD_XREC_ROUNDTRIP
360
9A8
  0
DICTIONARY
  5
9C1
330
41
100
AcDbDictionary
280
     1
281
     1
  3
ACAD_XREC_ROUNDTRIP
360
9C2
  0
DICTIONARY
  5
9AF
330
38
100
AcDbDictionary
280
     1
281
     1
  3
ACAD_XREC_ROUNDTRIP
360
9B0
  0
DICTIONARY
  5
993
330
2A
100
AcDbDictionary
280
     1
281
     1
  3
ACAD_XREC_ROUNDTRIP
360
994
  0
DICTIONARY
  5
995
330
2B
100
AcDbDictionary
280
     1
281
     1
  3
ACAD_XREC_ROUNDTRIP
360
996
  0
DICTIONARY
  5
997
330
2C
100
AcDbDictionary
280
     1
281
     1
  3
ACAD_XREC_ROUNDTRIP
360
998
  0
DICTIONARY
  5
999
330
2D
100
AcDbDictionary
280
     1
281
     1
  3
ACAD_XREC_ROUNDTRIP
360
99A
  0
DICTIONARY
  5
9A1
330
31
100
AcDbDictionary
280
     1
281
     1
  3
ACAD_XREC_ROUNDTRIP
360
9A2
  0
DICTIONARY
  5
9BD
330
3F
100
AcDbDictionary
280
     1
281
     1
  3
ACAD_XREC_ROUNDTRIP
360
9BE
  0
DICTIONARY
  5
9AD
330
37
100
AcDbDictionary
280
     1
281
     1
  3
ACAD_XREC_ROUNDTRIP
360
9AE
  0
DICTIONARY
  5
9BF
330
40
100
AcDbDictionary
280
     1
281
     1
  3
ACAD_XREC_ROUNDTRIP
360
9C0
  0
DICTIONARY
  5
9A5
330
33
100
AcDbDictionary
280
     1
281
     1
  3
ACAD_XREC_ROUNDTRIP
360
9A6
  0
DICTIONARY
  5
9BB
330
3E
100
AcDbDictionary
280
     1
281
     1
  3
ACAD_XREC_ROUNDTRIP
360
9BC
  0
DICTIONARY
  5
9B9
330
3D
100
AcDbDictionary
280
     1
281
     1
  3
ACAD_XREC_ROUNDTRIP
360
9BA
  0
DICTIONARY
  5
9B3
330
3A
100
AcDbDictionary
280
     1
281
     1
  3
ACAD_XREC_ROUNDTRIP
360
9B4
  0
DICTIONARY
  5
9B5
330
3B
100
AcDbDictionary
280
     1
281
     1
  3
ACAD_XREC_ROUNDTRIP
360
9B6
  0
DICTIONARY
  5
9AB
330
36
100
AcDbDictionary
280
     1
281
     1
  3
ACAD_XREC_ROUNDTRIP
360
9AC
  0
DICTIONARY
  5
99F
330
30
100
AcDbDictionary
280
     1
281
     1
  3
ACAD_XREC_ROUNDTRIP
360
9A0
  0
DICTIONARY
  5
9B7
330
3C
100
AcDbDictionary
280
     1
281
     1
  3
ACAD_XREC_ROUNDTRIP
360
9B8
  0
XRECORD
  5
9C7
102
{ACAD_REACTORS
330
9C6
102
}
330
9C6
100
AcDbXrecord
280
     1
102
SHADEPLOT
 70
     0
102
SHADEPLOTRESLEVEL
 70
     2
102
SHADEPLOTCUSTOMDPI
 70
   300
  0
XRECORD
  5
9C9
102
{ACAD_REACTORS
330
9C8
102
}
330
9C8
100
AcDbXrecord
280
     1
102
SHADEPLOT
 70
     0
102
SHADEPLOTRESLEVEL
 70
     2
102
SHADEPLOTCUSTOMDPI
 70
   300
  0
XRECORD
  5
6FE
102
{ACAD_REACTORS
330
1A
102
}
330
1A
100
AcDbXrecord
280
     1
102
MATERIAL
148
0.0
149
0.0
149
0.0
 93
        0
 94
      127
282
     0
 72
     0
 77
     0
171
     0
175
     0
179
     0
273
     0
  0
XRECORD
  5
1C
102
{ACAD_REACTORS
330
1A
102
}
330
1A
100
AcDbXrecord
280
     1
270
     1
271
     1
  0
XRECORD
  5
1B
102
{ACAD_REACTORS
330
1A
102
}
330
1A
100
AcDbXrecord
280
     1
270
     1
271
     1
  0
XRECORD
  5
1F
102
{ACAD_REACTORS
330
1A
102
}
330
1A
100
AcDbXrecord
280
     1
270
     1
271
     1
  0
XRECORD
  5
1E
102
{ACAD_REACTORS
330
1A
102
}
330
1A
100
AcDbXrecord
280
     1
270
     1
271
     1
  0
XRECORD
  5
20
102
{ACAD_REACTORS
330
1A
102
}
330
1A
100
AcDbXrecord
280
     1
270
     1
271
     1
  0
XRECORD
  5
1D
102
{ACAD_REACTORS
330
1A
102
}
330
1A
100
AcDbXrecord
280
     1
270
     1
271
     1
  0
XRECORD
  5
6FD
102
{ACAD_REACTORS
330
12
102
}
330
12
100
AcDbXrecord
280
     1
102
MATERIAL
148
0.0
149
0.0
149
0.0
 93
        0
 94
      127
282
     0
 72
     0
 77
     0
171
     0
175
     0
179
     0
273
     0
  0
XRECORD
  5
14
102
{ACAD_REACTORS
330
12
102
}
330
12
100
AcDbXrecord
280
     1
270
     1
271
     1
  0
XRECORD
  5
13
102
{ACAD_REACTORS
330
12
102
}
330
12
100
AcDbXrecord
280
     1
270
     1
271
     1
  0
XRECORD
  5
17
102
{ACAD_REACTORS
330
12
102
}
330
12
100
AcDbXrecord
280
     1
270
     1
271
     1
  0
XRECORD
  5
16
102
{ACAD_REACTORS
330
12
102
}
330
12
100
AcDbXrecord
280
     1
270
     1
271
     1
  0
XRECORD
  5
18
102
{ACAD_REACTORS
330
12
102
}
330
12
100
AcDbXrecord
280
     1
270
     1
271
     1
  0
XRECORD
  5
15
102
{ACAD_REACTORS
330
12
102
}
330
12
100
AcDbXrecord
280
     1
270
     1
271
     1
  0
XRECORD
  5
6FF
102
{ACAD_REACTORS
330
22
102
}
330
22
100
AcDbXrecord
280
     1
102
MATERIAL
148
0.0
149
0.0
149
0.0
 93
        0
 94
      127
282
     0
 72
     0
 77
     0
171
     0
175
     0
179
     0
273
     0
  0
XRECORD
  5
24
102
{ACAD_REACTORS
330
22
102
}
330
22
100
AcDbXrecord
280
     1
270
     1
271
     1
  0
XRECORD
  5
23
102
{ACAD_REACTORS
330
22
102
}
330
22
100
AcDbXrecord
280
     1
270
     1
271
     1
  0
XRECORD
  5
27
102
{ACAD_REACTORS
330
22
102
}
330
22
100
AcDbXrecord
280
     1
270
     1
271
     1
  0
XRECORD
  5
26
102
{ACAD_REACTORS
330
22
102
}
330
22
100
AcDbXrecord
280
     1
270
     1
271
     1
  0
XRECORD
  5
28
102
{ACAD_REACTORS
330
22
102
}
330
22
100
AcDbXrecord
280
     1
270
     1
271
     1
  0
XRECORD
  5
25
102
{ACAD_REACTORS
330
22
102
}
330
22
100
AcDbXrecord
280
     1
270
     1
271
     1
  0
XRECORD
  5
9C5
102
{ACAD_REACTORS
330
9C4
102
}
330
9C4
100
AcDbXrecord
280
     1
102
ACAD_ROUNDTRIP_2012_MLEADER_STYLE
298
     1
  0
CELLSTYLEMAP
  5
990
102
{ACAD_REACTORS
330
3C8
102
}
330
3C8
100
AcDbCellStyleMap
 90
        3
300
CELLSTYLE
  1
TABLEFORMAT_BEGIN
 90
        5
170
     1
 91
        0
 92
    32768
 62
   257
 93
        1
300
CONTENTFORMAT
  1
CONTENTFORMAT_BEGIN
 90
        0
 91
        0
 92
      512
 93
        0
300

 40
0.0
140
1.0
 94
        5
 62
     0
340
55
144
0.25
309
CONTENTFORMAT_END
171
     1
301
MARGIN
  1
CELLMARGIN_BEGIN
 40
0.06
 40
0.06
 40
0.06
 40
0.06
 40
0.18
 40
0.18
309
CELLMARGIN_END
 94
        6
 95
        1
302
GRIDFORMAT
  1
GRIDFORMAT_BEGIN
 90
        0
 91
        1
 62
     0
 92
       -2
340
0
 93
        0
 40
0.045
309
GRIDFORMAT_END
 95
        2
302
GRIDFORMAT
  1
GRIDFORMAT_BEGIN
 90
        0
 91
        1
 62
     0
 92
       -2
340
0
 93
        0
 40
0.045
309
GRIDFORMAT_END
 95
        4
302
GRIDFORMAT
  1
GRIDFORMAT_BEGIN
 90
        0
 91
        1
 62
     0
 92
       -2
340
0
 93
        0
 40
0.045
309
GRIDFORMAT_END
 95
        8
302
GRIDFORMAT
  1
GRIDFORMAT_BEGIN
 90
        0
 91
        1
 62
     0
 92
       -2
340
0
 93
        0
 40
0.045
309
GRIDFORMAT_END
 95
       16
302
GRIDFORMAT
  1
GRIDFORMAT_BEGIN
 90
        0
 91
        1
 62
     0
 92
       -2
340
0
 93
        0
 40
0.045
309
GRIDFORMAT_END
 95
       32
302
GRIDFORMAT
  1
GRIDFORMAT_BEGIN
 90
        0
 91
        1
 62
     0
 92
       -2
340
0
 93
        0
 40
0.045
309
GRIDFORMAT_END
309
TABLEFORMAT_END
  1
CELLSTYLE_BEGIN
 90
        1
 91
        1
300
_TITLE
309
CELLSTYLE_END
300
CELLSTYLE
  1
TABLEFORMAT_BEGIN
 90
        5
170
     1
 91
        0
 92
        0
 62
   257
 93
        1
300
CONTENTFORMAT
  1
CONTENTFORMAT_BEGIN
 90
        0
 91
        0
 92
      512
 93
        0
300

 40
0.0
140
1.0
 94
        5
 62
     0
340
55
144
0.18
309
CONTENTFORMAT_END
171
     1
301
MARGIN
  1
CELLMARGIN_BEGIN
 40
0.06
 40
0.06
 40
0.06
 40
0.06
 40
0.18
 40
0.18
309
CELLMARGIN_END
 94
        6
 95
        1
302
GRIDFORMAT
  1
GRIDFORMAT_BEGIN
 90
        0
 91
        1
 62
     0
 92
       -2
340
0
 93
        0
 40
0.045
309
GRIDFORMAT_END
 95
        2
302
GRIDFORMAT
  1
GRIDFORMAT_BEGIN
 90
        0
 91
        1
 62
     0
 92
       -2
340
0
 93
        0
 40
0.045
309
GRIDFORMAT_END
 95
        4
302
GRIDFORMAT
  1
GRIDFORMAT_BEGIN
 90
        0
 91
        1
 62
     0
 92
       -2
340
0
 93
        0
 40
0.045
309
GRIDFORMAT_END
 95
        8
302
GRIDFORMAT
  1
GRIDFORMAT_BEGIN
 90
        0
 91
        1
 62
     0
 92
       -2
340
0
 93
        0
 40
0.045
309
GRIDFORMAT_END
 95
       16
302
GRIDFORMAT
  1
GRIDFORMAT_BEGIN
 90
        0
 91
        1
 62
     0
 92
       -2
340
0
 93
        0
 40
0.045
309
GRIDFORMAT_END
 95
       32
302
GRIDFORMAT
  1
GRIDFORMAT_BEGIN
 90
        0
 91
        1
 62
     0
 92
       -2
340
0
 93
        0
 40
0.045
309
GRIDFORMAT_END
309
TABLEFORMAT_END
  1
CELLSTYLE_BEGIN
 90
        2
 91
        1
300
_HEADER
309
CELLSTYLE_END
300
CELLSTYLE
  1
TABLEFORMAT_BEGIN
 90
        5
170
     1
 91
        0
 92
        0
 62
   257
 93
        1
300
CONTENTFORMAT
  1
CONTENTFORMAT_BEGIN
 90
        0
 91
        0
 92
      512
 93
        0
300

 40
0.0
140
1.0
 94
        2
 62
     0
340
55
144
0.18
309
CONTENTFORMAT_END
171
     1
301
MARGIN
  1
CELLMARGIN_BEGIN
 40
0.06
 40
0.06
 40
0.06
 40
0.06
 40
0.18
 40
0.18
309
CELLMARGIN_END
 94
        6
 95
        1
302
GRIDFORMAT
  1
GRIDFORMAT_BEGIN
 90
        0
 91
        1
 62
     0
 92
       -2
340
0
 93
        0
 40
0.045
309
GRIDFORMAT_END
 95
        2
302
GRIDFORMAT
  1
GRIDFORMAT_BEGIN
 90
        0
 91
        1
 62
     0
 92
       -2
340
0
 93
        0
 40
0.045
309
GRIDFORMAT_END
 95
        4
302
GRIDFORMAT
  1
GRIDFORMAT_BEGIN
 90
        0
 91
        1
 62
     0
 92
       -2
340
0
 93
        0
 40
0.045
309
GRIDFORMAT_END
 95
        8
302
GRIDFORMAT
  1
GRIDFORMAT_BEGIN
 90
        0
 91
        1
 62
     0
 92
       -2
340
0
 93
        0
 40
0.045
309
GRIDFORMAT_END
 95
       16
302
GRIDFORMAT
  1
GRIDFORMAT_BEGIN
 90
        0
 91
        1
 62
     0
 92
       -2
340
0
 93
        0
 40
0.045
309
GRIDFORMAT_END
 95
       32
302
GRIDFORMAT
  1
GRIDFORMAT_BEGIN
 90
        0
 91
        1
 62
     0
 92
       -2
340
0
 93
        0
 40
0.045
309
GRIDFORMAT_END
309
TABLEFORMAT_END
  1
CELLSTYLE_BEGIN
 90
        3
 91
        2
300
_DATA
309
CELLSTYLE_END
  0
XRECORD
  5
9C3
102
{ACAD_REACTORS
330
3C8
102
}
330
3C8
100
AcDbXrecord
280
     1
102
ACAD_ROUNDTRIP_PRE2007_TABLESTYLE
 90
      512
 91
        0
  1

 92
      512
 93
        0
  2

 94
      512
 95
        0
  3

  0
XRECORD
  5
99E
102
{ACAD_REACTORS
330
99D
102
}
330
99D
100
AcDbXrecord
280
     1
102
RTVSPost2010Prop28
280
     1
102
RTVSPost2010PropOp28
 70
     1
102
RTVSPost2010Prop29
280
     1
102
RTVSPost2010PropOp29
 70
     1
102
RTVSPost2010Prop30
280
     0
102
RTVSPost2010PropOp30
 70
     1
102
RTVSPost2010Prop31
280
     0
102
RTVSPost2010PropOp31
 70
     1
102
RTVSPost2010Prop32
280
     0
102
RTVSPost2010PropOp32
 70
     1
102
RTVSPost2010Prop33
280
     0
102
RTVSPost2010PropOp33
 70
     1
102
RTVSPost2010Prop34
280
     0
102
RTVSPost2010PropOp34
 70
     1
102
RTVSPost2010Prop35
280
     0
102
RTVSPost2010PropOp35
 70
     1
102
RTVSPost2010Prop36
280
     0
102
RTVSPost2010PropOp36
 70
     1
102
RTVSPost2010Prop37
 90
       50
102
RTVSPost2010PropOp37
 70
     1
102
RTVSPost2010Prop38
140
0.0
102
RTVSPost2010PropOp38
 70
     1
102
RTVSPost2010Prop39
140
1.0
102
RTVSPost2010PropOp39
 70
     1
102
RTVSPost2010Prop40
 90
        0
102
RTVSPost2010PropOp40
 70
     1
102
RTVSPost2010Prop41ColorIndex
 90
       18
102
RTVSPost2010Prop41ColorRGB
 90
-16777216
102
RTVSPost2010PropOp41
 70
     1
102
RTVSPost2010Prop42
 90
       50
102
RTVSPost2010PropOp42
 70
     1
102
RTVSPost2010Prop43
 90
        3
102
RTVSPost2010PropOp43
 70
     1
102
RTVSPost2010Prop44ColorIndex
 90
        5
102
RTVSPost2010Prop44ColorRGB
 90
      255
102
RTVSPost2010PropOp44
 70
     1
102
RTVSPost2010Prop45
280
     0
102
RTVSPost2010PropOp45
 70
     1
102
RTVSPost2010Prop46
 90
       50
102
RTVSPost2010PropOp46
 70
     1
102
RTVSPost2010Prop47
 90
       50
102
RTVSPost2010PropOp47
 70
     1
102
RTVSPost2010Prop48
 90
       50
102
RTVSPost2010PropOp48
 70
     1
102
RTVSPost2010Prop49
280
     0
102
RTVSPost2010PropOp49
 70
     1
102
RTVSPost2010Prop50
 90
       50
102
RTVSPost2010PropOp50
 70
     1
102
RTVSPost2010Prop51ColorIndex
 90
      256
102
RTVSPost2010Prop51ColorRGB
 90
-16777216
102
RTVSPost2010PropOp51
 70
     0
102
RTVSPost2010Prop52
140
1.0
102
RTVSPost2010PropOp52
 70
     0
102
RTVSPost2010Prop53
 90
        2
102
RTVSPost2010PropOp53
 70
     1
102
RTVSPost2010Prop54
  1
strokes_ogs.tif
102
RTVSPost2010PropOp54
 70
     1
102
RTVSPost2010Prop55
280
     0
102
RTVSPost2010PropOp55
 70
     1
102
RTVSPost2010Prop56
140
1.0
102
RTVSPost2010PropOp56
 70
     1
102
RTVSPost2010Prop57
140
1.0
102
RTVSPost2010PropOp57
 70
     1
102
RTVSPropertyOp0
 70
     1
102
RTVSPropertyOp1
 70
     1
102
RTVSPropertyOp2
 70
     1
102
RTVSPropertyOp3
 70
     1
102
RTVSPropertyOp4
 70
     1
102
RTVSPropertyOp5
 70
     1
102
RTVSPropertyOp6
 70
     1
102
RTVSPropertyOp7
 70
     1
102
RTVSPropertyOp8
 70
     1
102
RTVSPropertyOp9
 70
     1
102
RTVSPropertyOp10
 70
     1
102
RTVSPropertyOp11
 70
     1
102
RTVSPropertyOp12
 70
     1
102
RTVSPropertyOp13
 70
     1
102
RTVSPropertyOp14
 70
     1
102
RTVSPropertyOp15
 70
     1
102
RTVSPropertyOp16
 70
     1
102
RTVSPropertyOp17
 70
     1
102
RTVSPropertyOp18
 70
     1
102
RTVSPropertyOp19
 70
     1
102
RTVSPropertyOp20
 70
     1
102
RTVSPropertyOp21
 70
     1
102
RTVSPropertyOp22
 70
     1
102
RTVSPropertyOp23
 70
     1
102
RTVSPropertyOp24
 70
     1
102
RTVSPropertyOp25
 70
     1
102
RTVSPropertyOp26
 70
     1
102
RTVSPropertyOp27
 70
     1
102
RTVSPropertyOp28
 70
     1
102
RTVSPropertyOp29
 70
     1
102
RTVSPropertyOp30
 70
     1
102
RTVSPropertyOp31
 70
     1
102
RTVSPropertyOp32
 70
     1
102
RTVSPropertyOp33
 70
     1
102
RTVSPropertyOp34
 70
     1
102
RTVSPropertyOp35
 70
     1
102
RTVSPropertyOp36
 70
     1
102
RTVSPropertyOp37
 70
     1
102
RTVSPropertyOp38
 70
     1
102
RTVSPropertyOp39
 70
     1
102
RTVSPropertyOp40
 70
     1
102
RTVSPropertyOp41
 70
     1
102
RTVSPropertyOp42
 70
     1
102
RTVSPropertyOp43
 70
     1
102
RTVSPropertyOp44
 70
     1
102
RTVSPropertyOp45
 70
     1
102
RTVSPropertyOp46
 70
     1
102
RTVSPropertyOp47
 70
     1
102
RTVSPropertyOp48
 70
     1
102
RTVSPropertyOp49
 70
     1
102
RTVSPropertyOp50
 70
     1
102
RTVSPropertyOp51
 70
     0
102
RTVSPropertyOp52
 70
     0
102
RTVSPropertyOp53
 70
     1
102
RTVSPropertyOp54
 70
     1
102
RTVSPropertyOp55
 70
     1
102
RTVSPropertyOp56
 70
     1
102
RTVSPropertyOp57
 70
     1
102
RTVSPropertyOp58
 70
     1
102
RTVSPropertyOp59
 70
     1
102
RTVSPropertyOp60
 70
     1
102
RTVSPropertyOp61
 70
     1
102
RTVSPropertyOp62
 70
     1
  0
XRECORD
  5
99C
102
{ACAD_REACTORS
330
99B
102
}
330
99B
100
AcDbXrecord
280
     1
102
RTVSPost2010Prop28
280
     0
102
RTVSPost2010PropOp28
 70
     1
102
RTVSPost2010Prop29
280
     1
102
RTVSPost2010PropOp29
 70
     1
102
RTVSPost2010Prop30
280
     1
102
RTVSPost2010PropOp30
 70
     1
102
RTVSPost2010Prop31
280
     0
102
RTVSPost2010PropOp31
 70
     1
102
RTVSPost2010Prop32
280
     0
102
RTVSPost2010PropOp32
 70
     1
102
RTVSPost2010Prop33
280
     0
102
RTVSPost2010PropOp33
 70
     1
102
RTVSPost2010Prop34
280
     0
102
RTVSPost2010PropOp34
 70
     1
102
RTVSPost2010Prop35
280
     0
102
RTVSPost2010PropOp35
 70
     1
102
RTVSPost2010Prop36
280
     0
102
RTVSPost2010PropOp36
 70
     1
102
RTVSPost2010Prop37
 90
       50
102
RTVSPost2010PropOp37
 70
     1
102
RTVSPost2010Prop38
140
0.0
102
RTVSPost2010PropOp38
 70
     1
102
RTVSPost2010Prop39
140
1.0
102
RTVSPost2010PropOp39
 70
     1
102
RTVSPost2010Prop40
 90
        0
102
RTVSPost2010PropOp40
 70
     1
102
RTVSPost2010Prop41ColorIndex
 90
       18
102
RTVSPost2010Prop41ColorRGB
 90
-16777216
102
RTVSPost2010PropOp41
 70
     1
102
RTVSPost2010Prop42
 90
       50
102
RTVSPost2010PropOp42
 70
     1
102
RTVSPost2010Prop43
 90
        3
102
RTVSPost2010PropOp43
 70
     1
102
RTVSPost2010Prop44ColorIndex
 90
        5
102
RTVSPost2010Prop44ColorRGB
 90
      255
102
RTVSPost2010PropOp44
 70
     1
102
RTVSPost2010Prop45
280
     0
102
RTVSPost2010PropOp45
 70
     1
102
RTVSPost2010Prop46
 90
       50
102
RTVSPost2010PropOp46
 70
     1
102
RTVSPost2010Prop47
 90
       50
102
RTVSPost2010PropOp47
 70
     1
102
RTVSPost2010Prop48
 90
       50
102
RTVSPost2010PropOp48
 70
     1
102
RTVSPost2010Prop49
280
     0
102
RTVSPost2010PropOp49
 70
     1
102
RTVSPost2010Prop50
 90
       50
102
RTVSPost2010PropOp50
 70
     1
102
RTVSPost2010Prop51ColorIndex
 90
      256
102
RTVSPost2010Prop51ColorRGB
 90
-16777216
102
RTVSPost2010PropOp51
 70
     0
102
RTVSPost2010Prop52
140
1.0
102
RTVSPost2010PropOp52
 70
     0
102
RTVSPost2010Prop53
 90
        2
102
RTVSPost2010PropOp53
 70
     1
102
RTVSPost2010Prop54
  1
strokes_ogs.tif
102
RTVSPost2010PropOp54
 70
     1
102
RTVSPost2010Prop55
280
     0
102
RTVSPost2010PropOp55
 70
     1
102
RTVSPost2010Prop56
140
1.0
102
RTVSPost2010PropOp56
 70
     1
102
RTVSPost2010Prop57
140
1.0
102
RTVSPost2010PropOp57
 70
     1
102
RTVSPropertyOp0
 70
     1
102
RTVSPropertyOp1
 70
     1
102
RTVSPropertyOp2
 70
     1
102
RTVSPropertyOp3
 70
     1
102
RTVSPropertyOp4
 70
     1
102
RTVSPropertyOp5
 70
     1
102
RTVSPropertyOp6
 70
     1
102
RTVSPropertyOp7
 70
     1
102
RTVSPropertyOp8
 70
     1
102
RTVSPropertyOp9
 70
     1
102
RTVSPropertyOp10
 70
     1
102
RTVSPropertyOp11
 70
     1
102
RTVSPropertyOp12
 70
     1
102
RTVSPropertyOp13
 70
     1
102
RTVSPropertyOp14
 70
     1
102
RTVSPropertyOp15
 70
     1
102
RTVSPropertyOp16
 70
     1
102
RTVSPropertyOp17
 70
     1
102
RTVSPropertyOp18
 70
     1
102
RTVSPropertyOp19
 70
     1
102
RTVSPropertyOp20
 70
     1
102
RTVSPropertyOp21
 70
     1
102
RTVSPropertyOp22
 70
     1
102
RTVSPropertyOp23
 70
     1
102
RTVSPropertyOp24
 70
     1
102
RTVSPropertyOp25
 70
     1
102
RTVSPropertyOp26
 70
     1
102
RTVSPropertyOp27
 70
     1
102
RTVSPropertyOp28
 70
     1
102
RTVSPropertyOp29
 70
     1
102
RTVSPropertyOp30
 70
     1
102
RTVSPropertyOp31
 70
     1
102
RTVSPropertyOp32
 70
     1
102
RTVSPropertyOp33
 70
     1
102
RTVSPropertyOp34
 70
     1
102
RTVSPropertyOp35
 70
     1
102
RTVSPropertyOp36
 70
     1
102
RTVSPropertyOp37
 70
     1
102
RTVSPropertyOp38
 70
     1
102
RTVSPropertyOp39
 70
     1
102
RTVSPropertyOp40
 70
     1
102
RTVSPropertyOp41
 70
     1
102
RTVSPropertyOp42
 70
     1
102
RTVSPropertyOp43
 70
     1
102
RTVSPropertyOp44
 70
     1
102
RTVSPropertyOp45
 70
     1
102
RTVSPropertyOp46
 70
     1
102
RTVSPropertyOp47
 70
     1
102
RTVSPropertyOp48
 70
     1
102
RTVSPropertyOp49
 70
     1
102
RTVSPropertyOp50
 70
     1
102
RTVSPropertyOp51
 70
     0
102
RTVSPropertyOp52
 70
     0
102
RTVSPropertyOp53
 70
     1
102
RTVSPropertyOp54
 70
     1
102
RTVSPropertyOp55
 70
     1
102
RTVSPropertyOp56
 70
     1
102
RTVSPropertyOp57
 70
     1
102
RTVSPropertyOp58
 70
     1
102
RTVSPropertyOp59
 70
     1
102
RTVSPropertyOp60
 70
     1
102
RTVSPropertyOp61
 70
     1
102
RTVSPropertyOp62
 70
     1
  0
XRECORD
  5
9AA
102
{ACAD_REACTORS
330
9A9
102
}
330
9A9
100
AcDbXrecord
280
     1
102
RTVSPost2010Prop28
280
     0
102
RTVSPost2010PropOp28
 70
     1
102
RTVSPost2010Prop29
280
     1
102
RTVSPost2010PropOp29
 70
     1
102
RTVSPost2010Prop30
280
     1
102
RTVSPost2010PropOp30
 70
     1
102
RTVSPost2010Prop31
280
     0
102
RTVSPost2010PropOp31
 70
     1
102
RTVSPost2010Prop32
280
     0
102
RTVSPost2010PropOp32
 70
     1
102
RTVSPost2010Prop33
280
     0
102
RTVSPost2010PropOp33
 70
     1
102
RTVSPost2010Prop34
280
     0
102
RTVSPost2010PropOp34
 70
     1
102
RTVSPost2010Prop35
280
     0
102
RTVSPost2010PropOp35
 70
     1
102
RTVSPost2010Prop36
280
     0
102
RTVSPost2010PropOp36
 70
     1
102
RTVSPost2010Prop37
 90
       50
102
RTVSPost2010PropOp37
 70
     1
102
RTVSPost2010Prop38
140
0.0
102
RTVSPost2010PropOp38
 70
     1
102
RTVSPost2010Prop39
140
1.0
102
RTVSPost2010PropOp39
 70
     1
102
RTVSPost2010Prop40
 90
        0
102
RTVSPost2010PropOp40
 70
     1
102
RTVSPost2010Prop41ColorIndex
 90
       18
102
RTVSPost2010Prop41ColorRGB
 90
-16777216
102
RTVSPost2010PropOp41
 70
     1
102
RTVSPost2010Prop42
 90
       50
102
RTVSPost2010PropOp42
 70
     1
102
RTVSPost2010Prop43
 90
        3
102
RTVSPost2010PropOp43
 70
     1
102
RTVSPost2010Prop44ColorIndex
 90
        5
102
RTVSPost2010Prop44ColorRGB
 90
      255
102
RTVSPost2010PropOp44
 70
     1
102
RTVSPost2010Prop45
280
     0
102
RTVSPost2010PropOp45
 70
     1
102
RTVSPost2010Prop46
 90
       50
102
RTVSPost2010PropOp46
 70
     1
102
RTVSPost2010Prop47
 90
       50
102
RTVSPost2010PropOp47
 70
     1
102
RTVSPost2010Prop48
 90
       50
102
RTVSPost2010PropOp48
 70
     1
102
RTVSPost2010Prop49
280
     0
102
RTVSPost2010PropOp49
 70
     1
102
RTVSPost2010Prop50
 90
       50
102
RTVSPost2010PropOp50
 70
     1
102
RTVSPost2010Prop51ColorIndex
 90
      256
102
RTVSPost2010Prop51ColorRGB
 90
-16777216
102
RTVSPost2010PropOp51
 70
     0
102
RTVSPost2010Prop52
140
1.0
102
RTVSPost2010PropOp52
 70
     0
102
RTVSPost2010Prop53
 90
        2
102
RTVSPost2010PropOp53
 70
     1
102
RTVSPost2010Prop54
  1
strokes_ogs.tif
102
RTVSPost2010PropOp54
 70
     1
102
RTVSPost2010Prop55
280
     0
102
RTVSPost2010PropOp55
 70
     1
102
RTVSPost2010Prop56
140
1.0
102
RTVSPost2010PropOp56
 70
     1
102
RTVSPost2010Prop57
140
1.0
102
RTVSPost2010PropOp57
 70
     1
102
RTVSPropertyOp0
 70
     1
102
RTVSPropertyOp1
 70
     1
102
RTVSPropertyOp2
 70
     1
102
RTVSPropertyOp3
 70
     1
102
RTVSPropertyOp4
 70
     1
102
RTVSPropertyOp5
 70
     1
102
RTVSPropertyOp6
 70
     1
102
RTVSPropertyOp7
 70
     1
102
RTVSPropertyOp8
 70
     1
102
RTVSPropertyOp9
 70
     1
102
RTVSPropertyOp10
 70
     1
102
RTVSPropertyOp11
 70
     1
102
RTVSPropertyOp12
 70
     1
102
RTVSPropertyOp13
 70
     1
102
RTVSPropertyOp14
 70
     1
102
RTVSPropertyOp15
 70
     1
102
RTVSPropertyOp16
 70
     1
102
RTVSPropertyOp17
 70
     1
102
RTVSPropertyOp18
 70
     1
102
RTVSPropertyOp19
 70
     1
102
RTVSPropertyOp20
 70
     1
102
RTVSPropertyOp21
 70
     1
102
RTVSPropertyOp22
 70
     1
102
RTVSPropertyOp23
 70
     1
102
RTVSPropertyOp24
 70
     1
102
RTVSPropertyOp25
 70
     1
102
RTVSPropertyOp26
 70
     1
102
RTVSPropertyOp27
 70
     1
102
RTVSPropertyOp28
 70
     1
102
RTVSPropertyOp29
 70
     1
102
RTVSPropertyOp30
 70
     1
102
RTVSPropertyOp31
 70
     1
102
RTVSPropertyOp32
 70
     1
102
RTVSPropertyOp33
 70
     1
102
RTVSPropertyOp34
 70
     1
102
RTVSPropertyOp35
 70
     1
102
RTVSPropertyOp36
 70
     1
102
RTVSPropertyOp37
 70
     1
102
RTVSPropertyOp38
 70
     1
102
RTVSPropertyOp39
 70
     1
102
RTVSPropertyOp40
 70
     1
102
RTVSPropertyOp41
 70
     1
102
RTVSPropertyOp42
 70
     1
102
RTVSPropertyOp43
 70
     1
102
RTVSPropertyOp44
 70
     1
102
RTVSPropertyOp45
 70
     1
102
RTVSPropertyOp46
 70
     1
102
RTVSPropertyOp47
 70
     1
102
RTVSPropertyOp48
 70
     1
102
RTVSPropertyOp49
 70
     1
102
RTVSPropertyOp50
 70
     1
102
RTVSPropertyOp51
 70
     0
102
RTVSPropertyOp52
 70
     0
102
RTVSPropertyOp53
 70
     1
102
RTVSPropertyOp54
 70
     1
102
RTVSPropertyOp55
 70
     1
102
RTVSPropertyOp56
 70
     1
102
RTVSPropertyOp57
 70
     1
102
RTVSPropertyOp58
 70
     1
102
RTVSPropertyOp59
 70
     1
102
RTVSPropertyOp60
 70
     1
102
RTVSPropertyOp61
 70
     1
102
RTVSPropertyOp62
 70
     1
  0
XRECORD
  5
9B2
102
{ACAD_REACTORS
330
9B1
102
}
330
9B1
100
AcDbXrecord
280
     1
102
RTVSPost2010Prop28
280
     0
102
RTVSPost2010PropOp28
 70
     1
102
RTVSPost2010Prop29
280
     1
102
RTVSPost2010PropOp29
 70
     1
102
RTVSPost2010Prop30
280
     1
102
RTVSPost2010PropOp30
 70
     1
102
RTVSPost2010Prop31
280
     0
102
RTVSPost2010PropOp31
 70
     1
102
RTVSPost2010Prop32
280
     0
102
RTVSPost2010PropOp32
 70
     1
102
RTVSPost2010Prop33
280
     0
102
RTVSPost2010PropOp33
 70
     1
102
RTVSPost2010Prop34
280
     0
102
RTVSPost2010PropOp34
 70
     1
102
RTVSPost2010Prop35
280
     0
102
RTVSPost2010PropOp35
 70
     1
102
RTVSPost2010Prop36
280
     0
102
RTVSPost2010PropOp36
 70
     1
102
RTVSPost2010Prop37
 90
       50
102
RTVSPost2010PropOp37
 70
     1
102
RTVSPost2010Prop38
140
0.0
102
RTVSPost2010PropOp38
 70
     1
102
RTVSPost2010Prop39
140
1.0
102
RTVSPost2010PropOp39
 70
     1
102
RTVSPost2010Prop40
 90
        0
102
RTVSPost2010PropOp40
 70
     1
102
RTVSPost2010Prop41ColorIndex
 90
       18
102
RTVSPost2010Prop41ColorRGB
 90
-16777216
102
RTVSPost2010PropOp41
 70
     1
102
RTVSPost2010Prop42
 90
       50
102
RTVSPost2010PropOp42
 70
     1
102
RTVSPost2010Prop43
 90
        3
102
RTVSPost2010PropOp43
 70
     1
102
RTVSPost2010Prop44ColorIndex
 90
        5
102
RTVSPost2010Prop44ColorRGB
 90
      255
102
RTVSPost2010PropOp44
 70
     1
102
RTVSPost2010Prop45
280
     0
102
RTVSPost2010PropOp45
 70
     1
102
RTVSPost2010Prop46
 90
       50
102
RTVSPost2010PropOp46
 70
     1
102
RTVSPost2010Prop47
 90
       50
102
RTVSPost2010PropOp47
 70
     1
102
RTVSPost2010Prop48
 90
       50
102
RTVSPost2010PropOp48
 70
     1
102
RTVSPost2010Prop49
280
     0
102
RTVSPost2010PropOp49
 70
     1
102
RTVSPost2010Prop50
 90
       50
102
RTVSPost2010PropOp50
 70
     1
102
RTVSPost2010Prop51ColorIndex
 90
      256
102
RTVSPost2010Prop51ColorRGB
 90
-16777216
102
RTVSPost2010PropOp51
 70
     0
102
RTVSPost2010Prop52
140
1.0
102
RTVSPost2010PropOp52
 70
     0
102
RTVSPost2010Prop53
 90
        2
102
RTVSPost2010PropOp53
 70
     1
102
RTVSPost2010Prop54
  1
strokes_ogs.tif
102
RTVSPost2010PropOp54
 70
     1
102
RTVSPost2010Prop55
280
     0
102
RTVSPost2010PropOp55
 70
     1
102
RTVSPost2010Prop56
140
1.0
102
RTVSPost2010PropOp56
 70
     1
102
RTVSPost2010Prop57
140
1.0
102
RTVSPost2010PropOp57
 70
     1
102
RTVSPropertyOp0
 70
     1
102
RTVSPropertyOp1
 70
     1
102
RTVSPropertyOp2
 70
     1
102
RTVSPropertyOp3
 70
     1
102
RTVSPropertyOp4
 70
     1
102
RTVSPropertyOp5
 70
     1
102
RTVSPropertyOp6
 70
     1
102
RTVSPropertyOp7
 70
     1
102
RTVSPropertyOp8
 70
     1
102
RTVSPropertyOp9
 70
     1
102
RTVSPropertyOp10
 70
     1
102
RTVSPropertyOp11
 70
     1
102
RTVSPropertyOp12
 70
     1
102
RTVSPropertyOp13
 70
     1
102
RTVSPropertyOp14
 70
     1
102
RTVSPropertyOp15
 70
     1
102
RTVSPropertyOp16
 70
     1
102
RTVSPropertyOp17
 70
     1
102
RTVSPropertyOp18
 70
     1
102
RTVSPropertyOp19
 70
     1
102
RTVSPropertyOp20
 70
     1
102
RTVSPropertyOp21
 70
     1
102
RTVSPropertyOp22
 70
     1
102
RTVSPropertyOp23
 70
     1
102
RTVSPropertyOp24
 70
     1
102
RTVSPropertyOp25
 70
     1
102
RTVSPropertyOp26
 70
     1
102
RTVSPropertyOp27
 70
     1
102
RTVSPropertyOp28
 70
     1
102
RTVSPropertyOp29
 70
     1
102
RTVSPropertyOp30
 70
     1
102
RTVSPropertyOp31
 70
     1
102
RTVSPropertyOp32
 70
     1
102
RTVSPropertyOp33
 70
     1
102
RTVSPropertyOp34
 70
     1
102
RTVSPropertyOp35
 70
     1
102
RTVSPropertyOp36
 70
     1
102
RTVSPropertyOp37
 70
     1
102
RTVSPropertyOp38
 70
     1
102
RTVSPropertyOp39
 70
     1
102
RTVSPropertyOp40
 70
     1
102
RTVSPropertyOp41
 70
     1
102
RTVSPropertyOp42
 70
     1
102
RTVSPropertyOp43
 70
     1
102
RTVSPropertyOp44
 70
     1
102
RTVSPropertyOp45
 70
     1
102
RTVSPropertyOp46
 70
     1
102
RTVSPropertyOp47
 70
     1
102
RTVSPropertyOp48
 70
     1
102
RTVSPropertyOp49
 70
     1
102
RTVSPropertyOp50
 70
     1
102
RTVSPropertyOp51
 70
     0
102
RTVSPropertyOp52
 70
     0
102
RTVSPropertyOp53
 70
     1
102
RTVSPropertyOp54
 70
     1
102
RTVSPropertyOp55
 70
     1
102
RTVSPropertyOp56
 70
     1
102
RTVSPropertyOp57
 70
     1
102
RTVSPropertyOp58
 70
     1
102
RTVSPropertyOp59
 70
     1
102
RTVSPropertyOp60
 70
     1
102
RTVSPropertyOp61
 70
     1
102
RTVSPropertyOp62
 70
     1
  0
XRECORD
  5
9A4
102
{ACAD_REACTORS
330
9A3
102
}
330
9A3
100
AcDbXrecord
280
     1
102
RTVSPost2010Prop28
280
     0
102
RTVSPost2010PropOp28
 70
     1
102
RTVSPost2010Prop29
280
     1
102
RTVSPost2010PropOp29
 70
     1
102
RTVSPost2010Prop30
280
     1
102
RTVSPost2010PropOp30
 70
     1
102
RTVSPost2010Prop31
280
     0
102
RTVSPost2010PropOp31
 70
     1
102
RTVSPost2010Prop32
280
     0
102
RTVSPost2010PropOp32
 70
     1
102
RTVSPost2010Prop33
280
     0
102
RTVSPost2010PropOp33
 70
     1
102
RTVSPost2010Prop34
280
     0
102
RTVSPost2010PropOp34
 70
     1
102
RTVSPost2010Prop35
280
     0
102
RTVSPost2010PropOp35
 70
     1
102
RTVSPost2010Prop36
280
     0
102
RTVSPost2010PropOp36
 70
     1
102
RTVSPost2010Prop37
 90
       50
102
RTVSPost2010PropOp37
 70
     1
102
RTVSPost2010Prop38
140
0.0
102
RTVSPost2010PropOp38
 70
     1
102
RTVSPost2010Prop39
140
1.0
102
RTVSPost2010PropOp39
 70
     1
102
RTVSPost2010Prop40
 90
        0
102
RTVSPost2010PropOp40
 70
     1
102
RTVSPost2010Prop41ColorIndex
 90
       18
102
RTVSPost2010Prop41ColorRGB
 90
-16777216
102
RTVSPost2010PropOp41
 70
     1
102
RTVSPost2010Prop42
 90
       50
102
RTVSPost2010PropOp42
 70
     1
102
RTVSPost2010Prop43
 90
        3
102
RTVSPost2010PropOp43
 70
     1
102
RTVSPost2010Prop44ColorIndex
 90
        5
102
RTVSPost2010Prop44ColorRGB
 90
      255
102
RTVSPost2010PropOp44
 70
     1
102
RTVSPost2010Prop45
280
     0
102
RTVSPost2010PropOp45
 70
     1
102
RTVSPost2010Prop46
 90
       50
102
RTVSPost2010PropOp46
 70
     1
102
RTVSPost2010Prop47
 90
       50
102
RTVSPost2010PropOp47
 70
     1
102
RTVSPost2010Prop48
 90
       50
102
RTVSPost2010PropOp48
 70
     1
102
RTVSPost2010Prop49
280
     0
102
RTVSPost2010PropOp49
 70
     1
102
RTVSPost2010Prop50
 90
       50
102
RTVSPost2010PropOp50
 70
     1
102
RTVSPost2010Prop51ColorIndex
 90
      256
102
RTVSPost2010Prop51ColorRGB
 90
-16777216
102
RTVSPost2010PropOp51
 70
     0
102
RTVSPost2010Prop52
140
1.0
102
RTVSPost2010PropOp52
 70
     0
102
RTVSPost2010Prop53
 90
        2
102
RTVSPost2010PropOp53
 70
     1
102
RTVSPost2010Prop54
  1
strokes_ogs.tif
102
RTVSPost2010PropOp54
 70
     1
102
RTVSPost2010Prop55
280
     0
102
RTVSPost2010PropOp55
 70
     1
102
RTVSPost2010Prop56
140
1.0
102
RTVSPost2010PropOp56
 70
     1
102
RTVSPost2010Prop57
140
1.0
102
RTVSPost2010PropOp57
 70
     1
102
RTVSPropertyOp0
 70
     1
102
RTVSPropertyOp1
 70
     1
102
RTVSPropertyOp2
 70
     1
102
RTVSPropertyOp3
 70
     1
102
RTVSPropertyOp4
 70
     1
102
RTVSPropertyOp5
 70
     1
102
RTVSPropertyOp6
 70
     1
102
RTVSPropertyOp7
 70
     1
102
RTVSPropertyOp8
 70
     1
102
RTVSPropertyOp9
 70
     1
102
RTVSPropertyOp10
 70
     1
102
RTVSPropertyOp11
 70
     1
102
RTVSPropertyOp12
 70
     1
102
RTVSPropertyOp13
 70
     1
102
RTVSPropertyOp14
 70
     1
102
RTVSPropertyOp15
 70
     1
102
RTVSPropertyOp16
 70
     1
102
RTVSPropertyOp17
 70
     1
102
RTVSPropertyOp18
 70
     1
102
RTVSPropertyOp19
 70
     1
102
RTVSPropertyOp20
 70
     1
102
RTVSPropertyOp21
 70
     1
102
RTVSPropertyOp22
 70
     1
102
RTVSPropertyOp23
 70
     1
102
RTVSPropertyOp24
 70
     1
102
RTVSPropertyOp25
 70
     1
102
RTVSPropertyOp26
 70
     1
102
RTVSPropertyOp27
 70
     1
102
RTVSPropertyOp28
 70
     1
102
RTVSPropertyOp29
 70
     1
102
RTVSPropertyOp30
 70
     1
102
RTVSPropertyOp31
 70
     1
102
RTVSPropertyOp32
 70
     1
102
RTVSPropertyOp33
 70
     1
102
RTVSPropertyOp34
 70
     1
102
RTVSPropertyOp35
 70
     1
102
RTVSPropertyOp36
 70
     1
102
RTVSPropertyOp37
 70
     1
102
RTVSPropertyOp38
 70
     1
102
RTVSPropertyOp39
 70
     1
102
RTVSPropertyOp40
 70
     1
102
RTVSPropertyOp41
 70
     1
102
RTVSPropertyOp42
 70
     1
102
RTVSPropertyOp43
 70
     1
102
RTVSPropertyOp44
 70
     1
102
RTVSPropertyOp45
 70
     1
102
RTVSPropertyOp46
 70
     1
102
RTVSPropertyOp47
 70
     1
102
RTVSPropertyOp48
 70
     1
102
RTVSPropertyOp49
 70
     1
102
RTVSPropertyOp50
 70
     1
102
RTVSPropertyOp51
 70
     0
102
RTVSPropertyOp52
 70
     0
102
RTVSPropertyOp53
 70
     1
102
RTVSPropertyOp54
 70
     1
102
RTVSPropertyOp55
 70
     1
102
RTVSPropertyOp56
 70
     1
102
RTVSPropertyOp57
 70
     1
102
RTVSPropertyOp58
 70
     1
102
RTVSPropertyOp59
 70
     1
102
RTVSPropertyOp60
 70
     1
102
RTVSPropertyOp61
 70
     1
102
RTVSPropertyOp62
 70
     1
  0
XRECORD
  5
9A8
102
{ACAD_REACTORS
330
9A7
102
}
330
9A7
100
AcDbXrecord
280
     1
102
RTVSPost2010Prop28
280
     0
102
RTVSPost2010PropOp28
 70
     1
102
RTVSPost2010Prop29
280
     1
102
RTVSPost2010PropOp29
 70
     1
102
RTVSPost2010Prop30
280
     1
102
RTVSPost2010PropOp30
 70
     1
102
RTVSPost2010Prop31
280
     0
102
RTVSPost2010PropOp31
 70
     1
102
RTVSPost2010Prop32
280
     0
102
RTVSPost2010PropOp32
 70
     1
102
RTVSPost2010Prop33
280
     0
102
RTVSPost2010PropOp33
 70
     1
102
RTVSPost2010Prop34
280
     0
102
RTVSPost2010PropOp34
 70
     1
102
RTVSPost2010Prop35
280
     0
102
RTVSPost2010PropOp35
 70
     1
102
RTVSPost2010Prop36
280
     0
102
RTVSPost2010PropOp36
 70
     1
102
RTVSPost2010Prop37
 90
       50
102
RTVSPost2010PropOp37
 70
     1
102
RTVSPost2010Prop38
140
0.0
102
RTVSPost2010PropOp38
 70
     1
102
RTVSPost2010Prop39
140
1.0
102
RTVSPost2010PropOp39
 70
     1
102
RTVSPost2010Prop40
 90
        0
102
RTVSPost2010PropOp40
 70
     1
102
RTVSPost2010Prop41ColorIndex
 90
       18
102
RTVSPost2010Prop41ColorRGB
 90
-16777216
102
RTVSPost2010PropOp41
 70
     1
102
RTVSPost2010Prop42
 90
       50
102
RTVSPost2010PropOp42
 70
     1
102
RTVSPost2010Prop43
 90
        3
102
RTVSPost2010PropOp43
 70
     1
102
RTVSPost2010Prop44ColorIndex
 90
        5
102
RTVSPost2010Prop44ColorRGB
 90
      255
102
RTVSPost2010PropOp44
 70
     1
102
RTVSPost2010Prop45
280
     0
102
RTVSPost2010PropOp45
 70
     1
102
RTVSPost2010Prop46
 90
       50
102
RTVSPost2010PropOp46
 70
     1
102
RTVSPost2010Prop47
 90
       50
102
RTVSPost2010PropOp47
 70
     1
102
RTVSPost2010Prop48
 90
       50
102
RTVSPost2010PropOp48
 70
     1
102
RTVSPost2010Prop49
280
     0
102
RTVSPost2010PropOp49
 70
     1
102
RTVSPost2010Prop50
 90
       50
102
RTVSPost2010PropOp50
 70
     1
102
RTVSPost2010Prop51ColorIndex
 90
      256
102
RTVSPost2010Prop51ColorRGB
 90
-16777216
102
RTVSPost2010PropOp51
 70
     0
102
RTVSPost2010Prop52
140
1.0
102
RTVSPost2010PropOp52
 70
     0
102
RTVSPost2010Prop53
 90
        2
102
RTVSPost2010PropOp53
 70
     1
102
RTVSPost2010Prop54
  1
strokes_ogs.tif
102
RTVSPost2010PropOp54
 70
     1
102
RTVSPost2010Prop55
280
     0
102
RTVSPost2010PropOp55
 70
     1
102
RTVSPost2010Prop56
140
1.0
102
RTVSPost2010PropOp56
 70
     1
102
RTVSPost2010Prop57
140
1.0
102
RTVSPost2010PropOp57
 70
     1
102
RTVSPropertyOp0
 70
     1
102
RTVSPropertyOp1
 70
     1
102
RTVSPropertyOp2
 70
     1
102
RTVSPropertyOp3
 70
     1
102
RTVSPropertyOp4
 70
     1
102
RTVSPropertyOp5
 70
     1
102
RTVSPropertyOp6
 70
     1
102
RTVSPropertyOp7
 70
     1
102
RTVSPropertyOp8
 70
     1
102
RTVSPropertyOp9
 70
     1
102
RTVSPropertyOp10
 70
     1
102
RTVSPropertyOp11
 70
     1
102
RTVSPropertyOp12
 70
     1
102
RTVSPropertyOp13
 70
     1
102
RTVSPropertyOp14
 70
     1
102
RTVSPropertyOp15
 70
     1
102
RTVSPropertyOp16
 70
     1
102
RTVSPropertyOp17
 70
     1
102
RTVSPropertyOp18
 70
     1
102
RTVSPropertyOp19
 70
     1
102
RTVSPropertyOp20
 70
     1
102
RTVSPropertyOp21
 70
     1
102
RTVSPropertyOp22
 70
     1
102
RTVSPropertyOp23
 70
     1
102
RTVSPropertyOp24
 70
     1
102
RTVSPropertyOp25
 70
     1
102
RTVSPropertyOp26
 70
     1
102
RTVSPropertyOp27
 70
     1
102
RTVSPropertyOp28
 70
     1
102
RTVSPropertyOp29
 70
     1
102
RTVSPropertyOp30
 70
     1
102
RTVSPropertyOp31
 70
     1
102
RTVSPropertyOp32
 70
     1
102
RTVSPropertyOp33
 70
     1
102
RTVSPropertyOp34
 70
     1
102
RTVSPropertyOp35
 70
     1
102
RTVSPropertyOp36
 70
     1
102
RTVSPropertyOp37
 70
     1
102
RTVSPropertyOp38
 70
     1
102
RTVSPropertyOp39
 70
     1
102
RTVSPropertyOp40
 70
     1
102
RTVSPropertyOp41
 70
     1
102
RTVSPropertyOp42
 70
     1
102
RTVSPropertyOp43
 70
     1
102
RTVSPropertyOp44
 70
     1
102
RTVSPropertyOp45
 70
     1
102
RTVSPropertyOp46
 70
     1
102
RTVSPropertyOp47
 70
     1
102
RTVSPropertyOp48
 70
     1
102
RTVSPropertyOp49
 70
     1
102
RTVSPropertyOp50
 70
     1
102
RTVSPropertyOp51
 70
     0
102
RTVSPropertyOp52
 70
     0
102
RTVSPropertyOp53
 70
     1
102
RTVSPropertyOp54
 70
     1
102
RTVSPropertyOp55
 70
     1
102
RTVSPropertyOp56
 70
     1
102
RTVSPropertyOp57
 70
     1
102
RTVSPropertyOp58
 70
     1
102
RTVSPropertyOp59
 70
     1
102
RTVSPropertyOp60
 70
     1
102
RTVSPropertyOp61
 70
     1
102
RTVSPropertyOp62
 70
     1
  0
XRECORD
  5
9C2
102
{ACAD_REACTORS
330
9C1
102
}
330
9C1
100
AcDbXrecord
280
     1
102
RTVSPost2010Prop28
280
     0
102
RTVSPost2010PropOp28
 70
     0
102
RTVSPost2010Prop29
280
     1
102
RTVSPost2010PropOp29
 70
     0
102
RTVSPost2010Prop30
280
     1
102
RTVSPost2010PropOp30
 70
     0
102
RTVSPost2010Prop31
280
     0
102
RTVSPost2010PropOp31
 70
     0
102
RTVSPost2010Prop32
280
     0
102
RTVSPost2010PropOp32
 70
     0
102
RTVSPost2010Prop33
280
     0
102
RTVSPost2010PropOp33
 70
     0
102
RTVSPost2010Prop34
280
     0
102
RTVSPost2010PropOp34
 70
     0
102
RTVSPost2010Prop35
280
     0
102
RTVSPost2010PropOp35
 70
     0
102
RTVSPost2010Prop36
280
     0
102
RTVSPost2010PropOp36
 70
     0
102
RTVSPost2010Prop37
 90
       50
102
RTVSPost2010PropOp37
 70
     0
102
RTVSPost2010Prop38
140
0.0
102
RTVSPost2010PropOp38
 70
     0
102
RTVSPost2010Prop39
140
1.0
102
RTVSPost2010PropOp39
 70
     0
102
RTVSPost2010Prop40
 90
        0
102
RTVSPost2010PropOp40
 70
     0
102
RTVSPost2010Prop41ColorIndex
 90
       18
102
RTVSPost2010Prop41ColorRGB
 90
-16777216
102
RTVSPost2010PropOp41
 70
     0
102
RTVSPost2010Prop42
 90
       50
102
RTVSPost2010PropOp42
 70
     0
102
RTVSPost2010Prop43
 90
        3
102
RTVSPost2010PropOp43
 70
     0
102
RTVSPost2010Prop44ColorIndex
 90
        5
102
RTVSPost2010Prop44ColorRGB
 90
      255
102
RTVSPost2010PropOp44
 70
     0
102
RTVSPost2010Prop45
280
     0
102
RTVSPost2010PropOp45
 70
     0
102
RTVSPost2010Prop46
 90
       50
102
RTVSPost2010PropOp46
 70
     0
102
RTVSPost2010Prop47
 90
       50
102
RTVSPost2010PropOp47
 70
     0
102
RTVSPost2010Prop48
 90
       50
102
RTVSPost2010PropOp48
 70
     0
102
RTVSPost2010Prop49
280
     0
102
RTVSPost2010PropOp49
 70
     0
102
RTVSPost2010Prop50
 90
       50
102
RTVSPost2010PropOp50
 70
     0
102
RTVSPost2010Prop51ColorIndex
 90
      256
102
RTVSPost2010Prop51ColorRGB
 90
-16777216
102
RTVSPost2010PropOp51
 70
     0
102
RTVSPost2010Prop52
140
1.0
102
RTVSPost2010PropOp52
 70
     0
102
RTVSPost2010Prop53
 90
        2
102
RTVSPost2010PropOp53
 70
     0
102
RTVSPost2010Prop54
  1
strokes_ogs.tif
102
RTVSPost2010PropOp54
 70
     0
102
RTVSPost2010Prop55
280
     0
102
RTVSPost2010PropOp55
 70
     0
102
RTVSPost2010Prop56
140
1.0
102
RTVSPost2010PropOp56
 70
     0
102
RTVSPost2010Prop57
140
1.0
102
RTVSPost2010PropOp57
 70
     0
102
RTVSPropertyOp0
 70
     0
102
RTVSPropertyOp1
 70
     0
102
RTVSPropertyOp2
 70
     0
102
RTVSPropertyOp3
 70
     0
102
RTVSPropertyOp4
 70
     0
102
RTVSPropertyOp5
 70
     0
102
RTVSPropertyOp6
 70
     0
102
RTVSPropertyOp7
 70
     0
102
RTVSPropertyOp8
 70
     0
102
RTVSPropertyOp9
 70
     0
102
RTVSPropertyOp10
 70
     0
102
RTVSPropertyOp11
 70
     0
102
RTVSPropertyOp12
 70
     0
102
RTVSPropertyOp13
 70
     0
102
RTVSPropertyOp14
 70
     2
102
RTVSPropertyOp15
 70
     0
102
RTVSPropertyOp16
 70
     0
102
RTVSPropertyOp17
 70
     0
102
RTVSPropertyOp18
 70
     0
102
RTVSPropertyOp19
 70
     0
102
RTVSPropertyOp20
 70
     0
102
RTVSPropertyOp21
 70
     0
102
RTVSPropertyOp22
 70
     0
102
RTVSPropertyOp23
 70
     0
102
RTVSPropertyOp24
 70
     0
102
RTVSPropertyOp25
 70
     0
102
RTVSPropertyOp26
 70
     0
102
RTVSPropertyOp27
 70
     0
102
RTVSPropertyOp28
 70
     0
102
RTVSPropertyOp29
 70
     0
102
RTVSPropertyOp30
 70
     0
102
RTVSPropertyOp31
 70
     0
102
RTVSPropertyOp32
 70
     0
102
RTVSPropertyOp33
 70
     0
102
RTVSPropertyOp34
 70
     0
102
RTVSPropertyOp35
 70
     0
102
RTVSPropertyOp36
 70
     0
102
RTVSPropertyOp37
 70
     0
102
RTVSPropertyOp38
 70
     0
102
RTVSPropertyOp39
 70
     0
102
RTVSPropertyOp40
 70
     0
102
RTVSPropertyOp41
 70
     0
102
RTVSPropertyOp42
 70
     0
102
RTVSPropertyOp43
 70
     0
102
RTVSPropertyOp44
 70
     0
102
RTVSPropertyOp45
 70
     0
102
RTVSPropertyOp46
 70
     0
102
RTVSPropertyOp47
 70
     0
102
RTVSPropertyOp48
 70
     0
102
RTVSPropertyOp49
 70
     0
102
RTVSPropertyOp50
 70
     0
102
RTVSPropertyOp51
 70
     0
102
RTVSPropertyOp52
 70
     0
102
RTVSPropertyOp53
 70
     0
102
RTVSPropertyOp54
 70
     0
102
RTVSPropertyOp55
 70
     0
102
RTVSPropertyOp56
 70
     0
102
RTVSPropertyOp57
 70
     0
102
RTVSPropertyOp58
 70
     1
102
RTVSPropertyOp59
 70
     1
102
RTVSPropertyOp60
 70
     1
102
RTVSPropertyOp61
 70
     1
102
RTVSPropertyOp62
 70
     1
  0
XRECORD
  5
9B0
102
{ACAD_REACTORS
330
9AF
102
}
330
9AF
100
AcDbXrecord
280
     1
102
RTVSPost2010Prop28
280
     0
102
RTVSPost2010PropOp28
 70
     1
102
RTVSPost2010Prop29
280
     1
102
RTVSPost2010PropOp29
 70
     1
102
RTVSPost2010Prop30
280
     1
102
RTVSPost2010PropOp30
 70
     1
102
RTVSPost2010Prop31
280
     0
102
RTVSPost2010PropOp31
 70
     1
102
RTVSPost2010Prop32
280
     0
102
RTVSPost2010PropOp32
 70
     1
102
RTVSPost2010Prop33
280
     0
102
RTVSPost2010PropOp33
 70
     1
102
RTVSPost2010Prop34
280
     0
102
RTVSPost2010PropOp34
 70
     1
102
RTVSPost2010Prop35
280
     0
102
RTVSPost2010PropOp35
 70
     1
102
RTVSPost2010Prop36
280
     0
102
RTVSPost2010PropOp36
 70
     1
102
RTVSPost2010Prop37
 90
       50
102
RTVSPost2010PropOp37
 70
     1
102
RTVSPost2010Prop38
140
0.0
102
RTVSPost2010PropOp38
 70
     1
102
RTVSPost2010Prop39
140
1.0
102
RTVSPost2010PropOp39
 70
     1
102
RTVSPost2010Prop40
 90
        0
102
RTVSPost2010PropOp40
 70
     1
102
RTVSPost2010Prop41ColorIndex
 90
       18
102
RTVSPost2010Prop41ColorRGB
 90
-16777216
102
RTVSPost2010PropOp41
 70
     1
102
RTVSPost2010Prop42
 90
       50
102
RTVSPost2010PropOp42
 70
     1
102
RTVSPost2010Prop43
 90
        3
102
RTVSPost2010PropOp43
 70
     1
102
RTVSPost2010Prop44ColorIndex
 90
        5
102
RTVSPost2010Prop44ColorRGB
 90
      255
102
RTVSPost2010PropOp44
 70
     1
102
RTVSPost2010Prop45
280
     0
102
RTVSPost2010PropOp45
 70
     1
102
RTVSPost2010Prop46
 90
       50
102
RTVSPost2010PropOp46
 70
     1
102
RTVSPost2010Prop47
 90
       50
102
RTVSPost2010PropOp47
 70
     1
102
RTVSPost2010Prop48
 90
       50
102
RTVSPost2010PropOp48
 70
     1
102
RTVSPost2010Prop49
280
     0
102
RTVSPost2010PropOp49
 70
     1
102
RTVSPost2010Prop50
 90
       50
102
RTVSPost2010PropOp50
 70
     1
102
RTVSPost2010Prop51ColorIndex
 90
      256
102
RTVSPost2010Prop51ColorRGB
 90
-16777216
102
RTVSPost2010PropOp51
 70
     0
102
RTVSPost2010Prop52
140
1.0
102
RTVSPost2010PropOp52
 70
     0
102
RTVSPost2010Prop53
 90
        2
102
RTVSPost2010PropOp53
 70
     1
102
RTVSPost2010Prop54
  1
strokes_ogs.tif
102
RTVSPost2010PropOp54
 70
     1
102
RTVSPost2010Prop55
280
     0
102
RTVSPost2010PropOp55
 70
     1
102
RTVSPost2010Prop56
140
1.0
102
RTVSPost2010PropOp56
 70
     1
102
RTVSPost2010Prop57
140
1.0
102
RTVSPost2010PropOp57
 70
     1
102
RTVSPropertyOp0
 70
     1
102
RTVSPropertyOp1
 70
     1
102
RTVSPropertyOp2
 70
     1
102
RTVSPropertyOp3
 70
     1
102
RTVSPropertyOp4
 70
     1
102
RTVSPropertyOp5
 70
     1
102
RTVSPropertyOp6
 70
     1
102
RTVSPropertyOp7
 70
     1
102
RTVSPropertyOp8
 70
     1
102
RTVSPropertyOp9
 70
     1
102
RTVSPropertyOp10
 70
     1
102
RTVSPropertyOp11
 70
     1
102
RTVSPropertyOp12
 70
     1
102
RTVSPropertyOp13
 70
     1
102
RTVSPropertyOp14
 70
     1
102
RTVSPropertyOp15
 70
     1
102
RTVSPropertyOp16
 70
     1
102
RTVSPropertyOp17
 70
     1
102
RTVSPropertyOp18
 70
     1
102
RTVSPropertyOp19
 70
     1
102
RTVSPropertyOp20
 70
     1
102
RTVSPropertyOp21
 70
     1
102
RTVSPropertyOp22
 70
     1
102
RTVSPropertyOp23
 70
     1
102
RTVSPropertyOp24
 70
     1
102
RTVSPropertyOp25
 70
     1
102
RTVSPropertyOp26
 70
     1
102
RTVSPropertyOp27
 70
     1
102
RTVSPropertyOp28
 70
     1
102
RTVSPropertyOp29
 70
     1
102
RTVSPropertyOp30
 70
     1
102
RTVSPropertyOp31
 70
     1
102
RTVSPropertyOp32
 70
     1
102
RTVSPropertyOp33
 70
     1
102
RTVSPropertyOp34
 70
     1
102
RTVSPropertyOp35
 70
     1
102
RTVSPropertyOp36
 70
     1
102
RTVSPropertyOp37
 70
     1
102
RTVSPropertyOp38
 70
     1
102
RTVSPropertyOp39
 70
     1
102
RTVSPropertyOp40
 70
     1
102
RTVSPropertyOp41
 70
     1
102
RTVSPropertyOp42
 70
     1
102
RTVSPropertyOp43
 70
     1
102
RTVSPropertyOp44
 70
     1
102
RTVSPropertyOp45
 70
     1
102
RTVSPropertyOp46
 70
     1
102
RTVSPropertyOp47
 70
     1
102
RTVSPropertyOp48
 70
     1
102
RTVSPropertyOp49
 70
     1
102
RTVSPropertyOp50
 70
     1
102
RTVSPropertyOp51
 70
     0
102
RTVSPropertyOp52
 70
     0
102
RTVSPropertyOp53
 70
     1
102
RTVSPropertyOp54
 70
     1
102
RTVSPropertyOp55
 70
     1
102
RTVSPropertyOp56
 70
     1
102
RTVSPropertyOp57
 70
     1
102
RTVSPropertyOp58
 70
     1
102
RTVSPropertyOp59
 70
     1
102
RTVSPropertyOp60
 70
     1
102
RTVSPropertyOp61
 70
     1
102
RTVSPropertyOp62
 70
     1
  0
XRECORD
  5
994
102
{ACAD_REACTORS
330
993
102
}
330
993
100
AcDbXrecord
280
     1
102
RTVSPost2010Prop28
280
     0
102
RTVSPost2010PropOp28
 70
     1
102
RTVSPost2010Prop29
280
     1
102
RTVSPost2010PropOp29
 70
     1
102
RTVSPost2010Prop30
280
     1
102
RTVSPost2010PropOp30
 70
     1
102
RTVSPost2010Prop31
280
     0
102
RTVSPost2010PropOp31
 70
     1
102
RTVSPost2010Prop32
280
     0
102
RTVSPost2010PropOp32
 70
     1
102
RTVSPost2010Prop33
280
     0
102
RTVSPost2010PropOp33
 70
     1
102
RTVSPost2010Prop34
280
     0
102
RTVSPost2010PropOp34
 70
     1
102
RTVSPost2010Prop35
280
     0
102
RTVSPost2010PropOp35
 70
     1
102
RTVSPost2010Prop36
280
     0
102
RTVSPost2010PropOp36
 70
     1
102
RTVSPost2010Prop37
 90
       50
102
RTVSPost2010PropOp37
 70
     1
102
RTVSPost2010Prop38
140
0.0
102
RTVSPost2010PropOp38
 70
     1
102
RTVSPost2010Prop39
140
1.0
102
RTVSPost2010PropOp39
 70
     1
102
RTVSPost2010Prop40
 90
        0
102
RTVSPost2010PropOp40
 70
     1
102
RTVSPost2010Prop41ColorIndex
 90
       18
102
RTVSPost2010Prop41ColorRGB
 90
-16777216
102
RTVSPost2010PropOp41
 70
     1
102
RTVSPost2010Prop42
 90
       50
102
RTVSPost2010PropOp42
 70
     1
102
RTVSPost2010Prop43
 90
        3
102
RTVSPost2010PropOp43
 70
     1
102
RTVSPost2010Prop44ColorIndex
 90
        5
102
RTVSPost2010Prop44ColorRGB
 90
      255
102
RTVSPost2010PropOp44
 70
     1
102
RTVSPost2010Prop45
280
     0
102
RTVSPost2010PropOp45
 70
     1
102
RTVSPost2010Prop46
 90
       50
102
RTVSPost2010PropOp46
 70
     1
102
RTVSPost2010Prop47
 90
       50
102
RTVSPost2010PropOp47
 70
     1
102
RTVSPost2010Prop48
 90
       50
102
RTVSPost2010PropOp48
 70
     1
102
RTVSPost2010Prop49
280
     0
102
RTVSPost2010PropOp49
 70
     1
102
RTVSPost2010Prop50
 90
       50
102
RTVSPost2010PropOp50
 70
     1
102
RTVSPost2010Prop51ColorIndex
 90
      256
102
RTVSPost2010Prop51ColorRGB
 90
-16777216
102
RTVSPost2010PropOp51
 70
     0
102
RTVSPost2010Prop52
140
1.0
102
RTVSPost2010PropOp52
 70
     0
102
RTVSPost2010Prop53
 90
        2
102
RTVSPost2010PropOp53
 70
     1
102
RTVSPost2010Prop54
  1
strokes_ogs.tif
102
RTVSPost2010PropOp54
 70
     1
102
RTVSPost2010Prop55
280
     0
102
RTVSPost2010PropOp55
 70
     1
102
RTVSPost2010Prop56
140
1.0
102
RTVSPost2010PropOp56
 70
     1
102
RTVSPost2010Prop57
140
1.0
102
RTVSPost2010PropOp57
 70
     1
102
RTVSPropertyOp0
 70
     1
102
RTVSPropertyOp1
 70
     1
102
RTVSPropertyOp2
 70
     1
102
RTVSPropertyOp3
 70
     1
102
RTVSPropertyOp4
 70
     1
102
RTVSPropertyOp5
 70
     1
102
RTVSPropertyOp6
 70
     1
102
RTVSPropertyOp7
 70
     1
102
RTVSPropertyOp8
 70
     1
102
RTVSPropertyOp9
 70
     1
102
RTVSPropertyOp10
 70
     1
102
RTVSPropertyOp11
 70
     1
102
RTVSPropertyOp12
 70
     1
102
RTVSPropertyOp13
 70
     1
102
RTVSPropertyOp14
 70
     1
102
RTVSPropertyOp15
 70
     1
102
RTVSPropertyOp16
 70
     1
102
RTVSPropertyOp17
 70
     1
102
RTVSPropertyOp18
 70
     1
102
RTVSPropertyOp19
 70
     1
102
RTVSPropertyOp20
 70
     1
102
RTVSPropertyOp21
 70
     1
102
RTVSPropertyOp22
 70
     1
102
RTVSPropertyOp23
 70
     1
102
RTVSPropertyOp24
 70
     1
102
RTVSPropertyOp25
 70
     1
102
RTVSPropertyOp26
 70
     1
102
RTVSPropertyOp27
 70
     1
102
RTVSPropertyOp28
 70
     1
102
RTVSPropertyOp29
 70
     1
102
RTVSPropertyOp30
 70
     1
102
RTVSPropertyOp31
 70
     1
102
RTVSPropertyOp32
 70
     1
102
RTVSPropertyOp33
 70
     1
102
RTVSPropertyOp34
 70
     1
102
RTVSPropertyOp35
 70
     1
102
RTVSPropertyOp36
 70
     1
102
RTVSPropertyOp37
 70
     1
102
RTVSPropertyOp38
 70
     1
102
RTVSPropertyOp39
 70
     1
102
RTVSPropertyOp40
 70
     1
102
RTVSPropertyOp41
 70
     1
102
RTVSPropertyOp42
 70
     1
102
RTVSPropertyOp43
 70
     1
102
RTVSPropertyOp44
 70
     1
102
RTVSPropertyOp45
 70
     1
102
RTVSPropertyOp46
 70
     1
102
RTVSPropertyOp47
 70
     1
102
RTVSPropertyOp48
 70
     1
102
RTVSPropertyOp49
 70
     1
102
RTVSPropertyOp50
 70
     1
102
RTVSPropertyOp51
 70
     0
102
RTVSPropertyOp52
 70
     0
102
RTVSPropertyOp53
 70
     1
102
RTVSPropertyOp54
 70
     1
102
RTVSPropertyOp55
 70
     1
102
RTVSPropertyOp56
 70
     1
102
RTVSPropertyOp57
 70
     1
102
RTVSPropertyOp58
 70
     1
102
RTVSPropertyOp59
 70
     1
102
RTVSPropertyOp60
 70
     1
102
RTVSPropertyOp61
 70
     1
102
RTVSPropertyOp62
 70
     1
  0
XRECORD
  5
996
102
{ACAD_REACTORS
330
995
102
}
330
995
100
AcDbXrecord
280
     1
102
RTVSPost2010Prop28
280
     0
102
RTVSPost2010PropOp28
 70
     1
102
RTVSPost2010Prop29
280
     1
102
RTVSPost2010PropOp29
 70
     1
102
RTVSPost2010Prop30
280
     1
102
RTVSPost2010PropOp30
 70
     1
102
RTVSPost2010Prop31
280
     0
102
RTVSPost2010PropOp31
 70
     1
102
RTVSPost2010Prop32
280
     0
102
RTVSPost2010PropOp32
 70
     1
102
RTVSPost2010Prop33
280
     0
102
RTVSPost2010PropOp33
 70
     1
102
RTVSPost2010Prop34
280
     0
102
RTVSPost2010PropOp34
 70
     1
102
RTVSPost2010Prop35
280
     0
102
RTVSPost2010PropOp35
 70
     1
102
RTVSPost2010Prop36
280
     0
102
RTVSPost2010PropOp36
 70
     1
102
RTVSPost2010Prop37
 90
       50
102
RTVSPost2010PropOp37
 70
     1
102
RTVSPost2010Prop38
140
0.0
102
RTVSPost2010PropOp38
 70
     1
102
RTVSPost2010Prop39
140
1.0
102
RTVSPost2010PropOp39
 70
     1
102
RTVSPost2010Prop40
 90
        0
102
RTVSPost2010PropOp40
 70
     1
102
RTVSPost2010Prop41ColorIndex
 90
       18
102
RTVSPost2010Prop41ColorRGB
 90
-16777216
102
RTVSPost2010PropOp41
 70
     1
102
RTVSPost2010Prop42
 90
       50
102
RTVSPost2010PropOp42
 70
     1
102
RTVSPost2010Prop43
 90
        3
102
RTVSPost2010PropOp43
 70
     1
102
RTVSPost2010Prop44ColorIndex
 90
        5
102
RTVSPost2010Prop44ColorRGB
 90
      255
102
RTVSPost2010PropOp44
 70
     1
102
RTVSPost2010Prop45
280
     0
102
RTVSPost2010PropOp45
 70
     1
102
RTVSPost2010Prop46
 90
       50
102
RTVSPost2010PropOp46
 70
     1
102
RTVSPost2010Prop47
 90
       50
102
RTVSPost2010PropOp47
 70
     1
102
RTVSPost2010Prop48
 90
       50
102
RTVSPost2010PropOp48
 70
     1
102
RTVSPost2010Prop49
280
     0
102
RTVSPost2010PropOp49
 70
     1
102
RTVSPost2010Prop50
 90
       50
102
RTVSPost2010PropOp50
 70
     1
102
RTVSPost2010Prop51ColorIndex
 90
      256
102
RTVSPost2010Prop51ColorRGB
 90
-16777216
102
RTVSPost2010PropOp51
 70
     0
102
RTVSPost2010Prop52
140
1.0
102
RTVSPost2010PropOp52
 70
     0
102
RTVSPost2010Prop53
 90
        2
102
RTVSPost2010PropOp53
 70
     1
102
RTVSPost2010Prop54
  1
strokes_ogs.tif
102
RTVSPost2010PropOp54
 70
     1
102
RTVSPost2010Prop55
280
     0
102
RTVSPost2010PropOp55
 70
     1
102
RTVSPost2010Prop56
140
1.0
102
RTVSPost2010PropOp56
 70
     1
102
RTVSPost2010Prop57
140
1.0
102
RTVSPost2010PropOp57
 70
     1
102
RTVSPropertyOp0
 70
     1
102
RTVSPropertyOp1
 70
     1
102
RTVSPropertyOp2
 70
     1
102
RTVSPropertyOp3
 70
     1
102
RTVSPropertyOp4
 70
     1
102
RTVSPropertyOp5
 70
     1
102
RTVSPropertyOp6
 70
     1
102
RTVSPropertyOp7
 70
     1
102
RTVSPropertyOp8
 70
     1
102
RTVSPropertyOp9
 70
     1
102
RTVSPropertyOp10
 70
     1
102
RTVSPropertyOp11
 70
     1
102
RTVSPropertyOp12
 70
     1
102
RTVSPropertyOp13
 70
     1
102
RTVSPropertyOp14
 70
     1
102
RTVSPropertyOp15
 70
     1
102
RTVSPropertyOp16
 70
     1
102
RTVSPropertyOp17
 70
     1
102
RTVSPropertyOp18
 70
     1
102
RTVSPropertyOp19
 70
     1
102
RTVSPropertyOp20
 70
     1
102
RTVSPropertyOp21
 70
     1
102
RTVSPropertyOp22
 70
     1
102
RTVSPropertyOp23
 70
     1
102
RTVSPropertyOp24
 70
     1
102
RTVSPropertyOp25
 70
     1
102
RTVSPropertyOp26
 70
     1
102
RTVSPropertyOp27
 70
     1
102
RTVSPropertyOp28
 70
     1
102
RTVSPropertyOp29
 70
     1
102
RTVSPropertyOp30
 70
     1
102
RTVSPropertyOp31
 70
     1
102
RTVSPropertyOp32
 70
     1
102
RTVSPropertyOp33
 70
     1
102
RTVSPropertyOp34
 70
     1
102
RTVSPropertyOp35
 70
     1
102
RTVSPropertyOp36
 70
     1
102
RTVSPropertyOp37
 70
     1
102
RTVSPropertyOp38
 70
     1
102
RTVSPropertyOp39
 70
     1
102
RTVSPropertyOp40
 70
     1
102
RTVSPropertyOp41
 70
     1
102
RTVSPropertyOp42
 70
     1
102
RTVSPropertyOp43
 70
     1
102
RTVSPropertyOp44
 70
     1
102
RTVSPropertyOp45
 70
     1
102
RTVSPropertyOp46
 70
     1
102
RTVSPropertyOp47
 70
     1
102
RTVSPropertyOp48
 70
     1
102
RTVSPropertyOp49
 70
     1
102
RTVSPropertyOp50
 70
     1
102
RTVSPropertyOp51
 70
     0
102
RTVSPropertyOp52
 70
     0
102
RTVSPropertyOp53
 70
     1
102
RTVSPropertyOp54
 70
     1
102
RTVSPropertyOp55
 70
     1
102
RTVSPropertyOp56
 70
     1
102
RTVSPropertyOp57
 70
     1
102
RTVSPropertyOp58
 70
     1
102
RTVSPropertyOp59
 70
     1
102
RTVSPropertyOp60
 70
     1
102
RTVSPropertyOp61
 70
     1
102
RTVSPropertyOp62
 70
     1
  0
XRECORD
  5
998
102
{ACAD_REACTORS
330
997
102
}
330
997
100
AcDbXrecord
280
     1
102
RTVSPost2010Prop28
280
     0
102
RTVSPost2010PropOp28
 70
     1
102
RTVSPost2010Prop29
280
     1
102
RTVSPost2010PropOp29
 70
     1
102
RTVSPost2010Prop30
280
     1
102
RTVSPost2010PropOp30
 70
     1
102
RTVSPost2010Prop31
280
     0
102
RTVSPost2010PropOp31
 70
     1
102
RTVSPost2010Prop32
280
     0
102
RTVSPost2010PropOp32
 70
     1
102
RTVSPost2010Prop33
280
     0
102
RTVSPost2010PropOp33
 70
     1
102
RTVSPost2010Prop34
280
     0
102
RTVSPost2010PropOp34
 70
     1
102
RTVSPost2010Prop35
280
     0
102
RTVSPost2010PropOp35
 70
     1
102
RTVSPost2010Prop36
280
     0
102
RTVSPost2010PropOp36
 70
     1
102
RTVSPost2010Prop37
 90
       50
102
RTVSPost2010PropOp37
 70
     1
102
RTVSPost2010Prop38
140
0.0
102
RTVSPost2010PropOp38
 70
     1
102
RTVSPost2010Prop39
140
1.0
102
RTVSPost2010PropOp39
 70
     1
102
RTVSPost2010Prop40
 90
        0
102
RTVSPost2010PropOp40
 70
     1
102
RTVSPost2010Prop41ColorIndex
 90
       18
102
RTVSPost2010Prop41ColorRGB
 90
-16777216
102
RTVSPost2010PropOp41
 70
     1
102
RTVSPost2010Prop42
 90
       50
102
RTVSPost2010PropOp42
 70
     1
102
RTVSPost2010Prop43
 90
        3
102
RTVSPost2010PropOp43
 70
     1
102
RTVSPost2010Prop44ColorIndex
 90
        5
102
RTVSPost2010Prop44ColorRGB
 90
      255
102
RTVSPost2010PropOp44
 70
     1
102
RTVSPost2010Prop45
280
     0
102
RTVSPost2010PropOp45
 70
     1
102
RTVSPost2010Prop46
 90
       50
102
RTVSPost2010PropOp46
 70
     1
102
RTVSPost2010Prop47
 90
       50
102
RTVSPost2010PropOp47
 70
     1
102
RTVSPost2010Prop48
 90
       50
102
RTVSPost2010PropOp48
 70
     1
102
RTVSPost2010Prop49
280
     0
102
RTVSPost2010PropOp49
 70
     1
102
RTVSPost2010Prop50
 90
       50
102
RTVSPost2010PropOp50
 70
     1
102
RTVSPost2010Prop51ColorIndex
 90
      256
102
RTVSPost2010Prop51ColorRGB
 90
-16777216
102
RTVSPost2010PropOp51
 70
     0
102
RTVSPost2010Prop52
140
1.0
102
RTVSPost2010PropOp52
 70
     0
102
RTVSPost2010Prop53
 90
        2
102
RTVSPost2010PropOp53
 70
     1
102
RTVSPost2010Prop54
  1
strokes_ogs.tif
102
RTVSPost2010PropOp54
 70
     1
102
RTVSPost2010Prop55
280
     0
102
RTVSPost2010PropOp55
 70
     1
102
RTVSPost2010Prop56
140
1.0
102
RTVSPost2010PropOp56
 70
     1
102
RTVSPost2010Prop57
140
1.0
102
RTVSPost2010PropOp57
 70
     1
102
RTVSPropertyOp0
 70
     1
102
RTVSPropertyOp1
 70
     1
102
RTVSPropertyOp2
 70
     1
102
RTVSPropertyOp3
 70
     1
102
RTVSPropertyOp4
 70
     1
102
RTVSPropertyOp5
 70
     1
102
RTVSPropertyOp6
 70
     1
102
RTVSPropertyOp7
 70
     1
102
RTVSPropertyOp8
 70
     1
102
RTVSPropertyOp9
 70
     1
102
RTVSPropertyOp10
 70
     1
102
RTVSPropertyOp11
 70
     1
102
RTVSPropertyOp12
 70
     1
102
RTVSPropertyOp13
 70
     1
102
RTVSPropertyOp14
 70
     1
102
RTVSPropertyOp15
 70
     1
102
RTVSPropertyOp16
 70
     1
102
RTVSPropertyOp17
 70
     1
102
RTVSPropertyOp18
 70
     1
102
RTVSPropertyOp19
 70
     1
102
RTVSPropertyOp20
 70
     1
102
RTVSPropertyOp21
 70
     1
102
RTVSPropertyOp22
 70
     1
102
RTVSPropertyOp23
 70
     1
102
RTVSPropertyOp24
 70
     1
102
RTVSPropertyOp25
 70
     1
102
RTVSPropertyOp26
 70
     1
102
RTVSPropertyOp27
 70
     1
102
RTVSPropertyOp28
 70
     1
102
RTVSPropertyOp29
 70
     1
102
RTVSPropertyOp30
 70
     1
102
RTVSPropertyOp31
 70
     1
102
RTVSPropertyOp32
 70
     1
102
RTVSPropertyOp33
 70
     1
102
RTVSPropertyOp34
 70
     1
102
RTVSPropertyOp35
 70
     1
102
RTVSPropertyOp36
 70
     1
102
RTVSPropertyOp37
 70
     1
102
RTVSPropertyOp38
 70
     1
102
RTVSPropertyOp39
 70
     1
102
RTVSPropertyOp40
 70
     1
102
RTVSPropertyOp41
 70
     1
102
RTVSPropertyOp42
 70
     1
102
RTVSPropertyOp43
 70
     1
102
RTVSPropertyOp44
 70
     1
102
RTVSPropertyOp45
 70
     1
102
RTVSPropertyOp46
 70
     1
102
RTVSPropertyOp47
 70
     1
102
RTVSPropertyOp48
 70
     1
102
RTVSPropertyOp49
 70
     1
102
RTVSPropertyOp50
 70
     1
102
RTVSPropertyOp51
 70
     0
102
RTVSPropertyOp52
 70
     0
102
RTVSPropertyOp53
 70
     1
102
RTVSPropertyOp54
 70
     1
102
RTVSPropertyOp55
 70
     1
102
RTVSPropertyOp56
 70
     1
102
RTVSPropertyOp57
 70
     1
102
RTVSPropertyOp58
 70
     1
102
RTVSPropertyOp59
 70
     1
102
RTVSPropertyOp60
 70
     1
102
RTVSPropertyOp61
 70
     1
102
RTVSPropertyOp62
 70
     1
  0
XRECORD
  5
99A
102
{ACAD_REACTORS
330
999
102
}
330
999
100
AcDbXrecord
280
     1
102
RTVSPost2010Prop28
280
     0
102
RTVSPost2010PropOp28
 70
     1
102
RTVSPost2010Prop29
280
     1
102
RTVSPost2010PropOp29
 70
     1
102
RTVSPost2010Prop30
280
     1
102
RTVSPost2010PropOp30
 70
     1
102
RTVSPost2010Prop31
280
     0
102
RTVSPost2010PropOp31
 70
     1
102
RTVSPost2010Prop32
280
     0
102
RTVSPost2010PropOp32
 70
     1
102
RTVSPost2010Prop33
280
     0
102
RTVSPost2010PropOp33
 70
     1
102
RTVSPost2010Prop34
280
     0
102
RTVSPost2010PropOp34
 70
     1
102
RTVSPost2010Prop35
280
     0
102
RTVSPost2010PropOp35
 70
     1
102
RTVSPost2010Prop36
280
     0
102
RTVSPost2010PropOp36
 70
     1
102
RTVSPost2010Prop37
 90
       50
102
RTVSPost2010PropOp37
 70
     1
102
RTVSPost2010Prop38
140
0.0
102
RTVSPost2010PropOp38
 70
     1
102
RTVSPost2010Prop39
140
1.0
102
RTVSPost2010PropOp39
 70
     1
102
RTVSPost2010Prop40
 90
        0
102
RTVSPost2010PropOp40
 70
     1
102
RTVSPost2010Prop41ColorIndex
 90
       18
102
RTVSPost2010Prop41ColorRGB
 90
-16777216
102
RTVSPost2010PropOp41
 70
     1
102
RTVSPost2010Prop42
 90
       50
102
RTVSPost2010PropOp42
 70
     1
102
RTVSPost2010Prop43
 90
        3
102
RTVSPost2010PropOp43
 70
     1
102
RTVSPost2010Prop44ColorIndex
 90
        5
102
RTVSPost2010Prop44ColorRGB
 90
      255
102
RTVSPost2010PropOp44
 70
     1
102
RTVSPost2010Prop45
280
     0
102
RTVSPost2010PropOp45
 70
     1
102
RTVSPost2010Prop46
 90
       50
102
RTVSPost2010PropOp46
 70
     1
102
RTVSPost2010Prop47
 90
       50
102
RTVSPost2010PropOp47
 70
     1
102
RTVSPost2010Prop48
 90
       50
102
RTVSPost2010PropOp48
 70
     1
102
RTVSPost2010Prop49
280
     0
102
RTVSPost2010PropOp49
 70
     1
102
RTVSPost2010Prop50
 90
       50
102
RTVSPost2010PropOp50
 70
     1
102
RTVSPost2010Prop51ColorIndex
 90
      256
102
RTVSPost2010Prop51ColorRGB
 90
-16777216
102
RTVSPost2010PropOp51
 70
     0
102
RTVSPost2010Prop52
140
1.0
102
RTVSPost2010PropOp52
 70
     0
102
RTVSPost2010Prop53
 90
        2
102
RTVSPost2010PropOp53
 70
     1
102
RTVSPost2010Prop54
  1
strokes_ogs.tif
102
RTVSPost2010PropOp54
 70
     1
102
RTVSPost2010Prop55
280
     0
102
RTVSPost2010PropOp55
 70
     1
102
RTVSPost2010Prop56
140
1.0
102
RTVSPost2010PropOp56
 70
     1
102
RTVSPost2010Prop57
140
1.0
102
RTVSPost2010PropOp57
 70
     1
102
RTVSPropertyOp0
 70
     1
102
RTVSPropertyOp1
 70
     1
102
RTVSPropertyOp2
 70
     1
102
RTVSPropertyOp3
 70
     1
102
RTVSPropertyOp4
 70
     1
102
RTVSPropertyOp5
 70
     1
102
RTVSPropertyOp6
 70
     1
102
RTVSPropertyOp7
 70
     1
102
RTVSPropertyOp8
 70
     1
102
RTVSPropertyOp9
 70
     1
102
RTVSPropertyOp10
 70
     1
102
RTVSPropertyOp11
 70
     1
102
RTVSPropertyOp12
 70
     1
102
RTVSPropertyOp13
 70
     1
102
RTVSPropertyOp14
 70
     1
102
RTVSPropertyOp15
 70
     1
102
RTVSPropertyOp16
 70
     1
102
RTVSPropertyOp17
 70
     1
102
RTVSPropertyOp18
 70
     1
102
RTVSPropertyOp19
 70
     1
102
RTVSPropertyOp20
 70
     1
102
RTVSPropertyOp21
 70
     1
102
RTVSPropertyOp22
 70
     1
102
RTVSPropertyOp23
 70
     1
102
RTVSPropertyOp24
 70
     1
102
RTVSPropertyOp25
 70
     1
102
RTVSPropertyOp26
 70
     1
102
RTVSPropertyOp27
 70
     1
102
RTVSPropertyOp28
 70
     1
102
RTVSPropertyOp29
 70
     1
102
RTVSPropertyOp30
 70
     1
102
RTVSPropertyOp31
 70
     1
102
RTVSPropertyOp32
 70
     1
102
RTVSPropertyOp33
 70
     1
102
RTVSPropertyOp34
 70
     1
102
RTVSPropertyOp35
 70
     1
102
RTVSPropertyOp36
 70
     1
102
RTVSPropertyOp37
 70
     1
102
RTVSPropertyOp38
 70
     1
102
RTVSPropertyOp39
 70
     1
102
RTVSPropertyOp40
 70
     1
102
RTVSPropertyOp41
 70
     1
102
RTVSPropertyOp42
 70
     1
102
RTVSPropertyOp43
 70
     1
102
RTVSPropertyOp44
 70
     1
102
RTVSPropertyOp45
 70
     1
102
RTVSPropertyOp46
 70
     1
102
RTVSPropertyOp47
 70
     1
102
RTVSPropertyOp48
 70
     1
102
RTVSPropertyOp49
 70
     1
102
RTVSPropertyOp50
 70
     1
102
RTVSPropertyOp51
 70
     0
102
RTVSPropertyOp52
 70
     0
102
RTVSPropertyOp53
 70
     1
102
RTVSPropertyOp54
 70
     1
102
RTVSPropertyOp55
 70
     1
102
RTVSPropertyOp56
 70
     1
102
RTVSPropertyOp57
 70
     1
102
RTVSPropertyOp58
 70
     1
102
RTVSPropertyOp59
 70
     1
102
RTVSPropertyOp60
 70
     1
102
RTVSPropertyOp61
 70
     1
102
RTVSPropertyOp62
 70
     1
  0
XRECORD
  5
9A2
102
{ACAD_REACTORS
330
9A1
102
}
330
9A1
100
AcDbXrecord
280
     1
102
RTVSPost2010Prop28
280
     0
102
RTVSPost2010PropOp28
 70
     1
102
RTVSPost2010Prop29
280
     1
102
RTVSPost2010PropOp29
 70
     1
102
RTVSPost2010Prop30
280
     1
102
RTVSPost2010PropOp30
 70
     1
102
RTVSPost2010Prop31
280
     0
102
RTVSPost2010PropOp31
 70
     1
102
RTVSPost2010Prop32
280
     0
102
RTVSPost2010PropOp32
 70
     1
102
RTVSPost2010Prop33
280
     0
102
RTVSPost2010PropOp33
 70
     1
102
RTVSPost2010Prop34
280
     0
102
RTVSPost2010PropOp34
 70
     1
102
RTVSPost2010Prop35
280
     0
102
RTVSPost2010PropOp35
 70
     1
102
RTVSPost2010Prop36
280
     0
102
RTVSPost2010PropOp36
 70
     1
102
RTVSPost2010Prop37
 90
       50
102
RTVSPost2010PropOp37
 70
     1
102
RTVSPost2010Prop38
140
0.0
102
RTVSPost2010PropOp38
 70
     1
102
RTVSPost2010Prop39
140
1.0
102
RTVSPost2010PropOp39
 70
     1
102
RTVSPost2010Prop40
 90
        0
102
RTVSPost2010PropOp40
 70
     1
102
RTVSPost2010Prop41ColorIndex
 90
       18
102
RTVSPost2010Prop41ColorRGB
 90
-16777216
102
RTVSPost2010PropOp41
 70
     1
102
RTVSPost2010Prop42
 90
       50
102
RTVSPost2010PropOp42
 70
     1
102
RTVSPost2010Prop43
 90
        3
102
RTVSPost2010PropOp43
 70
     1
102
RTVSPost2010Prop44ColorIndex
 90
        5
102
RTVSPost2010Prop44ColorRGB
 90
      255
102
RTVSPost2010PropOp44
 70
     1
102
RTVSPost2010Prop45
280
     0
102
RTVSPost2010PropOp45
 70
     1
102
RTVSPost2010Prop46
 90
       50
102
RTVSPost2010PropOp46
 70
     1
102
RTVSPost2010Prop47
 90
       50
102
RTVSPost2010PropOp47
 70
     1
102
RTVSPost2010Prop48
 90
       50
102
RTVSPost2010PropOp48
 70
     1
102
RTVSPost2010Prop49
280
     0
102
RTVSPost2010PropOp49
 70
     1
102
RTVSPost2010Prop50
 90
       50
102
RTVSPost2010PropOp50
 70
     1
102
RTVSPost2010Prop51ColorIndex
 90
      256
102
RTVSPost2010Prop51ColorRGB
 90
-16777216
102
RTVSPost2010PropOp51
 70
     0
102
RTVSPost2010Prop52
140
1.0
102
RTVSPost2010PropOp52
 70
     0
102
RTVSPost2010Prop53
 90
        2
102
RTVSPost2010PropOp53
 70
     1
102
RTVSPost2010Prop54
  1
strokes_ogs.tif
102
RTVSPost2010PropOp54
 70
     1
102
RTVSPost2010Prop55
280
     0
102
RTVSPost2010PropOp55
 70
     1
102
RTVSPost2010Prop56
140
1.0
102
RTVSPost2010PropOp56
 70
     1
102
RTVSPost2010Prop57
140
1.0
102
RTVSPost2010PropOp57
 70
     1
102
RTVSPropertyOp0
 70
     1
102
RTVSPropertyOp1
 70
     1
102
RTVSPropertyOp2
 70
     1
102
RTVSPropertyOp3
 70
     1
102
RTVSPropertyOp4
 70
     1
102
RTVSPropertyOp5
 70
     1
102
RTVSPropertyOp6
 70
     1
102
RTVSPropertyOp7
 70
     1
102
RTVSPropertyOp8
 70
     1
102
RTVSPropertyOp9
 70
     1
102
RTVSPropertyOp10
 70
     1
102
RTVSPropertyOp11
 70
     1
102
RTVSPropertyOp12
 70
     1
102
RTVSPropertyOp13
 70
     1
102
RTVSPropertyOp14
 70
     1
102
RTVSPropertyOp15
 70
     1
102
RTVSPropertyOp16
 70
     1
102
RTVSPropertyOp17
 70
     1
102
RTVSPropertyOp18
 70
     1
102
RTVSPropertyOp19
 70
     1
102
RTVSPropertyOp20
 70
     1
102
RTVSPropertyOp21
 70
     1
102
RTVSPropertyOp22
 70
     1
102
RTVSPropertyOp23
 70
     1
102
RTVSPropertyOp24
 70
     1
102
RTVSPropertyOp25
 70
     1
102
RTVSPropertyOp26
 70
     1
102
RTVSPropertyOp27
 70
     1
102
RTVSPropertyOp28
 70
     1
102
RTVSPropertyOp29
 70
     1
102
RTVSPropertyOp30
 70
     1
102
RTVSPropertyOp31
 70
     1
102
RTVSPropertyOp32
 70
     1
102
RTVSPropertyOp33
 70
     1
102
RTVSPropertyOp34
 70
     1
102
RTVSPropertyOp35
 70
     1
102
RTVSPropertyOp36
 70
     1
102
RTVSPropertyOp37
 70
     1
102
RTVSPropertyOp38
 70
     1
102
RTVSPropertyOp39
 70
     1
102
RTVSPropertyOp40
 70
     1
102
RTVSPropertyOp41
 70
     1
102
RTVSPropertyOp42
 70
     1
102
RTVSPropertyOp43
 70
     1
102
RTVSPropertyOp44
 70
     1
102
RTVSPropertyOp45
 70
     1
102
RTVSPropertyOp46
 70
     1
102
RTVSPropertyOp47
 70
     1
102
RTVSPropertyOp48
 70
     1
102
RTVSPropertyOp49
 70
     1
102
RTVSPropertyOp50
 70
     1
102
RTVSPropertyOp51
 70
     0
102
RTVSPropertyOp52
 70
     0
102
RTVSPropertyOp53
 70
     1
102
RTVSPropertyOp54
 70
     1
102
RTVSPropertyOp55
 70
     1
102
RTVSPropertyOp56
 70
     1
102
RTVSPropertyOp57
 70
     1
102
RTVSPropertyOp58
 70
     1
102
RTVSPropertyOp59
 70
     1
102
RTVSPropertyOp60
 70
     1
102
RTVSPropertyOp61
 70
     1
102
RTVSPropertyOp62
 70
     1
  0
XRECORD
  5
9BE
102
{ACAD_REACTORS
330
9BD
102
}
330
9BD
100
AcDbXrecord
280
     1
102
RTVSPost2010Prop28
280
     0
102
RTVSPost2010PropOp28
 70
     0
102
RTVSPost2010Prop29
280
     1
102
RTVSPost2010PropOp29
 70
     0
102
RTVSPost2010Prop30
280
     1
102
RTVSPost2010PropOp30
 70
     0
102
RTVSPost2010Prop31
280
     0
102
RTVSPost2010PropOp31
 70
     0
102
RTVSPost2010Prop32
280
     0
102
RTVSPost2010PropOp32
 70
     0
102
RTVSPost2010Prop33
280
     0
102
RTVSPost2010PropOp33
 70
     0
102
RTVSPost2010Prop34
280
     0
102
RTVSPost2010PropOp34
 70
     0
102
RTVSPost2010Prop35
280
     0
102
RTVSPost2010PropOp35
 70
     0
102
RTVSPost2010Prop36
280
     0
102
RTVSPost2010PropOp36
 70
     0
102
RTVSPost2010Prop37
 90
       50
102
RTVSPost2010PropOp37
 70
     0
102
RTVSPost2010Prop38
140
0.0
102
RTVSPost2010PropOp38
 70
     0
102
RTVSPost2010Prop39
140
1.0
102
RTVSPost2010PropOp39
 70
     0
102
RTVSPost2010Prop40
 90
        0
102
RTVSPost2010PropOp40
 70
     0
102
RTVSPost2010Prop41ColorIndex
 90
       18
102
RTVSPost2010Prop41ColorRGB
 90
-16777216
102
RTVSPost2010PropOp41
 70
     0
102
RTVSPost2010Prop42
 90
       50
102
RTVSPost2010PropOp42
 70
     0
102
RTVSPost2010Prop43
 90
        3
102
RTVSPost2010PropOp43
 70
     0
102
RTVSPost2010Prop44ColorIndex
 90
        5
102
RTVSPost2010Prop44ColorRGB
 90
      255
102
RTVSPost2010PropOp44
 70
     0
102
RTVSPost2010Prop45
280
     0
102
RTVSPost2010PropOp45
 70
     0
102
RTVSPost2010Prop46
 90
       50
102
RTVSPost2010PropOp46
 70
     0
102
RTVSPost2010Prop47
 90
       50
102
RTVSPost2010PropOp47
 70
     0
102
RTVSPost2010Prop48
 90
       50
102
RTVSPost2010PropOp48
 70
     0
102
RTVSPost2010Prop49
280
     0
102
RTVSPost2010PropOp49
 70
     0
102
RTVSPost2010Prop50
 90
       50
102
RTVSPost2010PropOp50
 70
     0
102
RTVSPost2010Prop51ColorIndex
 90
      256
102
RTVSPost2010Prop51ColorRGB
 90
-16777216
102
RTVSPost2010PropOp51
 70
     0
102
RTVSPost2010Prop52
140
1.0
102
RTVSPost2010PropOp52
 70
     0
102
RTVSPost2010Prop53
 90
        2
102
RTVSPost2010PropOp53
 70
     0
102
RTVSPost2010Prop54
  1
strokes_ogs.tif
102
RTVSPost2010PropOp54
 70
     0
102
RTVSPost2010Prop55
280
     0
102
RTVSPost2010PropOp55
 70
     0
102
RTVSPost2010Prop56
140
1.0
102
RTVSPost2010PropOp56
 70
     0
102
RTVSPost2010Prop57
140
1.0
102
RTVSPost2010PropOp57
 70
     0
102
RTVSPropertyOp0
 70
     0
102
RTVSPropertyOp1
 70
     0
102
RTVSPropertyOp2
 70
     0
102
RTVSPropertyOp3
 70
     0
102
RTVSPropertyOp4
 70
     0
102
RTVSPropertyOp5
 70
     0
102
RTVSPropertyOp6
 70
     0
102
RTVSPropertyOp7
 70
     0
102
RTVSPropertyOp8
 70
     0
102
RTVSPropertyOp9
 70
     0
102
RTVSPropertyOp10
 70
     0
102
RTVSPropertyOp11
 70
     0
102
RTVSPropertyOp12
 70
     0
102
RTVSPropertyOp13
 70
     0
102
RTVSPropertyOp14
 70
     2
102
RTVSPropertyOp15
 70
     0
102
RTVSPropertyOp16
 70
     0
102
RTVSPropertyOp17
 70
     0
102
RTVSPropertyOp18
 70
     0
102
RTVSPropertyOp19
 70
     0
102
RTVSPropertyOp20
 70
     0
102
RTVSPropertyOp21
 70
     0
102
RTVSPropertyOp22
 70
     0
102
RTVSPropertyOp23
 70
     0
102
RTVSPropertyOp24
 70
     0
102
RTVSPropertyOp25
 70
     0
102
RTVSPropertyOp26
 70
     0
102
RTVSPropertyOp27
 70
     0
102
RTVSPropertyOp28
 70
     0
102
RTVSPropertyOp29
 70
     0
102
RTVSPropertyOp30
 70
     0
102
RTVSPropertyOp31
 70
     0
102
RTVSPropertyOp32
 70
     0
102
RTVSPropertyOp33
 70
     0
102
RTVSPropertyOp34
 70
     0
102
RTVSPropertyOp35
 70
     0
102
RTVSPropertyOp36
 70
     0
102
RTVSPropertyOp37
 70
     0
102
RTVSPropertyOp38
 70
     0
102
RTVSPropertyOp39
 70
     0
102
RTVSPropertyOp40
 70
     0
102
RTVSPropertyOp41
 70
     0
102
RTVSPropertyOp42
 70
     0
102
RTVSPropertyOp43
 70
     0
102
RTVSPropertyOp44
 70
     0
102
RTVSPropertyOp45
 70
     0
102
RTVSPropertyOp46
 70
     0
102
RTVSPropertyOp47
 70
     0
102
RTVSPropertyOp48
 70
     0
102
RTVSPropertyOp49
 70
     0
102
RTVSPropertyOp50
 70
     0
102
RTVSPropertyOp51
 70
     0
102
RTVSPropertyOp52
 70
     0
102
RTVSPropertyOp53
 70
     0
102
RTVSPropertyOp54
 70
     0
102
RTVSPropertyOp55
 70
     0
102
RTVSPropertyOp56
 70
     0
102
RTVSPropertyOp57
 70
     0
102
RTVSPropertyOp58
 70
     1
102
RTVSPropertyOp59
 70
     1
102
RTVSPropertyOp60
 70
     1
102
RTVSPropertyOp61
 70
     1
102
RTVSPropertyOp62
 70
     1
  0
XRECORD
  5
9AE
102
{ACAD_REACTORS
330
9AD
102
}
330
9AD
100
AcDbXrecord
280
     1
102
RTVSPost2010Prop28
280
     0
102
RTVSPost2010PropOp28
 70
     1
102
RTVSPost2010Prop29
280
     1
102
RTVSPost2010PropOp29
 70
     1
102
RTVSPost2010Prop30
280
     1
102
RTVSPost2010PropOp30
 70
     1
102
RTVSPost2010Prop31
280
     0
102
RTVSPost2010PropOp31
 70
     1
102
RTVSPost2010Prop32
280
     0
102
RTVSPost2010PropOp32
 70
     1
102
RTVSPost2010Prop33
280
     0
102
RTVSPost2010PropOp33
 70
     1
102
RTVSPost2010Prop34
280
     0
102
RTVSPost2010PropOp34
 70
     1
102
RTVSPost2010Prop35
280
     0
102
RTVSPost2010PropOp35
 70
     1
102
RTVSPost2010Prop36
280
     0
102
RTVSPost2010PropOp36
 70
     1
102
RTVSPost2010Prop37
 90
       50
102
RTVSPost2010PropOp37
 70
     1
102
RTVSPost2010Prop38
140
0.0
102
RTVSPost2010PropOp38
 70
     1
102
RTVSPost2010Prop39
140
1.0
102
RTVSPost2010PropOp39
 70
     1
102
RTVSPost2010Prop40
 90
        0
102
RTVSPost2010PropOp40
 70
     1
102
RTVSPost2010Prop41ColorIndex
 90
       18
102
RTVSPost2010Prop41ColorRGB
 90
-16777216
102
RTVSPost2010PropOp41
 70
     1
102
RTVSPost2010Prop42
 90
       50
102
RTVSPost2010PropOp42
 70
     1
102
RTVSPost2010Prop43
 90
        3
102
RTVSPost2010PropOp43
 70
     1
102
RTVSPost2010Prop44ColorIndex
 90
        5
102
RTVSPost2010Prop44ColorRGB
 90
      255
102
RTVSPost2010PropOp44
 70
     1
102
RTVSPost2010Prop45
280
     0
102
RTVSPost2010PropOp45
 70
     1
102
RTVSPost2010Prop46
 90
       50
102
RTVSPost2010PropOp46
 70
     1
102
RTVSPost2010Prop47
 90
       50
102
RTVSPost2010PropOp47
 70
     1
102
RTVSPost2010Prop48
 90
       50
102
RTVSPost2010PropOp48
 70
     1
102
RTVSPost2010Prop49
280
     0
102
RTVSPost2010PropOp49
 70
     1
102
RTVSPost2010Prop50
 90
       50
102
RTVSPost2010PropOp50
 70
     1
102
RTVSPost2010Prop51ColorIndex
 90
      256
102
RTVSPost2010Prop51ColorRGB
 90
-16777216
102
RTVSPost2010PropOp51
 70
     0
102
RTVSPost2010Prop52
140
1.0
102
RTVSPost2010PropOp52
 70
     0
102
RTVSPost2010Prop53
 90
        2
102
RTVSPost2010PropOp53
 70
     1
102
RTVSPost2010Prop54
  1
strokes_ogs.tif
102
RTVSPost2010PropOp54
 70
     1
102
RTVSPost2010Prop55
280
     0
102
RTVSPost2010PropOp55
 70
     1
102
RTVSPost2010Prop56
140
1.0
102
RTVSPost2010PropOp56
 70
     1
102
RTVSPost2010Prop57
140
1.0
102
RTVSPost2010PropOp57
 70
     1
102
RTVSPropertyOp0
 70
     1
102
RTVSPropertyOp1
 70
     1
102
RTVSPropertyOp2
 70
     1
102
RTVSPropertyOp3
 70
     1
102
RTVSPropertyOp4
 70
     1
102
RTVSPropertyOp5
 70
     1
102
RTVSPropertyOp6
 70
     1
102
RTVSPropertyOp7
 70
     1
102
RTVSPropertyOp8
 70
     1
102
RTVSPropertyOp9
 70
     1
102
RTVSPropertyOp10
 70
     1
102
RTVSPropertyOp11
 70
     1
102
RTVSPropertyOp12
 70
     1
102
RTVSPropertyOp13
 70
     1
102
RTVSPropertyOp14
 70
     1
102
RTVSPropertyOp15
 70
     1
102
RTVSPropertyOp16
 70
     1
102
RTVSPropertyOp17
 70
     1
102
RTVSPropertyOp18
 70
     1
102
RTVSPropertyOp19
 70
     1
102
RTVSPropertyOp20
 70
     1
102
RTVSPropertyOp21
 70
     1
102
RTVSPropertyOp22
 70
     1
102
RTVSPropertyOp23
 70
     1
102
RTVSPropertyOp24
 70
     1
102
RTVSPropertyOp25
 70
     1
102
RTVSPropertyOp26
 70
     1
102
RTVSPropertyOp27
 70
     1
102
RTVSPropertyOp28
 70
     1
102
RTVSPropertyOp29
 70
     1
102
RTVSPropertyOp30
 70
     1
102
RTVSPropertyOp31
 70
     1
102
RTVSPropertyOp32
 70
     1
102
RTVSPropertyOp33
 70
     1
102
RTVSPropertyOp34
 70
     1
102
RTVSPropertyOp35
 70
     1
102
RTVSPropertyOp36
 70
     1
102
RTVSPropertyOp37
 70
     1
102
RTVSPropertyOp38
 70
     1
102
RTVSPropertyOp39
 70
     1
102
RTVSPropertyOp40
 70
     1
102
RTVSPropertyOp41
 70
     1
102
RTVSPropertyOp42
 70
     1
102
RTVSPropertyOp43
 70
     1
102
RTVSPropertyOp44
 70
     1
102
RTVSPropertyOp45
 70
     1
102
RTVSPropertyOp46
 70
     1
102
RTVSPropertyOp47
 70
     1
102
RTVSPropertyOp48
 70
     1
102
RTVSPropertyOp49
 70
     1
102
RTVSPropertyOp50
 70
     1
102
RTVSPropertyOp51
 70
     0
102
RTVSPropertyOp52
 70
     0
102
RTVSPropertyOp53
 70
     1
102
RTVSPropertyOp54
 70
     1
102
RTVSPropertyOp55
 70
     1
102
RTVSPropertyOp56
 70
     1
102
RTVSPropertyOp57
 70
     1
102
RTVSPropertyOp58
 70
     1
102
RTVSPropertyOp59
 70
     1
102
RTVSPropertyOp60
 70
     1
102
RTVSPropertyOp61
 70
     1
102
RTVSPropertyOp62
 70
     1
  0
XRECORD
  5
9C0
102
{ACAD_REACTORS
330
9BF
102
}
330
9BF
100
AcDbXrecord
280
     1
102
RTVSPost2010Prop28
280
     0
102
RTVSPost2010PropOp28
 70
     0
102
RTVSPost2010Prop29
280
     1
102
RTVSPost2010PropOp29
 70
     0
102
RTVSPost2010Prop30
280
     1
102
RTVSPost2010PropOp30
 70
     0
102
RTVSPost2010Prop31
280
     0
102
RTVSPost2010PropOp31
 70
     0
102
RTVSPost2010Prop32
280
     0
102
RTVSPost2010PropOp32
 70
     0
102
RTVSPost2010Prop33
280
     0
102
RTVSPost2010PropOp33
 70
     0
102
RTVSPost2010Prop34
280
     0
102
RTVSPost2010PropOp34
 70
     0
102
RTVSPost2010Prop35
280
     0
102
RTVSPost2010PropOp35
 70
     0
102
RTVSPost2010Prop36
280
     0
102
RTVSPost2010PropOp36
 70
     0
102
RTVSPost2010Prop37
 90
       50
102
RTVSPost2010PropOp37
 70
     0
102
RTVSPost2010Prop38
140
0.0
102
RTVSPost2010PropOp38
 70
     0
102
RTVSPost2010Prop39
140
1.0
102
RTVSPost2010PropOp39
 70
     0
102
RTVSPost2010Prop40
 90
        0
102
RTVSPost2010PropOp40
 70
     0
102
RTVSPost2010Prop41ColorIndex
 90
       18
102
RTVSPost2010Prop41ColorRGB
 90
-16777216
102
RTVSPost2010PropOp41
 70
     0
102
RTVSPost2010Prop42
 90
       50
102
RTVSPost2010PropOp42
 70
     0
102
RTVSPost2010Prop43
 90
        3
102
RTVSPost2010PropOp43
 70
     0
102
RTVSPost2010Prop44ColorIndex
 90
        5
102
RTVSPost2010Prop44ColorRGB
 90
      255
102
RTVSPost2010PropOp44
 70
     0
102
RTVSPost2010Prop45
280
     0
102
RTVSPost2010PropOp45
 70
     0
102
RTVSPost2010Prop46
 90
       50
102
RTVSPost2010PropOp46
 70
     0
102
RTVSPost2010Prop47
 90
       50
102
RTVSPost2010PropOp47
 70
     0
102
RTVSPost2010Prop48
 90
       50
102
RTVSPost2010PropOp48
 70
     0
102
RTVSPost2010Prop49
280
     0
102
RTVSPost2010PropOp49
 70
     0
102
RTVSPost2010Prop50
 90
       50
102
RTVSPost2010PropOp50
 70
     0
102
RTVSPost2010Prop51ColorIndex
 90
      256
102
RTVSPost2010Prop51ColorRGB
 90
-16777216
102
RTVSPost2010PropOp51
 70
     0
102
RTVSPost2010Prop52
140
1.0
102
RTVSPost2010PropOp52
 70
     0
102
RTVSPost2010Prop53
 90
        2
102
RTVSPost2010PropOp53
 70
     0
102
RTVSPost2010Prop54
  1
strokes_ogs.tif
102
RTVSPost2010PropOp54
 70
     0
102
RTVSPost2010Prop55
280
     0
102
RTVSPost2010PropOp55
 70
     0
102
RTVSPost2010Prop56
140
1.0
102
RTVSPost2010PropOp56
 70
     0
102
RTVSPost2010Prop57
140
1.0
102
RTVSPost2010PropOp57
 70
     0
102
RTVSPropertyOp0
 70
     0
102
RTVSPropertyOp1
 70
     0
102
RTVSPropertyOp2
 70
     0
102
RTVSPropertyOp3
 70
     0
102
RTVSPropertyOp4
 70
     0
102
RTVSPropertyOp5
 70
     0
102
RTVSPropertyOp6
 70
     0
102
RTVSPropertyOp7
 70
     0
102
RTVSPropertyOp8
 70
     0
102
RTVSPropertyOp9
 70
     0
102
RTVSPropertyOp10
 70
     0
102
RTVSPropertyOp11
 70
     0
102
RTVSPropertyOp12
 70
     0
102
RTVSPropertyOp13
 70
     0
102
RTVSPropertyOp14
 70
     2
102
RTVSPropertyOp15
 70
     0
102
RTVSPropertyOp16
 70
     0
102
RTVSPropertyOp17
 70
     0
102
RTVSPropertyOp18
 70
     0
102
RTVSPropertyOp19
 70
     0
102
RTVSPropertyOp20
 70
     0
102
RTVSPropertyOp21
 70
     0
102
RTVSPropertyOp22
 70
     0
102
RTVSPropertyOp23
 70
     0
102
RTVSPropertyOp24
 70
     0
102
RTVSPropertyOp25
 70
     0
102
RTVSPropertyOp26
 70
     0
102
RTVSPropertyOp27
 70
     0
102
RTVSPropertyOp28
 70
     0
102
RTVSPropertyOp29
 70
     0
102
RTVSPropertyOp30
 70
     0
102
RTVSPropertyOp31
 70
     0
102
RTVSPropertyOp32
 70
     0
102
RTVSPropertyOp33
 70
     0
102
RTVSPropertyOp34
 70
     0
102
RTVSPropertyOp35
 70
     0
102
RTVSPropertyOp36
 70
     0
102
RTVSPropertyOp37
 70
     0
102
RTVSPropertyOp38
 70
     0
102
RTVSPropertyOp39
 70
     0
102
RTVSPropertyOp40
 70
     0
102
RTVSPropertyOp41
 70
     0
102
RTVSPropertyOp42
 70
     0
102
RTVSPropertyOp43
 70
     0
102
RTVSPropertyOp44
 70
     0
102
RTVSPropertyOp45
 70
     0
102
RTVSPropertyOp46
 70
     0
102
RTVSPropertyOp47
 70
     0
102
RTVSPropertyOp48
 70
     0
102
RTVSPropertyOp49
 70
     0
102
RTVSPropertyOp50
 70
     0
102
RTVSPropertyOp51
 70
     0
102
RTVSPropertyOp52
 70
     0
102
RTVSPropertyOp53
 70
     0
102
RTVSPropertyOp54
 70
     0
102
RTVSPropertyOp55
 70
     0
102
RTVSPropertyOp56
 70
     0
102
RTVSPropertyOp57
 70
     0
102
RTVSPropertyOp58
 70
     1
102
RTVSPropertyOp59
 70
     1
102
RTVSPropertyOp60
 70
     1
102
RTVSPropertyOp61
 70
     1
102
RTVSPropertyOp62
 70
     1
  0
XRECORD
  5
9A6
102
{ACAD_REACTORS
330
9A5
102
}
330
9A5
100
AcDbXrecord
280
     1
102
RTVSPost2010Prop28
280
     0
102
RTVSPost2010PropOp28
 70
     1
102
RTVSPost2010Prop29
280
     1
102
RTVSPost2010PropOp29
 70
     1
102
RTVSPost2010Prop30
280
     1
102
RTVSPost2010PropOp30
 70
     1
102
RTVSPost2010Prop31
280
     0
102
RTVSPost2010PropOp31
 70
     1
102
RTVSPost2010Prop32
280
     0
102
RTVSPost2010PropOp32
 70
     1
102
RTVSPost2010Prop33
280
     0
102
RTVSPost2010PropOp33
 70
     1
102
RTVSPost2010Prop34
280
     0
102
RTVSPost2010PropOp34
 70
     1
102
RTVSPost2010Prop35
280
     0
102
RTVSPost2010PropOp35
 70
     1
102
RTVSPost2010Prop36
280
     0
102
RTVSPost2010PropOp36
 70
     1
102
RTVSPost2010Prop37
 90
       50
102
RTVSPost2010PropOp37
 70
     1
102
RTVSPost2010Prop38
140
0.0
102
RTVSPost2010PropOp38
 70
     1
102
RTVSPost2010Prop39
140
1.0
102
RTVSPost2010PropOp39
 70
     1
102
RTVSPost2010Prop40
 90
        0
102
RTVSPost2010PropOp40
 70
     1
102
RTVSPost2010Prop41ColorIndex
 90
       18
102
RTVSPost2010Prop41ColorRGB
 90
-16777216
102
RTVSPost2010PropOp41
 70
     1
102
RTVSPost2010Prop42
 90
       50
102
RTVSPost2010PropOp42
 70
     1
102
RTVSPost2010Prop43
 90
        3
102
RTVSPost2010PropOp43
 70
     1
102
RTVSPost2010Prop44ColorIndex
 90
        5
102
RTVSPost2010Prop44ColorRGB
 90
      255
102
RTVSPost2010PropOp44
 70
     1
102
RTVSPost2010Prop45
280
     0
102
RTVSPost2010PropOp45
 70
     1
102
RTVSPost2010Prop46
 90
       50
102
RTVSPost2010PropOp46
 70
     1
102
RTVSPost2010Prop47
 90
       50
102
RTVSPost2010PropOp47
 70
     1
102
RTVSPost2010Prop48
 90
       50
102
RTVSPost2010PropOp48
 70
     1
102
RTVSPost2010Prop49
280
     0
102
RTVSPost2010PropOp49
 70
     1
102
RTVSPost2010Prop50
 90
       50
102
RTVSPost2010PropOp50
 70
     1
102
RTVSPost2010Prop51ColorIndex
 90
      256
102
RTVSPost2010Prop51ColorRGB
 90
-16777216
102
RTVSPost2010PropOp51
 70
     0
102
RTVSPost2010Prop52
140
1.0
102
RTVSPost2010PropOp52
 70
     0
102
RTVSPost2010Prop53
 90
        2
102
RTVSPost2010PropOp53
 70
     1
102
RTVSPost2010Prop54
  1
strokes_ogs.tif
102
RTVSPost2010PropOp54
 70
     1
102
RTVSPost2010Prop55
280
     0
102
RTVSPost2010PropOp55
 70
     1
102
RTVSPost2010Prop56
140
1.0
102
RTVSPost2010PropOp56
 70
     1
102
RTVSPost2010Prop57
140
1.0
102
RTVSPost2010PropOp57
 70
     1
102
RTVSPropertyOp0
 70
     1
102
RTVSPropertyOp1
 70
     1
102
RTVSPropertyOp2
 70
     1
102
RTVSPropertyOp3
 70
     1
102
RTVSPropertyOp4
 70
     1
102
RTVSPropertyOp5
 70
     1
102
RTVSPropertyOp6
 70
     1
102
RTVSPropertyOp7
 70
     1
102
RTVSPropertyOp8
 70
     1
102
RTVSPropertyOp9
 70
     1
102
RTVSPropertyOp10
 70
     1
102
RTVSPropertyOp11
 70
     1
102
RTVSPropertyOp12
 70
     1
102
RTVSPropertyOp13
 70
     1
102
RTVSPropertyOp14
 70
     1
102
RTVSPropertyOp15
 70
     1
102
RTVSPropertyOp16
 70
     1
102
RTVSPropertyOp17
 70
     1
102
RTVSPropertyOp18
 70
     1
102
RTVSPropertyOp19
 70
     1
102
RTVSPropertyOp20
 70
     1
102
RTVSPropertyOp21
 70
     1
102
RTVSPropertyOp22
 70
     1
102
RTVSPropertyOp23
 70
     1
102
RTVSPropertyOp24
 70
     1
102
RTVSPropertyOp25
 70
     1
102
RTVSPropertyOp26
 70
     1
102
RTVSPropertyOp27
 70
     1
102
RTVSPropertyOp28
 70
     1
102
RTVSPropertyOp29
 70
     1
102
RTVSPropertyOp30
 70
     1
102
RTVSPropertyOp31
 70
     1
102
RTVSPropertyOp32
 70
     1
102
RTVSPropertyOp33
 70
     1
102
RTVSPropertyOp34
 70
     1
102
RTVSPropertyOp35
 70
     1
102
RTVSPropertyOp36
 70
     1
102
RTVSPropertyOp37
 70
     1
102
RTVSPropertyOp38
 70
     1
102
RTVSPropertyOp39
 70
     1
102
RTVSPropertyOp40
 70
     1
102
RTVSPropertyOp41
 70
     1
102
RTVSPropertyOp42
 70
     1
102
RTVSPropertyOp43
 70
     1
102
RTVSPropertyOp44
 70
     1
102
RTVSPropertyOp45
 70
     1
102
RTVSPropertyOp46
 70
     1
102
RTVSPropertyOp47
 70
     1
102
RTVSPropertyOp48
 70
     1
102
RTVSPropertyOp49
 70
     1
102
RTVSPropertyOp50
 70
     1
102
RTVSPropertyOp51
 70
     0
102
RTVSPropertyOp52
 70
     0
102
RTVSPropertyOp53
 70
     1
102
RTVSPropertyOp54
 70
     1
102
RTVSPropertyOp55
 70
     1
102
RTVSPropertyOp56
 70
     1
102
RTVSPropertyOp57
 70
     1
102
RTVSPropertyOp58
 70
     1
102
RTVSPropertyOp59
 70
     1
102
RTVSPropertyOp60
 70
     1
102
RTVSPropertyOp61
 70
     1
102
RTVSPropertyOp62
 70
     1
  0
XRECORD
  5
9BC
102
{ACAD_REACTORS
330
9BB
102
}
330
9BB
100
AcDbXrecord
280
     1
102
RTVSPost2010Prop28
280
     0
102
RTVSPost2010PropOp28
 70
     1
102
RTVSPost2010Prop29
280
     1
102
RTVSPost2010PropOp29
 70
     1
102
RTVSPost2010Prop30
280
     1
102
RTVSPost2010PropOp30
 70
     1
102
RTVSPost2010Prop31
280
     0
102
RTVSPost2010PropOp31
 70
     1
102
RTVSPost2010Prop32
280
     0
102
RTVSPost2010PropOp32
 70
     1
102
RTVSPost2010Prop33
280
     0
102
RTVSPost2010PropOp33
 70
     1
102
RTVSPost2010Prop34
280
     0
102
RTVSPost2010PropOp34
 70
     1
102
RTVSPost2010Prop35
280
     0
102
RTVSPost2010PropOp35
 70
     1
102
RTVSPost2010Prop36
280
     0
102
RTVSPost2010PropOp36
 70
     1
102
RTVSPost2010Prop37
 90
       50
102
RTVSPost2010PropOp37
 70
     1
102
RTVSPost2010Prop38
140
0.0
102
RTVSPost2010PropOp38
 70
     1
102
RTVSPost2010Prop39
140
1.0
102
RTVSPost2010PropOp39
 70
     1
102
RTVSPost2010Prop40
 90
        0
102
RTVSPost2010PropOp40
 70
     1
102
RTVSPost2010Prop41ColorIndex
 90
       18
102
RTVSPost2010Prop41ColorRGB
 90
-16777216
102
RTVSPost2010PropOp41
 70
     1
102
RTVSPost2010Prop42
 90
       50
102
RTVSPost2010PropOp42
 70
     1
102
RTVSPost2010Prop43
 90
        3
102
RTVSPost2010PropOp43
 70
     1
102
RTVSPost2010Prop44ColorIndex
 90
        5
102
RTVSPost2010Prop44ColorRGB
 90
      255
102
RTVSPost2010PropOp44
 70
     1
102
RTVSPost2010Prop45
280
     0
102
RTVSPost2010PropOp45
 70
     1
102
RTVSPost2010Prop46
 90
       50
102
RTVSPost2010PropOp46
 70
     1
102
RTVSPost2010Prop47
 90
       50
102
RTVSPost2010PropOp47
 70
     1
102
RTVSPost2010Prop48
 90
       50
102
RTVSPost2010PropOp48
 70
     1
102
RTVSPost2010Prop49
280
     0
102
RTVSPost2010PropOp49
 70
     1
102
RTVSPost2010Prop50
 90
       50
102
RTVSPost2010PropOp50
 70
     1
102
RTVSPost2010Prop51ColorIndex
 90
      256
102
RTVSPost2010Prop51ColorRGB
 90
-16777216
102
RTVSPost2010PropOp51
 70
     0
102
RTVSPost2010Prop52
140
1.0
102
RTVSPost2010PropOp52
 70
     0
102
RTVSPost2010Prop53
 90
        2
102
RTVSPost2010PropOp53
 70
     1
102
RTVSPost2010Prop54
  1
strokes_ogs.tif
102
RTVSPost2010PropOp54
 70
     1
102
RTVSPost2010Prop55
280
     0
102
RTVSPost2010PropOp55
 70
     1
102
RTVSPost2010Prop56
140
1.0
102
RTVSPost2010PropOp56
 70
     1
102
RTVSPost2010Prop57
140
1.0
102
RTVSPost2010PropOp57
 70
     1
102
RTVSPropertyOp0
 70
     1
102
RTVSPropertyOp1
 70
     1
102
RTVSPropertyOp2
 70
     1
102
RTVSPropertyOp3
 70
     1
102
RTVSPropertyOp4
 70
     1
102
RTVSPropertyOp5
 70
     1
102
RTVSPropertyOp6
 70
     1
102
RTVSPropertyOp7
 70
     1
102
RTVSPropertyOp8
 70
     1
102
RTVSPropertyOp9
 70
     1
102
RTVSPropertyOp10
 70
     1
102
RTVSPropertyOp11
 70
     1
102
RTVSPropertyOp12
 70
     1
102
RTVSPropertyOp13
 70
     1
102
RTVSPropertyOp14
 70
     1
102
RTVSPropertyOp15
 70
     1
102
RTVSPropertyOp16
 70
     1
102
RTVSPropertyOp17
 70
     1
102
RTVSPropertyOp18
 70
     1
102
RTVSPropertyOp19
 70
     1
102
RTVSPropertyOp20
 70
     1
102
RTVSPropertyOp21
 70
     1
102
RTVSPropertyOp22
 70
     1
102
RTVSPropertyOp23
 70
     1
102
RTVSPropertyOp24
 70
     1
102
RTVSPropertyOp25
 70
     1
102
RTVSPropertyOp26
 70
     1
102
RTVSPropertyOp27
 70
     1
102
RTVSPropertyOp28
 70
     1
102
RTVSPropertyOp29
 70
     1
102
RTVSPropertyOp30
 70
     1
102
RTVSPropertyOp31
 70
     1
102
RTVSPropertyOp32
 70
     1
102
RTVSPropertyOp33
 70
     1
102
RTVSPropertyOp34
 70
     1
102
RTVSPropertyOp35
 70
     1
102
RTVSPropertyOp36
 70
     1
102
RTVSPropertyOp37
 70
     1
102
RTVSPropertyOp38
 70
     1
102
RTVSPropertyOp39
 70
     1
102
RTVSPropertyOp40
 70
     1
102
RTVSPropertyOp41
 70
     1
102
RTVSPropertyOp42
 70
     1
102
RTVSPropertyOp43
 70
     1
102
RTVSPropertyOp44
 70
     1
102
RTVSPropertyOp45
 70
     1
102
RTVSPropertyOp46
 70
     1
102
RTVSPropertyOp47
 70
     1
102
RTVSPropertyOp48
 70
     1
102
RTVSPropertyOp49
 70
     1
102
RTVSPropertyOp50
 70
     1
102
RTVSPropertyOp51
 70
     0
102
RTVSPropertyOp52
 70
     0
102
RTVSPropertyOp53
 70
     1
102
RTVSPropertyOp54
 70
     1
102
RTVSPropertyOp55
 70
     1
102
RTVSPropertyOp56
 70
     1
102
RTVSPropertyOp57
 70
     1
102
RTVSPropertyOp58
 70
     1
102
RTVSPropertyOp59
 70
     1
102
RTVSPropertyOp60
 70
     1
102
RTVSPropertyOp61
 70
     1
102
RTVSPropertyOp62
 70
     1
  0
XRECORD
  5
9BA
102
{ACAD_REACTORS
330
9B9
102
}
330
9B9
100
AcDbXrecord
280
     1
102
RTVSPost2010Prop28
280
     0
102
RTVSPost2010PropOp28
 70
     1
102
RTVSPost2010Prop29
280
     1
102
RTVSPost2010PropOp29
 70
     1
102
RTVSPost2010Prop30
280
     1
102
RTVSPost2010PropOp30
 70
     1
102
RTVSPost2010Prop31
280
     0
102
RTVSPost2010PropOp31
 70
     1
102
RTVSPost2010Prop32
280
     0
102
RTVSPost2010PropOp32
 70
     1
102
RTVSPost2010Prop33
280
     0
102
RTVSPost2010PropOp33
 70
     1
102
RTVSPost2010Prop34
280
     0
102
RTVSPost2010PropOp34
 70
     1
102
RTVSPost2010Prop35
280
     0
102
RTVSPost2010PropOp35
 70
     1
102
RTVSPost2010Prop36
280
     0
102
RTVSPost2010PropOp36
 70
     1
102
RTVSPost2010Prop37
 90
       50
102
RTVSPost2010PropOp37
 70
     1
102
RTVSPost2010Prop38
140
0.0
102
RTVSPost2010PropOp38
 70
     1
102
RTVSPost2010Prop39
140
1.0
102
RTVSPost2010PropOp39
 70
     1
102
RTVSPost2010Prop40
 90
        0
102
RTVSPost2010PropOp40
 70
     1
102
RTVSPost2010Prop41ColorIndex
 90
       18
102
RTVSPost2010Prop41ColorRGB
 90
-16777216
102
RTVSPost2010PropOp41
 70
     1
102
RTVSPost2010Prop42
 90
       50
102
RTVSPost2010PropOp42
 70
     1
102
RTVSPost2010Prop43
 90
        3
102
RTVSPost2010PropOp43
 70
     1
102
RTVSPost2010Prop44ColorIndex
 90
        5
102
RTVSPost2010Prop44ColorRGB
 90
      255
102
RTVSPost2010PropOp44
 70
     1
102
RTVSPost2010Prop45
280
     0
102
RTVSPost2010PropOp45
 70
     1
102
RTVSPost2010Prop46
 90
       50
102
RTVSPost2010PropOp46
 70
     1
102
RTVSPost2010Prop47
 90
       50
102
RTVSPost2010PropOp47
 70
     1
102
RTVSPost2010Prop48
 90
       50
102
RTVSPost2010PropOp48
 70
     1
102
RTVSPost2010Prop49
280
     0
102
RTVSPost2010PropOp49
 70
     1
102
RTVSPost2010Prop50
 90
       50
102
RTVSPost2010PropOp50
 70
     1
102
RTVSPost2010Prop51ColorIndex
 90
      256
102
RTVSPost2010Prop51ColorRGB
 90
-16777216
102
RTVSPost2010PropOp51
 70
     0
102
RTVSPost2010Prop52
140
1.0
102
RTVSPost2010PropOp52
 70
     0
102
RTVSPost2010Prop53
 90
        2
102
RTVSPost2010PropOp53
 70
     1
102
RTVSPost2010Prop54
  1
strokes_ogs.tif
102
RTVSPost2010PropOp54
 70
     1
102
RTVSPost2010Prop55
280
     0
102
RTVSPost2010PropOp55
 70
     1
102
RTVSPost2010Prop56
140
1.0
102
RTVSPost2010PropOp56
 70
     1
102
RTVSPost2010Prop57
140
1.0
102
RTVSPost2010PropOp57
 70
     1
102
RTVSPropertyOp0
 70
     1
102
RTVSPropertyOp1
 70
     1
102
RTVSPropertyOp2
 70
     1
102
RTVSPropertyOp3
 70
     1
102
RTVSPropertyOp4
 70
     1
102
RTVSPropertyOp5
 70
     1
102
RTVSPropertyOp6
 70
     1
102
RTVSPropertyOp7
 70
     1
102
RTVSPropertyOp8
 70
     1
102
RTVSPropertyOp9
 70
     1
102
RTVSPropertyOp10
 70
     1
102
RTVSPropertyOp11
 70
     1
102
RTVSPropertyOp12
 70
     1
102
RTVSPropertyOp13
 70
     1
102
RTVSPropertyOp14
 70
     1
102
RTVSPropertyOp15
 70
     1
102
RTVSPropertyOp16
 70
     1
102
RTVSPropertyOp17
 70
     1
102
RTVSPropertyOp18
 70
     1
102
RTVSPropertyOp19
 70
     1
102
RTVSPropertyOp20
 70
     1
102
RTVSPropertyOp21
 70
     1
102
RTVSPropertyOp22
 70
     1
102
RTVSPropertyOp23
 70
     1
102
RTVSPropertyOp24
 70
     1
102
RTVSPropertyOp25
 70
     1
102
RTVSPropertyOp26
 70
     1
102
RTVSPropertyOp27
 70
     1
102
RTVSPropertyOp28
 70
     1
102
RTVSPropertyOp29
 70
     1
102
RTVSPropertyOp30
 70
     1
102
RTVSPropertyOp31
 70
     1
102
RTVSPropertyOp32
 70
     1
102
RTVSPropertyOp33
 70
     1
102
RTVSPropertyOp34
 70
     1
102
RTVSPropertyOp35
 70
     1
102
RTVSPropertyOp36
 70
     1
102
RTVSPropertyOp37
 70
     1
102
RTVSPropertyOp38
 70
     1
102
RTVSPropertyOp39
 70
     1
102
RTVSPropertyOp40
 70
     1
102
RTVSPropertyOp41
 70
     1
102
RTVSPropertyOp42
 70
     1
102
RTVSPropertyOp43
 70
     1
102
RTVSPropertyOp44
 70
     1
102
RTVSPropertyOp45
 70
     1
102
RTVSPropertyOp46
 70
     1
102
RTVSPropertyOp47
 70
     1
102
RTVSPropertyOp48
 70
     1
102
RTVSPropertyOp49
 70
     1
102
RTVSPropertyOp50
 70
     1
102
RTVSPropertyOp51
 70
     0
102
RTVSPropertyOp52
 70
     0
102
RTVSPropertyOp53
 70
     1
102
RTVSPropertyOp54
 70
     1
102
RTVSPropertyOp55
 70
     1
102
RTVSPropertyOp56
 70
     1
102
RTVSPropertyOp57
 70
     1
102
RTVSPropertyOp58
 70
     1
102
RTVSPropertyOp59
 70
     1
102
RTVSPropertyOp60
 70
     1
102
RTVSPropertyOp61
 70
     1
102
RTVSPropertyOp62
 70
     1
  0
XRECORD
  5
9B4
102
{ACAD_REACTORS
330
9B3
102
}
330
9B3
100
AcDbXrecord
280
     1
102
RTVSPost2010Prop28
280
     0
102
RTVSPost2010PropOp28
 70
     1
102
RTVSPost2010Prop29
280
     1
102
RTVSPost2010PropOp29
 70
     1
102
RTVSPost2010Prop30
280
     1
102
RTVSPost2010PropOp30
 70
     1
102
RTVSPost2010Prop31
280
     0
102
RTVSPost2010PropOp31
 70
     1
102
RTVSPost2010Prop32
280
     0
102
RTVSPost2010PropOp32
 70
     1
102
RTVSPost2010Prop33
280
     0
102
RTVSPost2010PropOp33
 70
     1
102
RTVSPost2010Prop34
280
     0
102
RTVSPost2010PropOp34
 70
     1
102
RTVSPost2010Prop35
280
     0
102
RTVSPost2010PropOp35
 70
     1
102
RTVSPost2010Prop36
280
     0
102
RTVSPost2010PropOp36
 70
     1
102
RTVSPost2010Prop37
 90
       50
102
RTVSPost2010PropOp37
 70
     1
102
RTVSPost2010Prop38
140
0.0
102
RTVSPost2010PropOp38
 70
     1
102
RTVSPost2010Prop39
140
1.0
102
RTVSPost2010PropOp39
 70
     1
102
RTVSPost2010Prop40
 90
        0
102
RTVSPost2010PropOp40
 70
     1
102
RTVSPost2010Prop41ColorIndex
 90
       18
102
RTVSPost2010Prop41ColorRGB
 90
-16777216
102
RTVSPost2010PropOp41
 70
     1
102
RTVSPost2010Prop42
 90
       50
102
RTVSPost2010PropOp42
 70
     1
102
RTVSPost2010Prop43
 90
        3
102
RTVSPost2010PropOp43
 70
     1
102
RTVSPost2010Prop44ColorIndex
 90
        5
102
RTVSPost2010Prop44ColorRGB
 90
      255
102
RTVSPost2010PropOp44
 70
     1
102
RTVSPost2010Prop45
280
     0
102
RTVSPost2010PropOp45
 70
     1
102
RTVSPost2010Prop46
 90
       50
102
RTVSPost2010PropOp46
 70
     1
102
RTVSPost2010Prop47
 90
       50
102
RTVSPost2010PropOp47
 70
     1
102
RTVSPost2010Prop48
 90
       50
102
RTVSPost2010PropOp48
 70
     1
102
RTVSPost2010Prop49
280
     0
102
RTVSPost2010PropOp49
 70
     1
102
RTVSPost2010Prop50
 90
       50
102
RTVSPost2010PropOp50
 70
     1
102
RTVSPost2010Prop51ColorIndex
 90
      256
102
RTVSPost2010Prop51ColorRGB
 90
-16777216
102
RTVSPost2010PropOp51
 70
     0
102
RTVSPost2010Prop52
140
1.0
102
RTVSPost2010PropOp52
 70
     0
102
RTVSPost2010Prop53
 90
        2
102
RTVSPost2010PropOp53
 70
     1
102
RTVSPost2010Prop54
  1
strokes_ogs.tif
102
RTVSPost2010PropOp54
 70
     1
102
RTVSPost2010Prop55
280
     0
102
RTVSPost2010PropOp55
 70
     1
102
RTVSPost2010Prop56
140
1.0
102
RTVSPost2010PropOp56
 70
     1
102
RTVSPost2010Prop57
140
1.0
102
RTVSPost2010PropOp57
 70
     1
102
RTVSPropertyOp0
 70
     1
102
RTVSPropertyOp1
 70
     1
102
RTVSPropertyOp2
 70
     1
102
RTVSPropertyOp3
 70
     1
102
RTVSPropertyOp4
 70
     1
102
RTVSPropertyOp5
 70
     1
102
RTVSPropertyOp6
 70
     1
102
RTVSPropertyOp7
 70
     1
102
RTVSPropertyOp8
 70
     1
102
RTVSPropertyOp9
 70
     1
102
RTVSPropertyOp10
 70
     1
102
RTVSPropertyOp11
 70
     1
102
RTVSPropertyOp12
 70
     1
102
RTVSPropertyOp13
 70
     1
102
RTVSPropertyOp14
 70
     1
102
RTVSPropertyOp15
 70
     1
102
RTVSPropertyOp16
 70
     1
102
RTVSPropertyOp17
 70
     1
102
RTVSPropertyOp18
 70
     1
102
RTVSPropertyOp19
 70
     1
102
RTVSPropertyOp20
 70
     1
102
RTVSPropertyOp21
 70
     1
102
RTVSPropertyOp22
 70
     1
102
RTVSPropertyOp23
 70
     1
102
RTVSPropertyOp24
 70
     1
102
RTVSPropertyOp25
 70
     1
102
RTVSPropertyOp26
 70
     1
102
RTVSPropertyOp27
 70
     1
102
RTVSPropertyOp28
 70
     1
102
RTVSPropertyOp29
 70
     1
102
RTVSPropertyOp30
 70
     1
102
RTVSPropertyOp31
 70
     1
102
RTVSPropertyOp32
 70
     1
102
RTVSPropertyOp33
 70
     1
102
RTVSPropertyOp34
 70
     1
102
RTVSPropertyOp35
 70
     1
102
RTVSPropertyOp36
 70
     1
102
RTVSPropertyOp37
 70
     1
102
RTVSPropertyOp38
 70
     1
102
RTVSPropertyOp39
 70
     1
102
RTVSPropertyOp40
 70
     1
102
RTVSPropertyOp41
 70
     1
102
RTVSPropertyOp42
 70
     1
102
RTVSPropertyOp43
 70
     1
102
RTVSPropertyOp44
 70
     1
102
RTVSPropertyOp45
 70
     1
102
RTVSPropertyOp46
 70
     1
102
RTVSPropertyOp47
 70
     1
102
RTVSPropertyOp48
 70
     1
102
RTVSPropertyOp49
 70
     1
102
RTVSPropertyOp50
 70
     1
102
RTVSPropertyOp51
 70
     0
102
RTVSPropertyOp52
 70
     0
102
RTVSPropertyOp53
 70
     1
102
RTVSPropertyOp54
 70
     1
102
RTVSPropertyOp55
 70
     1
102
RTVSPropertyOp56
 70
     1
102
RTVSPropertyOp57
 70
     1
102
RTVSPropertyOp58
 70
     1
102
RTVSPropertyOp59
 70
     1
102
RTVSPropertyOp60
 70
     1
102
RTVSPropertyOp61
 70
     1
102
RTVSPropertyOp62
 70
     1
  0
XRECORD
  5
9B6
102
{ACAD_REACTORS
330
9B5
102
}
330
9B5
100
AcDbXrecord
280
     1
102
RTVSPost2010Prop28
280
     0
102
RTVSPost2010PropOp28
 70
     1
102
RTVSPost2010Prop29
280
     1
102
RTVSPost2010PropOp29
 70
     1
102
RTVSPost2010Prop30
280
     1
102
RTVSPost2010PropOp30
 70
     1
102
RTVSPost2010Prop31
280
     0
102
RTVSPost2010PropOp31
 70
     1
102
RTVSPost2010Prop32
280
     0
102
RTVSPost2010PropOp32
 70
     1
102
RTVSPost2010Prop33
280
     0
102
RTVSPost2010PropOp33
 70
     1
102
RTVSPost2010Prop34
280
     0
102
RTVSPost2010PropOp34
 70
     1
102
RTVSPost2010Prop35
280
     0
102
RTVSPost2010PropOp35
 70
     1
102
RTVSPost2010Prop36
280
     0
102
RTVSPost2010PropOp36
 70
     1
102
RTVSPost2010Prop37
 90
       50
102
RTVSPost2010PropOp37
 70
     1
102
RTVSPost2010Prop38
140
0.0
102
RTVSPost2010PropOp38
 70
     1
102
RTVSPost2010Prop39
140
1.0
102
RTVSPost2010PropOp39
 70
     1
102
RTVSPost2010Prop40
 90
        0
102
RTVSPost2010PropOp40
 70
     1
102
RTVSPost2010Prop41ColorIndex
 90
       18
102
RTVSPost2010Prop41ColorRGB
 90
-16777216
102
RTVSPost2010PropOp41
 70
     1
102
RTVSPost2010Prop42
 90
       50
102
RTVSPost2010PropOp42
 70
     1
102
RTVSPost2010Prop43
 90
        3
102
RTVSPost2010PropOp43
 70
     1
102
RTVSPost2010Prop44ColorIndex
 90
        5
102
RTVSPost2010Prop44ColorRGB
 90
      255
102
RTVSPost2010PropOp44
 70
     1
102
RTVSPost2010Prop45
280
     0
102
RTVSPost2010PropOp45
 70
     1
102
RTVSPost2010Prop46
 90
       50
102
RTVSPost2010PropOp46
 70
     1
102
RTVSPost2010Prop47
 90
       50
102
RTVSPost2010PropOp47
 70
     1
102
RTVSPost2010Prop48
 90
       50
102
RTVSPost2010PropOp48
 70
     1
102
RTVSPost2010Prop49
280
     0
102
RTVSPost2010PropOp49
 70
     1
102
RTVSPost2010Prop50
 90
       50
102
RTVSPost2010PropOp50
 70
     1
102
RTVSPost2010Prop51ColorIndex
 90
      256
102
RTVSPost2010Prop51ColorRGB
 90
-16777216
102
RTVSPost2010PropOp51
 70
     0
102
RTVSPost2010Prop52
140
1.0
102
RTVSPost2010PropOp52
 70
     0
102
RTVSPost2010Prop53
 90
        2
102
RTVSPost2010PropOp53
 70
     1
102
RTVSPost2010Prop54
  1
strokes_ogs.tif
102
RTVSPost2010PropOp54
 70
     1
102
RTVSPost2010Prop55
280
     0
102
RTVSPost2010PropOp55
 70
     1
102
RTVSPost2010Prop56
140
1.0
102
RTVSPost2010PropOp56
 70
     1
102
RTVSPost2010Prop57
140
1.0
102
RTVSPost2010PropOp57
 70
     1
102
RTVSPropertyOp0
 70
     1
102
RTVSPropertyOp1
 70
     1
102
RTVSPropertyOp2
 70
     1
102
RTVSPropertyOp3
 70
     1
102
RTVSPropertyOp4
 70
     1
102
RTVSPropertyOp5
 70
     1
102
RTVSPropertyOp6
 70
     1
102
RTVSPropertyOp7
 70
     1
102
RTVSPropertyOp8
 70
     1
102
RTVSPropertyOp9
 70
     1
102
RTVSPropertyOp10
 70
     1
102
RTVSPropertyOp11
 70
     1
102
RTVSPropertyOp12
 70
     1
102
RTVSPropertyOp13
 70
     1
102
RTVSPropertyOp14
 70
     1
102
RTVSPropertyOp15
 70
     1
102
RTVSPropertyOp16
 70
     1
102
RTVSPropertyOp17
 70
     1
102
RTVSPropertyOp18
 70
     1
102
RTVSPropertyOp19
 70
     1
102
RTVSPropertyOp20
 70
     1
102
RTVSPropertyOp21
 70
     1
102
RTVSPropertyOp22
 70
     1
102
RTVSPropertyOp23
 70
     1
102
RTVSPropertyOp24
 70
     1
102
RTVSPropertyOp25
 70
     1
102
RTVSPropertyOp26
 70
     1
102
RTVSPropertyOp27
 70
     1
102
RTVSPropertyOp28
 70
     1
102
RTVSPropertyOp29
 70
     1
102
RTVSPropertyOp30
 70
     1
102
RTVSPropertyOp31
 70
     1
102
RTVSPropertyOp32
 70
     1
102
RTVSPropertyOp33
 70
     1
102
RTVSPropertyOp34
 70
     1
102
RTVSPropertyOp35
 70
     1
102
RTVSPropertyOp36
 70
     1
102
RTVSPropertyOp37
 70
     1
102
RTVSPropertyOp38
 70
     1
102
RTVSPropertyOp39
 70
     1
102
RTVSPropertyOp40
 70
     1
102
RTVSPropertyOp41
 70
     1
102
RTVSPropertyOp42
 70
     1
102
RTVSPropertyOp43
 70
     1
102
RTVSPropertyOp44
 70
     1
102
RTVSPropertyOp45
 70
     1
102
RTVSPropertyOp46
 70
     1
102
RTVSPropertyOp47
 70
     1
102
RTVSPropertyOp48
 70
     1
102
RTVSPropertyOp49
 70
     1
102
RTVSPropertyOp50
 70
     1
102
RTVSPropertyOp51
 70
     0
102
RTVSPropertyOp52
 70
     0
102
RTVSPropertyOp53
 70
     1
102
RTVSPropertyOp54
 70
     1
102
RTVSPropertyOp55
 70
     1
102
RTVSPropertyOp56
 70
     1
102
RTVSPropertyOp57
 70
     1
102
RTVSPropertyOp58
 70
     1
102
RTVSPropertyOp59
 70
     1
102
RTVSPropertyOp60
 70
     1
102
RTVSPropertyOp61
 70
     1
102
RTVSPropertyOp62
 70
     1
  0
XRECORD
  5
9AC
102
{ACAD_REACTORS
330
9AB
102
}
330
9AB
100
AcDbXrecord
280
     1
102
RTVSPost2010Prop28
280
     0
102
RTVSPost2010PropOp28
 70
     1
102
RTVSPost2010Prop29
280
     1
102
RTVSPost2010PropOp29
 70
     1
102
RTVSPost2010Prop30
280
     1
102
RTVSPost2010PropOp30
 70
     1
102
RTVSPost2010Prop31
280
     0
102
RTVSPost2010PropOp31
 70
     1
102
RTVSPost2010Prop32
280
     0
102
RTVSPost2010PropOp32
 70
     1
102
RTVSPost2010Prop33
280
     0
102
RTVSPost2010PropOp33
 70
     1
102
RTVSPost2010Prop34
280
     0
102
RTVSPost2010PropOp34
 70
     1
102
RTVSPost2010Prop35
280
     0
102
RTVSPost2010PropOp35
 70
     1
102
RTVSPost2010Prop36
280
     0
102
RTVSPost2010PropOp36
 70
     1
102
RTVSPost2010Prop37
 90
       50
102
RTVSPost2010PropOp37
 70
     1
102
RTVSPost2010Prop38
140
0.0
102
RTVSPost2010PropOp38
 70
     1
102
RTVSPost2010Prop39
140
1.0
102
RTVSPost2010PropOp39
 70
     1
102
RTVSPost2010Prop40
 90
        0
102
RTVSPost2010PropOp40
 70
     1
102
RTVSPost2010Prop41ColorIndex
 90
       18
102
RTVSPost2010Prop41ColorRGB
 90
-16777216
102
RTVSPost2010PropOp41
 70
     1
102
RTVSPost2010Prop42
 90
       50
102
RTVSPost2010PropOp42
 70
     1
102
RTVSPost2010Prop43
 90
        3
102
RTVSPost2010PropOp43
 70
     1
102
RTVSPost2010Prop44ColorIndex
 90
        5
102
RTVSPost2010Prop44ColorRGB
 90
      255
102
RTVSPost2010PropOp44
 70
     1
102
RTVSPost2010Prop45
280
     0
102
RTVSPost2010PropOp45
 70
     1
102
RTVSPost2010Prop46
 90
       50
102
RTVSPost2010PropOp46
 70
     1
102
RTVSPost2010Prop47
 90
       50
102
RTVSPost2010PropOp47
 70
     1
102
RTVSPost2010Prop48
 90
       50
102
RTVSPost2010PropOp48
 70
     1
102
RTVSPost2010Prop49
280
     0
102
RTVSPost2010PropOp49
 70
     1
102
RTVSPost2010Prop50
 90
       50
102
RTVSPost2010PropOp50
 70
     1
102
RTVSPost2010Prop51ColorIndex
 90
      256
102
RTVSPost2010Prop51ColorRGB
 90
-16777216
102
RTVSPost2010PropOp51
 70
     0
102
RTVSPost2010Prop52
140
1.0
102
RTVSPost2010PropOp52
 70
     0
102
RTVSPost2010Prop53
 90
        2
102
RTVSPost2010PropOp53
 70
     1
102
RTVSPost2010Prop54
  1
strokes_ogs.tif
102
RTVSPost2010PropOp54
 70
     1
102
RTVSPost2010Prop55
280
     0
102
RTVSPost2010PropOp55
 70
     1
102
RTVSPost2010Prop56
140
1.0
102
RTVSPost2010PropOp56
 70
     1
102
RTVSPost2010Prop57
140
1.0
102
RTVSPost2010PropOp57
 70
     1
102
RTVSPropertyOp0
 70
     1
102
RTVSPropertyOp1
 70
     1
102
RTVSPropertyOp2
 70
     1
102
RTVSPropertyOp3
 70
     1
102
RTVSPropertyOp4
 70
     1
102
RTVSPropertyOp5
 70
     1
102
RTVSPropertyOp6
 70
     1
102
RTVSPropertyOp7
 70
     1
102
RTVSPropertyOp8
 70
     1
102
RTVSPropertyOp9
 70
     1
102
RTVSPropertyOp10
 70
     1
102
RTVSPropertyOp11
 70
     1
102
RTVSPropertyOp12
 70
     1
102
RTVSPropertyOp13
 70
     1
102
RTVSPropertyOp14
 70
     1
102
RTVSPropertyOp15
 70
     1
102
RTVSPropertyOp16
 70
     1
102
RTVSPropertyOp17
 70
     1
102
RTVSPropertyOp18
 70
     1
102
RTVSPropertyOp19
 70
     1
102
RTVSPropertyOp20
 70
     1
102
RTVSPropertyOp21
 70
     1
102
RTVSPropertyOp22
 70
     1
102
RTVSPropertyOp23
 70
     1
102
RTVSPropertyOp24
 70
     1
102
RTVSPropertyOp25
 70
     1
102
RTVSPropertyOp26
 70
     1
102
RTVSPropertyOp27
 70
     1
102
RTVSPropertyOp28
 70
     1
102
RTVSPropertyOp29
 70
     1
102
RTVSPropertyOp30
 70
     1
102
RTVSPropertyOp31
 70
     1
102
RTVSPropertyOp32
 70
     1
102
RTVSPropertyOp33
 70
     1
102
RTVSPropertyOp34
 70
     1
102
RTVSPropertyOp35
 70
     1
102
RTVSPropertyOp36
 70
     1
102
RTVSPropertyOp37
 70
     1
102
RTVSPropertyOp38
 70
     1
102
RTVSPropertyOp39
 70
     1
102
RTVSPropertyOp40
 70
     1
102
RTVSPropertyOp41
 70
     1
102
RTVSPropertyOp42
 70
     1
102
RTVSPropertyOp43
 70
     1
102
RTVSPropertyOp44
 70
     1
102
RTVSPropertyOp45
 70
     1
102
RTVSPropertyOp46
 70
     1
102
RTVSPropertyOp47
 70
     1
102
RTVSPropertyOp48
 70
     1
102
RTVSPropertyOp49
 70
     1
102
RTVSPropertyOp50
 70
     1
102
RTVSPropertyOp51
 70
     0
102
RTVSPropertyOp52
 70
     0
102
RTVSPropertyOp53
 70
     1
102
RTVSPropertyOp54
 70
     1
102
RTVSPropertyOp55
 70
     1
102
RTVSPropertyOp56
 70
     1
102
RTVSPropertyOp57
 70
     1
102
RTVSPropertyOp58
 70
     1
102
RTVSPropertyOp59
 70
     1
102
RTVSPropertyOp60
 70
     1
102
RTVSPropertyOp61
 70
     1
102
RTVSPropertyOp62
 70
     1
  0
XRECORD
  5
9A0
102
{ACAD_REACTORS
330
99F
102
}
330
99F
100
AcDbXrecord
280
     1
102
RTVSPost2010Prop28
280
     0
102
RTVSPost2010PropOp28
 70
     1
102
RTVSPost2010Prop29
280
     1
102
RTVSPost2010PropOp29
 70
     1
102
RTVSPost2010Prop30
280
     1
102
RTVSPost2010PropOp30
 70
     1
102
RTVSPost2010Prop31
280
     0
102
RTVSPost2010PropOp31
 70
     1
102
RTVSPost2010Prop32
280
     0
102
RTVSPost2010PropOp32
 70
     1
102
RTVSPost2010Prop33
280
     0
102
RTVSPost2010PropOp33
 70
     1
102
RTVSPost2010Prop34
280
     0
102
RTVSPost2010PropOp34
 70
     1
102
RTVSPost2010Prop35
280
     0
102
RTVSPost2010PropOp35
 70
     1
102
RTVSPost2010Prop36
280
     0
102
RTVSPost2010PropOp36
 70
     1
102
RTVSPost2010Prop37
 90
       50
102
RTVSPost2010PropOp37
 70
     1
102
RTVSPost2010Prop38
140
0.0
102
RTVSPost2010PropOp38
 70
     1
102
RTVSPost2010Prop39
140
1.0
102
RTVSPost2010PropOp39
 70
     1
102
RTVSPost2010Prop40
 90
        0
102
RTVSPost2010PropOp40
 70
     1
102
RTVSPost2010Prop41ColorIndex
 90
       18
102
RTVSPost2010Prop41ColorRGB
 90
-16777216
102
RTVSPost2010PropOp41
 70
     1
102
RTVSPost2010Prop42
 90
       50
102
RTVSPost2010PropOp42
 70
     1
102
RTVSPost2010Prop43
 90
        3
102
RTVSPost2010PropOp43
 70
     1
102
RTVSPost2010Prop44ColorIndex
 90
        5
102
RTVSPost2010Prop44ColorRGB
 90
      255
102
RTVSPost2010PropOp44
 70
     1
102
RTVSPost2010Prop45
280
     0
102
RTVSPost2010PropOp45
 70
     1
102
RTVSPost2010Prop46
 90
       50
102
RTVSPost2010PropOp46
 70
     1
102
RTVSPost2010Prop47
 90
       50
102
RTVSPost2010PropOp47
 70
     1
102
RTVSPost2010Prop48
 90
       50
102
RTVSPost2010PropOp48
 70
     1
102
RTVSPost2010Prop49
280
     0
102
RTVSPost2010PropOp49
 70
     1
102
RTVSPost2010Prop50
 90
       50
102
RTVSPost2010PropOp50
 70
     1
102
RTVSPost2010Prop51ColorIndex
 90
      256
102
RTVSPost2010Prop51ColorRGB
 90
-16777216
102
RTVSPost2010PropOp51
 70
     0
102
RTVSPost2010Prop52
140
1.0
102
RTVSPost2010PropOp52
 70
     0
102
RTVSPost2010Prop53
 90
        2
102
RTVSPost2010PropOp53
 70
     1
102
RTVSPost2010Prop54
  1
strokes_ogs.tif
102
RTVSPost2010PropOp54
 70
     1
102
RTVSPost2010Prop55
280
     0
102
RTVSPost2010PropOp55
 70
     1
102
RTVSPost2010Prop56
140
1.0
102
RTVSPost2010PropOp56
 70
     1
102
RTVSPost2010Prop57
140
1.0
102
RTVSPost2010PropOp57
 70
     1
102
RTVSPropertyOp0
 70
     1
102
RTVSPropertyOp1
 70
     1
102
RTVSPropertyOp2
 70
     1
102
RTVSPropertyOp3
 70
     1
102
RTVSPropertyOp4
 70
     1
102
RTVSPropertyOp5
 70
     1
102
RTVSPropertyOp6
 70
     1
102
RTVSPropertyOp7
 70
     1
102
RTVSPropertyOp8
 70
     1
102
RTVSPropertyOp9
 70
     1
102
RTVSPropertyOp10
 70
     1
102
RTVSPropertyOp11
 70
     1
102
RTVSPropertyOp12
 70
     1
102
RTVSPropertyOp13
 70
     1
102
RTVSPropertyOp14
 70
     1
102
RTVSPropertyOp15
 70
     1
102
RTVSPropertyOp16
 70
     1
102
RTVSPropertyOp17
 70
     1
102
RTVSPropertyOp18
 70
     1
102
RTVSPropertyOp19
 70
     1
102
RTVSPropertyOp20
 70
     1
102
RTVSPropertyOp21
 70
     1
102
RTVSPropertyOp22
 70
     1
102
RTVSPropertyOp23
 70
     1
102
RTVSPropertyOp24
 70
     1
102
RTVSPropertyOp25
 70
     1
102
RTVSPropertyOp26
 70
     1
102
RTVSPropertyOp27
 70
     1
102
RTVSPropertyOp28
 70
     1
102
RTVSPropertyOp29
 70
     1
102
RTVSPropertyOp30
 70
     1
102
RTVSPropertyOp31
 70
     1
102
RTVSPropertyOp32
 70
     1
102
RTVSPropertyOp33
 70
     1
102
RTVSPropertyOp34
 70
     1
102
RTVSPropertyOp35
 70
     1
102
RTVSPropertyOp36
 70
     1
102
RTVSPropertyOp37
 70
     1
102
RTVSPropertyOp38
 70
     1
102
RTVSPropertyOp39
 70
     1
102
RTVSPropertyOp40
 70
     1
102
RTVSPropertyOp41
 70
     1
102
RTVSPropertyOp42
 70
     1
102
RTVSPropertyOp43
 70
     1
102
RTVSPropertyOp44
 70
     1
102
RTVSPropertyOp45
 70
     1
102
RTVSPropertyOp46
 70
     1
102
RTVSPropertyOp47
 70
     1
102
RTVSPropertyOp48
 70
     1
102
RTVSPropertyOp49
 70
     1
102
RTVSPropertyOp50
 70
     1
102
RTVSPropertyOp51
 70
     0
102
RTVSPropertyOp52
 70
     0
102
RTVSPropertyOp53
 70
     1
102
RTVSPropertyOp54
 70
     1
102
RTVSPropertyOp55
 70
     1
102
RTVSPropertyOp56
 70
     1
102
RTVSPropertyOp57
 70
     1
102
RTVSPropertyOp58
 70
     1
102
RTVSPropertyOp59
 70
     1
102
RTVSPropertyOp60
 70
     1
102
RTVSPropertyOp61
 70
     1
102
RTVSPropertyOp62
 70
     1
  0
XRECORD
  5
9B8
102
{ACAD_REACTORS
330
9B7
102
}
330
9B7
100
AcDbXrecord
280
     1
102
RTVSPost2010Prop28
280
     0
102
RTVSPost2010PropOp28
 70
     1
102
RTVSPost2010Prop29
280
     1
102
RTVSPost2010PropOp29
 70
     1
102
RTVSPost2010Prop30
280
     1
102
RTVSPost2010PropOp30
 70
     1
102
RTVSPost2010Prop31
280
     0
102
RTVSPost2010PropOp31
 70
     1
102
RTVSPost2010Prop32
280
     0
102
RTVSPost2010PropOp32
 70
     1
102
RTVSPost2010Prop33
280
     0
102
RTVSPost2010PropOp33
 70
     1
102
RTVSPost2010Prop34
280
     0
102
RTVSPost2010PropOp34
 70
     1
102
RTVSPost2010Prop35
280
     0
102
RTVSPost2010PropOp35
 70
     1
102
RTVSPost2010Prop36
280
     0
102
RTVSPost2010PropOp36
 70
     1
102
RTVSPost2010Prop37
 90
       50
102
RTVSPost2010PropOp37
 70
     1
102
RTVSPost2010Prop38
140
0.0
102
RTVSPost2010PropOp38
 70
     1
102
RTVSPost2010Prop39
140
1.0
102
RTVSPost2010PropOp39
 70
     1
102
RTVSPost2010Prop40
 90
        0
102
RTVSPost2010PropOp40
 70
     1
102
RTVSPost2010Prop41ColorIndex
 90
       18
102
RTVSPost2010Prop41ColorRGB
 90
-16777216
102
RTVSPost2010PropOp41
 70
     1
102
RTVSPost2010Prop42
 90
       50
102
RTVSPost2010PropOp42
 70
     1
102
RTVSPost2010Prop43
 90
        3
102
RTVSPost2010PropOp43
 70
     1
102
RTVSPost2010Prop44ColorIndex
 90
        5
102
RTVSPost2010Prop44ColorRGB
 90
      255
102
RTVSPost2010PropOp44
 70
     1
102
RTVSPost2010Prop45
280
     0
102
RTVSPost2010PropOp45
 70
     1
102
RTVSPost2010Prop46
 90
       50
102
RTVSPost2010PropOp46
 70
     1
102
RTVSPost2010Prop47
 90
       50
102
RTVSPost2010PropOp47
 70
     1
102
RTVSPost2010Prop48
 90
       50
102
RTVSPost2010PropOp48
 70
     1
102
RTVSPost2010Prop49
280
     0
102
RTVSPost2010PropOp49
 70
     1
102
RTVSPost2010Prop50
 90
       50
102
RTVSPost2010PropOp50
 70
     1
102
RTVSPost2010Prop51ColorIndex
 90
      256
102
RTVSPost2010Prop51ColorRGB
 90
-16777216
102
RTVSPost2010PropOp51
 70
     0
102
RTVSPost2010Prop52
140
1.0
102
RTVSPost2010PropOp52
 70
     0
102
RTVSPost2010Prop53
 90
        2
102
RTVSPost2010PropOp53
 70
     1
102
RTVSPost2010Prop54
  1
strokes_ogs.tif
102
RTVSPost2010PropOp54
 70
     1
102
RTVSPost2010Prop55
280
     0
102
RTVSPost2010PropOp55
 70
     1
102
RTVSPost2010Prop56
140
1.0
102
RTVSPost2010PropOp56
 70
     1
102
RTVSPost2010Prop57
140
1.0
102
RTVSPost2010PropOp57
 70
     1
102
RTVSPropertyOp0
 70
     1
102
RTVSPropertyOp1
 70
     1
102
RTVSPropertyOp2
 70
     1
102
RTVSPropertyOp3
 70
     1
102
RTVSPropertyOp4
 70
     1
102
RTVSPropertyOp5
 70
     1
102
RTVSPropertyOp6
 70
     1
102
RTVSPropertyOp7
 70
     1
102
RTVSPropertyOp8
 70
     1
102
RTVSPropertyOp9
 70
     1
102
RTVSPropertyOp10
 70
     1
102
RTVSPropertyOp11
 70
     1
102
RTVSPropertyOp12
 70
     1
102
RTVSPropertyOp13
 70
     1
102
RTVSPropertyOp14
 70
     1
102
RTVSPropertyOp15
 70
     1
102
RTVSPropertyOp16
 70
     1
102
RTVSPropertyOp17
 70
     1
102
RTVSPropertyOp18
 70
     1
102
RTVSPropertyOp19
 70
     1
102
RTVSPropertyOp20
 70
     1
102
RTVSPropertyOp21
 70
     1
102
RTVSPropertyOp22
 70
     1
102
RTVSPropertyOp23
 70
     1
102
RTVSPropertyOp24
 70
     1
102
RTVSPropertyOp25
 70
     1
102
RTVSPropertyOp26
 70
     1
102
RTVSPropertyOp27
 70
     1
102
RTVSPropertyOp28
 70
     1
102
RTVSPropertyOp29
 70
     1
102
RTVSPropertyOp30
 70
     1
102
RTVSPropertyOp31
 70
     1
102
RTVSPropertyOp32
 70
     1
102
RTVSPropertyOp33
 70
     1
102
RTVSPropertyOp34
 70
     1
102
RTVSPropertyOp35
 70
     1
102
RTVSPropertyOp36
 70
     1
102
RTVSPropertyOp37
 70
     1
102
RTVSPropertyOp38
 70
     1
102
RTVSPropertyOp39
 70
     1
102
RTVSPropertyOp40
 70
     1
102
RTVSPropertyOp41
 70
     1
102
RTVSPropertyOp42
 70
     1
102
RTVSPropertyOp43
 70
     1
102
RTVSPropertyOp44
 70
     1
102
RTVSPropertyOp45
 70
     1
102
RTVSPropertyOp46
 70
     1
102
RTVSPropertyOp47
 70
     1
102
RTVSPropertyOp48
 70
     1
102
RTVSPropertyOp49
 70
     1
102
RTVSPropertyOp50
 70
     1
102
RTVSPropertyOp51
 70
     0
102
RTVSPropertyOp52
 70
     0
102
RTVSPropertyOp53
 70
     1
102
RTVSPropertyOp54
 70
     1
102
RTVSPropertyOp55
 70
     1
102
RTVSPropertyOp56
 70
     1
102
RTVSPropertyOp57
 70
     1
102
RTVSPropertyOp58
 70
     1
102
RTVSPropertyOp59
 70
     1
102
RTVSPropertyOp60
 70
     1
102
RTVSPropertyOp61
 70
     1
102
RTVSPropertyOp62
 70
     1
  0
ENDSEC
  0
EOF
