  0
SECTION
  2
HEADER
  9
$ACADVER
  1
AC1015
  9
$ACADMAINTVER
 70
    20
  9
$DWGCODEPAGE
  3
ANSI_1252
  9
$INSBASE
 10
0.0
 20
0.0
 30
0.0
  9
$EXTMIN
 10
-0.0177971459852415
 20
-0.0126198168650831
 30
-0.0000000349181948
  9
$EXTMAX
 10
291.5809443088647
 20
224.7861032323631
 30
0.0000000814935747
  9
$LIMMIN
 10
0.0
 20
0.0
  9
$LIMMAX
 10
12.0
 20
9.0
  9
$ORTHOMODE
 70
     1
  9
$REGENMODE
 70
     1
  9
$FILLMODE
 70
     1
  9
$QTEXTMODE
 70
     0
  9
$MIRRTEXT
 70
     0
  9
$LTSCALE
 40
1.0
  9
$ATTMODE
 70
     1
  9
$TEXTSIZE
 40
0.2
  9
$TRACEWID
 40
0.05
  9
$TEXTSTYLE
  7
ROMANS
  9
$CLAYER
  8
0
  9
$CELTYPE
  6
ByLayer
  9
$CECOLOR
 62
   256
  9
$CELTSCALE
 40
1.0
  9
$DISPSILH
 70
     0
  9
$DIMSCALE
 40
1.0
  9
$DIMASZ
 40
0.09375
  9
$DIMEXO
 40
0.0625
  9
$DIMDLI
 40
0.375
  9
$DIMRND
 40
0.0
  9
$DIMDLE
 40
0.0
  9
$DIMEXE
 40
0.03125
  9
$DIMTP
 40
0.0
  9
$DIMTM
 40
0.0
  9
$DIMTXT
 40
0.09375
  9
$DIMCEN
 40
0.09375
  9
$DIMTSZ
 40
0.0
  9
$DIMTOL
 70
     0
  9
$DIMLIM
 70
     0
  9
$DIMTIH
 70
     0
  9
$DIMTOH
 70
     0
  9
$DIMSE1
 70
     0
  9
$DIMSE2
 70
     0
  9
$DIMTAD
 70
     0
  9
$DIMZIN
 70
     0
  9
$DIMBLK
  1

  9
$DIMASO
 70
     1
  9
$DIMSHO
 70
     1
  9
$DIMPOST
  1

  9
$DIMAPOST
  1

  9
$DIMALT
 70
     0
  9
$DIMALTD
 70
     2
  9
$DIMALTF
 40
25.4
  9
$DIMLFAC
 40
1.0
  9
$DIMTOFL
 70
     0
  9
$DIMTVP
 40
0.0
  9
$DIMTIX
 70
     0
  9
$DIMSOXD
 70
     0
  9
$DIMSAH
 70
     0
  9
$DIMBLK1
  1

  9
$DIMBLK2
  1

  9
$DIMSTYLE
  2
BAC
  9
$DIMCLRD
 70
     0
  9
$DIMCLRE
 70
     6
  9
$DIMCLRT
 70
     0
  9
$DIMTFAC
 40
1.0
  9
$DIMGAP
 40
0.0625
  9
$DIMJUST
 70
     0
  9
$DIMSD1
 70
     0
  9
$DIMSD2
 70
     0
  9
$DIMTOLJ
 70
     1
  9
$DIMTZIN
 70
     0
  9
$DIMALTZ
 70
     0
  9
$DIMALTTZ
 70
     0
  9
$DIMUPT
 70
     0
  9
$DIMDEC
 70
     4
  9
$DIMTDEC
 70
     4
  9
$DIMALTU
 70
     2
  9
$DIMALTTD
 70
     2
  9
$DIMTXSTY
  7
STANDARD
  9
$DIMAUNIT
 70
     0
  9
$DIMADEC
 70
     0
  9
$DIMALTRND
 40
0.0
  9
$DIMAZIN
 70
     0
  9
$DIMDSEP
 70
    46
  9
$DIMATFIT
 70
     3
  9
$DIMFRAC
 70
     0
  9
$DIMLDRBLK
  1

  9
$DIMLUNIT
 70
     2
  9
$DIMLWD
 70
    -2
  9
$DIMLWE
 70
    -2
  9
$DIMTMOVE
 70
     0
  9
$LUNITS
 70
     5
  9
$LUPREC
 70
     6
  9
$SKETCHINC
 40
0.1
  9
$FILLETRAD
 40
0.5
  9
$AUNITS
 70
     0
  9
$AUPREC
 70
     0
  9
$MENU
  1
.
  9
$ELEVATION
 40
0.0
  9
$PELEVATION
 40
0.0
  9
$THICKNESS
 40
0.0
  9
$LIMCHECK
 70
     0
  9
$CHAMFERA
 40
0.5
  9
$CHAMFERB
 40
0.5
  9
$CHAMFERC
 40
0.0
  9
$CHAMFERD
 40
0.0
  9
$SKPOLY
 70
     0
  9
$TDCREATE
 40
2456827.638124121
  9
$TDUCREATE
 40
2456827.804790787
  9
$TDUPDATE
 40
2456827.640526922
  9
$TDUUPDATE
 40
2456827.807193588
  9
$TDINDWG
 40
0.0017063542
  9
$TDUSRTIMER
 40
0.0017058333
  9
$USRTIMER
 70
     1
  9
$ANGBASE
 50
0.0
  9
$ANGDIR
 70
     0
  9
$PDMODE
 70
     0
  9
$PDSIZE
 40
0.0
  9
$PLINEWID
 40
0.0
  9
$SPLFRAME
 70
     0
  9
$SPLINETYPE
 70
     6
  9
$SPLINESEGS
 70
     8
  9
$HANDSEED
  5
74E
  9
$SURFTAB1
 70
     6
  9
$SURFTAB2
 70
     6
  9
$SURFTYPE
 70
     6
  9
$SURFU
 70
     6
  9
$SURFV
 70
     6
  9
$UCSBASE
  2

  9
$UCSNAME
  2

  9
$UCSORG
 10
0.0
 20
0.0
 30
0.0
  9
$UCSXDIR
 10
1.0
 20
0.0
 30
0.0
  9
$UCSYDIR
 10
0.0
 20
1.0
 30
0.0
  9
$UCSORTHOREF
  2

  9
$UCSORTHOVIEW
 70
     0
  9
$UCSORGTOP
 10
0.0
 20
0.0
 30
0.0
  9
$UCSORGBOTTOM
 10
0.0
 20
0.0
 30
0.0
  9
$UCSORGLEFT
 10
0.0
 20
0.0
 30
0.0
  9
$UCSORGRIGHT
 10
0.0
 20
0.0
 30
0.0
  9
$UCSORGFRONT
 10
0.0
 20
0.0
 30
0.0
  9
$UCSORGBACK
 10
0.0
 20
0.0
 30
0.0
  9
$PUCSBASE
  2

  9
$PUCSNAME
  2

  9
$PUCSORG
 10
0.0
 20
0.0
 30
0.0
  9
$PUCSXDIR
 10
1.0
 20
0.0
 30
0.0
  9
$PUCSYDIR
 10
0.0
 20
1.0
 30
0.0
  9
$PUCSORTHOREF
  2

  9
$PUCSORTHOVIEW
 70
     0
  9
$PUCSORGTOP
 10
0.0
 20
0.0
 30
0.0
  9
$PUCSORGBOTTOM
 10
0.0
 20
0.0
 30
0.0
  9
$PUCSORGLEFT
 10
0.0
 20
0.0
 30
0.0
  9
$PUCSORGRIGHT
 10
0.0
 20
0.0
 30
0.0
  9
$PUCSORGFRONT
 10
0.0
 20
0.0
 30
0.0
  9
$PUCSORGBACK
 10
0.0
 20
0.0
 30
0.0
  9
$USERI1
 70
     0
  9
$USERI2
 70
     0
  9
$USERI3
 70
     0
  9
$USERI4
 70
     0
  9
$USERI5
 70
     0
  9
$USERR1
 40
0.0
  9
$USERR2
 40
0.0
  9
$USERR3
 40
0.0
  9
$USERR4
 40
0.0
  9
$USERR5
 40
0.0
  9
$WORLDVIEW
 70
     1
  9
$SHADEDGE
 70
     3
  9
$SHADEDIF
 70
    70
  9
$TILEMODE
 70
     1
  9
$MAXACTVP
 70
    48
  9
$PINSBASE
 10
0.0
 20
0.0
 30
0.0
  9
$PLIMCHECK
 70
     0
  9
$PEXTMIN
 10
1.000000000000000E+20
 20
1.000000000000000E+20
 30
1.000000000000000E+20
  9
$PEXTMAX
 10
-1.000000000000000E+20
 20
-1.000000000000000E+20
 30
-1.000000000000000E+20
  9
$PLIMMIN
 10
0.0
 20
0.0
  9
$PLIMMAX
 10
12.0
 20
9.0
  9
$UNITMODE
 70
     0
  9
$VISRETAIN
 70
     1
  9
$PLINEGEN
 70
     0
  9
$PSLTSCALE
 70
     1
  9
$TREEDEPTH
 70
  3020
  9
$CMLSTYLE
  2
Standard
  9
$CMLJUST
 70
     0
  9
$CMLSCALE
 40
1.0
  9
$PROXYGRAPHICS
 70
     1
  9
$MEASUREMENT
 70
     0
  9
$CELWEIGHT
370
    -1
  9
$ENDCAPS
280
     0
  9
$JOINSTYLE
280
     0
  9
$LWDISPLAY
290
     0
  9
$INSUNITS
 70
     0
  9
$HYPERLINKBASE
  1

  9
$STYLESHEET
  1

  9
$XEDIT
290
     1
  9
$CEPSNTYPE
380
     0
  9
$PSTYLEMODE
290
     1
  9
$FINGERPRINTGUID
  2
{BA9118CF-1A90-4EFB-80C5-22C8438AC429}
  9
$VERSIONGUID
  2
{51DD8A84-4132-4745-936E-F501ACAE86E7}
  9
$EXTNAMES
290
     1
  9
$PSVPSCALE
 40
0.0
  9
$OLESTARTUP
290
     0
  0
ENDSEC
  0
SECTION
  2
CLASSES
  0
CLASS
  1
ACDBDICTIONARYWDFLT
  2
AcDbDictionaryWithDefault
  3
ObjectDBX Classes
 90
        0
280
     0
281
     0
  0
CLASS
  1
MATERIAL
  2
AcDbMaterial
  3
ObjectDBX Classes
 90
     1153
280
     0
281
     0
  0
CLASS
  1
VISUALSTYLE
  2
AcDbVisualStyle
  3
ObjectDBX Classes
 90
     4095
280
     0
281
     0
  0
CLASS
  1
SCALE
  2
AcDbScale
  3
ObjectDBX Classes
 90
     1153
280
     0
281
     0
  0
CLASS
  1
TABLESTYLE
  2
AcDbTableStyle
  3
ObjectDBX Classes
 90
     4095
280
     0
281
     0
  0
CLASS
  1
MLEADERSTYLE
  2
AcDbMLeaderStyle
  3
ACDB_MLEADERSTYLE_CLASS
 90
     4095
280
     0
281
     0
  0
CLASS
  1
ACDBSECTIONVIEWSTYLE
  2
AcDbSectionViewStyle
  3
ObjectDBX Classes
 90
     1025
280
     0
281
     0
  0
CLASS
  1
ACDBDETAILVIEWSTYLE
  2
AcDbDetailViewStyle
  3
ObjectDBX Classes
 90
     1025
280
     0
281
     0
  0
CLASS
  1
EXACXREFPANELOBJECT
  2
ExAcXREFPanelObject
  3
EXAC_ESW
 90
     1025
280
     0
281
     0
  0
CLASS
  1
NPOCOLLECTION
  2
AcDbImpNonPersistentObjectsCollection
  3
ObjectDBX Classes
 90
     1153
280
     0
281
     0
  0
CLASS
  1
DICTIONARYVAR
  2
AcDbDictionaryVar
  3
ObjectDBX Classes
 90
        0
280
     0
281
     0
  0
CLASS
  1
CELLSTYLEMAP
  2
AcDbCellStyleMap
  3
ObjectDBX Classes
 90
     1152
280
     0
281
     0
  0
CLASS
  1
ACDBPLACEHOLDER
  2
AcDbPlaceHolder
  3
ObjectDBX Classes
 90
        0
280
     0
281
     0
  0
CLASS
  1
LAYOUT
  2
AcDbLayout
  3
ObjectDBX Classes
 90
        0
280
     0
281
     0
  0
ENDSEC
  0
SECTION
  2
TABLES
  0
TABLE
  2
VPORT
  5
623
330
0
100
AcDbSymbolTable
 70
     1
  0
VPORT
  5
690
330
623
100
AcDbSymbolTableRecord
100
AcDbViewportTableRecord
  2
*ACTIVE
 70
     0
 10
0.0
 20
0.0
 11
1.0
 21
1.0
 12
145.7815735814397
 22
112.386741707749
 13
0.0
 23
0.0
 14
0.5
 24
0.5
 15
0.5
 25
0.5
 16
0.0
 26
0.0
 36
1.0
 17
0.0
 27
0.0
 37
0.0
 40
226.2940582358084
 41
1.770255271920088
 42
50.0
 43
0.0
 44
0.0
 50
0.0
 51
0.0
 71
     0
 72
   100
 73
     1
 74
     1
 75
     0
 76
     0
 77
     0
 78
     0
281
     0
 65
     1
110
0.0
120
0.0
130
0.0
111
1.0
121
0.0
131
0.0
112
0.0
122
1.0
132
0.0
 79
     0
146
0.0
1001
ACAD_NAV_VCDISPLAY
1070
     3
  0
ENDTAB
  0
TABLE
  2
LTYPE
  5
620
330
0
100
AcDbSymbolTable
 70
    11
  0
LTYPE
  5
675
330
620
100
AcDbSymbolTableRecord
100
AcDbLinetypeTableRecord
  2
ByBlock
 70
     0
  3

 72
    65
 73
     0
 40
0.0
  0
LTYPE
  5
676
330
620
100
AcDbSymbolTableRecord
100
AcDbLinetypeTableRecord
  2
ByLayer
 70
     0
  3

 72
    65
 73
     0
 40
0.0
  0
LTYPE
  5
677
330
620
100
AcDbSymbolTableRecord
100
AcDbLinetypeTableRecord
  2
CONTINUOUS
 70
     0
  3
Solid line
 72
    65
 73
     0
 40
0.0
  0
LTYPE
  5
683
330
620
100
AcDbSymbolTableRecord
100
AcDbLinetypeTableRecord
  2
PHANTOM2
 70
     0
  3
Phantom (.5x) ___ _ _ ___ _ _ ___ _ _ ___ _ _
 72
    65
 73
     6
 40
1.25
 49
0.625
 74
     0
 49
-0.125
 74
     0
 49
0.125
 74
     0
 49
-0.125
 74
     0
 49
0.125
 74
     0
 49
-0.125
 74
     0
  0
ENDTAB
  0
TABLE
  2
LAYER
  5
61D
330
0
100
AcDbSymbolTable
 70
     1
  0
LAYER
  5
66F
102
{ACAD_XDICTIONARY
360
6C3
102
}
330
61D
100
AcDbSymbolTableRecord
100
AcDbLayerTableRecord
  2
0
 70
     0
 62
     7
  6
CONTINUOUS
370
    -3
390
62A
  0
ENDTAB
  0
TABLE
  2
STYLE
  5
61E
330
0
100
AcDbSymbolTable
 70
     5
  0
STYLE
  5
670
330
61E
100
AcDbSymbolTableRecord
100
AcDbTextStyleTableRecord
  2
STANDARD
 70
     0
 40
0.0
 41
1.0
 50
0.0
 71
     0
 42
0.2
  3
txt
  4

  0
STYLE
  5
68F
330
61E
100
AcDbSymbolTableRecord
100
AcDbTextStyleTableRecord
  2
ROMANS
 70
     0
 40
0.0
 41
0.75
 50
0.0
 71
     0
 42
0.2
  3
romans.shx
  4

  0
ENDTAB
  0
TABLE
  2
VIEW
  5
621
330
0
100
AcDbSymbolTable
 70
     0
  0
ENDTAB
  0
TABLE
  2
UCS
  5
622
330
0
100
AcDbSymbolTable
 70
     0
  0
ENDTAB
  0
TABLE
  2
APPID
  5
624
330
0
100
AcDbSymbolTable
 70
    16
  0
APPID
  5
671
330
624
100
AcDbSymbolTableRecord
100
AcDbRegAppTableRecord
  2
ACAD
 70
     0
  0
APPID
  5
678
330
624
100
AcDbSymbolTableRecord
100
AcDbRegAppTableRecord
  2
AcadAnnotative
 70
     0
  0
APPID
  5
69B
330
624
100
AcDbSymbolTableRecord
100
AcDbRegAppTableRecord
  2
ACAD_MLEADERVER
 70
     0
  0
APPID
  5
69C
330
624
100
AcDbSymbolTableRecord
100
AcDbRegAppTableRecord
  2
ACAD_DSTYLE_DIMJAG
 70
     0
  0
APPID
  5
69D
330
624
100
AcDbSymbolTableRecord
100
AcDbRegAppTableRecord
  2
ACAD_DSTYLE_DIMTALN
 70
     0
  0
APPID
  5
69E
330
624
100
AcDbSymbolTableRecord
100
AcDbRegAppTableRecord
  2
ACAD_PSEXT
 70
     0
  0
APPID
  5
69F
330
624
100
AcDbSymbolTableRecord
100
AcDbRegAppTableRecord
  2
ACADANNOPO
 70
     0
  0
APPID
  5
6A0
330
624
100
AcDbSymbolTableRecord
100
AcDbRegAppTableRecord
  2
MCAD_NO_VIS
 70
     0
  0
APPID
  5
6A1
330
624
100
AcDbSymbolTableRecord
100
AcDbRegAppTableRecord
  2
ACAD_TEMP_GRAPHIC
 70
     0
  0
APPID
  5
6A2
330
624
100
AcDbSymbolTableRecord
100
AcDbRegAppTableRecord
  2
ACATTRIBSERVICES
 70
     0
  0
APPID
  5
6A3
330
624
100
AcDbSymbolTableRecord
100
AcDbRegAppTableRecord
  2
DESIGNERASSEMBLIES
 70
     0
  0
APPID
  5
6A4
330
624
100
AcDbSymbolTableRecord
100
AcDbRegAppTableRecord
  2
ACAD_DSTYLE_DIMBREAK
 70
     0
  0
APPID
  5
6A5
330
624
100
AcDbSymbolTableRecord
100
AcDbRegAppTableRecord
  2
ACAD_NAV_VCDISPLAY
 70
     0
  0
APPID
  5
6A6
330
624
100
AcDbSymbolTableRecord
100
AcDbRegAppTableRecord
  2
GRADIENTCOLOR1ACI
 70
     0
  0
APPID
  5
6A7
330
624
100
AcDbSymbolTableRecord
100
AcDbRegAppTableRecord
  2
GRADIENTCOLOR2ACI
 70
     0
  0
APPID
  5
70B
330
624
100
AcDbSymbolTableRecord
100
AcDbRegAppTableRecord
  2
ACAD_EXEMPT_FROM_CAD_STANDARDS
 70
     0
  0
ENDTAB
  0
TABLE
  2
DIMSTYLE
  5
625
330
0
100
AcDbSymbolTable
 70
    10
100
AcDbDimStyleTable
 71
     1
340
6A8
  0
DIMSTYLE
105
672
330
625
100
AcDbSymbolTableRecord
100
AcDbDimStyleTableRecord
  2
STANDARD
 70
     0
271
     6
272
     6
273
     5
277
     5
279
     2
340
68F
  0
DIMSTYLE
105
6A8
330
625
100
AcDbSymbolTableRecord
100
AcDbDimStyleTableRecord
  2
BAC
 70
     0
 41
0.09375
 43
0.375
 44
0.03125
 73
     0
 74
     0
140
0.09375
141
0.09375
147
0.0625
177
     6
271
     6
272
     6
273
     5
277
     5
279
     2
340
68F
  0
ENDTAB
  0
TABLE
  2
BLOCK_RECORD
  5
61C
330
0
100
AcDbSymbolTable
 70
     7
  0
BLOCK_RECORD
  5
68B
330
61C
100
AcDbSymbolTableRecord
100
AcDbBlockTableRecord
  2
*Model_Space
340
68E
  0
BLOCK_RECORD
  5
687
330
61C
100
AcDbSymbolTableRecord
100
AcDbBlockTableRecord
  2
*Paper_Space
340
68A
  0
BLOCK_RECORD
  5
6BB
330
61C
100
AcDbSymbolTableRecord
100
AcDbBlockTableRecord
  2
*X4
340
0
102
{BLKREFS
331
528
102
}
  0
ENDTAB
  0
ENDSEC
  0
SECTION
  2
BLOCKS
  0
BLOCK
  5
68C
330
68B
100
AcDbEntity
  8
0
100
AcDbBlockBegin
  2
*Model_Space
 70
     0
 10
0.0
 20
0.0
 30
0.0
  3
*Model_Space
  1

  0
ENDBLK
  5
68D
330
68B
100
AcDbEntity
  8
0
100
AcDbBlockEnd
  0
BLOCK
  5
688
330
687
100
AcDbEntity
 67
     1
  8
0
100
AcDbBlockBegin
  2
*Paper_Space
 70
     0
 10
0.0
 20
0.0
 30
0.0
  3
*Paper_Space
  1

  0
ENDBLK
  5
689
330
687
100
AcDbEntity
 67
     1
  8
0
100
AcDbBlockEnd
  0
BLOCK
  5
6BC
330
6BB
100
AcDbEntity
  8
0
100
AcDbBlockBegin
  2
*X4
 70
     1
 10
0.0
 20
0.0
 30
0.0
  3
*X4
  1

  0
LINE
  5
585
330
6BB
100
AcDbEntity
  8
0
 62
     0
100
AcDbLine
 10
289.5
 20
4.000004503757656
 30
0.0
 11
289.5
 21
42.5000045037582
 31
0.0
  0
LINE
  5
586
330
6BB
100
AcDbEntity
  8
0
 62
     0
100
AcDbLine
 10
288.0
 20
4.000004503757641
 30
0.0
 11
288.0
 21
42.50000450375817
 31
0.0
  0
LINE
  5
587
330
6BB
100
AcDbEntity
  8
0
 62
     0
100
AcDbLine
 10
286.5
 20
4.000004503757627
 30
0.0
 11
286.5
 21
42.50000450375817
 31
0.0
  0
LINE
  5
588
330
6BB
100
AcDbEntity
  8
0
 62
     0
100
AcDbLine
 10
285.0
 20
4.000004503757612
 30
0.0
 11
285.0
 21
42.50000450375814
 31
0.0
  0
LINE
  5
589
330
6BB
100
AcDbEntity
  8
0
 62
     0
100
AcDbLine
 10
283.5
 20
4.000004503757597
 30
0.0
 11
283.5
 21
42.50000450375813
 31
0.0
  0
LINE
  5
58A
330
6BB
100
AcDbEntity
  8
0
 62
     0
100
AcDbLine
 10
264.0
 20
4.000004503757402
 30
0.0
 11
264.0
 21
42.50000450375794
 31
0.0
  0
LINE
  5
58B
330
6BB
100
AcDbEntity
  8
0
 62
     0
100
AcDbLine
 10
262.5
 20
4.000004503757386
 30
0.0
 11
262.5
 21
42.50000450375792
 31
0.0
  0
LINE
  5
58C
330
6BB
100
AcDbEntity
  8
0
 62
     0
100
AcDbLine
 10
261.0
 20
4.00000450375737
 30
0.0
 11
261.0
 21
42.5000045037579
 31
0.0
  0
LINE
  5
58D
330
6BB
100
AcDbEntity
  8
0
 62
     0
100
AcDbLine
 10
259.5
 20
4.000004503757354
 30
0.0
 11
259.5
 21
42.50000450375789
 31
0.0
  0
LINE
  5
58E
330
6BB
100
AcDbEntity
  8
0
 62
     0
100
AcDbLine
 10
258.0
 20
4.000004503757338
 30
0.0
 11
258.0
 21
42.50000450375788
 31
0.0
  0
LINE
  5
58F
330
6BB
100
AcDbEntity
  8
0
 62
     0
100
AcDbLine
 10
256.5
 20
4.000004503757322
 30
0.0
 11
256.5
 21
42.50000450375785
 31
0.0
  0
LINE
  5
590
330
6BB
100
AcDbEntity
  8
0
 62
     0
100
AcDbLine
 10
255.0
 20
4.000004503757306
 30
0.0
 11
255.0
 21
42.50000450375785
 31
0.0
  0
LINE
  5
591
330
6BB
100
AcDbEntity
  8
0
 62
     0
100
AcDbLine
 10
253.5
 20
4.00000450375729
 30
0.0
 11
253.5
 21
42.50000450375782
 31
0.0
  0
LINE
  5
592
330
6BB
100
AcDbEntity
  8
0
 62
     0
100
AcDbLine
 10
252.0
 20
4.000004503757274
 30
0.0
 11
252.0
 21
42.50000450375782
 31
0.0
  0
LINE
  5
593
330
6BB
100
AcDbEntity
  8
0
 62
     0
100
AcDbLine
 10
250.5
 20
4.000004503757258
 30
0.0
 11
250.5
 21
42.50000450375779
 31
0.0
  0
LINE
  5
594
330
6BB
100
AcDbEntity
  8
0
 62
     0
100
AcDbLine
 10
249.0
 20
4.000004503757242
 30
0.0
 11
249.0
 21
42.50000450375777
 31
0.0
  0
LINE
  5
595
330
6BB
100
AcDbEntity
  8
0
 62
     0
100
AcDbLine
 10
247.5
 20
4.000004503757226
 30
0.0
 11
247.5
 21
42.50000450375775
 31
0.0
  0
LINE
  5
596
330
6BB
100
AcDbEntity
  8
0
 62
     0
100
AcDbLine
 10
228.0
 20
4.000004503757033
 30
0.0
 11
228.0
 21
42.50000450375757
 31
0.0
  0
LINE
  5
597
330
6BB
100
AcDbEntity
  8
0
 62
     0
100
AcDbLine
 10
226.5
 20
4.000004503757017
 30
0.0
 11
226.5
 21
42.50000450375755
 31
0.0
  0
LINE
  5
598
330
6BB
100
AcDbEntity
  8
0
 62
     0
100
AcDbLine
 10
225.0
 20
4.000004503757001
 30
0.0
 11
225.0
 21
42.50000450375753
 31
0.0
  0
LINE
  5
599
330
6BB
100
AcDbEntity
  8
0
 62
     0
100
AcDbLine
 10
223.5
 20
4.000004503756984
 30
0.0
 11
223.5
 21
42.5000045037575
 31
0.0
  0
LINE
  5
59A
330
6BB
100
AcDbEntity
  8
0
 62
     0
100
AcDbLine
 10
222.0
 20
4.000004503756968
 30
0.0
 11
222.0
 21
42.5000045037575
 31
0.0
  0
LINE
  5
59B
330
6BB
100
AcDbEntity
  8
0
 62
     0
100
AcDbLine
 10
246.5631468056608
 20
4.5
 30
0.0
 11
264.5721464603323
 21
4.5
 31
0.0
  0
LINE
  5
59C
330
6BB
100
AcDbEntity
  8
0
 62
     0
100
AcDbLine
 10
282.55516212243
 20
4.5
 30
0.0
 11
289.9381468056608
 21
4.5
 31
0.0
  0
LINE
  5
59D
330
6BB
100
AcDbEntity
  8
0
 62
     0
100
AcDbLine
 10
221.1881468056609
 20
4.5
 30
0.0
 11
228.5631468056601
 21
4.5
 31
0.0
  0
LINE
  5
59E
330
6BB
100
AcDbEntity
  8
0
 62
     0
100
AcDbLine
 10
246.5631468056608
 20
6.0
 30
0.0
 11
264.5721464603323
 21
6.0
 31
0.0
  0
LINE
  5
59F
330
6BB
100
AcDbEntity
  8
0
 62
     0
100
AcDbLine
 10
282.55516212243
 20
6.0
 30
0.0
 11
289.9381468056608
 21
6.0
 31
0.0
  0
LINE
  5
5A0
330
6BB
100
AcDbEntity
  8
0
 62
     0
100
AcDbLine
 10
221.1881468056609
 20
6.0
 30
0.0
 11
228.5631468056601
 21
6.0
 31
0.0
  0
LINE
  5
5A1
330
6BB
100
AcDbEntity
  8
0
 62
     0
100
AcDbLine
 10
246.5631468056608
 20
7.5
 30
0.0
 11
264.5721464603323
 21
7.5
 31
0.0
  0
LINE
  5
5A2
330
6BB
100
AcDbEntity
  8
0
 62
     0
100
AcDbLine
 10
282.55516212243
 20
7.5
 30
0.0
 11
289.9381468056608
 21
7.5
 31
0.0
  0
LINE
  5
5A3
330
6BB
100
AcDbEntity
  8
0
 62
     0
100
AcDbLine
 10
221.1881468056609
 20
7.5
 30
0.0
 11
228.5631468056601
 21
7.5
 31
0.0
  0
LINE
  5
5A4
330
6BB
100
AcDbEntity
  8
0
 62
     0
100
AcDbLine
 10
246.5631468056608
 20
9.0
 30
0.0
 11
264.5721464603323
 21
9.0
 31
0.0
  0
LINE
  5
5A5
330
6BB
100
AcDbEntity
  8
0
 62
     0
100
AcDbLine
 10
282.55516212243
 20
9.0
 30
0.0
 11
289.9381468056608
 21
9.0
 31
0.0
  0
LINE
  5
5A6
330
6BB
100
AcDbEntity
  8
0
 62
     0
100
AcDbLine
 10
221.1881468056609
 20
9.0
 30
0.0
 11
228.5631468056601
 21
9.0
 31
0.0
  0
LINE
  5
5A7
330
6BB
100
AcDbEntity
  8
0
 62
     0
100
AcDbLine
 10
246.5631468056608
 20
10.5
 30
0.0
 11
264.5721464603323
 21
10.5
 31
0.0
  0
LINE
  5
5A8
330
6BB
100
AcDbEntity
  8
0
 62
     0
100
AcDbLine
 10
282.55516212243
 20
10.5
 30
0.0
 11
289.9381468056608
 21
10.5
 31
0.0
  0
LINE
  5
5A9
330
6BB
100
AcDbEntity
  8
0
 62
     0
100
AcDbLine
 10
221.1881468056609
 20
10.5
 30
0.0
 11
228.5631468056601
 21
10.5
 31
0.0
  0
LINE
  5
5AA
330
6BB
100
AcDbEntity
  8
0
 62
     0
100
AcDbLine
 10
246.5631468056608
 20
12.0
 30
0.0
 11
264.5721464603323
 21
12.0
 31
0.0
  0
LINE
  5
5AB
330
6BB
100
AcDbEntity
  8
0
 62
     0
100
AcDbLine
 10
282.55516212243
 20
12.0
 30
0.0
 11
289.9381468056608
 21
12.0
 31
0.0
  0
LINE
  5
5AC
330
6BB
100
AcDbEntity
  8
0
 62
     0
100
AcDbLine
 10
221.1881468056609
 20
12.0
 30
0.0
 11
228.5631468056601
 21
12.0
 31
0.0
  0
LINE
  5
5AD
330
6BB
100
AcDbEntity
  8
0
 62
     0
100
AcDbLine
 10
246.5631468056608
 20
13.5
 30
0.0
 11
264.5721464603323
 21
13.5
 31
0.0
  0
LINE
  5
5AE
330
6BB
100
AcDbEntity
  8
0
 62
     0
100
AcDbLine
 10
282.55516212243
 20
13.5
 30
0.0
 11
289.9381468056608
 21
13.5
 31
0.0
  0
LINE
  5
5AF
330
6BB
100
AcDbEntity
  8
0
 62
     0
100
AcDbLine
 10
221.1881468056609
 20
13.5
 30
0.0
 11
228.5631468056601
 21
13.5
 31
0.0
  0
LINE
  5
5B0
330
6BB
100
AcDbEntity
  8
0
 62
     0
100
AcDbLine
 10
246.5631468056608
 20
15.0
 30
0.0
 11
264.5721464603323
 21
15.0
 31
0.0
  0
LINE
  5
5B1
330
6BB
100
AcDbEntity
  8
0
 62
     0
100
AcDbLine
 10
282.55516212243
 20
15.0
 30
0.0
 11
289.9381468056608
 21
15.0
 31
0.0
  0
LINE
  5
5B2
330
6BB
100
AcDbEntity
  8
0
 62
     0
100
AcDbLine
 10
221.1881468056609
 20
15.0
 30
0.0
 11
228.5631468056601
 21
15.0
 31
0.0
  0
LINE
  5
5B3
330
6BB
100
AcDbEntity
  8
0
 62
     0
100
AcDbLine
 10
246.5631468056608
 20
16.5
 30
0.0
 11
264.5721464603323
 21
16.5
 31
0.0
  0
LINE
  5
5B4
330
6BB
100
AcDbEntity
  8
0
 62
     0
100
AcDbLine
 10
282.55516212243
 20
16.5
 30
0.0
 11
289.9381468056607
 21
16.5
 31
0.0
  0
LINE
  5
5B5
330
6BB
100
AcDbEntity
  8
0
 62
     0
100
AcDbLine
 10
221.1881468056609
 20
16.5
 30
0.0
 11
228.5631468056601
 21
16.5
 31
0.0
  0
LINE
  5
5B6
330
6BB
100
AcDbEntity
  8
0
 62
     0
100
AcDbLine
 10
246.5631468056608
 20
18.0
 30
0.0
 11
264.5721464603323
 21
18.0
 31
0.0
  0
LINE
  5
5B7
330
6BB
100
AcDbEntity
  8
0
 62
     0
100
AcDbLine
 10
282.55516212243
 20
18.0
 30
0.0
 11
289.9381468056607
 21
18.0
 31
0.0
  0
LINE
  5
5B8
330
6BB
100
AcDbEntity
  8
0
 62
     0
100
AcDbLine
 10
221.1881468056608
 20
18.0
 30
0.0
 11
228.5631468056601
 21
18.0
 31
0.0
  0
LINE
  5
5B9
330
6BB
100
AcDbEntity
  8
0
 62
     0
100
AcDbLine
 10
246.5631468056608
 20
19.5
 30
0.0
 11
264.5721464603323
 21
19.5
 31
0.0
  0
LINE
  5
5BA
330
6BB
100
AcDbEntity
  8
0
 62
     0
100
AcDbLine
 10
282.55516212243
 20
19.5
 30
0.0
 11
289.9381468056607
 21
19.5
 31
0.0
  0
LINE
  5
5BB
330
6BB
100
AcDbEntity
  8
0
 62
     0
100
AcDbLine
 10
221.1881468056608
 20
19.5
 30
0.0
 11
228.5631468056601
 21
19.5
 31
0.0
  0
LINE
  5
5BC
330
6BB
100
AcDbEntity
  8
0
 62
     0
100
AcDbLine
 10
246.5631468056608
 20
21.0
 30
0.0
 11
264.5721464603323
 21
21.0
 31
0.0
  0
LINE
  5
5BD
330
6BB
100
AcDbEntity
  8
0
 62
     0
100
AcDbLine
 10
282.55516212243
 20
21.0
 30
0.0
 11
289.9381468056607
 21
21.0
 31
0.0
  0
LINE
  5
5BE
330
6BB
100
AcDbEntity
  8
0
 62
     0
100
AcDbLine
 10
221.1881468056608
 20
21.0
 30
0.0
 11
228.5631468056601
 21
21.0
 31
0.0
  0
LINE
  5
5BF
330
6BB
100
AcDbEntity
  8
0
 62
     0
100
AcDbLine
 10
246.5631468056608
 20
22.5
 30
0.0
 11
264.5721464603323
 21
22.5
 31
0.0
  0
LINE
  5
5C0
330
6BB
100
AcDbEntity
  8
0
 62
     0
100
AcDbLine
 10
282.55516212243
 20
22.5
 30
0.0
 11
289.9381468056607
 21
22.5
 31
0.0
  0
LINE
  5
5C1
330
6BB
100
AcDbEntity
  8
0
 62
     0
100
AcDbLine
 10
221.1881468056608
 20
22.5
 30
0.0
 11
228.5631468056601
 21
22.5
 31
0.0
  0
LINE
  5
5C2
330
6BB
100
AcDbEntity
  8
0
 62
     0
100
AcDbLine
 10
246.5631468056608
 20
24.0
 30
0.0
 11
264.5721464603323
 21
24.0
 31
0.0
  0
LINE
  5
5C3
330
6BB
100
AcDbEntity
  8
0
 62
     0
100
AcDbLine
 10
282.55516212243
 20
24.0
 30
0.0
 11
289.9381468056607
 21
24.0
 31
0.0
  0
LINE
  5
5C4
330
6BB
100
AcDbEntity
  8
0
 62
     0
100
AcDbLine
 10
221.1881468056608
 20
24.0
 30
0.0
 11
228.5631468056601
 21
24.0
 31
0.0
  0
LINE
  5
5C5
330
6BB
100
AcDbEntity
  8
0
 62
     0
100
AcDbLine
 10
246.5631468056608
 20
25.5
 30
0.0
 11
264.5721464603323
 21
25.5
 31
0.0
  0
LINE
  5
5C6
330
6BB
100
AcDbEntity
  8
0
 62
     0
100
AcDbLine
 10
282.55516212243
 20
25.5
 30
0.0
 11
289.9381468056607
 21
25.5
 31
0.0
  0
LINE
  5
5C7
330
6BB
100
AcDbEntity
  8
0
 62
     0
100
AcDbLine
 10
221.1881468056608
 20
25.5
 30
0.0
 11
228.5631468056601
 21
25.5
 31
0.0
  0
LINE
  5
5C8
330
6BB
100
AcDbEntity
  8
0
 62
     0
100
AcDbLine
 10
246.5631468056608
 20
27.0
 30
0.0
 11
264.5721464603323
 21
27.0
 31
0.0
  0
LINE
  5
5C9
330
6BB
100
AcDbEntity
  8
0
 62
     0
100
AcDbLine
 10
282.55516212243
 20
27.0
 30
0.0
 11
289.9381468056607
 21
27.0
 31
0.0
  0
LINE
  5
5CA
330
6BB
100
AcDbEntity
  8
0
 62
     0
100
AcDbLine
 10
221.1881468056607
 20
27.0
 30
0.0
 11
228.5631468056601
 21
27.0
 31
0.0
  0
LINE
  5
5CB
330
6BB
100
AcDbEntity
  8
0
 62
     0
100
AcDbLine
 10
246.5631468056608
 20
28.5
 30
0.0
 11
264.5721464603323
 21
28.5
 31
0.0
  0
LINE
  5
5CC
330
6BB
100
AcDbEntity
  8
0
 62
     0
100
AcDbLine
 10
282.55516212243
 20
28.5
 30
0.0
 11
289.9381468056607
 21
28.5
 31
0.0
  0
LINE
  5
5CD
330
6BB
100
AcDbEntity
  8
0
 62
     0
100
AcDbLine
 10
221.1881468056607
 20
28.5
 30
0.0
 11
228.5631468056601
 21
28.5
 31
0.0
  0
LINE
  5
5CE
330
6BB
100
AcDbEntity
  8
0
 62
     0
100
AcDbLine
 10
246.5631468056608
 20
30.0
 30
0.0
 11
264.5721464603323
 21
30.0
 31
0.0
  0
LINE
  5
5CF
330
6BB
100
AcDbEntity
  8
0
 62
     0
100
AcDbLine
 10
282.55516212243
 20
30.0
 30
0.0
 11
289.9381468056607
 21
30.0
 31
0.0
  0
LINE
  5
5D0
330
6BB
100
AcDbEntity
  8
0
 62
     0
100
AcDbLine
 10
221.1881468056607
 20
30.0
 30
0.0
 11
228.5631468056601
 21
30.0
 31
0.0
  0
LINE
  5
5D1
330
6BB
100
AcDbEntity
  8
0
 62
     0
100
AcDbLine
 10
246.5631468056608
 20
31.5
 30
0.0
 11
264.5721464603323
 21
31.5
 31
0.0
  0
LINE
  5
5D2
330
6BB
100
AcDbEntity
  8
0
 62
     0
100
AcDbLine
 10
282.55516212243
 20
31.5
 30
0.0
 11
289.9381468056606
 21
31.5
 31
0.0
  0
LINE
  5
5D3
330
6BB
100
AcDbEntity
  8
0
 62
     0
100
AcDbLine
 10
221.1881468056607
 20
31.5
 30
0.0
 11
228.5631468056601
 21
31.5
 31
0.0
  0
LINE
  5
5D4
330
6BB
100
AcDbEntity
  8
0
 62
     0
100
AcDbLine
 10
246.5631468056608
 20
33.0
 30
0.0
 11
264.5721464603323
 21
33.0
 31
0.0
  0
LINE
  5
5D5
330
6BB
100
AcDbEntity
  8
0
 62
     0
100
AcDbLine
 10
282.55516212243
 20
33.0
 30
0.0
 11
289.9381468056606
 21
33.0
 31
0.0
  0
LINE
  5
5D6
330
6BB
100
AcDbEntity
  8
0
 62
     0
100
AcDbLine
 10
221.1881468056607
 20
33.0
 30
0.0
 11
228.5631468056601
 21
33.0
 31
0.0
  0
LINE
  5
5D7
330
6BB
100
AcDbEntity
  8
0
 62
     0
100
AcDbLine
 10
246.5631468056608
 20
34.5
 30
0.0
 11
264.5721464603323
 21
34.5
 31
0.0
  0
LINE
  5
5D8
330
6BB
100
AcDbEntity
  8
0
 62
     0
100
AcDbLine
 10
282.55516212243
 20
34.5
 30
0.0
 11
289.9381468056606
 21
34.5
 31
0.0
  0
LINE
  5
5D9
330
6BB
100
AcDbEntity
  8
0
 62
     0
100
AcDbLine
 10
221.1881468056607
 20
34.5
 30
0.0
 11
228.5631468056601
 21
34.5
 31
0.0
  0
LINE
  5
5DA
330
6BB
100
AcDbEntity
  8
0
 62
     0
100
AcDbLine
 10
246.5631468056608
 20
36.0
 30
0.0
 11
264.5721464603323
 21
36.0
 31
0.0
  0
LINE
  5
5DB
330
6BB
100
AcDbEntity
  8
0
 62
     0
100
AcDbLine
 10
282.55516212243
 20
36.0
 30
0.0
 11
289.9381468056606
 21
36.0
 31
0.0
  0
LINE
  5
5DC
330
6BB
100
AcDbEntity
  8
0
 62
     0
100
AcDbLine
 10
221.1881468056606
 20
36.0
 30
0.0
 11
228.5631468056601
 21
36.0
 31
0.0
  0
LINE
  5
5DD
330
6BB
100
AcDbEntity
  8
0
 62
     0
100
AcDbLine
 10
246.5631468056608
 20
37.5
 30
0.0
 11
264.5721464603323
 21
37.5
 31
0.0
  0
LINE
  5
5DE
330
6BB
100
AcDbEntity
  8
0
 62
     0
100
AcDbLine
 10
282.55516212243
 20
37.5
 30
0.0
 11
289.9381468056606
 21
37.5
 31
0.0
  0
LINE
  5
5DF
330
6BB
100
AcDbEntity
  8
0
 62
     0
100
AcDbLine
 10
221.1881468056606
 20
37.5
 30
0.0
 11
228.5631468056601
 21
37.5
 31
0.0
  0
LINE
  5
5E0
330
6BB
100
AcDbEntity
  8
0
 62
     0
100
AcDbLine
 10
246.5631468056608
 20
39.0
 30
0.0
 11
264.5721464603323
 21
39.0
 31
0.0
  0
LINE
  5
5E1
330
6BB
100
AcDbEntity
  8
0
 62
     0
100
AcDbLine
 10
282.55516212243
 20
39.0
 30
0.0
 11
289.9381468056605
 21
39.0
 31
0.0
  0
LINE
  5
5E2
330
6BB
100
AcDbEntity
  8
0
 62
     0
100
AcDbLine
 10
221.1881468056606
 20
39.0
 30
0.0
 11
228.5631468056601
 21
39.0
 31
0.0
  0
LINE
  5
5E3
330
6BB
100
AcDbEntity
  8
0
 62
     0
100
AcDbLine
 10
246.5631468056608
 20
40.49999999999999
 30
0.0
 11
264.5721464603323
 21
40.49999999999999
 31
0.0
  0
LINE
  5
5E4
330
6BB
100
AcDbEntity
  8
0
 62
     0
100
AcDbLine
 10
282.55516212243
 20
40.49999999999999
 30
0.0
 11
289.9381468056605
 21
40.49999999999999
 31
0.0
  0
LINE
  5
5E5
330
6BB
100
AcDbEntity
  8
0
 62
     0
100
AcDbLine
 10
221.1881468056606
 20
40.49999999999999
 30
0.0
 11
228.5631468056601
 21
40.49999999999999
 31
0.0
  0
LINE
  5
5E6
330
6BB
100
AcDbEntity
  8
0
 62
     0
100
AcDbLine
 10
246.5631468056608
 20
42.0
 30
0.0
 11
264.5721464603323
 21
42.0
 31
0.0
  0
LINE
  5
5E7
330
6BB
100
AcDbEntity
  8
0
 62
     0
100
AcDbLine
 10
282.55516212243
 20
42.0
 30
0.0
 11
289.9381468056605
 21
42.0
 31
0.0
  0
LINE
  5
5E8
330
6BB
100
AcDbEntity
  8
0
 62
     0
100
AcDbLine
 10
221.1881468056606
 20
42.0
 30
0.0
 11
228.5631468056601
 21
42.0
 31
0.0
  0
ENDBLK
  5
5EA
330
6BB
100
AcDbEntity
  8
0
100
AcDbBlockEnd
  0
ENDSEC
  0
SECTION
  2
ENTITIES
  0
LINE
  5
379
330
68B
100
AcDbEntity
  8
0
100
AcDbLine
 10
124.8203710302177
 20
108.1250045037576
 30
0.0
 11
165.570371030215
 21
108.1250045037576
 31
0.0
  0
LINE
  5
37A
330
68B
100
AcDbEntity
  8
0
100
AcDbLine
 10
165.570371030215
 20
44.12500450375775
 30
0.0
 11
124.8203710302177
 21
44.12500450375775
 31
0.0
  0
LINE
  5
37B
330
68B
100
AcDbEntity
  8
0
100
AcDbLine
 10
124.8203710302177
 20
44.12500450375775
 30
0.0
 11
124.8203710302177
 21
108.1250045037576
 31
0.0
  0
LINE
  5
37C
330
68B
100
AcDbEntity
  8
0
100
AcDbLine
 10
165.570371030215
 20
44.12500450375775
 30
0.0
 11
165.570371030215
 21
108.1250045037576
 31
0.0
  0
LINE
  5
37D
330
68B
100
AcDbEntity
  8
0
100
AcDbLine
 10
124.8203710302185
 20
44.1250045037577
 30
0.0
 11
172.3203710302185
 21
44.1250045037577
 31
0.0
  0
LINE
  5
37E
330
68B
100
AcDbEntity
  8
0
100
AcDbLine
 10
172.3203710302185
 20
0.0000045037577352
 30
0.0
 11
124.8203710302185
 21
0.0000045037577352
 31
0.0
  0
LINE
  5
37F
330
68B
100
AcDbEntity
  8
0
100
AcDbLine
 10
124.8203710302185
 20
44.1250045037577
 30
0.0
 11
124.8203710302185
 21
0.0000045037577352
 31
0.0
  0
LINE
  5
380
330
68B
100
AcDbEntity
  8
0
100
AcDbLine
 10
172.3203710302185
 20
0.0000045037577352
 30
0.0
 11
172.3203710302185
 21
44.1250045037577
 31
0.0
  0
ARC
  5
381
330
68B
100
AcDbEntity
  8
0
100
AcDbCircle
 10
145.1953710302181
 20
97.87500450375812
 30
0.0
 40
1.5
100
AcDbArc
 50
359.9999999999992
 51
180.0
  0
ARC
  5
382
330
68B
100
AcDbEntity
  8
0
100
AcDbCircle
 10
145.1953710302181
 20
97.87500450375812
 30
0.0
 40
1.5
100
AcDbArc
 50
180.0000000000001
 51
359.9999999999992
  0
ARC
  5
383
330
68B
100
AcDbEntity
  8
0
100
AcDbCircle
 10
154.820371030218
 20
39.00000450375774
 30
0.0
 40
0.4999999999999964
100
AcDbArc
 50
359.9999999999992
 51
179.9999999999996
  0
ARC
  5
384
330
68B
100
AcDbEntity
  8
0
100
AcDbCircle
 10
154.820371030218
 20
39.00000450375774
 30
0.0
 40
0.5000000000000151
100
AcDbArc
 50
180.0000000000004
 51
359.9999999999984
  0
ARC
  5
385
330
68B
100
AcDbEntity
  8
0
100
AcDbCircle
 10
142.070371030218
 20
26.12500450375773
 30
0.0
 40
0.9999999999999856
100
AcDbArc
 50
0.0
 51
179.9999999999998
  0
ARC
  5
386
330
68B
100
AcDbEntity
  8
0
100
AcDbCircle
 10
142.070371030218
 20
26.12500450375773
 30
0.0
 40
1.000000000000005
100
AcDbArc
 50
180.0000000000002
 51
359.9999999999995
  0
ARC
  5
387
330
68B
100
AcDbEntity
  8
0
100
AcDbCircle
 10
127.0703710302179
 20
8.375004503757734
 30
0.0
 40
1.000000000000005
100
AcDbArc
 50
359.9999999999992
 51
179.9999999999992
  0
ARC
  5
388
330
68B
100
AcDbEntity
  8
0
100
AcDbCircle
 10
127.0703710302179
 20
8.375004503757734
 30
0.0
 40
0.9999999999999912
100
AcDbArc
 50
180.0000000000006
 51
0.0000000000000509
  0
ARC
  5
389
330
68B
100
AcDbEntity
  8
0
100
AcDbCircle
 10
128.9453710302182
 20
12.87500450375816
 30
0.0
 40
1.499999999999995
100
AcDbArc
 50
359.9999999999996
 51
179.9999999999997
  0
ARC
  5
38A
330
68B
100
AcDbEntity
  8
0
100
AcDbCircle
 10
128.9453710302182
 20
12.87500450375816
 30
0.0
 40
1.500000000000006
100
AcDbArc
 50
180.0000000000002
 51
359.9999999999992
  0
LINE
  5
38B
330
68B
100
AcDbEntity
  8
0
100
AcDbLine
 10
219.5631468056664
 20
108.1250045037576
 30
0.0
 11
291.5631468056611
 21
108.1250045037576
 31
0.0
  0
LINE
  5
38C
330
68B
100
AcDbEntity
  8
0
100
AcDbLine
 10
219.5631468056664
 20
44.12500450375775
 30
0.0
 11
219.5631468056664
 21
108.1250045037576
 31
0.0
  0
LINE
  5
38D
330
68B
100
AcDbEntity
  8
0
100
AcDbLine
 10
291.5631468056611
 20
44.12500450375775
 30
0.0
 11
291.5631468056611
 21
108.1250045037576
 31
0.0
  0
LINE
  5
38E
330
68B
100
AcDbEntity
  8
0
100
AcDbLine
 10
265.5631468056605
 20
5.000004503758131
 30
0.0
 11
281.5631468056606
 21
5.000004503757961
 31
0.0
  0
LINE
  5
38F
330
68B
100
AcDbEntity
  8
0
100
AcDbLine
 10
265.5631468056608
 20
39.80109554017705
 30
0.0
 11
281.563146805661
 21
39.80109554017701
 31
0.0
  0
LINE
  5
390
330
68B
100
AcDbEntity
  8
0
100
AcDbLine
 10
264.5721464603323
 20
4.000004503757788
 30
0.0
 11
264.5721464603323
 21
42.50000450375833
 31
0.0
  0
LINE
  5
391
330
68B
100
AcDbEntity
  8
0
100
AcDbLine
 10
265.5631468056608
 20
42.50000450375833
 30
0.0
 11
265.5631468056608
 21
4.000004503757788
 31
0.0
  0
LINE
  5
392
330
68B
100
AcDbEntity
  8
0
100
AcDbLine
 10
264.5721464603323
 20
4.000004503757788
 30
0.0
 11
265.5631468056608
 21
4.000004503757788
 31
0.0
  0
LINE
  5
393
330
68B
100
AcDbEntity
  8
0
100
AcDbLine
 10
265.5631468056608
 20
42.50000450375833
 30
0.0
 11
264.5721464603323
 21
42.50000450375833
 31
0.0
  0
LINE
  5
394
330
68B
100
AcDbEntity
  8
0
100
AcDbLine
 10
281.5631468056608
 20
4.000004503757763
 30
0.0
 11
281.5631468056608
 21
42.50000450375831
 31
0.0
  0
LINE
  5
395
330
68B
100
AcDbEntity
  8
0
100
AcDbLine
 10
282.55516212243
 20
42.50000450375831
 30
0.0
 11
282.55516212243
 21
4.000004503757763
 31
0.0
  0
LINE
  5
396
330
68B
100
AcDbEntity
  8
0
100
AcDbLine
 10
282.55516212243
 20
4.000004503757763
 30
0.0
 11
281.5631468056608
 21
4.000004503757763
 31
0.0
  0
LINE
  5
397
330
68B
100
AcDbEntity
  8
0
100
AcDbLine
 10
282.55516212243
 20
42.50000450375831
 30
0.0
 11
281.5631468056608
 21
42.50000450375831
 31
0.0
  0
LINE
  5
398
330
68B
100
AcDbEntity
  8
0
100
AcDbLine
 10
229.5631468056603
 20
5.000004503757961
 30
0.0
 11
245.5631468056602
 21
5.000004503758131
 31
0.0
  0
LINE
  5
399
330
68B
100
AcDbEntity
  8
0
100
AcDbLine
 10
229.5631468056605
 20
39.80109554017687
 30
0.0
 11
245.5631468056605
 21
39.80109554017703
 31
0.0
  0
LINE
  5
39A
330
68B
100
AcDbEntity
  8
0
100
AcDbLine
 10
245.5631468056608
 20
4.00000450375782
 30
0.0
 11
245.5631468056608
 21
42.50000450375837
 31
0.0
  0
LINE
  5
39B
330
68B
100
AcDbEntity
  8
0
100
AcDbLine
 10
246.5631468056609
 20
42.50000450375837
 30
0.0
 11
246.5631468056609
 21
4.00000450375782
 31
0.0
  0
LINE
  5
39C
330
68B
100
AcDbEntity
  8
0
100
AcDbLine
 10
245.5631468056608
 20
4.00000450375782
 30
0.0
 11
246.5631468056609
 21
4.00000450375782
 31
0.0
  0
LINE
  5
39D
330
68B
100
AcDbEntity
  8
0
100
AcDbLine
 10
246.5631468056609
 20
42.50000450375837
 30
0.0
 11
245.5631468056608
 21
42.50000450375837
 31
0.0
  0
LINE
  5
39E
330
68B
100
AcDbEntity
  8
0
100
AcDbLine
 10
228.5631468056608
 20
4.000004503757843
 30
0.0
 11
228.5631468056608
 21
42.50000450375838
 31
0.0
  0
LINE
  5
39F
330
68B
100
AcDbEntity
  8
0
100
AcDbLine
 10
229.5631468056608
 20
42.50000450375838
 30
0.0
 11
229.5631468056608
 21
4.000004503757843
 31
0.0
  0
LINE
  5
3A0
330
68B
100
AcDbEntity
  8
0
100
AcDbLine
 10
228.5631468056608
 20
4.000004503757843
 30
0.0
 11
229.5631468056608
 21
4.000004503757843
 31
0.0
  0
LINE
  5
3A1
330
68B
100
AcDbEntity
  8
0
100
AcDbLine
 10
229.5631468056608
 20
42.50000450375838
 30
0.0
 11
228.5631468056608
 21
42.50000450375838
 31
0.0
  0
LINE
  5
3A2
330
68B
100
AcDbEntity
  8
0
100
AcDbLine
 10
221.1881468056607
 20
42.50000450376012
 30
0.0
 11
221.1881468056607
 21
4.000004503757729
 31
0.0
  0
LINE
  5
3A3
330
68B
100
AcDbEntity
  8
0
100
AcDbLine
 10
221.1881468056607
 20
4.000004503757729
 30
0.0
 11
228.5631468056601
 21
4.000004503757729
 31
0.0
  0
LINE
  5
3A4
330
68B
100
AcDbEntity
  8
0
100
AcDbLine
 10
228.5631468056601
 20
4.000004503757729
 30
0.0
 11
228.5631468056601
 21
42.50000450376012
 31
0.0
1001
ACAD
1000
ASC_BOUNDS
1002
{
1070
    19
1005
528
1002
}
  0
LINE
  5
3A5
330
68B
100
AcDbEntity
  8
0
100
AcDbLine
 10
228.5631468056601
 20
42.50000450376012
 30
0.0
 11
221.1881468056607
 21
42.50000450376012
 31
0.0
  0
LINE
  5
3A6
330
68B
100
AcDbEntity
  8
0
100
AcDbLine
 10
264.5721464603323
 20
42.50000450375837
 30
0.0
 11
246.5631468056608
 21
42.50000450375837
 31
0.0
  0
LINE
  5
3A7
330
68B
100
AcDbEntity
  8
0
100
AcDbLine
 10
246.5631468056608
 20
42.50000450375837
 30
0.0
 11
246.5631468056608
 21
4.000004503757815
 31
0.0
1001
ACAD
1000
ASC_BOUNDS
1002
{
1070
    19
1005
528
1002
}
  0
LINE
  5
3A8
330
68B
100
AcDbEntity
  8
0
100
AcDbLine
 10
246.5631468056608
 20
4.000004503757815
 30
0.0
 11
264.5721464603323
 21
4.00000450375782
 31
0.0
  0
LINE
  5
3A9
330
68B
100
AcDbEntity
  8
0
100
AcDbLine
 10
264.5721464603323
 20
4.00000450375782
 30
0.0
 11
264.5721464603323
 21
42.50000450375837
 31
0.0
1001
ACAD
1000
ASC_BOUNDS
1002
{
1070
    19
1005
528
1002
}
  0
LINE
  5
3AA
330
68B
100
AcDbEntity
  8
0
100
AcDbLine
 10
289.9381468056608
 20
42.50000450375837
 30
0.0
 11
282.55516212243
 21
42.50000450375837
 31
0.0
  0
LINE
  5
3AB
330
68B
100
AcDbEntity
  8
0
100
AcDbLine
 10
282.55516212243
 20
42.50000450375837
 30
0.0
 11
282.55516212243
 21
4.000004503757815
 31
0.0
1001
ACAD
1000
ASC_BOUNDS
1002
{
1070
    19
1005
528
1002
}
  0
LINE
  5
3AC
330
68B
100
AcDbEntity
  8
0
100
AcDbLine
 10
282.55516212243
 20
4.000004503757815
 30
0.0
 11
289.9381468056608
 21
4.000004503757815
 31
0.0
  0
LINE
  5
3AD
330
68B
100
AcDbEntity
  8
0
100
AcDbLine
 10
289.9381468056608
 20
4.000004503757815
 30
0.0
 11
289.9381468056608
 21
42.50000450375837
 31
0.0
  0
LINE
  5
3AE
330
68B
100
AcDbEntity
  8
0
100
AcDbLine
 10
219.5631468056612
 20
44.1250045037577
 30
0.0
 11
291.5631468056612
 21
44.1250045037577
 31
0.0
  0
LINE
  5
3AF
330
68B
100
AcDbEntity
  8
0
100
AcDbLine
 10
291.5631468056612
 20
0.0000045037577352
 30
0.0
 11
219.5631468056612
 21
0.0000045037577352
 31
0.0
  0
LINE
  5
3B0
330
68B
100
AcDbEntity
  8
0
100
AcDbLine
 10
219.5631468056612
 20
0.0000045037577352
 30
0.0
 11
219.5631468056612
 21
44.1250045037577
 31
0.0
  0
LINE
  5
3B1
330
68B
100
AcDbEntity
  8
0
100
AcDbLine
 10
221.1881468056609
 20
4.000004503756962
 30
0.0
 11
221.1881468056606
 21
42.5000045037575
 31
0.0
1001
ACAD
1000
ASC_BOUNDS
1002
{
1070
    19
1005
528
1002
}
  0
LINE
  5
3B2
330
68B
100
AcDbEntity
  8
0
100
AcDbLine
 10
221.1881468056606
 20
42.5000045037575
 30
0.0
 11
289.9381468056605
 21
42.50000450375821
 31
0.0
1001
ACAD
1000
ASC_BOUNDS
1002
{
1070
    19
1005
528
1005
528
1005
528
1002
}
  0
LINE
  5
3B3
330
68B
100
AcDbEntity
  8
0
100
AcDbLine
 10
289.9381468056605
 20
42.50000450375821
 30
0.0
 11
289.9381468056608
 21
4.000004503757661
 31
0.0
1001
ACAD
1000
ASC_BOUNDS
1002
{
1070
    19
1005
528
1002
}
  0
LINE
  5
3B4
330
68B
100
AcDbEntity
  8
0
100
AcDbLine
 10
289.9381468056608
 20
4.000004503757661
 30
0.0
 11
221.1881468056609
 21
4.000004503756956
 31
0.0
1001
ACAD
1000
ASC_BOUNDS
1002
{
1070
    19
1005
528
1005
528
1005
528
1002
}
  0
LINE
  5
3B5
330
68B
100
AcDbEntity
  8
0
100
AcDbLine
 10
291.5631468056612
 20
0.0000045037577352
 30
0.0
 11
291.5631468056612
 21
44.1250045037577
 31
0.0
  0
ARC
  5
3B6
330
68B
100
AcDbEntity
  8
0
100
AcDbCircle
 10
255.5631468056606
 20
78.12500450375887
 30
0.0
 40
8.25000000000003
100
AcDbArc
 50
179.9999999999996
 51
359.9999999999988
  0
ARC
  5
3B7
330
68B
100
AcDbEntity
  8
0
100
AcDbCircle
 10
255.5631468056606
 20
78.12500450375887
 30
0.0
 40
8.250000000000008
100
AcDbArc
 50
359.9999999999995
 51
179.9999999999996
  0
ARC
  5
3B8
330
68B
100
AcDbEntity
  8
0
100
AcDbCircle
 10
255.5631468056606
 20
78.12500450375887
 30
0.0
 40
7.687499999999996
100
AcDbArc
 50
0.000000000000687
 51
180.0000000000001
  0
ARC
  5
3B9
330
68B
100
AcDbEntity
  8
0
100
AcDbCircle
 10
255.5631468056606
 20
78.12500450375887
 30
0.0
 40
7.687499999999992
100
AcDbArc
 50
180.0000000000001
 51
359.9999999999996
  0
LINE
  5
3BA
330
68B
100
AcDbEntity
  8
0
100
AcDbLine
 10
260.6856475796484
 20
75.68314865496148
 30
0.0
 11
260.490707103458
 21
75.23423992480278
 31
0.0
  0
LINE
  5
3BB
330
68B
100
AcDbEntity
  8
0
100
AcDbLine
 10
260.490707103458
 20
75.23423992480278
 30
0.0
 11
260.0398142463151
 21
75.0769978613107
 31
0.0
  0
LINE
  5
3BC
330
68B
100
AcDbEntity
  8
0
100
AcDbLine
 10
260.0398142463151
 20
75.0769978613107
 30
0.0
 11
259.7152854764739
 21
75.14123397242181
 31
0.0
  0
LINE
  5
3BD
330
68B
100
AcDbEntity
  8
0
100
AcDbLine
 10
259.7152854764739
 20
75.14123397242181
 30
0.0
 11
259.4797944050453
 21
75.33394230575513
 31
0.0
  0
LINE
  5
3BE
330
68B
100
AcDbEntity
  8
0
100
AcDbLine
 10
259.4797944050453
 20
75.33394230575513
 30
0.0
 11
259.2888221828231
 21
76.09187881369161
 31
0.0
  0
LINE
  5
3BF
330
68B
100
AcDbEntity
  8
0
100
AcDbLine
 10
259.2888221828231
 20
76.09187881369161
 30
0.0
 11
259.4728499606008
 21
76.85576770258052
 31
0.0
  0
LINE
  5
3C0
330
68B
100
AcDbEntity
  8
0
100
AcDbLine
 10
259.4728499606008
 20
76.85576770258052
 30
0.0
 11
259.70263666695
 21
77.04549984543766
 31
0.0
  0
LINE
  5
3C1
330
68B
100
AcDbEntity
  8
0
100
AcDbLine
 10
259.70263666695
 20
77.04549984543766
 30
0.0
 11
260.0239412304421
 21
77.10874389305669
 31
0.0
  0
LINE
  5
3C2
330
68B
100
AcDbEntity
  8
0
100
AcDbLine
 10
260.0239412304421
 20
77.10874389305669
 30
0.0
 11
260.4921951986961
 21
76.96539071845356
 31
0.0
  0
LINE
  5
3C3
330
68B
100
AcDbEntity
  8
0
100
AcDbLine
 10
260.4921951986961
 20
76.96539071845356
 30
0.0
 11
260.6856475796484
 21
76.54029151210434
 31
0.0
  0
LINE
  5
3C4
330
68B
100
AcDbEntity
  8
0
100
AcDbLine
 10
260.6856475796484
 20
76.54029151210434
 30
0.0
 11
261.8285047225056
 21
76.54029151210434
 31
0.0
  0
LINE
  5
3C5
330
68B
100
AcDbEntity
  8
0
100
AcDbLine
 10
261.8285047225056
 20
76.54029151210434
 30
0.0
 11
261.6682864685373
 21
77.18798496448529
 31
0.0
  0
LINE
  5
3C6
330
68B
100
AcDbEntity
  8
0
100
AcDbLine
 10
261.6682864685373
 20
77.18798496448529
 30
0.0
 11
261.3007269447277
 21
77.66677960734241
 31
0.0
  0
LINE
  5
3C7
330
68B
100
AcDbEntity
  8
0
100
AcDbLine
 10
261.3007269447277
 20
77.66677960734241
 30
0.0
 11
260.74169916695
 21
77.96253853591387
 31
0.0
  0
LINE
  5
3C8
330
68B
100
AcDbEntity
  8
0
100
AcDbLine
 10
260.74169916695
 20
77.96253853591387
 30
0.0
 11
260.007076151077
 21
78.06112484543766
 31
0.0
  0
LINE
  5
3C9
330
68B
100
AcDbEntity
  8
0
100
AcDbLine
 10
260.007076151077
 20
78.06112484543766
 30
0.0
 11
259.2090850796484
 21
77.92918040099323
 31
0.0
  0
LINE
  5
3CA
330
68B
100
AcDbEntity
  8
0
100
AcDbLine
 10
259.2090850796484
 20
77.92918040099323
 30
0.0
 11
258.5988420240929
 21
77.53334706765989
 31
0.0
  0
LINE
  5
3CB
330
68B
100
AcDbEntity
  8
0
100
AcDbLine
 10
258.5988420240929
 20
77.53334706765989
 30
0.0
 11
258.2115652383786
 21
76.90933913115195
 31
0.0
  0
LINE
  5
3CC
330
68B
100
AcDbEntity
  8
0
100
AcDbLine
 10
258.2115652383786
 20
76.90933913115195
 30
0.0
 11
258.0824729764739
 21
76.09287087718371
 31
0.0
  0
LINE
  5
3CD
330
68B
100
AcDbEntity
  8
0
100
AcDbLine
 10
258.0824729764739
 20
76.09287087718371
 30
0.0
 11
258.2121852780612
 21
75.27454250416784
 31
0.0
  0
LINE
  5
3CE
330
68B
100
AcDbEntity
  8
0
100
AcDbLine
 10
258.2121852780612
 20
75.27454250416784
 30
0.0
 11
258.6013221828231
 21
74.65090659146941
 31
0.0
  0
LINE
  5
3CF
330
68B
100
AcDbEntity
  8
0
100
AcDbLine
 10
258.6013221828231
 20
74.65090659146941
 30
0.0
 11
259.2166495637754
 21
74.25618932956465
 31
0.0
  0
LINE
  5
3D0
330
68B
100
AcDbEntity
  8
0
100
AcDbLine
 10
259.2166495637754
 20
74.25618932956465
 30
0.0
 11
260.0249332939342
 21
74.12461690892974
 31
0.0
  0
LINE
  5
3D1
330
68B
100
AcDbEntity
  8
0
100
AcDbLine
 10
260.0249332939342
 20
74.12461690892974
 30
0.0
 11
260.7480235717119
 21
74.22679944861227
 31
0.0
  0
LINE
  5
3D2
330
68B
100
AcDbEntity
  8
0
100
AcDbLine
 10
260.7480235717119
 20
74.22679944861227
 30
0.0
 11
261.30419916695
 21
74.53334706765989
 31
0.0
  0
LINE
  5
3D3
330
68B
100
AcDbEntity
  8
0
100
AcDbLine
 10
261.30419916695
 20
74.53334706765989
 30
0.0
 11
261.671634682823
 21
75.02516254385035
 31
0.0
  0
LINE
  5
3D4
330
68B
100
AcDbEntity
  8
0
100
AcDbLine
 10
261.671634682823
 20
75.02516254385035
 30
0.0
 11
261.8285047225056
 21
75.68314865496148
 31
0.0
  0
LINE
  5
3D5
330
68B
100
AcDbEntity
  8
0
100
AcDbLine
 10
261.8285047225056
 20
75.68314865496148
 30
0.0
 11
260.6856475796484
 21
75.68314865496148
 31
0.0
  0
LINE
  5
3D6
330
68B
100
AcDbEntity
  8
0
100
AcDbLine
 10
253.4639202018808
 20
76.45722284388468
 30
0.0
 11
254.6414995669601
 21
76.45722284388468
 31
0.0
  0
LINE
  5
3D7
330
68B
100
AcDbEntity
  8
0
100
AcDbLine
 10
254.6414995669601
 20
76.45722284388468
 30
0.0
 11
254.7883249637855
 21
76.96515935182119
 31
0.0
  0
LINE
  5
3D8
330
68B
100
AcDbEntity
  8
0
100
AcDbLine
 10
254.7883249637855
 20
76.96515935182119
 30
0.0
 11
255.9916979796585
 21
76.96515935182119
 31
0.0
  0
LINE
  5
3D9
330
68B
100
AcDbEntity
  8
0
100
AcDbLine
 10
255.9916979796585
 20
76.96515935182119
 30
0.0
 11
256.1335630590236
 21
76.45722284388468
 31
0.0
  0
LINE
  5
3DA
330
68B
100
AcDbEntity
  8
0
100
AcDbLine
 10
256.1335630590236
 20
76.45722284388468
 30
0.0
 11
257.3369360748967
 21
76.45722284388468
 31
0.0
  0
LINE
  5
3DB
330
68B
100
AcDbEntity
  8
0
100
AcDbLine
 10
257.3369360748967
 20
76.45722284388468
 30
0.0
 11
256.0075709955316
 21
80.26674665340848
 31
0.0
  0
LINE
  5
3DC
330
68B
100
AcDbEntity
  8
0
100
AcDbLine
 10
256.0075709955316
 20
80.26674665340848
 30
0.0
 11
254.7784043288649
 21
80.26674665340848
 31
0.0
  0
LINE
  5
3DD
330
68B
100
AcDbEntity
  8
0
100
AcDbLine
 10
254.7784043288649
 20
80.26674665340848
 30
0.0
 11
253.4639202018808
 21
76.45722284388468
 31
0.0
  0
LINE
  5
3DE
330
68B
100
AcDbEntity
  8
0
100
AcDbLine
 10
255.0085630590236
 20
77.79055617721803
 30
0.0
 11
255.3944757574364
 21
79.09412760578945
 31
0.0
  0
LINE
  5
3DF
330
68B
100
AcDbEntity
  8
0
100
AcDbLine
 10
255.3944757574364
 20
79.09412760578945
 30
0.0
 11
255.7714598844205
 21
77.79055617721803
 31
0.0
  0
LINE
  5
3E0
330
68B
100
AcDbEntity
  8
0
100
AcDbLine
 10
255.7714598844205
 20
77.79055617721803
 30
0.0
 11
255.0085630590236
 21
77.79055617721803
 31
0.0
  0
LINE
  5
3E1
330
68B
100
AcDbEntity
  8
0
100
AcDbLine
 10
249.7031890116194
 20
78.19761115306495
 30
0.0
 11
251.4025937735241
 21
78.19761115306495
 31
0.0
  0
LINE
  5
3E2
330
68B
100
AcDbEntity
  8
0
100
AcDbLine
 10
251.4025937735241
 20
78.19761115306495
 30
0.0
 11
252.1704509163813
 21
78.23630162925542
 31
0.0
  0
LINE
  5
3E3
330
68B
100
AcDbEntity
  8
0
100
AcDbLine
 10
252.1704509163813
 20
78.23630162925542
 30
0.0
 11
252.5831493290797
 21
78.36824607369988
 31
0.0
  0
LINE
  5
3E4
330
68B
100
AcDbEntity
  8
0
100
AcDbLine
 10
252.5831493290797
 20
78.36824607369988
 30
0.0
 11
252.9913834560638
 21
78.75118258163638
 31
0.0
  0
LINE
  5
3E5
330
68B
100
AcDbEntity
  8
0
100
AcDbLine
 10
252.9913834560638
 20
78.75118258163638
 30
0.0
 11
253.1317604401908
 21
79.33848416893795
 31
0.0
  0
LINE
  5
3E6
330
68B
100
AcDbEntity
  8
0
100
AcDbLine
 10
253.1317604401908
 20
79.33848416893795
 30
0.0
 11
252.9879112338416
 21
79.901480200684
 31
0.0
  0
LINE
  5
3E7
330
68B
100
AcDbEntity
  8
0
100
AcDbLine
 10
252.9879112338416
 20
79.901480200684
 30
0.0
 11
252.5444588528892
 21
80.22638099433478
 31
0.0
  0
LINE
  5
3E8
330
68B
100
AcDbEntity
  8
0
100
AcDbLine
 10
252.5444588528892
 20
80.22638099433478
 30
0.0
 11
252.8896969481273
 21
80.54384131179508
 31
0.0
  0
LINE
  5
3E9
330
68B
100
AcDbEntity
  8
0
100
AcDbLine
 10
252.8896969481273
 20
80.54384131179508
 30
0.0
 11
253.0047763132067
 21
80.99622226417608
 31
0.0
  0
LINE
  5
3EA
330
68B
100
AcDbEntity
  8
0
100
AcDbLine
 10
253.0047763132067
 20
80.99622226417608
 30
0.0
 11
252.8510064719367
 21
81.55624210544591
 31
0.0
  0
LINE
  5
3EB
330
68B
100
AcDbEntity
  8
0
100
AcDbLine
 10
252.8510064719367
 20
81.55624210544591
 30
0.0
 11
252.4085461544764
 21
81.89602385147765
 31
0.0
  0
LINE
  5
3EC
330
68B
100
AcDbEntity
  8
0
100
AcDbLine
 10
252.4085461544764
 20
81.89602385147765
 30
0.0
 11
252.0132088528892
 21
81.98134131179513
 31
0.0
  0
LINE
  5
3ED
330
68B
100
AcDbEntity
  8
0
100
AcDbLine
 10
252.0132088528892
 20
81.98134131179513
 30
0.0
 11
251.2795779005083
 21
82.00713496258877
 31
0.0
  0
LINE
  5
3EE
330
68B
100
AcDbEntity
  8
0
100
AcDbLine
 10
251.2795779005083
 20
82.00713496258877
 30
0.0
 11
249.7031890116194
 21
82.00713496258877
 31
0.0
  0
LINE
  5
3EF
330
68B
100
AcDbEntity
  8
0
100
AcDbLine
 10
249.7031890116194
 20
82.00713496258877
 30
0.0
 11
249.7031890116194
 21
78.19761115306495
 31
0.0
  0
LINE
  5
3F0
330
68B
100
AcDbEntity
  8
0
100
AcDbLine
 10
250.9095382179685
 20
79.08650004195385
 30
0.0
 11
250.9095382179685
 21
79.78491274036653
 31
0.0
  0
LINE
  5
3F1
330
68B
100
AcDbEntity
  8
0
100
AcDbLine
 10
250.9095382179685
 20
79.78491274036653
 30
0.0
 11
251.4581493290797
 21
79.78491274036653
 31
0.0
  0
LINE
  5
3F2
330
68B
100
AcDbEntity
  8
0
100
AcDbLine
 10
251.4581493290797
 20
79.78491274036653
 30
0.0
 11
251.8673755195559
 21
79.70554766100146
 31
0.0
  0
LINE
  5
3F3
330
68B
100
AcDbEntity
  8
0
100
AcDbLine
 10
251.8673755195559
 20
79.70554766100146
 30
0.0
 11
251.9889032973337
 21
79.43868258163639
 31
0.0
  0
LINE
  5
3F4
330
68B
100
AcDbEntity
  8
0
100
AcDbLine
 10
251.9889032973337
 20
79.43868258163639
 30
0.0
 11
251.8698556782861
 21
79.16884131179512
 31
0.0
  0
LINE
  5
3F5
330
68B
100
AcDbEntity
  8
0
100
AcDbLine
 10
251.8698556782861
 20
79.16884131179512
 30
0.0
 11
251.4690620274924
 21
79.08650004195385
 31
0.0
  0
LINE
  5
3F6
330
68B
100
AcDbEntity
  8
0
100
AcDbLine
 10
251.4690620274924
 20
79.08650004195385
 30
0.0
 11
250.9095382179685
 21
79.08650004195385
 31
0.0
  0
LINE
  5
3F7
330
68B
100
AcDbEntity
  8
0
100
AcDbLine
 10
250.9095382179685
 20
80.48332543877924
 30
0.0
 11
250.9095382179685
 21
81.11824607369987
 31
0.0
  0
LINE
  5
3F8
330
68B
100
AcDbEntity
  8
0
100
AcDbLine
 10
250.9095382179685
 20
81.11824607369987
 30
0.0
 11
251.243863614794
 21
81.11824607369987
 31
0.0
  0
LINE
  5
3F9
330
68B
100
AcDbEntity
  8
0
100
AcDbLine
 10
251.243863614794
 20
81.11824607369987
 30
0.0
 11
251.7522961544765
 21
81.05078575623958
 31
0.0
  0
LINE
  5
3FA
330
68B
100
AcDbEntity
  8
0
100
AcDbLine
 10
251.7522961544765
 20
81.05078575623958
 30
0.0
 11
251.8619191703496
 21
80.80078575623957
 31
0.0
  0
LINE
  5
3FB
330
68B
100
AcDbEntity
  8
0
100
AcDbLine
 10
251.8619191703496
 20
80.80078575623957
 30
0.0
 11
251.759736630667
 21
80.55574607369988
 31
0.0
  0
LINE
  5
3FC
330
68B
100
AcDbEntity
  8
0
100
AcDbLine
 10
251.759736630667
 20
80.55574607369988
 30
0.0
 11
251.4075540909844
 21
80.48332543877924
 31
0.0
  0
LINE
  5
3FD
330
68B
100
AcDbEntity
  8
0
100
AcDbLine
 10
251.4075540909844
 20
80.48332543877924
 30
0.0
 11
250.9095382179685
 21
80.48332543877924
 31
0.0
  0
ARC
  5
3FE
330
68B
100
AcDbEntity
  8
0
100
AcDbCircle
 10
255.5631468056601
 20
78.12500450375953
 30
0.0
 40
9.000000000000019
100
AcDbArc
 50
179.9999999999997
 51
359.9999999999988
  0
ARC
  5
3FF
330
68B
100
AcDbEntity
  8
0
100
AcDbCircle
 10
255.5631468056601
 20
78.12500450375953
 30
0.0
 40
9.000000000000008
100
AcDbArc
 50
359.9999999999995
 51
179.9999999999997
  0
LINE
  5
400
330
68B
100
AcDbEntity
  8
0
100
AcDbLine
 10
219.3131468056608
 20
96.37500450375823
 30
0.0
 11
219.5631468056606
 21
96.37500450375823
 31
0.0
  0
LINE
  5
401
330
68B
100
AcDbEntity
  8
0
100
AcDbLine
 10
219.5631468056606
 20
99.37500450375821
 30
0.0
 11
219.3131468056608
 21
99.37500450375821
 31
0.0
  0
LINE
  5
402
330
68B
100
AcDbEntity
  8
0
100
AcDbLine
 10
219.3131468056611
 20
97.87500450375809
 30
0.0
 11
219.3131468056611
 21
98.26323307141187
 31
0.0
  0
LINE
  5
403
330
68B
100
AcDbEntity
  8
0
100
AcDbLine
 10
219.3131468056611
 20
98.26323391279627
 30
0.0
 11
219.3131468056611
 21
98.93566467553794
 31
0.0
  0
LINE
  5
404
330
68B
100
AcDbEntity
  8
0
100
AcDbLine
 10
219.3131468056611
 20
98.93566600831292
 30
0.0
 11
219.3131468056611
 21
99.32389324319174
 31
0.0
  0
LINE
  5
405
330
68B
100
AcDbEntity
  8
0
100
AcDbLine
 10
219.3131468056611
 20
99.32389711406019
 30
0.0
 11
219.3131468056611
 21
99.37500450375814
 31
0.0
  0
LINE
  5
406
330
68B
100
AcDbEntity
  8
0
100
AcDbLine
 10
219.3131468056611
 20
96.37500450375815
 30
0.0
 11
219.3131468056611
 21
96.42611189345435
 31
0.0
  0
LINE
  5
407
330
68B
100
AcDbEntity
  8
0
100
AcDbLine
 10
219.3131468056611
 20
96.42611576432454
 30
0.0
 11
219.3131468056611
 21
96.81434299920235
 31
0.0
  0
LINE
  5
408
330
68B
100
AcDbEntity
  8
0
100
AcDbLine
 10
219.3131468056611
 20
96.81434433197829
 30
0.0
 11
219.3131468056611
 21
97.48677509471924
 31
0.0
  0
LINE
  5
409
330
68B
100
AcDbEntity
  8
0
100
AcDbLine
 10
219.3131468056611
 20
97.48677593610432
 30
0.0
 11
219.3131468056611
 21
97.87500450375809
 31
0.0
  0
LINE
  5
40A
330
68B
100
AcDbEntity
  8
0
100
AcDbLine
 10
219.3131468056607
 20
38.50000450375784
 30
0.0
 11
219.5631468056605
 21
38.50000450375784
 31
0.0
  0
LINE
  5
40B
330
68B
100
AcDbEntity
  8
0
100
AcDbLine
 10
219.5631468056605
 20
39.50000450375777
 30
0.0
 11
219.3131468056607
 21
39.50000450375777
 31
0.0
  0
LINE
  5
40C
330
68B
100
AcDbEntity
  8
0
100
AcDbLine
 10
219.3131468056608
 20
25.12500450375774
 30
0.0
 11
219.5631468056606
 21
25.12500450375774
 31
0.0
  0
LINE
  5
40D
330
68B
100
AcDbEntity
  8
0
100
AcDbLine
 10
219.5631468056606
 20
27.1250045037578
 30
0.0
 11
219.3131468056608
 21
27.1250045037578
 31
0.0
  0
LINE
  5
40E
330
68B
100
AcDbEntity
  8
0
100
AcDbLine
 10
219.3131468056607
 20
7.375004503757677
 30
0.0
 11
219.5631468056605
 21
7.375004503757677
 31
0.0
  0
LINE
  5
40F
330
68B
100
AcDbEntity
  8
0
100
AcDbLine
 10
219.5631468056605
 20
9.375004503757731
 30
0.0
 11
219.3131468056607
 21
9.375004503757731
 31
0.0
  0
LINE
  5
410
330
68B
100
AcDbEntity
  8
0
100
AcDbLine
 10
219.313146805661
 20
39.00000450375772
 30
0.0
 11
219.313146805661
 21
39.129414026309
 31
0.0
  0
LINE
  5
411
330
68B
100
AcDbEntity
  8
0
100
AcDbLine
 10
219.313146805661
 20
39.12941430677049
 30
0.0
 11
219.313146805661
 21
39.2500036072448
 31
0.0
  0
LINE
  5
412
330
68B
100
AcDbEntity
  8
0
100
AcDbLine
 10
219.313146805661
 20
39.25000450375772
 30
0.0
 11
219.313146805661
 21
39.35355789435099
 31
0.0
  0
LINE
  5
413
330
68B
100
AcDbEntity
  8
0
100
AcDbLine
 10
219.313146805661
 20
39.35355833860965
 30
0.0
 11
219.313146805661
 21
39.43301720564996
 31
0.0
  0
LINE
  5
414
330
68B
100
AcDbEntity
  8
0
100
AcDbLine
 10
219.313146805661
 20
39.43301754691649
 30
0.0
 11
219.313146805661
 21
39.48296741690226
 31
0.0
  0
LINE
  5
415
330
68B
100
AcDbEntity
  8
0
100
AcDbLine
 10
219.313146805661
 20
39.48296870719185
 30
0.0
 11
219.313146805661
 21
39.50000450375772
 31
0.0
  0
LINE
  5
416
330
68B
100
AcDbEntity
  8
0
100
AcDbLine
 10
219.313146805661
 20
38.50000450375774
 30
0.0
 11
219.313146805661
 21
38.51704030032362
 31
0.0
  0
LINE
  5
417
330
68B
100
AcDbEntity
  8
0
100
AcDbLine
 10
219.313146805661
 20
38.5170415906132
 30
0.0
 11
219.313146805661
 21
38.56699146059897
 31
0.0
  0
LINE
  5
418
330
68B
100
AcDbEntity
  8
0
100
AcDbLine
 10
219.313146805661
 20
38.56699180186553
 30
0.0
 11
219.313146805661
 21
38.64645066890581
 31
0.0
  0
LINE
  5
419
330
68B
100
AcDbEntity
  8
0
100
AcDbLine
 10
219.313146805661
 20
38.64645111316445
 30
0.0
 11
219.313146805661
 21
38.75000450375774
 31
0.0
  0
LINE
  5
41A
330
68B
100
AcDbEntity
  8
0
100
AcDbLine
 10
219.313146805661
 20
38.75000540027066
 30
0.0
 11
219.313146805661
 21
38.87059470074497
 31
0.0
  0
LINE
  5
41B
330
68B
100
AcDbEntity
  8
0
100
AcDbLine
 10
219.313146805661
 20
38.87059498120648
 30
0.0
 11
219.313146805661
 21
39.00000450375772
 31
0.0
  0
LINE
  5
41C
330
68B
100
AcDbEntity
  8
0
100
AcDbLine
 10
219.3131468056611
 20
26.12500450375773
 30
0.0
 11
219.3131468056611
 21
26.83211111429649
 31
0.0
  0
LINE
  5
41D
330
68B
100
AcDbEntity
  8
0
100
AcDbLine
 10
219.3131468056611
 20
26.83211128494427
 30
0.0
 11
219.3131468056611
 21
26.99102955106856
 31
0.0
  0
LINE
  5
41E
330
68B
100
AcDbEntity
  8
0
100
AcDbLine
 10
219.3131468056611
 20
26.99102990754216
 30
0.0
 11
219.3131468056611
 21
27.0909303300468
 31
0.0
  0
LINE
  5
41F
330
68B
100
AcDbEntity
  8
0
100
AcDbLine
 10
219.3131468056611
 20
27.09093101422856
 30
0.0
 11
219.3131468056611
 21
27.12500450375773
 31
0.0
  0
LINE
  5
420
330
68B
100
AcDbEntity
  8
0
100
AcDbLine
 10
219.3131468056611
 20
25.12500450375773
 30
0.0
 11
219.3131468056611
 21
25.15907867746867
 31
0.0
  0
LINE
  5
421
330
68B
100
AcDbEntity
  8
0
100
AcDbLine
 10
219.3131468056611
 20
25.15907909094816
 30
0.0
 11
219.3131468056611
 21
25.25897909997329
 31
0.0
  0
LINE
  5
422
330
68B
100
AcDbEntity
  8
0
100
AcDbLine
 10
219.3131468056611
 20
25.25898024198097
 30
0.0
 11
219.3131468056611
 21
25.41789772257118
 31
0.0
  0
LINE
  5
423
330
68B
100
AcDbEntity
  8
0
100
AcDbLine
 10
219.3131468056611
 20
25.41789874565108
 30
0.0
 11
219.3131468056611
 21
25.62500450375774
 31
0.0
  0
LINE
  5
424
330
68B
100
AcDbEntity
  8
0
100
AcDbLine
 10
219.3131468056611
 20
25.6250054002704
 30
0.0
 11
219.3131468056611
 21
26.12500353910164
 31
0.0
  0
LINE
  5
425
330
68B
100
AcDbEntity
  8
0
100
AcDbLine
 10
219.3131468056611
 20
8.375004744921717
 30
0.0
 11
219.3131468056611
 21
8.633823548860252
 31
0.0
  0
LINE
  5
426
330
68B
100
AcDbEntity
  8
0
100
AcDbLine
 10
219.3131468056611
 20
8.633823609818472
 30
0.0
 11
219.3131468056611
 21
8.875004279629612
 31
0.0
  0
LINE
  5
427
330
68B
100
AcDbEntity
  8
0
100
AcDbLine
 10
219.3131468056611
 20
8.875004503757731
 30
0.0
 11
219.3131468056612
 21
9.08211128494428
 31
0.0
  0
LINE
  5
428
330
68B
100
AcDbEntity
  8
0
100
AcDbLine
 10
219.3131468056612
 20
9.08211161800671
 30
0.0
 11
219.3131468056612
 21
9.241029907542163
 31
0.0
  0
LINE
  5
429
330
68B
100
AcDbEntity
  8
0
100
AcDbLine
 10
219.3131468056612
 20
9.241029965275554
 30
0.0
 11
219.3131468056612
 21
9.3409303300468
 31
0.0
  0
LINE
  5
42A
330
68B
100
AcDbEntity
  8
0
100
AcDbLine
 10
219.3131468056612
 20
9.340930540121103
 30
0.0
 11
219.3131468056612
 21
9.375004503757734
 31
0.0
  0
LINE
  5
42B
330
68B
100
AcDbEntity
  8
0
100
AcDbLine
 10
219.3131468056612
 20
7.375004503757732
 30
0.0
 11
219.3131468056612
 21
7.409077993286619
 31
0.0
  0
LINE
  5
42C
330
68B
100
AcDbEntity
  8
0
100
AcDbLine
 10
219.3131468056612
 20
7.409078677468665
 30
0.0
 11
219.3131468056612
 21
7.508978729840079
 31
0.0
  0
LINE
  5
42D
330
68B
100
AcDbEntity
  8
0
100
AcDbLine
 10
219.3131468056612
 20
7.508979099973294
 30
0.0
 11
219.3131468056612
 21
7.667897722571186
 31
0.0
  0
LINE
  5
42E
330
68B
100
AcDbEntity
  8
0
100
AcDbLine
 10
219.3131468056612
 20
7.667897893218979
 30
0.0
 11
219.3131468056611
 21
8.375004503757731
 31
0.0
  0
LINE
  5
42F
330
68B
100
AcDbEntity
  8
0
100
AcDbLine
 10
219.3131468056608
 20
11.37500450375813
 30
0.0
 11
219.5631468056606
 21
11.37500450375813
 31
0.0
  0
LINE
  5
430
330
68B
100
AcDbEntity
  8
0
100
AcDbLine
 10
219.5631468056606
 20
14.37500450375831
 30
0.0
 11
219.3131468056608
 21
14.37500450375831
 31
0.0
  0
LINE
  5
431
330
68B
100
AcDbEntity
  8
0
100
AcDbLine
 10
219.3131468056612
 20
12.87500450375815
 30
0.0
 11
219.3131468056612
 21
13.26323307141193
 31
0.0
  0
LINE
  5
432
330
68B
100
AcDbEntity
  8
0
100
AcDbLine
 10
219.3131468056612
 20
13.26323341283137
 30
0.0
 11
219.3131468056612
 21
13.62500405550137
 31
0.0
  0
LINE
  5
433
330
68B
100
AcDbEntity
  8
0
100
AcDbLine
 10
219.3131468056612
 20
13.62500450375815
 30
0.0
 11
219.3131468056612
 21
13.93566467553797
 31
0.0
  0
LINE
  5
434
330
68B
100
AcDbEntity
  8
0
100
AcDbLine
 10
219.3131468056612
 20
13.93566545285863
 30
0.0
 11
219.3131468056612
 21
14.17404260943482
 31
0.0
  0
LINE
  5
435
330
68B
100
AcDbEntity
  8
0
100
AcDbLine
 10
219.3131468056612
 20
14.17404300843421
 30
0.0
 11
219.3131468056612
 21
14.32389324319174
 31
0.0
  0
LINE
  5
436
330
68B
100
AcDbEntity
  8
0
100
AcDbLine
 10
219.3131468056612
 20
14.32389332124783
 30
0.0
 11
219.3131468056612
 21
14.37500450375816
 31
0.0
  0
LINE
  5
437
330
68B
100
AcDbEntity
  8
0
100
AcDbLine
 10
219.3131468056612
 20
11.37500450375815
 30
0.0
 11
219.3131468056612
 21
11.42611521215768
 31
0.0
  0
LINE
  5
438
330
68B
100
AcDbEntity
  8
0
100
AcDbLine
 10
219.3131468056612
 20
11.42611576432456
 30
0.0
 11
219.3131468056612
 21
11.5759663980815
 31
0.0
  0
LINE
  5
439
330
68B
100
AcDbEntity
  8
0
100
AcDbLine
 10
219.3131468056612
 20
11.5759665400252
 30
0.0
 11
219.3131468056612
 21
11.8143441101116
 31
0.0
  0
LINE
  5
43A
330
68B
100
AcDbEntity
  8
0
100
AcDbLine
 10
219.3131468056612
 20
11.81434433197833
 30
0.0
 11
219.3131468056612
 21
12.12500398175234
 31
0.0
  0
LINE
  5
43B
330
68B
100
AcDbEntity
  8
0
100
AcDbLine
 10
219.3131468056612
 20
12.12500450375816
 30
0.0
 11
219.3131468056612
 21
12.8750040214296
 31
0.0
  0
CIRCLE
  5
43C
330
68B
100
AcDbEntity
  8
0
100
AcDbCircle
 10
53.124997641742
 20
34.68750450375749
 30
0.0
 40
8.50000000000003
  0
CIRCLE
  5
43D
330
68B
100
AcDbEntity
  8
0
100
AcDbCircle
 10
18.87499764174211
 20
34.68750450375749
 30
0.0
 40
8.499999999999971
  0
LINE
  5
43E
330
68B
100
AcDbEntity
  8
0
100
AcDbLine
 10
-0.0000023582578734
 20
108.1250045037576
 30
0.0
 11
71.99999764173681
 21
108.1250045037576
 31
0.0
  0
LINE
  5
43F
330
68B
100
AcDbEntity
  8
0
100
AcDbLine
 10
71.99999764173681
 20
44.12500450375775
 30
0.0
 11
-0.0000023582578734
 21
44.12500450375775
 31
0.0
  0
LINE
  5
440
330
68B
100
AcDbEntity
  8
0
100
AcDbLine
 10
-0.0000023582578734
 20
108.1250045037576
 30
0.0
 11
-0.0000023582578734
 21
44.12500450375775
 31
0.0
  0
LINE
  5
441
330
68B
100
AcDbEntity
  8
0
100
AcDbLine
 10
71.99999764173681
 20
44.12500450375775
 30
0.0
 11
71.99999764173681
 21
108.1250045037576
 31
0.0
  0
LINE
  5
442
330
68B
100
AcDbEntity
  8
0
100
AcDbLine
 10
-0.0000023582579729
 20
44.1250045037577
 30
0.0
 11
71.99999764174201
 21
44.1250045037577
 31
0.0
  0
LINE
  5
443
330
68B
100
AcDbEntity
  8
0
100
AcDbLine
 10
71.99999764174201
 20
0.0000045037577352
 30
0.0
 11
-0.0000023582579729
 21
0.0000045037577352
 31
0.0
  0
LINE
  5
444
330
68B
100
AcDbEntity
  8
0
100
AcDbLine
 10
71.99999764174201
 20
44.1250045037577
 30
0.0
 11
71.99999764174201
 21
0.0000045037577352
 31
0.0
  0
LINE
  5
445
330
68B
100
AcDbEntity
  8
0
100
AcDbLine
 10
-0.0000023582579729
 20
0.0000045037577352
 30
0.0
 11
-0.0000023582579729
 21
44.1250045037577
 31
0.0
  0
ARC
  5
446
330
68B
100
AcDbEntity
  8
0
100
AcDbCircle
 10
35.99999764174294
 20
78.12500450375953
 30
0.0
 40
8.250000000000005
100
AcDbArc
 50
179.9999999999996
 51
359.9999999999988
  0
ARC
  5
447
330
68B
100
AcDbEntity
  8
0
100
AcDbCircle
 10
35.99999764174294
 20
78.12500450375953
 30
0.0
 40
8.250000000000005
100
AcDbArc
 50
359.9999999999995
 51
179.9999999999996
  0
ARC
  5
448
330
68B
100
AcDbEntity
  8
0
100
AcDbCircle
 10
35.99999764174294
 20
78.12500450375953
 30
0.0
 40
7.687500000000003
100
AcDbArc
 50
0.0000000000005789
 51
180.0
  0
ARC
  5
449
330
68B
100
AcDbEntity
  8
0
100
AcDbCircle
 10
35.99999764174294
 20
78.12500450375953
 30
0.0
 40
7.687499999999992
100
AcDbArc
 50
180.0000000000001
 51
359.9999999999996
  0
LINE
  5
44A
330
68B
100
AcDbEntity
  8
0
100
AcDbLine
 10
41.12249841573073
 20
75.68314865496214
 30
0.0
 11
40.92755793954022
 21
75.2342399248034
 31
0.0
  0
LINE
  5
44B
330
68B
100
AcDbEntity
  8
0
100
AcDbLine
 10
40.92755793954022
 20
75.2342399248034
 30
0.0
 11
40.47666508239742
 21
75.07699786131134
 31
0.0
  0
LINE
  5
44C
330
68B
100
AcDbEntity
  8
0
100
AcDbLine
 10
40.47666508239742
 20
75.07699786131134
 30
0.0
 11
40.15213631255613
 21
75.14123397242245
 31
0.0
  0
LINE
  5
44D
330
68B
100
AcDbEntity
  8
0
100
AcDbLine
 10
40.15213631255613
 20
75.14123397242245
 30
0.0
 11
39.91664524112753
 21
75.33394230575578
 31
0.0
  0
LINE
  5
44E
330
68B
100
AcDbEntity
  8
0
100
AcDbLine
 10
39.91664524112753
 20
75.33394230575578
 30
0.0
 11
39.72567301890533
 21
76.09187881369229
 31
0.0
  0
LINE
  5
44F
330
68B
100
AcDbEntity
  8
0
100
AcDbLine
 10
39.72567301890533
 20
76.09187881369229
 30
0.0
 11
39.90970079668315
 21
76.85576770258117
 31
0.0
  0
LINE
  5
450
330
68B
100
AcDbEntity
  8
0
100
AcDbLine
 10
39.90970079668315
 20
76.85576770258117
 30
0.0
 11
40.13948750303233
 21
77.04549984543834
 31
0.0
  0
LINE
  5
451
330
68B
100
AcDbEntity
  8
0
100
AcDbLine
 10
40.13948750303233
 20
77.04549984543834
 30
0.0
 11
40.46079206652441
 21
77.10874389305738
 31
0.0
  0
LINE
  5
452
330
68B
100
AcDbEntity
  8
0
100
AcDbLine
 10
40.46079206652441
 20
77.10874389305738
 30
0.0
 11
40.92904603477832
 21
76.9653907184542
 31
0.0
  0
LINE
  5
453
330
68B
100
AcDbEntity
  8
0
100
AcDbLine
 10
40.92904603477832
 20
76.9653907184542
 30
0.0
 11
41.12249841573073
 21
76.54029151210498
 31
0.0
  0
LINE
  5
454
330
68B
100
AcDbEntity
  8
0
100
AcDbLine
 10
41.12249841573073
 20
76.54029151210498
 30
0.0
 11
42.26535555858791
 21
76.54029151210498
 31
0.0
  0
LINE
  5
455
330
68B
100
AcDbEntity
  8
0
100
AcDbLine
 10
42.26535555858791
 20
76.54029151210498
 30
0.0
 11
42.10513730461963
 21
77.18798496448593
 31
0.0
  0
LINE
  5
456
330
68B
100
AcDbEntity
  8
0
100
AcDbLine
 10
42.10513730461963
 20
77.18798496448593
 30
0.0
 11
41.73757778081014
 21
77.6667796073431
 31
0.0
  0
LINE
  5
457
330
68B
100
AcDbEntity
  8
0
100
AcDbLine
 10
41.73757778081014
 20
77.6667796073431
 30
0.0
 11
41.17855000303233
 21
77.96253853591451
 31
0.0
  0
LINE
  5
458
330
68B
100
AcDbEntity
  8
0
100
AcDbLine
 10
41.17855000303233
 20
77.96253853591451
 30
0.0
 11
40.44392698715933
 21
78.06112484543834
 31
0.0
  0
LINE
  5
459
330
68B
100
AcDbEntity
  8
0
100
AcDbLine
 10
40.44392698715933
 20
78.06112484543834
 30
0.0
 11
39.64593591573075
 21
77.92918040099388
 31
0.0
  0
LINE
  5
45A
330
68B
100
AcDbEntity
  8
0
100
AcDbLine
 10
39.64593591573075
 20
77.92918040099388
 30
0.0
 11
39.03569286017513
 21
77.53334706766054
 31
0.0
  0
LINE
  5
45B
330
68B
100
AcDbEntity
  8
0
100
AcDbLine
 10
39.03569286017513
 20
77.53334706766054
 30
0.0
 11
38.64841607446093
 21
76.90933913115262
 31
0.0
  0
LINE
  5
45C
330
68B
100
AcDbEntity
  8
0
100
AcDbLine
 10
38.64841607446093
 20
76.90933913115262
 30
0.0
 11
38.51932381255613
 21
76.09287087718438
 31
0.0
  0
LINE
  5
45D
330
68B
100
AcDbEntity
  8
0
100
AcDbLine
 10
38.51932381255613
 20
76.09287087718438
 30
0.0
 11
38.64903611414343
 21
75.27454250416846
 31
0.0
  0
LINE
  5
45E
330
68B
100
AcDbEntity
  8
0
100
AcDbLine
 10
38.64903611414343
 20
75.27454250416846
 30
0.0
 11
39.03817301890533
 21
74.65090659147008
 31
0.0
  0
LINE
  5
45F
330
68B
100
AcDbEntity
  8
0
100
AcDbLine
 10
39.03817301890533
 20
74.65090659147008
 30
0.0
 11
39.65350039985774
 21
74.2561893295653
 31
0.0
  0
LINE
  5
460
330
68B
100
AcDbEntity
  8
0
100
AcDbLine
 10
39.65350039985774
 20
74.2561893295653
 30
0.0
 11
40.46178413001643
 21
74.12461690893039
 31
0.0
  0
LINE
  5
461
330
68B
100
AcDbEntity
  8
0
100
AcDbLine
 10
40.46178413001643
 20
74.12461690893039
 30
0.0
 11
41.18487440779424
 21
74.22679944861292
 31
0.0
  0
LINE
  5
462
330
68B
100
AcDbEntity
  8
0
100
AcDbLine
 10
41.18487440779424
 20
74.22679944861292
 30
0.0
 11
41.74105000303233
 21
74.53334706766054
 31
0.0
  0
LINE
  5
463
330
68B
100
AcDbEntity
  8
0
100
AcDbLine
 10
41.74105000303233
 20
74.53334706766054
 30
0.0
 11
42.10848551890531
 21
75.02516254385103
 31
0.0
  0
LINE
  5
464
330
68B
100
AcDbEntity
  8
0
100
AcDbLine
 10
42.10848551890531
 20
75.02516254385103
 30
0.0
 11
42.26535555858791
 21
75.68314865496214
 31
0.0
  0
LINE
  5
465
330
68B
100
AcDbEntity
  8
0
100
AcDbLine
 10
42.26535555858791
 20
75.68314865496214
 30
0.0
 11
41.12249841573073
 21
75.68314865496214
 31
0.0
  0
LINE
  5
466
330
68B
100
AcDbEntity
  8
0
100
AcDbLine
 10
33.90077103796301
 20
76.45722284388535
 30
0.0
 11
35.07835040304242
 21
76.45722284388535
 31
0.0
  0
LINE
  5
467
330
68B
100
AcDbEntity
  8
0
100
AcDbLine
 10
35.07835040304242
 20
76.45722284388535
 30
0.0
 11
35.22517579986783
 21
76.96515935182183
 31
0.0
  0
LINE
  5
468
330
68B
100
AcDbEntity
  8
0
100
AcDbLine
 10
35.22517579986783
 20
76.96515935182183
 30
0.0
 11
36.42854881574081
 21
76.96515935182183
 31
0.0
  0
LINE
  5
469
330
68B
100
AcDbEntity
  8
0
100
AcDbLine
 10
36.42854881574081
 20
76.96515935182183
 30
0.0
 11
36.57041389510593
 21
76.45722284388535
 31
0.0
  0
LINE
  5
46A
330
68B
100
AcDbEntity
  8
0
100
AcDbLine
 10
36.57041389510593
 20
76.45722284388535
 30
0.0
 11
37.77378691097891
 21
76.45722284388535
 31
0.0
  0
LINE
  5
46B
330
68B
100
AcDbEntity
  8
0
100
AcDbLine
 10
37.77378691097891
 20
76.45722284388535
 30
0.0
 11
36.44442183161394
 21
80.26674665340914
 31
0.0
  0
LINE
  5
46C
330
68B
100
AcDbEntity
  8
0
100
AcDbLine
 10
36.44442183161394
 20
80.26674665340914
 30
0.0
 11
35.21525516494723
 21
80.26674665340914
 31
0.0
  0
LINE
  5
46D
330
68B
100
AcDbEntity
  8
0
100
AcDbLine
 10
35.21525516494723
 20
80.26674665340914
 30
0.0
 11
33.90077103796301
 21
76.45722284388535
 31
0.0
  0
LINE
  5
46E
330
68B
100
AcDbEntity
  8
0
100
AcDbLine
 10
35.44541389510593
 20
77.79055617721867
 30
0.0
 11
35.83132659351864
 21
79.0941276057901
 31
0.0
  0
LINE
  5
46F
330
68B
100
AcDbEntity
  8
0
100
AcDbLine
 10
35.83132659351864
 20
79.0941276057901
 30
0.0
 11
36.20831072050274
 21
77.79055617721867
 31
0.0
  0
LINE
  5
470
330
68B
100
AcDbEntity
  8
0
100
AcDbLine
 10
36.20831072050274
 20
77.79055617721867
 30
0.0
 11
35.44541389510593
 21
77.79055617721867
 31
0.0
  0
LINE
  5
471
330
68B
100
AcDbEntity
  8
0
100
AcDbLine
 10
30.14003984770165
 20
78.19761115306564
 30
0.0
 11
31.83944460960643
 21
78.19761115306564
 31
0.0
  0
LINE
  5
472
330
68B
100
AcDbEntity
  8
0
100
AcDbLine
 10
31.83944460960643
 20
78.19761115306564
 30
0.0
 11
32.60730175246352
 21
78.2363016292561
 31
0.0
  0
LINE
  5
473
330
68B
100
AcDbEntity
  8
0
100
AcDbLine
 10
32.60730175246352
 20
78.2363016292561
 30
0.0
 11
33.02000016516192
 21
78.36824607370053
 31
0.0
  0
LINE
  5
474
330
68B
100
AcDbEntity
  8
0
100
AcDbLine
 10
33.02000016516192
 20
78.36824607370053
 30
0.0
 11
33.42823429214613
 21
78.75118258163706
 31
0.0
  0
LINE
  5
475
330
68B
100
AcDbEntity
  8
0
100
AcDbLine
 10
33.42823429214613
 20
78.75118258163706
 30
0.0
 11
33.56861127627315
 21
79.33848416893862
 31
0.0
  0
LINE
  5
476
330
68B
100
AcDbEntity
  8
0
100
AcDbLine
 10
33.56861127627315
 20
79.33848416893862
 30
0.0
 11
33.42476206992393
 21
79.90148020068466
 31
0.0
  0
LINE
  5
477
330
68B
100
AcDbEntity
  8
0
100
AcDbLine
 10
33.42476206992393
 20
79.90148020068466
 30
0.0
 11
32.98130968897152
 21
80.22638099433546
 31
0.0
  0
LINE
  5
478
330
68B
100
AcDbEntity
  8
0
100
AcDbLine
 10
32.98130968897152
 20
80.22638099433546
 30
0.0
 11
33.32654778420965
 21
80.54384131179578
 31
0.0
  0
LINE
  5
479
330
68B
100
AcDbEntity
  8
0
100
AcDbLine
 10
33.32654778420965
 20
80.54384131179578
 30
0.0
 11
33.44162714928894
 21
80.99622226417674
 31
0.0
  0
LINE
  5
47A
330
68B
100
AcDbEntity
  8
0
100
AcDbLine
 10
33.44162714928894
 20
80.99622226417674
 30
0.0
 11
33.28785730801914
 21
81.55624210544656
 31
0.0
  0
LINE
  5
47B
330
68B
100
AcDbEntity
  8
0
100
AcDbLine
 10
33.28785730801914
 20
81.55624210544656
 30
0.0
 11
32.84539699055881
 21
81.8960238514783
 31
0.0
  0
LINE
  5
47C
330
68B
100
AcDbEntity
  8
0
100
AcDbLine
 10
32.84539699055881
 20
81.8960238514783
 30
0.0
 11
32.45005968897152
 21
81.98134131179577
 31
0.0
  0
LINE
  5
47D
330
68B
100
AcDbEntity
  8
0
100
AcDbLine
 10
32.45005968897152
 20
81.98134131179577
 30
0.0
 11
31.7164287365905
 21
82.00713496258943
 31
0.0
  0
LINE
  5
47E
330
68B
100
AcDbEntity
  8
0
100
AcDbLine
 10
31.7164287365905
 20
82.00713496258943
 30
0.0
 11
30.14003984770165
 21
82.00713496258943
 31
0.0
  0
LINE
  5
47F
330
68B
100
AcDbEntity
  8
0
100
AcDbLine
 10
30.14003984770165
 20
82.00713496258943
 30
0.0
 11
30.14003984770165
 21
78.19761115306564
 31
0.0
  0
LINE
  5
480
330
68B
100
AcDbEntity
  8
0
100
AcDbLine
 10
31.34638905405092
 20
79.0865000419545
 30
0.0
 11
31.34638905405092
 21
79.7849127403672
 31
0.0
  0
LINE
  5
481
330
68B
100
AcDbEntity
  8
0
100
AcDbLine
 10
31.34638905405092
 20
79.7849127403672
 30
0.0
 11
31.89500016516192
 21
79.7849127403672
 31
0.0
  0
LINE
  5
482
330
68B
100
AcDbEntity
  8
0
100
AcDbLine
 10
31.89500016516192
 20
79.7849127403672
 30
0.0
 11
32.30422635563824
 21
79.70554766100213
 31
0.0
  0
LINE
  5
483
330
68B
100
AcDbEntity
  8
0
100
AcDbLine
 10
32.30422635563824
 20
79.70554766100213
 30
0.0
 11
32.42575413341592
 21
79.43868258163703
 31
0.0
  0
LINE
  5
484
330
68B
100
AcDbEntity
  8
0
100
AcDbLine
 10
32.42575413341592
 20
79.43868258163703
 30
0.0
 11
32.30670651436833
 21
79.16884131179577
 31
0.0
  0
LINE
  5
485
330
68B
100
AcDbEntity
  8
0
100
AcDbLine
 10
32.30670651436833
 20
79.16884131179577
 30
0.0
 11
31.90591286357474
 21
79.0865000419545
 31
0.0
  0
LINE
  5
486
330
68B
100
AcDbEntity
  8
0
100
AcDbLine
 10
31.90591286357474
 20
79.0865000419545
 30
0.0
 11
31.34638905405092
 21
79.0865000419545
 31
0.0
  0
LINE
  5
487
330
68B
100
AcDbEntity
  8
0
100
AcDbLine
 10
31.34638905405092
 20
80.4833254387799
 30
0.0
 11
31.34638905405092
 21
81.11824607370053
 31
0.0
  0
LINE
  5
488
330
68B
100
AcDbEntity
  8
0
100
AcDbLine
 10
31.34638905405092
 20
81.11824607370053
 30
0.0
 11
31.68071445087625
 21
81.11824607370053
 31
0.0
  0
LINE
  5
489
330
68B
100
AcDbEntity
  8
0
100
AcDbLine
 10
31.68071445087625
 20
81.11824607370053
 30
0.0
 11
32.18914699055881
 21
81.05078575624022
 31
0.0
  0
LINE
  5
48A
330
68B
100
AcDbEntity
  8
0
100
AcDbLine
 10
32.18914699055881
 20
81.05078575624022
 30
0.0
 11
32.29877000643182
 21
80.80078575624021
 31
0.0
  0
LINE
  5
48B
330
68B
100
AcDbEntity
  8
0
100
AcDbLine
 10
32.29877000643182
 20
80.80078575624021
 30
0.0
 11
32.19658746674924
 21
80.55574607370052
 31
0.0
  0
LINE
  5
48C
330
68B
100
AcDbEntity
  8
0
100
AcDbLine
 10
32.19658746674924
 20
80.55574607370052
 30
0.0
 11
31.84440492706674
 21
80.4833254387799
 31
0.0
  0
LINE
  5
48D
330
68B
100
AcDbEntity
  8
0
100
AcDbLine
 10
31.84440492706674
 20
80.4833254387799
 30
0.0
 11
31.34638905405092
 21
80.4833254387799
 31
0.0
  0
ARC
  5
48E
330
68B
100
AcDbEntity
  8
0
100
AcDbCircle
 10
35.99999764174242
 20
78.1250045037602
 30
0.0
 40
9.000000000000019
100
AcDbArc
 50
179.9999999999997
 51
359.9999999999988
  0
ARC
  5
48F
330
68B
100
AcDbEntity
  8
0
100
AcDbCircle
 10
35.99999764174242
 20
78.1250045037602
 30
0.0
 40
9.000000000000012
100
AcDbArc
 50
359.9999999999995
 51
179.9999999999997
  0
LINE
  5
490
330
68B
100
AcDbEntity
  8
0
100
AcDbLine
 10
71.99999764174265
 20
96.37500450375823
 30
0.0
 11
72.24999764174251
 21
96.37500450375823
 31
0.0
  0
LINE
  5
491
330
68B
100
AcDbEntity
  8
0
100
AcDbLine
 10
72.24999764174251
 20
99.37500450375821
 30
0.0
 11
71.99999764174265
 21
99.37500450375821
 31
0.0
  0
LINE
  5
492
330
68B
100
AcDbEntity
  8
0
100
AcDbLine
 10
72.24999764174234
 20
99.37500450375814
 30
0.0
 11
72.24999764174234
 21
99.32389711406019
 31
0.0
  0
LINE
  5
493
330
68B
100
AcDbEntity
  8
0
100
AcDbLine
 10
72.24999764174234
 20
99.32389324319174
 30
0.0
 11
72.24999764174234
 21
99.17404260943479
 31
0.0
  0
LINE
  5
494
330
68B
100
AcDbEntity
  8
0
100
AcDbLine
 10
72.24999764174234
 20
99.17404089642287
 30
0.0
 11
72.24999764174234
 21
98.93566600831292
 31
0.0
  0
LINE
  5
495
330
68B
100
AcDbEntity
  8
0
100
AcDbLine
 10
72.24999764174234
 20
98.93566467553796
 30
0.0
 11
72.24999764174234
 21
98.26323391279627
 31
0.0
  0
LINE
  5
496
330
68B
100
AcDbEntity
  8
0
100
AcDbLine
 10
72.24999764174234
 20
98.26323307141194
 30
0.0
 11
72.24999764174234
 21
97.87500450375812
 31
0.0
  0
LINE
  5
497
330
68B
100
AcDbEntity
  8
0
100
AcDbLine
 10
72.24999764174234
 20
97.87500450375809
 30
0.0
 11
72.24999764174234
 21
97.48677593610432
 31
0.0
  0
LINE
  5
498
330
68B
100
AcDbEntity
  8
0
100
AcDbLine
 10
72.24999764174234
 20
97.48677509471924
 30
0.0
 11
72.24999764174234
 21
96.81434433197829
 31
0.0
  0
LINE
  5
499
330
68B
100
AcDbEntity
  8
0
100
AcDbLine
 10
72.24999764174234
 20
96.81434299920235
 30
0.0
 11
72.24999764174234
 21
96.57596811109279
 31
0.0
  0
LINE
  5
49A
330
68B
100
AcDbEntity
  8
0
100
AcDbLine
 10
72.24999764174234
 20
96.57596639808147
 30
0.0
 11
72.24999764174234
 21
96.42611576432454
 31
0.0
  0
LINE
  5
49B
330
68B
100
AcDbEntity
  8
0
100
AcDbLine
 10
72.24999764174234
 20
96.42611189345435
 30
0.0
 11
72.24999764174234
 21
96.37500450375815
 31
0.0
  0
LINE
  5
49C
330
68B
100
AcDbEntity
  8
0
100
AcDbLine
 10
71.99999764174251
 20
38.50000450375784
 30
0.0
 11
72.24999764174237
 21
38.50000450375784
 31
0.0
  0
LINE
  5
49D
330
68B
100
AcDbEntity
  8
0
100
AcDbLine
 10
72.24999764174237
 20
39.50000450375777
 30
0.0
 11
71.99999764174251
 21
39.50000450375777
 31
0.0
  0
LINE
  5
49E
330
68B
100
AcDbEntity
  8
0
100
AcDbLine
 10
71.99999764174265
 20
25.12500450375774
 30
0.0
 11
72.24999764174251
 21
25.12500450375774
 31
0.0
  0
LINE
  5
49F
330
68B
100
AcDbEntity
  8
0
100
AcDbLine
 10
72.24999764174251
 20
27.1250045037578
 30
0.0
 11
71.99999764174265
 21
27.1250045037578
 31
0.0
  0
LINE
  5
4A0
330
68B
100
AcDbEntity
  8
0
100
AcDbLine
 10
71.99999764174265
 20
7.375004503757677
 30
0.0
 11
72.24999764174251
 21
7.375004503757677
 31
0.0
  0
LINE
  5
4A1
330
68B
100
AcDbEntity
  8
0
100
AcDbLine
 10
72.24999764174251
 20
9.375004503757731
 30
0.0
 11
71.99999764174265
 21
9.375004503757731
 31
0.0
  0
LINE
  5
4A2
330
68B
100
AcDbEntity
  8
0
100
AcDbLine
 10
72.24999764174237
 20
39.50000450375772
 30
0.0
 11
72.24999764174237
 21
39.48296870719185
 31
0.0
  0
LINE
  5
4A3
330
68B
100
AcDbEntity
  8
0
100
AcDbLine
 10
72.24999764174237
 20
39.48296741690226
 30
0.0
 11
72.24999764174237
 21
39.43301754691649
 31
0.0
  0
LINE
  5
4A4
330
68B
100
AcDbEntity
  8
0
100
AcDbLine
 10
72.24999764174237
 20
39.43301720564996
 30
0.0
 11
72.24999764174237
 21
39.35355833860966
 31
0.0
  0
LINE
  5
4A5
330
68B
100
AcDbEntity
  8
0
100
AcDbLine
 10
72.24999764174237
 20
39.35355789435101
 30
0.0
 11
72.24999764174237
 21
39.25000450375772
 31
0.0
  0
LINE
  5
4A6
330
68B
100
AcDbEntity
  8
0
100
AcDbLine
 10
72.24999764174237
 20
39.2500036072448
 30
0.0
 11
72.24999764174237
 21
39.12941430677049
 31
0.0
  0
LINE
  5
4A7
330
68B
100
AcDbEntity
  8
0
100
AcDbLine
 10
72.24999764174237
 20
39.129414026309
 30
0.0
 11
72.24999764174237
 21
39.00000450375774
 31
0.0
  0
LINE
  5
4A8
330
68B
100
AcDbEntity
  8
0
100
AcDbLine
 10
72.24999764174237
 20
39.00000450375772
 30
0.0
 11
72.24999764174237
 21
38.87059498120645
 31
0.0
  0
LINE
  5
4A9
330
68B
100
AcDbEntity
  8
0
100
AcDbLine
 10
72.24999764174237
 20
38.87059470074497
 30
0.0
 11
72.24999764174237
 21
38.75000540027066
 31
0.0
  0
LINE
  5
4AA
330
68B
100
AcDbEntity
  8
0
100
AcDbLine
 10
72.24999764174237
 20
38.75000450375774
 30
0.0
 11
72.24999764174237
 21
38.64645111316445
 31
0.0
  0
LINE
  5
4AB
330
68B
100
AcDbEntity
  8
0
100
AcDbLine
 10
72.24999764174237
 20
38.64645066890581
 30
0.0
 11
72.24999764174237
 21
38.56699180186551
 31
0.0
  0
LINE
  5
4AC
330
68B
100
AcDbEntity
  8
0
100
AcDbLine
 10
72.24999764174237
 20
38.56699146059897
 30
0.0
 11
72.24999764174237
 21
38.5170415906132
 31
0.0
  0
LINE
  5
4AD
330
68B
100
AcDbEntity
  8
0
100
AcDbLine
 10
72.24999764174237
 20
38.51704030032362
 30
0.0
 11
72.24999764174237
 21
38.50000450375774
 31
0.0
  0
LINE
  5
4AE
330
68B
100
AcDbEntity
  8
0
100
AcDbLine
 10
72.24999764174234
 20
27.12500450375773
 30
0.0
 11
72.24999764174234
 21
27.09093101422856
 31
0.0
  0
LINE
  5
4AF
330
68B
100
AcDbEntity
  8
0
100
AcDbLine
 10
72.24999764174234
 20
27.0909303300468
 30
0.0
 11
72.24999764174234
 21
26.99102990754216
 31
0.0
  0
LINE
  5
4B0
330
68B
100
AcDbEntity
  8
0
100
AcDbLine
 10
72.24999764174234
 20
26.99102955106856
 30
0.0
 11
72.24999764174234
 21
26.83211128494427
 31
0.0
  0
LINE
  5
4B1
330
68B
100
AcDbEntity
  8
0
100
AcDbLine
 10
72.24999764174234
 20
26.83211111429649
 30
0.0
 11
72.24999764174234
 21
26.38382354886026
 31
0.0
  0
LINE
  5
4B2
330
68B
100
AcDbEntity
  8
0
100
AcDbLine
 10
72.24999764174234
 20
26.38382313977121
 30
0.0
 11
72.24999764174234
 21
26.12500450375774
 31
0.0
  0
LINE
  5
4B3
330
68B
100
AcDbEntity
  8
0
100
AcDbLine
 10
72.24999764174234
 20
26.12500353910164
 30
0.0
 11
72.24999764174234
 21
25.86618679953057
 31
0.0
  0
LINE
  5
4B4
330
68B
100
AcDbEntity
  8
0
100
AcDbLine
 10
72.24999764174234
 20
25.86618545865521
 30
0.0
 11
72.24999764174234
 21
25.6250054002704
 31
0.0
  0
LINE
  5
4B5
330
68B
100
AcDbEntity
  8
0
100
AcDbLine
 10
72.24999764174234
 20
25.62500450375773
 30
0.0
 11
72.24999764174234
 21
25.41789874565107
 31
0.0
  0
LINE
  5
4B6
330
68B
100
AcDbEntity
  8
0
100
AcDbLine
 10
72.24999764174234
 20
25.41789772257118
 30
0.0
 11
72.24999764174234
 21
25.25898024198097
 31
0.0
  0
LINE
  5
4B7
330
68B
100
AcDbEntity
  8
0
100
AcDbLine
 10
72.24999764174234
 20
25.25897909997329
 30
0.0
 11
72.24999764174234
 21
25.15907909094816
 31
0.0
  0
LINE
  5
4B8
330
68B
100
AcDbEntity
  8
0
100
AcDbLine
 10
72.24999764174234
 20
25.15907867746867
 30
0.0
 11
72.24999764174234
 21
25.12500450375773
 31
0.0
  0
LINE
  5
4B9
330
68B
100
AcDbEntity
  8
0
100
AcDbLine
 10
72.24999764174222
 20
9.375004503757734
 30
0.0
 11
72.24999764174222
 21
9.340930540121107
 31
0.0
  0
LINE
  5
4BA
330
68B
100
AcDbEntity
  8
0
100
AcDbLine
 10
72.24999764174222
 20
9.340930330046802
 30
0.0
 11
72.24999764174222
 21
9.241029965275565
 31
0.0
  0
LINE
  5
4BB
330
68B
100
AcDbEntity
  8
0
100
AcDbLine
 10
72.24999764174222
 20
9.241029907542175
 30
0.0
 11
72.24999764174222
 21
9.082111618006717
 31
0.0
  0
LINE
  5
4BC
330
68B
100
AcDbEntity
  8
0
100
AcDbLine
 10
72.24999764174222
 20
9.082111284944284
 30
0.0
 11
72.24999764174222
 21
8.875004503757741
 31
0.0
  0
LINE
  5
4BD
330
68B
100
AcDbEntity
  8
0
100
AcDbLine
 10
72.24999764174222
 20
8.875004279629623
 30
0.0
 11
72.24999764174222
 21
8.633823609818481
 31
0.0
  0
LINE
  5
4BE
330
68B
100
AcDbEntity
  8
0
100
AcDbLine
 10
72.24999764174222
 20
8.633823548860259
 30
0.0
 11
72.24999764174222
 21
8.37500474492173
 31
0.0
  0
LINE
  5
4BF
330
68B
100
AcDbEntity
  8
0
100
AcDbLine
 10
72.24999764174222
 20
8.375004503757725
 30
0.0
 11
72.24999764174222
 21
7.667897893218974
 31
0.0
  0
LINE
  5
4C0
330
68B
100
AcDbEntity
  8
0
100
AcDbLine
 10
72.24999764174222
 20
7.667897722571182
 30
0.0
 11
72.24999764174222
 21
7.508979099973292
 31
0.0
  0
LINE
  5
4C1
330
68B
100
AcDbEntity
  8
0
100
AcDbLine
 10
72.24999764174222
 20
7.508978729840078
 30
0.0
 11
72.24999764174222
 21
7.409078677468664
 31
0.0
  0
LINE
  5
4C2
330
68B
100
AcDbEntity
  8
0
100
AcDbLine
 10
72.24999764174222
 20
7.409077993286619
 30
0.0
 11
72.24999764174222
 21
7.375004503757732
 31
0.0
  0
LINE
  5
4C3
330
68B
100
AcDbEntity
  8
0
100
AcDbLine
 10
71.99999764174265
 20
11.37500450375813
 30
0.0
 11
72.24999764174251
 21
11.37500450375813
 31
0.0
  0
LINE
  5
4C4
330
68B
100
AcDbEntity
  8
0
100
AcDbLine
 10
72.24999764174251
 20
14.37500450375831
 30
0.0
 11
71.99999764174265
 21
14.37500450375831
 31
0.0
  0
LINE
  5
4C5
330
68B
100
AcDbEntity
  8
0
100
AcDbLine
 10
72.24999764174222
 20
14.37500450375816
 30
0.0
 11
72.24999764174222
 21
14.32389332124784
 31
0.0
  0
LINE
  5
4C6
330
68B
100
AcDbEntity
  8
0
100
AcDbLine
 10
72.24999764174222
 20
14.32389324319176
 30
0.0
 11
72.24999764174222
 21
14.17404300843422
 31
0.0
  0
LINE
  5
4C7
330
68B
100
AcDbEntity
  8
0
100
AcDbLine
 10
72.24999764174222
 20
14.17404260943482
 30
0.0
 11
72.24999764174222
 21
13.93566545285864
 31
0.0
  0
LINE
  5
4C8
330
68B
100
AcDbEntity
  8
0
100
AcDbLine
 10
72.24999764174222
 20
13.93566467553799
 30
0.0
 11
72.24999764174222
 21
13.62500450375816
 31
0.0
  0
LINE
  5
4C9
330
68B
100
AcDbEntity
  8
0
100
AcDbLine
 10
72.24999764174222
 20
13.62500405550139
 30
0.0
 11
72.24999764174222
 21
13.26323341283139
 31
0.0
  0
LINE
  5
4CA
330
68B
100
AcDbEntity
  8
0
100
AcDbLine
 10
72.24999764174222
 20
13.26323307141195
 30
0.0
 11
72.24999764174222
 21
12.87500450375817
 31
0.0
  0
LINE
  5
4CB
330
68B
100
AcDbEntity
  8
0
100
AcDbLine
 10
72.24999764174222
 20
12.87500402142973
 30
0.0
 11
72.24999764174222
 21
12.12500450375815
 31
0.0
  0
LINE
  5
4CC
330
68B
100
AcDbEntity
  8
0
100
AcDbLine
 10
72.24999764174222
 20
12.12500398175234
 30
0.0
 11
72.24999764174222
 21
11.81434433197833
 31
0.0
  0
LINE
  5
4CD
330
68B
100
AcDbEntity
  8
0
100
AcDbLine
 10
72.24999764174222
 20
11.81434411011158
 30
0.0
 11
72.24999764174222
 21
11.42611576432456
 31
0.0
  0
LINE
  5
4CE
330
68B
100
AcDbEntity
  8
0
100
AcDbLine
 10
72.24999764174222
 20
11.42611521215768
 30
0.0
 11
72.24999764174222
 21
11.37500450375815
 31
0.0
  0
LINE
  5
4CF
330
68B
100
AcDbEntity
  8
0
100
AcDbLine
 10
124.8203710302178
 20
224.7725450539109
 30
0.0
 11
124.8203710302178
 21
152.7725450539162
 31
0.0
  0
LINE
  5
4D0
330
68B
100
AcDbEntity
  8
0
100
AcDbLine
 10
124.8203710302178
 20
152.7725450539162
 30
0.0
 11
165.570371030215
 21
152.7725450539162
 31
0.0
  0
LINE
  5
4D1
330
68B
100
AcDbEntity
  8
0
100
AcDbLine
 10
165.570371030215
 20
152.7725450539162
 30
0.0
 11
165.5703710302151
 21
224.7725450539108
 31
0.0
  0
LINE
  5
4D2
330
68B
100
AcDbEntity
  8
0
100
AcDbLine
 10
165.5703710302151
 20
224.7725450539108
 30
0.0
 11
124.8203710302178
 21
224.7725450539109
 31
0.0
  0
LINE
  5
4D3
102
{ACAD_REACTORS
330
532
102
}
330
68B
100
AcDbEntity
  8
0
100
AcDbLine
 10
163.945371030218
 20
223.147545053911
 30
0.0
 11
163.9453710302178
 21
154.397545053911
 31
0.0
  0
LINE
  5
4D4
102
{ACAD_REACTORS
330
532
102
}
330
68B
100
AcDbEntity
  8
0
100
AcDbLine
 10
163.9453710302178
 20
154.397545053911
 30
0.0
 11
126.4453710302179
 21
154.3975450539111
 31
0.0
  0
LINE
  5
4D5
102
{ACAD_REACTORS
330
532
102
}
330
68B
100
AcDbEntity
  8
0
100
AcDbLine
 10
126.4453710302179
 20
154.3975450539111
 30
0.0
 11
126.445371030218
 21
223.1475450539111
 31
0.0
  0
LINE
  5
4D6
102
{ACAD_REACTORS
330
532
102
}
330
68B
100
AcDbEntity
  8
0
100
AcDbLine
 10
126.445371030218
 20
223.1475450539111
 30
0.0
 11
163.945371030218
 21
223.147545053911
 31
0.0
  0
LINE
  5
4D7
330
68B
100
AcDbEntity
  8
0
100
AcDbLine
 10
165.5703710302149
 20
152.772545053911
 30
0.0
 11
172.3203710302183
 21
152.772545053911
 31
0.0
  0
LINE
  5
4D8
330
68B
100
AcDbEntity
  8
0
100
AcDbLine
 10
172.3203710302183
 20
152.772545053911
 30
0.0
 11
172.3203710302185
 21
224.772545053911
 31
0.0
  0
LINE
  5
4D9
330
68B
100
AcDbEntity
  8
0
100
AcDbLine
 10
172.3203710302185
 20
224.772545053911
 30
0.0
 11
165.5703710302151
 21
224.772545053911
 31
0.0
  0
LINE
  5
4DA
330
68B
100
AcDbEntity
  8
0
100
AcDbLine
 10
146.6953710302182
 20
152.5225450539107
 30
0.0
 11
146.6953710302182
 21
152.7725450539106
 31
0.0
  0
LINE
  5
4DB
330
68B
100
AcDbEntity
  8
0
100
AcDbLine
 10
143.6953710302182
 20
152.7725450539106
 30
0.0
 11
143.6953710302182
 21
152.5225450539107
 31
0.0
  0
LINE
  5
4DC
330
68B
100
AcDbEntity
  8
0
100
AcDbLine
 10
146.695371030218
 20
152.5225450539107
 30
0.0
 11
146.644259847718
 21
152.5225450539107
 31
0.0
  0
LINE
  5
4DD
330
68B
100
AcDbEntity
  8
0
100
AcDbLine
 10
146.6442597696516
 20
152.5225450539107
 30
0.0
 11
146.4944095349009
 21
152.5225450539107
 31
0.0
  0
LINE
  5
4DE
330
68B
100
AcDbEntity
  8
0
100
AcDbLine
 10
146.4944091358946
 20
152.5225450539107
 30
0.0
 11
146.2560319793244
 21
152.5225450539107
 31
0.0
  0
LINE
  5
4DF
330
68B
100
AcDbEntity
  8
0
100
AcDbLine
 10
146.2560312019979
 20
152.5225450539107
 30
0.0
 11
145.5835999392967
 21
152.5225450539107
 31
0.0
  0
LINE
  5
4E0
330
68B
100
AcDbEntity
  8
0
100
AcDbLine
 10
145.5835995978718
 20
152.5225450539107
 30
0.0
 11
145.1953710302181
 21
152.5225450539107
 31
0.0
  0
LINE
  5
4E1
330
68B
100
AcDbEntity
  8
0
100
AcDbLine
 10
145.1953705478949
 20
152.5225450539107
 30
0.0
 11
144.8071426103093
 21
152.5225450539107
 31
0.0
  0
LINE
  5
4E2
330
68B
100
AcDbEntity
  8
0
100
AcDbLine
 10
144.8071424625643
 20
152.5225450539107
 30
0.0
 11
144.4453710302181
 21
152.5225450539107
 31
0.0
  0
LINE
  5
4E3
330
68B
100
AcDbEntity
  8
0
100
AcDbLine
 10
144.4453705082179
 20
152.5225450539107
 30
0.0
 11
144.1347108584382
 21
152.5225450539107
 31
0.0
  0
LINE
  5
4E4
330
68B
100
AcDbEntity
  8
0
100
AcDbLine
 10
144.1347106365774
 20
152.5225450539107
 30
0.0
 11
143.7464825875848
 21
152.5225450539107
 31
0.0
  0
LINE
  5
4E5
330
68B
100
AcDbEntity
  8
0
100
AcDbLine
 10
143.7464822907845
 20
152.5225450539107
 30
0.0
 11
143.695371030218
 21
152.5225450539107
 31
0.0
  0
LINE
  5
4E6
330
68B
100
AcDbEntity
  8
0
100
AcDbLine
 10
155.320371030218
 20
152.5225450539107
 30
0.0
 11
155.320371030218
 21
152.7725450539104
 31
0.0
  0
LINE
  5
4E7
330
68B
100
AcDbEntity
  8
0
100
AcDbLine
 10
154.3203710302181
 20
152.7725450539104
 30
0.0
 11
154.3203710302181
 21
152.5225450539107
 31
0.0
  0
LINE
  5
4E8
330
68B
100
AcDbEntity
  8
0
100
AcDbLine
 10
143.0703710302181
 20
152.5225450539107
 30
0.0
 11
143.0703710302181
 21
152.7725450539106
 31
0.0
  0
LINE
  5
4E9
330
68B
100
AcDbEntity
  8
0
100
AcDbLine
 10
141.070371030218
 20
152.7725450539106
 30
0.0
 11
141.070371030218
 21
152.5225450539107
 31
0.0
  0
LINE
  5
4EA
330
68B
100
AcDbEntity
  8
0
100
AcDbLine
 10
126.070371030218
 20
152.7725450539106
 30
0.0
 11
126.070371030218
 21
152.5225450539107
 31
0.0
  0
LINE
  5
4EB
330
68B
100
AcDbEntity
  8
0
100
AcDbLine
 10
155.320371030218
 20
152.5225450539107
 30
0.0
 11
155.3033339433625
 21
152.5225450539107
 31
0.0
  0
LINE
  5
4EC
330
68B
100
AcDbEntity
  8
0
100
AcDbLine
 10
155.3033338983368
 20
152.5225450539107
 30
0.0
 11
155.2533840733829
 21
152.5225450539107
 31
0.0
  0
LINE
  5
4ED
330
68B
100
AcDbEntity
  8
0
100
AcDbLine
 10
155.2533837321102
 20
152.5225450539107
 30
0.0
 11
155.1739244208112
 21
152.5225450539107
 31
0.0
  0
LINE
  5
4EE
330
68B
100
AcDbEntity
  8
0
100
AcDbLine
 10
155.1739241223837
 20
152.5225450539107
 30
0.0
 11
155.070371030218
 21
152.5225450539107
 31
0.0
  0
LINE
  5
4EF
330
68B
100
AcDbEntity
  8
0
100
AcDbLine
 10
155.0703708060943
 20
152.5225450539107
 30
0.0
 11
154.9497808332358
 21
152.5225450539107
 31
0.0
  0
LINE
  5
4F0
330
68B
100
AcDbEntity
  8
0
100
AcDbLine
 10
154.9497805527692
 20
152.5225450539107
 30
0.0
 11
154.6909615076667
 21
152.5225450539107
 31
0.0
  0
LINE
  5
4F1
330
68B
100
AcDbEntity
  8
0
100
AcDbLine
 10
154.6909612272101
 20
152.5225450539107
 30
0.0
 11
154.570371030218
 21
152.5225450539107
 31
0.0
  0
LINE
  5
4F2
330
68B
100
AcDbEntity
  8
0
100
AcDbLine
 10
154.5703705082179
 20
152.5225450539107
 30
0.0
 11
154.4668176396247
 21
152.5225450539107
 31
0.0
  0
LINE
  5
4F3
330
68B
100
AcDbEntity
  8
0
100
AcDbLine
 10
154.4668171953716
 20
152.5225450539107
 30
0.0
 11
154.3873583283257
 21
152.5225450539107
 31
0.0
  0
LINE
  5
4F4
330
68B
100
AcDbEntity
  8
0
100
AcDbLine
 10
154.3873579870656
 20
152.5225450539107
 30
0.0
 11
154.3374081170734
 21
152.5225450539107
 31
0.0
  0
LINE
  5
4F5
330
68B
100
AcDbEntity
  8
0
100
AcDbLine
 10
154.337406826793
 20
152.5225450539107
 30
0.0
 11
154.320371030218
 21
152.5225450539107
 31
0.0
  0
LINE
  5
4F6
330
68B
100
AcDbEntity
  8
0
100
AcDbLine
 10
143.070371030218
 20
152.5225450539107
 30
0.0
 11
142.9363971165417
 21
152.5225450539107
 31
0.0
  0
LINE
  5
4F7
330
68B
100
AcDbEntity
  8
0
100
AcDbLine
 10
142.9363964340024
 20
152.5225450539107
 30
0.0
 11
142.7774786999272
 21
152.5225450539107
 31
0.0
  0
LINE
  5
4F8
330
68B
100
AcDbEntity
  8
0
100
AcDbLine
 10
142.7774778114045
 20
152.5225450539107
 30
0.0
 11
142.5703720742338
 21
152.5225450539107
 31
0.0
  0
LINE
  5
4F9
330
68B
100
AcDbEntity
  8
0
100
AcDbLine
 10
142.570371030218
 20
152.5225450539107
 30
0.0
 11
142.3291906362486
 21
152.5225450539107
 31
0.0
  0
LINE
  5
4FA
330
68B
100
AcDbEntity
  8
0
100
AcDbLine
 10
142.3291900753205
 20
152.5225450539107
 30
0.0
 11
141.8115519851155
 21
152.5225450539107
 31
0.0
  0
LINE
  5
4FB
330
68B
100
AcDbEntity
  8
0
100
AcDbLine
 10
141.8115514241974
 20
152.5225450539107
 30
0.0
 11
141.570371030218
 21
152.5225450539107
 31
0.0
  0
LINE
  5
4FC
330
68B
100
AcDbEntity
  8
0
100
AcDbLine
 10
141.5703699862126
 20
152.5225450539107
 30
0.0
 11
141.3632642490314
 21
152.5225450539107
 31
0.0
  0
LINE
  5
4FD
330
68B
100
AcDbEntity
  8
0
100
AcDbLine
 10
141.36326336052
 20
152.5225450539107
 30
0.0
 11
141.2043456264335
 21
152.5225450539107
 31
0.0
  0
LINE
  5
4FE
330
68B
100
AcDbEntity
  8
0
100
AcDbLine
 10
141.2043449439069
 20
152.5225450539107
 30
0.0
 11
141.1044452039288
 21
152.5225450539107
 31
0.0
  0
LINE
  5
4FF
330
68B
100
AcDbEntity
  8
0
100
AcDbLine
 10
141.1044426233589
 20
152.5225450539107
 30
0.0
 11
141.070371030218
 21
152.5225450539107
 31
0.0
  0
LINE
  5
500
330
68B
100
AcDbEntity
  8
0
100
AcDbLine
 10
127.4486279553163
 20
152.5225450539108
 30
0.0
 11
127.3291906362487
 21
152.5225450539108
 31
0.0
  0
LINE
  5
501
330
68B
100
AcDbEntity
  8
0
100
AcDbLine
 10
127.3291900753204
 20
152.5225450539108
 30
0.0
 11
126.8115519851154
 21
152.5225450539108
 31
0.0
  0
LINE
  5
502
330
68B
100
AcDbEntity
  8
0
100
AcDbLine
 10
126.8115514241973
 20
152.5225450539108
 30
0.0
 11
126.5703710302179
 21
152.5225450539108
 31
0.0
  0
LINE
  5
503
330
68B
100
AcDbEntity
  8
0
100
AcDbLine
 10
126.5703699862127
 20
152.5225450539108
 30
0.0
 11
126.3632642490314
 21
152.5225450539108
 31
0.0
  0
LINE
  5
504
330
68B
100
AcDbEntity
  8
0
100
AcDbLine
 10
126.3632633605201
 20
152.5225450539108
 30
0.0
 11
126.2043456264335
 21
152.5225450539108
 31
0.0
  0
LINE
  5
505
330
68B
100
AcDbEntity
  8
0
100
AcDbLine
 10
126.2043449439068
 20
152.5225450539108
 30
0.0
 11
126.1044452039288
 21
152.5225450539108
 31
0.0
  0
LINE
  5
506
330
68B
100
AcDbEntity
  8
0
100
AcDbLine
 10
126.1044426233591
 20
152.5225450539108
 30
0.0
 11
126.0703710302179
 21
152.5225450539108
 31
0.0
  0
LINE
  5
507
330
68B
100
AcDbEntity
  8
0
100
AcDbLine
 10
130.4453710302183
 20
152.5225450539107
 30
0.0
 11
130.4453710302183
 21
152.7725450539106
 31
0.0
  0
LINE
  5
508
330
68B
100
AcDbEntity
  8
0
100
AcDbLine
 10
127.4453710302183
 20
152.7725450539106
 30
0.0
 11
127.4453710302183
 21
152.5225450539107
 31
0.0
  0
LINE
  5
509
330
68B
100
AcDbEntity
  8
0
100
AcDbLine
 10
130.4453710302182
 20
152.5225450539108
 30
0.0
 11
130.3942597696518
 21
152.5225450539108
 31
0.0
  0
LINE
  5
50A
330
68B
100
AcDbEntity
  8
0
100
AcDbLine
 10
130.3942591494357
 20
152.5225450539108
 30
0.0
 11
130.2444101597002
 21
152.5225450539108
 31
0.0
  0
LINE
  5
50B
330
68B
100
AcDbEntity
  8
0
100
AcDbLine
 10
130.2444091358949
 20
152.5225450539108
 30
0.0
 11
130.0060325347788
 21
152.5225450539108
 31
0.0
  0
LINE
  5
50C
330
68B
100
AcDbEntity
  8
0
100
AcDbLine
 10
130.006031201998
 20
152.5225450539108
 30
0.0
 11
129.3336004392616
 21
152.5225450539108
 31
0.0
  0
LINE
  5
50D
330
68B
100
AcDbEntity
  8
0
100
AcDbLine
 10
129.333599597872
 20
152.5225450539108
 30
0.0
 11
128.5571424625644
 21
152.5225450539108
 31
0.0
  0
LINE
  5
50E
330
68B
100
AcDbEntity
  8
0
100
AcDbLine
 10
128.5571416211846
 20
152.5225450539108
 30
0.0
 11
127.8847108584384
 21
152.5225450539108
 31
0.0
  0
LINE
  5
50F
330
68B
100
AcDbEntity
  8
0
100
AcDbLine
 10
127.8847095256681
 20
152.5225450539108
 30
0.0
 11
127.6463329245415
 21
152.5225450539108
 31
0.0
  0
LINE
  5
510
330
68B
100
AcDbEntity
  8
0
100
AcDbLine
 10
127.6463319007481
 20
152.5225450539108
 30
0.0
 11
127.4964829110068
 21
152.5225450539108
 31
0.0
  0
LINE
  5
511
330
68B
100
AcDbEntity
  8
0
100
AcDbLine
 10
127.4964822907846
 20
152.5225450539108
 30
0.0
 11
127.4453710302182
 21
152.5225450539108
 31
0.0
  0
INSERT
  5
528
330
68B
100
AcDbEntity
  8
0
  6
Continuous
100
AcDbBlockReference
  2
*X4
 10
0.0
 20
0.0
 30
0.0
1001
GRADIENTCOLOR1ACI
1070
     5
1001
GRADIENTCOLOR2ACI
1070
     2
1001
ACAD
1000
HATCH
1002
{
1070
    19
1000
NET
1040
12.0
1040
0.0
1000
ASC_BOUNDS
1070
     3
1070
     1
1070
     4
1005
3B3
1005
3B4
1005
3AB
1005
3B2
1070
     1
1070
     4
1005
3A9
1005
3B4
1005
3A7
1005
3B2
1070
     1
1070
     4
1005
3A4
1005
3B4
1005
3B1
1005
3B2
1000
ASC_SEEDPOINT
1011
225.8872187358834
1021
28.37858290971366
1031
0.0
1000
R14_HATCH_DATA
1000
528
1011
1.0
1021
0.0
1031
0.0
1011
0.0
1021
1.0
1031
0.0
1011
0.0
1021
0.0
1031
1.0
1040
0.0
1010
0.0
1020
0.0
1030
1.0
1000
NET
1070
     0
1070
     1
1071
        3
1071
        7
1070
     0
1070
     1
1071
        4
1040
228.5631468056601
1040
42.50000450375757
1040
221.1881468056606
1040
42.5000045037575
1040
221.1881468056609
1040
4.000004503756957
1040
228.5631468056601
1040
4.00000450375704
1071
        4
1005
3B2
1005
3B1
1005
3B4
1005
3A4
1071
        7
1070
     0
1070
     1
1071
        4
1040
264.5721464603323
1040
42.50000450375796
1040
246.5631468056608
1040
42.50000450375774
1040
246.5631468056608
1040
4.000004503757216
1040
264.5721464603323
1040
4.000004503757408
1071
        4
1005
3B2
1005
3A7
1005
3B4
1005
3A9
1071
        7
1070
     0
1070
     1
1071
        4
1040
289.9381468056605
1040
42.50000450375821
1040
282.55516212243
1040
42.50000450375813
1040
282.55516212243
1040
4.000004503757587
1040
289.9381468056608
1040
4.000004503757661
1071
        4
1005
3B2
1005
3AB
1005
3B4
1005
3B3
1070
     1
1070
     1
1040
0.0
1040
12.0
1070
     0
1070
     2
1040
0.0
1040
0.0
1040
0.0
1040
0.0
1040
1.5
1070
     0
1040
1.570796326794895
1040
0.0
1040
0.0
1040
-1.5
1040
0.0000000000000001
1070
     0
1040
0.0910094266476459
1071
        3
1040
225.8872187358834
1040
28.37858290971366
1040
0.0
1040
254.2958635375535
1040
31.47290362957352
1040
0.0
1040
285.3450557381736
1040
18.0035082675837
1040
0.0
1002
}
  0
HATCH
  5
532
330
68B
100
AcDbEntity
  8
0
  6
Continuous
100
AcDbHatch
 10
0.0
 20
0.0
 30
0.0
210
0.0
220
0.0
230
1.0
  2
ANSI31
 70
     0
 71
     1
 91
        1
 92
        7
 72
     0
 73
     1
 93
        4
 10
163.945371030218
 20
223.147545053911
 10
126.445371030218
 20
223.1475450539111
 10
126.4453710302179
 20
154.3975450539111
 10
163.9453710302178
 20
154.397545053911
 97
        4
330
4D6
330
4D5
330
4D4
330
4D3
 75
     1
 76
     1
 52
134.9999999999999
 41
12.0
 77
     0
 78
     1
 53
180.0
 43
0.0
 44
18.0
 45
-0.0000000000000002
 46
-1.5
 79
     0
 47
0.3690981978947327
 98
        1
 10
144.3427408854288
 20
197.6486228497267
1001
GRADIENTCOLOR1ACI
1070
     5
1001
GRADIENTCOLOR2ACI
1070
     2
  0
ENDSEC
  0
SECTION
  2
OBJECTS
  0
DICTIONARY
  5
627
330
0
100
AcDbDictionary
281
     1
  3
ACAD_CIP_PREVIOUS_PRODUCT_INFO
350
6C0
  3
ACAD_COLOR
350
67D
  3
ACAD_DETAILVIEWSTYLE
350
685
  3
ACAD_GROUP
350
628
  3
ACAD_LAYOUT
350
67C
  3
ACAD_MATERIAL
350
62B
  3
ACAD_MLEADERSTYLE
350
680
  3
ACAD_MLINESTYLE
350
679
  3
ACAD_PLOTSETTINGS
350
67B
  3
ACAD_PLOTSTYLENAME
350
629
  3
ACAD_SCALELIST
350
65D
  3
ACAD_SECTIONVIEWSTYLE
350
682
  3
ACAD_TABLESTYLE
350
67E
  3
ACAD_VISUALSTYLE
350
644
  3
ACDB_RECOMPOSE_DATA
350
714
  3
AcDbVariableDictionary
350
6C5
  3
DWGPROPS
350
715
  0
DICTIONARY
  5
6C3
330
66F
100
AcDbDictionary
280
     1
281
     1
  3
ADSK_XREC_LAYER_RECONCILED
360
6C4
  0
XRECORD
  5
6C0
102
{ACAD_REACTORS
330
627
102
}
330
627
100
AcDbXrecord
280
     1
300
AMECH_PP
300
2013
300
85962PDSP_2013_0F
  0
DICTIONARY
  5
67D
102
{ACAD_REACTORS
330
627
102
}
330
627
100
AcDbDictionary
281
     1
  0
DICTIONARY
  5
685
102
{ACAD_REACTORS
330
627
102
}
330
627
100
AcDbDictionary
281
     1
  3
Imperial24
350
686
  0
DICTIONARY
  5
628
102
{ACAD_REACTORS
330
627
102
}
330
627
100
AcDbDictionary
281
     1
  0
DICTIONARY
  5
67C
102
{ACAD_REACTORS
330
627
102
}
330
627
100
AcDbDictionary
281
     1
  3
Layout1
350
68A
  3
Model
350
68E
  0
DICTIONARY
  5
62B
102
{ACAD_REACTORS
330
627
102
}
330
627
100
AcDbDictionary
281
     1
  3
ByBlock
350
634
  3
ByLayer
350
62C
  3
Global
350
63C
  0
DICTIONARY
  5
680
102
{ACAD_REACTORS
330
627
102
}
330
627
100
AcDbDictionary
281
     1
  3
Standard
350
681
  0
DICTIONARY
  5
679
102
{ACAD_REACTORS
330
627
102
}
330
627
100
AcDbDictionary
281
     1
  3
Standard
350
67A
  0
DICTIONARY
  5
67B
102
{ACAD_REACTORS
330
627
102
}
330
627
100
AcDbDictionary
281
     1
  0
ACDBDICTIONARYWDFLT
  5
629
102
{ACAD_REACTORS
330
627
102
}
330
627
100
AcDbDictionary
281
     1
  3
Normal
350
62A
100
AcDbDictionaryWithDefault
340
62A
  0
DICTIONARY
  5
65D
102
{ACAD_REACTORS
330
627
102
}
330
627
100
AcDbDictionary
281
     1
  3
A0
350
65E
  3
A1
350
65F
  3
A2
350
660
  3
A3
350
661
  3
A4
350
662
  3
A5
350
663
  3
A6
350
664
  3
A7
350
665
  3
A8
350
666
  3
A9
350
667
  3
B0
350
668
  3
B1
350
669
  3
B2
350
66A
  3
B3
350
66B
  3
B4
350
66C
  3
B5
350
66D
  3
B6
350
66E
  0
DICTIONARY
  5
682
102
{ACAD_REACTORS
330
627
102
}
330
627
100
AcDbDictionary
281
     1
  3
Imperial24
350
684
  0
DICTIONARY
  5
67E
102
{ACAD_REACTORS
330
627
102
}
330
627
100
AcDbDictionary
281
     1
  3
Standard
350
67F
  0
DICTIONARY
  5
644
102
{ACAD_REACTORS
330
627
102
}
330
627
100
AcDbDictionary
281
     1
  3
2dWireframe
350
64A
  3
Basic
350
649
  3
Brighten
350
650
  3
ColorChange
350
654
  3
Conceptual
350
64D
  3
Dim
350
64F
  3
EdgeColorOff
350
65C
  3
Facepattern
350
653
  3
Flat
350
645
  3
FlatWithEdges
350
646
  3
Gouraud
350
647
  3
GouraudWithEdges
350
648
  3
Hidden
350
64C
  3
JitterOff
350
65A
  3
Linepattern
350
652
  3
OverhangOff
350
65B
  3
Realistic
350
64E
  3
Shaded
350
659
  3
Shaded with edges
350
658
  3
Shades of Gray
350
655
  3
Sketchy
350
656
  3
Thicken
350
651
  3
Wireframe
350
64B
  3
X-Ray
350
657
  0
XRECORD
  5
714
102
{ACAD_REACTORS
330
627
102
}
330
627
100
AcDbXrecord
280
     1
 90
        1
330
67F
  0
DICTIONARY
  5
6C5
102
{ACAD_REACTORS
330
627
102
}
330
627
100
AcDbDictionary
281
     1
  3
CANNOSCALE
350
6CA
  3
CMLEADERSTYLE
350
6C7
  3
CTABLESTYLE
350
6C6
  3
CVIEWDETAILSTYLE
350
6C8
  3
CVIEWSECTIONSTYLE
350
6C9
  3
DIMASSOC
350
6CD
  3
INDEXCTL
350
6CC
  3
SORTENTS
350
6CB
  3
XCLIPFRAME
350
6CE
  0
XRECORD
  5
715
102
{ACAD_REACTORS
330
627
102
}
330
627
100
AcDbXrecord
280
     1
  1
DWGPROPS COOKIE
  2

  3

  4

  6

  7

  8
jcl
  9

300
=
301
=
302
=
303
=
304
=
305
=
306
=
307
=
308
=
309
=
 40
0.0017054976851852
 41
2456827.638124121
 42
2456827.640526922
  1

 90
        0
  0
XRECORD
  5
6C4
102
{ACAD_REACTORS
330
6C3
102
}
330
6C3
100
AcDbXrecord
280
     1
290
     1
  0
ACDBDETAILVIEWSTYLE
  5
686
102
{ACAD_REACTORS
330
685
102
}
330
685
100
AcDbModelDocViewStyle
 70
     0
  3
Imperial24
290
     0
100
AcDbDetailViewStyle
 70
     0
 71
     0
 90
        3
 71
     1
340
670
 40
0.24
340
0
 40
0.24
300

 40
0.36
280
     3
 71
     2
340
677
 90
       25
 71
     3
340
670
 40
0.24
 90
        1
 40
0.75
 90
        1
300
%<\AcVar ViewType \f "%tc1">% %<\AcVar ViewDetailId>%\PSCALE %<\AcVar ViewScale \f "%sn">%
 71
     4
340
677
 90
       25
340
677
 90
       25
280
     0
  0
LAYOUT
  5
68A
102
{ACAD_XDICTIONARY
360
74A
102
}
102
{ACAD_REACTORS
330
67C
102
}
330
67C
100
AcDbPlotSettings
  1

  2
\\BALTIMORE\MD_ENGR_Copier
  4

  6

 40
0.0
 41
0.0
 42
0.0
 43
0.0
 44
0.0
 45
0.0
 46
0.0
 47
0.0
 48
0.0
 49
0.0
140
0.0
141
0.0
142
1.0
143
1.0
 70
   688
 72
     0
 73
     0
 74
     5
  7
bac.ctb
 75
    16
147
1.0
148
0.0
149
0.0
100
AcDbLayout
  1
Layout1
 70
     1
 71
     1
 10
0.0
 20
0.0
 11
12.0
 21
9.0
 12
0.0
 22
0.0
 32
0.0
 14
1.000000000000000E+20
 24
1.000000000000000E+20
 34
1.000000000000000E+20
 15
-1.000000000000000E+20
 25
-1.000000000000000E+20
 35
-1.000000000000000E+20
146
0.0
 13
0.0
 23
0.0
 33
0.0
 16
1.0
 26
0.0
 36
0.0
 17
0.0
 27
1.0
 37
0.0
 76
     0
330
687
  0
LAYOUT
  5
68E
102
{ACAD_XDICTIONARY
360
74C
102
}
102
{ACAD_REACTORS
330
67C
102
}
330
67C
100
AcDbPlotSettings
  1

  2
\\BALTIMORE\MD_ENGR_Copier
  4

  6

 40
0.0
 41
0.0
 42
0.0
 43
0.0
 44
0.0
 45
0.0
 46
0.0
 47
0.0
 48
0.0
 49
0.0
140
0.0
141
0.0
142
1.0
143
1.0
 70
  1712
 72
     0
 73
     0
 74
     0
  7
bac.ctb
 75
     0
147
1.0
148
0.0
149
0.0
100
AcDbLayout
  1
Model
 70
     1
 71
     0
 10
0.0
 20
0.0
 11
12.0
 21
9.0
 12
0.0
 22
0.0
 32
0.0
 14
0.0
 24
0.0
 34
0.0
 15
0.0
 25
0.0
 35
0.0
146
0.0
 13
0.0
 23
0.0
 33
0.0
 16
1.0
 26
0.0
 36
0.0
 17
0.0
 27
1.0
 37
0.0
 76
     0
330
68B
331
690
  0
MATERIAL
  5
634
102
{ACAD_XDICTIONARY
360
635
102
}
102
{ACAD_REACTORS
330
62B
102
}
330
62B
100
AcDbMaterial
  1
ByBlock
 72
     0
 43
0.0208333333333333
 43
0.0
 43
0.0
 43
0.0
 43
0.0
 43
0.0208333333333333
 43
0.0
 43
0.0
 43
0.0
 43
0.0
 43
1.0
 43
0.0
 43
0.0
 43
0.0
 43
0.0
 43
1.0
 77
     0
 47
0.0208333333333333
 47
0.0
 47
0.0
 47
0.0
 47
0.0
 47
0.0208333333333333
 47
0.0
 47
0.0
 47
0.0
 47
0.0
 47
1.0
 47
0.0
 47
0.0
 47
0.0
 47
0.0
 47
1.0
171
     0
 49
0.0208333333333333
 49
0.0
 49
0.0
 49
0.0
 49
0.0
 49
0.0208333333333333
 49
0.0
 49
0.0
 49
0.0
 49
0.0
 49
1.0
 49
0.0
 49
0.0
 49
0.0
 49
0.0
 49
1.0
175
     0
142
0.0208333333333333
142
0.0
142
0.0
142
0.0
142
0.0
142
0.0208333333333333
142
0.0
142
0.0
142
0.0
142
0.0
142
1.0
142
0.0
142
0.0
142
0.0
142
0.0
142
1.0
179
     0
144
0.0208333333333333
144
0.0
144
0.0
144
0.0
144
0.0
144
0.0208333333333333
144
0.0
144
0.0
144
0.0
144
0.0
144
1.0
144
0.0
144
0.0
144
0.0
144
0.0
144
1.0
147
0.0208333333333333
147
0.0
147
0.0
147
0.0
147
0.0
147
0.0208333333333333
147
0.0
147
0.0
147
0.0
147
0.0
147
1.0
147
0.0
147
0.0
147
0.0
147
0.0
147
1.0
  0
MATERIAL
  5
62C
102
{ACAD_XDICTIONARY
360
62D
102
}
102
{ACAD_REACTORS
330
62B
102
}
330
62B
100
AcDbMaterial
  1
ByLayer
 72
     0
 43
0.0208333333333333
 43
0.0
 43
0.0
 43
0.0
 43
0.0
 43
0.0208333333333333
 43
0.0
 43
0.0
 43
0.0
 43
0.0
 43
1.0
 43
0.0
 43
0.0
 43
0.0
 43
0.0
 43
1.0
 77
     0
 47
0.0208333333333333
 47
0.0
 47
0.0
 47
0.0
 47
0.0
 47
0.0208333333333333
 47
0.0
 47
0.0
 47
0.0
 47
0.0
 47
1.0
 47
0.0
 47
0.0
 47
0.0
 47
0.0
 47
1.0
171
     0
 49
0.0208333333333333
 49
0.0
 49
0.0
 49
0.0
 49
0.0
 49
0.0208333333333333
 49
0.0
 49
0.0
 49
0.0
 49
0.0
 49
1.0
 49
0.0
 49
0.0
 49
0.0
 49
0.0
 49
1.0
175
     0
142
0.0208333333333333
142
0.0
142
0.0
142
0.0
142
0.0
142
0.0208333333333333
142
0.0
142
0.0
142
0.0
142
0.0
142
1.0
142
0.0
142
0.0
142
0.0
142
0.0
142
1.0
179
     0
144
0.0208333333333333
144
0.0
144
0.0
144
0.0
144
0.0
144
0.0208333333333333
144
0.0
144
0.0
144
0.0
144
0.0
144
1.0
144
0.0
144
0.0
144
0.0
144
0.0
144
1.0
147
0.0208333333333333
147
0.0
147
0.0
147
0.0
147
0.0
147
0.0208333333333333
147
0.0
147
0.0
147
0.0
147
0.0
147
1.0
147
0.0
147
0.0
147
0.0
147
0.0
147
1.0
  0
MATERIAL
  5
63C
102
{ACAD_XDICTIONARY
360
63D
102
}
102
{ACAD_REACTORS
330
62B
102
}
330
62B
100
AcDbMaterial
  1
Global
 72
     0
 43
0.0208333333333333
 43
0.0
 43
0.0
 43
0.0
 43
0.0
 43
0.0208333333333333
 43
0.0
 43
0.0
 43
0.0
 43
0.0
 43
1.0
 43
0.0
 43
0.0
 43
0.0
 43
0.0
 43
1.0
 77
     0
 47
0.0208333333333333
 47
0.0
 47
0.0
 47
0.0
 47
0.0
 47
0.0208333333333333
 47
0.0
 47
0.0
 47
0.0
 47
0.0
 47
1.0
 47
0.0
 47
0.0
 47
0.0
 47
0.0
 47
1.0
171
     0
 49
0.0208333333333333
 49
0.0
 49
0.0
 49
0.0
 49
0.0
 49
0.0208333333333333
 49
0.0
 49
0.0
 49
0.0
 49
0.0
 49
1.0
 49
0.0
 49
0.0
 49
0.0
 49
0.0
 49
1.0
175
     0
142
0.0208333333333333
142
0.0
142
0.0
142
0.0
142
0.0
142
0.0208333333333333
142
0.0
142
0.0
142
0.0
142
0.0
142
1.0
142
0.0
142
0.0
142
0.0
142
0.0
142
1.0
179
     0
144
0.0208333333333333
144
0.0
144
0.0
144
0.0
144
0.0
144
0.0208333333333333
144
0.0
144
0.0
144
0.0
144
0.0
144
1.0
144
0.0
144
0.0
144
0.0
144
0.0
144
1.0
147
0.0208333333333333
147
0.0
147
0.0
147
0.0
147
0.0
147
0.0208333333333333
147
0.0
147
0.0
147
0.0
147
0.0
147
1.0
147
0.0
147
0.0
147
0.0
147
0.0
147
1.0
  0
MLEADERSTYLE
  5
681
102
{ACAD_REACTORS
330
680
102
}
330
680
100
AcDbMLeaderStyle
170
     2
171
     1
172
     0
 90
        2
 40
0.0
 41
0.0
173
     1
 91
-1056964608
340
675
 92
       -2
290
     1
 42
0.09
291
     1
 43
0.36
  3
Standard
 44
0.18
300

342
670
174
     1
178
     6
175
     1
176
     0
 93
-1056964608
 45
0.18
292
     0
297
     0
 46
0.18
 94
-1056964608
 47
1.0
 49
1.0
140
1.0
293
     1
141
0.0
294
     1
177
     0
142
1.0
295
     0
296
     0
143
0.125
1001
ACAD_MLEADERVER
1070
     2
  0
MLINESTYLE
  5
67A
102
{ACAD_REACTORS
330
679
102
}
330
679
100
AcDbMlineStyle
  2
STANDARD
 70
     0
  3

 62
   256
 51
90.0
 52
90.0
 71
     2
 49
0.5
 62
   256
  6
BYLAYER
 49
-0.5
 62
   256
  6
BYLAYER
  0
ACDBPLACEHOLDER
  5
62A
102
{ACAD_REACTORS
330
629
102
}
330
629
  0
SCALE
  5
65E
102
{ACAD_REACTORS
330
65D
102
}
330
65D
100
AcDbScale
 70
     0
300
1:1
140
1.0
141
1.0
290
     1
  0
SCALE
  5
65F
102
{ACAD_REACTORS
330
65D
102
}
330
65D
100
AcDbScale
 70
     0
300
1/128" = 1'-0"
140
0.0078125
141
12.0
290
     0
  0
SCALE
  5
660
102
{ACAD_REACTORS
330
65D
102
}
330
65D
100
AcDbScale
 70
     0
300
1/64" = 1'-0"
140
0.015625
141
12.0
290
     0
  0
SCALE
  5
661
102
{ACAD_REACTORS
330
65D
102
}
330
65D
100
AcDbScale
 70
     0
300
1/32" = 1'-0"
140
0.03125
141
12.0
290
     0
  0
SCALE
  5
662
102
{ACAD_REACTORS
330
65D
102
}
330
65D
100
AcDbScale
 70
     0
300
1/16" = 1'-0"
140
0.0625
141
12.0
290
     0
  0
SCALE
  5
663
102
{ACAD_REACTORS
330
65D
102
}
330
65D
100
AcDbScale
 70
     0
300
3/32" = 1'-0"
140
0.09375
141
12.0
290
     0
  0
SCALE
  5
664
102
{ACAD_REACTORS
330
65D
102
}
330
65D
100
AcDbScale
 70
     0
300
1/8" = 1'-0"
140
0.125
141
12.0
290
     0
  0
SCALE
  5
665
102
{ACAD_REACTORS
330
65D
102
}
330
65D
100
AcDbScale
 70
     0
300
3/16" = 1'-0"
140
0.1875
141
12.0
290
     0
  0
SCALE
  5
666
102
{ACAD_REACTORS
330
65D
102
}
330
65D
100
AcDbScale
 70
     0
300
1/4" = 1'-0"
140
0.25
141
12.0
290
     0
  0
SCALE
  5
667
102
{ACAD_REACTORS
330
65D
102
}
330
65D
100
AcDbScale
 70
     0
300
3/8" = 1'-0"
140
0.375
141
12.0
290
     0
  0
SCALE
  5
668
102
{ACAD_REACTORS
330
65D
102
}
330
65D
100
AcDbScale
 70
     0
300
1/2" = 1'-0"
140
0.5
141
12.0
290
     0
  0
SCALE
  5
669
102
{ACAD_REACTORS
330
65D
102
}
330
65D
100
AcDbScale
 70
     0
300
3/4" = 1'-0"
140
0.75
141
12.0
290
     0
  0
SCALE
  5
66A
102
{ACAD_REACTORS
330
65D
102
}
330
65D
100
AcDbScale
 70
     0
300
1" = 1'-0"
140
1.0
141
12.0
290
     0
  0
SCALE
  5
66B
102
{ACAD_REACTORS
330
65D
102
}
330
65D
100
AcDbScale
 70
     0
300
1-1/2" = 1'-0"
140
1.5
141
12.0
290
     0
  0
SCALE
  5
66C
102
{ACAD_REACTORS
330
65D
102
}
330
65D
100
AcDbScale
 70
     0
300
3" = 1'-0"
140
3.0
141
12.0
290
     0
  0
SCALE
  5
66D
102
{ACAD_REACTORS
330
65D
102
}
330
65D
100
AcDbScale
 70
     0
300
6" = 1'-0"
140
6.0
141
12.0
290
     0
  0
SCALE
  5
66E
102
{ACAD_REACTORS
330
65D
102
}
330
65D
100
AcDbScale
 70
     0
300
1'-0" = 1'-0"
140
12.0
141
12.0
290
     0
  0
ACDBSECTIONVIEWSTYLE
  5
684
102
{ACAD_REACTORS
330
682
102
}
330
682
100
AcDbModelDocViewStyle
 70
     0
  3
Imperial24
290
     0
100
AcDbSectionViewStyle
 70
     0
 71
     0
 90
       78
 71
     1
340
670
 40
0.24
340
0
340
0
 40
0.24
300
I, O, Q, S, X, Z
 40
0.48
 90
        3
 40
0.18
 90
        1
 71
     2
340
683
 90
       25
340
677
 90
       50
 40
0.24
 40
0.0
 40
0.24
 71
     3
340
670
 40
0.24
 90
        1
 40
0.75
 90
        1
300
%<\AcVar ViewType \f "%tc1">% %<\AcVar ViewSectionStartId>%-%<\AcVar ViewSectionEndId>%\PSCALE %<\AcVar ViewScale \f "%sn">%
 71
     4
300
ANSI31
 40
1.0
 90
        0
290
     0
290
     0
 90
        6
 40
0.0
 40
1.570796326794896
 40
0.2617993877991494
 40
1.308996938995747
 40
-0.2617993877991494
 40
1.832595714594046
  0
TABLESTYLE
  5
67F
102
{ACAD_XDICTIONARY
360
712
102
}
102
{ACAD_REACTORS
330
67E
102
}
330
67E
100
AcDbTableStyle
  3
Standard
 70
     0
 71
     0
 40
0.06
 41
0.06
280
     0
281
     0
  7
STANDARD
140
0.18
170
     2
 62
     0
 63
     7
283
     0
274
    -2
284
     1
 64
     0
275
    -2
285
     1
 65
     0
276
    -2
286
     1
 66
     0
277
    -2
287
     1
 67
     0
278
    -2
288
     1
 68
     0
279
    -2
289
     1
 69
     0
  7
STANDARD
140
0.25
170
     5
 62
     0
 63
     7
283
     0
274
    -2
284
     1
 64
     0
275
    -2
285
     1
 65
     0
276
    -2
286
     1
 66
     0
277
    -2
287
     1
 67
     0
278
    -2
288
     1
 68
     0
279
    -2
289
     1
 69
     0
  7
STANDARD
140
0.18
170
     5
 62
     0
 63
     7
283
     0
274
    -2
284
     1
 64
     0
275
    -2
285
     1
 65
     0
276
    -2
286
     1
 66
     0
277
    -2
287
     1
 67
     0
278
    -2
288
     1
 68
     0
279
    -2
289
     1
 69
     0
  0
VISUALSTYLE
  5
64A
102
{ACAD_XDICTIONARY
360
723
102
}
102
{ACAD_REACTORS
330
644
102
}
330
644
100
AcDbVisualStyle
  2
2dWireframe
 70
     4
 71
     0
 72
     2
 73
     0
 90
        0
 40
-0.6
 41
-30.0
 62
     5
 63
     7
 74
     1
 91
        4
 64
     7
 65
   257
 75
     1
175
     1
 42
1.0
 92
        0
 66
   257
 43
1.0
 76
     1
 77
     6
 78
     2
 67
     7
 79
     5
170
     0
171
     0
290
     0
174
     0
 93
        1
 44
0.0
173
     0
291
     0
 45
0.0
1001
ACAD
1000
AcDbSavedByObjectVersion
1070
     0
  0
VISUALSTYLE
  5
649
102
{ACAD_XDICTIONARY
360
721
102
}
102
{ACAD_REACTORS
330
644
102
}
330
644
100
AcDbVisualStyle
  2
Basic
 70
     7
 71
     1
 72
     0
 73
     1
 90
        0
 40
-0.6
 41
-30.0
 62
     5
 63
     7
 74
     0
 91
        4
 64
     7
 65
   257
 75
     1
175
     1
 42
1.0
 92
        8
 66
     7
 43
1.0
 76
     1
 77
     6
 78
     2
 67
     7
 79
     5
170
     0
171
     0
290
     0
174
     0
 93
        1
 44
0.0
173
     0
291
     1
 45
0.0
1001
ACAD
1000
AcDbSavedByObjectVersion
1070
     0
  0
VISUALSTYLE
  5
650
102
{ACAD_XDICTIONARY
360
72F
102
}
102
{ACAD_REACTORS
330
644
102
}
330
644
100
AcDbVisualStyle
  2
Brighten
 70
    12
 71
     2
 72
     2
 73
     0
 90
        0
 40
-0.6
 41
-30.0
 62
     5
 63
     7
 74
     1
 91
        4
 64
     7
 65
   257
 75
     1
175
     1
 42
1.0
 92
        8
 66
     7
 43
1.0
 76
     1
 77
     6
 78
     2
 67
     7
 79
     5
170
     0
171
     0
290
     0
174
     0
 93
        1
 44
50.0
173
     0
291
     1
 45
0.0
1001
ACAD
1000
AcDbSavedByObjectVersion
1070
     0
  0
VISUALSTYLE
  5
654
102
{ACAD_XDICTIONARY
360
737
102
}
102
{ACAD_REACTORS
330
644
102
}
330
644
100
AcDbVisualStyle
  2
ColorChange
 70
    16
 71
     2
 72
     2
 73
     3
 90
        0
 40
-0.6
 41
-30.0
 62
     5
 63
     8
 74
     1
 91
        4
 64
     7
 65
   257
 75
     1
175
     1
 42
1.0
 92
        8
 66
     8
 43
1.0
 76
     1
 77
     6
 78
     2
 67
     7
 79
     5
170
     0
171
     0
290
     0
174
     0
 93
        1
 44
0.0
173
     0
291
     1
 45
0.0
1001
ACAD
1000
AcDbSavedByObjectVersion
1070
     0
  0
VISUALSTYLE
  5
64D
102
{ACAD_XDICTIONARY
360
729
102
}
102
{ACAD_REACTORS
330
644
102
}
330
644
100
AcDbVisualStyle
  2
Conceptual
 70
     9
 71
     3
 72
     2
 73
     0
 90
        0
 40
-0.6
 41
-30.0
 62
     5
 63
     7
 74
     2
 91
        2
 64
     7
 65
   257
 75
     1
175
     1
 42
179.0
 92
        8
 66
     7
 43
1.0
 76
     1
 77
     6
 78
     2
 67
     7
 79
     3
170
     0
171
     0
290
     0
174
     0
 93
        1
 44
0.0
173
     0
291
     0
 45
0.0
1001
ACAD
1000
AcDbSavedByObjectVersion
1070
     0
  0
VISUALSTYLE
  5
64F
102
{ACAD_XDICTIONARY
360
72D
102
}
102
{ACAD_REACTORS
330
644
102
}
330
644
100
AcDbVisualStyle
  2
Dim
 70
    11
 71
     2
 72
     2
 73
     0
 90
        0
 40
-0.6
 41
-30.0
 62
     5
 63
     7
 74
     1
 91
        4
 64
     7
 65
   257
 75
     1
175
     1
 42
1.0
 92
        8
 66
     7
 43
1.0
 76
     1
 77
     6
 78
     2
 67
     7
 79
     5
170
     0
171
     0
290
     0
174
     0
 93
        1
 44
-50.0
173
     0
291
     1
 45
0.0
1001
ACAD
1000
AcDbSavedByObjectVersion
1070
     0
  0
VISUALSTYLE
  5
65C
102
{ACAD_XDICTIONARY
360
747
102
}
102
{ACAD_REACTORS
330
644
102
}
330
644
100
AcDbVisualStyle
  2
EdgeColorOff
 70
    22
 71
     2
 72
     2
 73
     0
 90
        0
 40
-0.6
 41
-30.0
 62
     5
 63
     7
 74
     1
 91
        4
 64
     7
 65
   257
 75
     1
175
     1
 42
1.0
 92
        8
 66
     7
 43
1.0
 76
     1
 77
     6
 78
     2
 67
     7
 79
     5
170
     0
171
     0
290
     0
174
     0
 93
        1
 44
0.0
173
     0
291
     1
 45
0.0
1001
ACAD
1000
AcDbSavedByObjectVersion
1070
     0
  0
VISUALSTYLE
  5
653
102
{ACAD_XDICTIONARY
360
735
102
}
102
{ACAD_REACTORS
330
644
102
}
330
644
100
AcDbVisualStyle
  2
Facepattern
 70
    15
 71
     2
 72
     2
 73
     0
 90
        0
 40
-0.6
 41
-30.0
 62
     5
 63
     7
 74
     1
 91
        4
 64
     7
 65
   257
 75
     1
175
     1
 42
1.0
 92
        8
 66
     7
 43
1.0
 76
     1
 77
     6
 78
     2
 67
     7
 79
     5
170
     0
171
     0
290
     0
174
     0
 93
        1
 44
0.0
173
     0
291
     1
 45
0.0
1001
ACAD
1000
AcDbSavedByObjectVersion
1070
     0
  0
VISUALSTYLE
  5
645
102
{ACAD_XDICTIONARY
360
719
102
}
102
{ACAD_REACTORS
330
644
102
}
330
644
100
AcDbVisualStyle
  2
Flat
 70
     0
 71
     2
 72
     1
 73
     1
 90
        2
 40
-0.6
 41
30.0
 62
     5
 63
     7
 74
     0
 91
        0
 64
     7
 65
   257
 75
     1
175
     1
 42
1.0
 92
        8
 66
     7
 43
1.0
 76
     1
 77
     6
 78
     2
 67
     7
 79
     5
170
     0
171
     0
290
     0
174
     0
 93
       13
 44
0.0
173
     0
291
     1
 45
0.0
1001
ACAD
1000
AcDbSavedByObjectVersion
1070
     0
  0
VISUALSTYLE
  5
646
102
{ACAD_XDICTIONARY
360
71B
102
}
102
{ACAD_REACTORS
330
644
102
}
330
644
100
AcDbVisualStyle
  2
FlatWithEdges
 70
     1
 71
     2
 72
     1
 73
     1
 90
        2
 40
-0.6
 41
30.0
 62
     5
 63
     7
 74
     1
 91
        0
 64
     7
 65
   257
 75
     1
175
     1
 42
1.0
 92
        0
 66
   257
 43
1.0
 76
     1
 77
     6
 78
     2
 67
     7
 79
     5
170
     0
171
     0
290
     0
174
     0
 93
       13
 44
0.0
173
     0
291
     1
 45
0.0
1001
ACAD
1000
AcDbSavedByObjectVersion
1070
     0
  0
VISUALSTYLE
  5
647
102
{ACAD_XDICTIONARY
360
71D
102
}
102
{ACAD_REACTORS
330
644
102
}
330
644
100
AcDbVisualStyle
  2
Gouraud
 70
     2
 71
     2
 72
     2
 73
     1
 90
        2
 40
-0.6
 41
30.0
 62
     5
 63
     7
 74
     0
 91
        0
 64
     7
 65
   257
 75
     1
175
     1
 42
1.0
 92
        0
 66
     7
 43
1.0
 76
     1
 77
     6
 78
     2
 67
     7
 79
     5
170
     0
171
     0
290
     0
174
     0
 93
       13
 44
0.0
173
     0
291
     1
 45
0.0
1001
ACAD
1000
AcDbSavedByObjectVersion
1070
     0
  0
VISUALSTYLE
  5
648
102
{ACAD_XDICTIONARY
360
71F
102
}
102
{ACAD_REACTORS
330
644
102
}
330
644
100
AcDbVisualStyle
  2
GouraudWithEdges
 70
     3
 71
     2
 72
     2
 73
     1
 90
        2
 40
-0.6
 41
30.0
 62
     5
 63
     7
 74
     1
 91
        0
 64
     7
 65
   257
 75
     1
175
     1
 42
1.0
 92
        0
 66
   257
 43
1.0
 76
     1
 77
     6
 78
     2
 67
     7
 79
     5
170
     0
171
     0
290
     0
174
     0
 93
       13
 44
0.0
173
     0
291
     1
 45
0.0
1001
ACAD
1000
AcDbSavedByObjectVersion
1070
     0
  0
VISUALSTYLE
  5
64C
102
{ACAD_XDICTIONARY
360
727
102
}
102
{ACAD_REACTORS
330
644
102
}
330
644
100
AcDbVisualStyle
  2
Hidden
 70
     6
 71
     1
 72
     2
 73
     2
 90
        0
 40
-0.6
 41
-30.0
 62
     5
 63
     7
 74
     2
 91
        2
 64
     7
 65
   257
 75
     2
175
     1
 42
40.0
 92
        0
 66
   257
 43
1.0
 76
     1
 77
     6
 78
     2
 67
     7
 79
     3
170
     0
171
     0
290
     0
174
     0
 93
        1
 44
0.0
173
     0
291
     0
 45
0.0
1001
ACAD
1000
AcDbSavedByObjectVersion
1070
     0
  0
VISUALSTYLE
  5
65A
102
{ACAD_XDICTIONARY
360
743
102
}
102
{ACAD_REACTORS
330
644
102
}
330
644
100
AcDbVisualStyle
  2
JitterOff
 70
    20
 71
     2
 72
     2
 73
     0
 90
        0
 40
-0.6
 41
-30.0
 62
     5
 63
     7
 74
     1
 91
        4
 64
     7
 65
   257
 75
     1
175
     1
 42
1.0
 92
       10
 66
     7
 43
1.0
 76
     1
 77
     6
 78
     2
 67
     7
 79
     5
170
     0
171
     0
290
     0
174
     0
 93
        1
 44
0.0
173
     0
291
     1
 45
0.0
1001
ACAD
1000
AcDbSavedByObjectVersion
1070
     0
  0
VISUALSTYLE
  5
652
102
{ACAD_XDICTIONARY
360
733
102
}
102
{ACAD_REACTORS
330
644
102
}
330
644
100
AcDbVisualStyle
  2
Linepattern
 70
    14
 71
     2
 72
     2
 73
     0
 90
        0
 40
-0.6
 41
-30.0
 62
     5
 63
     7
 74
     1
 91
        4
 64
     7
 65
   257
 75
     7
175
     7
 42
1.0
 92
        8
 66
     7
 43
1.0
 76
     1
 77
     6
 78
     2
 67
     7
 79
     5
170
     0
171
     0
290
     0
174
     0
 93
        1
 44
0.0
173
     0
291
     1
 45
0.0
1001
ACAD
1000
AcDbSavedByObjectVersion
1070
     0
  0
VISUALSTYLE
  5
65B
102
{ACAD_XDICTIONARY
360
745
102
}
102
{ACAD_REACTORS
330
644
102
}
330
644
100
AcDbVisualStyle
  2
OverhangOff
 70
    21
 71
     2
 72
     2
 73
     0
 90
        0
 40
-0.6
 41
-30.0
 62
     5
 63
     7
 74
     1
 91
        4
 64
     7
 65
   257
 75
     1
175
     1
 42
1.0
 92
        9
 66
     7
 43
1.0
 76
     1
 77
     6
 78
     2
 67
     7
 79
     5
170
     0
171
     0
290
     0
174
     0
 93
        1
 44
0.0
173
     0
291
     1
 45
0.0
1001
ACAD
1000
AcDbSavedByObjectVersion
1070
     0
  0
VISUALSTYLE
  5
64E
102
{ACAD_XDICTIONARY
360
72B
102
}
102
{ACAD_REACTORS
330
644
102
}
330
644
100
AcDbVisualStyle
  2
Realistic
 70
     8
 71
     2
 72
     3
 73
     0
 90
        2
 40
-0.6
 41
30.0
 62
     5
 63
     7
 74
     0
 91
        0
 64
     7
 65
   257
 75
     1
175
     1
 42
1.0
 92
        8
 66
   257
 43
1.0
 76
     1
 77
     6
 78
     2
 67
     7
 79
     3
170
     0
171
     0
290
     0
174
     0
 93
       13
 44
0.0
173
     0
291
     0
 45
0.0
1001
ACAD
1000
AcDbSavedByObjectVersion
1070
     0
  0
VISUALSTYLE
  5
659
102
{ACAD_XDICTIONARY
360
741
102
}
102
{ACAD_REACTORS
330
644
102
}
330
644
100
AcDbVisualStyle
  2
Shaded
 70
    27
 71
     2
 72
     2
 73
     1
 90
        2
 40
-0.6
 41
30.0
 62
     5
 63
     7
 74
     0
 91
        4
 64
     7
 65
   257
 75
     1
175
     1
 42
1.0
 92
        8
 66
   257
 43
1.0
 76
     1
 77
     6
 78
     2
 67
     8
 79
     3
170
     0
171
     0
290
     0
174
     0
 93
        5
 44
0.0
173
     0
291
     0
 45
0.0
1001
ACAD
1000
AcDbSavedByObjectVersion
1070
     0
  0
VISUALSTYLE
  5
658
102
{ACAD_XDICTIONARY
360
73F
102
}
102
{ACAD_REACTORS
330
644
102
}
330
644
100
AcDbVisualStyle
  2
Shaded with edges
 70
    26
 71
     2
 72
     2
 73
     1
 90
        2
 40
-0.6
 41
30.0
 62
     5
 63
     7
 74
     1
 91
       10
 64
     7
 65
   257
 75
     2
175
     1
 42
1.0
 92
        8
 66
   257
 43
1.0
 76
     1
 77
     6
 78
     2
 67
     7
 79
     3
170
     0
171
     0
290
     0
174
     0
 93
        5
 44
0.0
173
     0
291
     0
 45
0.0
1001
ACAD
1000
AcDbSavedByObjectVersion
1070
     0
  0
VISUALSTYLE
  5
655
102
{ACAD_XDICTIONARY
360
739
102
}
102
{ACAD_REACTORS
330
644
102
}
330
644
100
AcDbVisualStyle
  2
Shades of Gray
 70
    23
 71
     2
 72
     2
 73
     3
 90
        0
 40
-0.6
 41
-30.0
 62
     5
 63
     7
 74
     2
 91
        2
 64
     7
 65
     7
 75
     1
175
     1
 42
40.0
 92
        8
 66
     7
 43
1.0
 76
     1
 77
     6
 78
     2
 67
     7
 79
     3
170
     0
171
     0
290
     0
174
     0
 93
        1
 44
0.0
173
     0
291
     0
 45
0.0
1001
ACAD
1000
AcDbSavedByObjectVersion
1070
     0
  0
VISUALSTYLE
  5
656
102
{ACAD_XDICTIONARY
360
73B
102
}
102
{ACAD_REACTORS
330
644
102
}
330
644
100
AcDbVisualStyle
  2
Sketchy
 70
    24
 71
     1
 72
     2
 73
     2
 90
        0
 40
-0.6
 41
-30.0
 62
     5
 63
     7
 74
     2
 91
        2
 64
     7
 65
     7
 75
     1
175
     1
 42
40.0
 92
       11
 66
     7
 43
1.0
 76
     1
 77
     6
 78
     2
 67
     7
 79
     6
170
     0
171
     0
290
     0
174
     0
 93
        1
 44
0.0
173
     0
291
     0
 45
0.0
1001
ACAD
1000
AcDbSavedByObjectVersion
1070
     0
  0
VISUALSTYLE
  5
651
102
{ACAD_XDICTIONARY
360
731
102
}
102
{ACAD_REACTORS
330
644
102
}
330
644
100
AcDbVisualStyle
  2
Thicken
 70
    13
 71
     2
 72
     2
 73
     0
 90
        0
 40
-0.6
 41
-30.0
 62
     5
 63
     7
 74
     1
 91
        4
 64
     7
 65
   257
 75
     1
175
     1
 42
1.0
 92
       12
 66
     7
 43
1.0
 76
     1
 77
     6
 78
     2
 67
     7
 79
     5
170
     0
171
     0
290
     0
174
     0
 93
        1
 44
0.0
173
     0
291
     1
 45
0.0
1001
ACAD
1000
AcDbSavedByObjectVersion
1070
     0
  0
VISUALSTYLE
  5
64B
102
{ACAD_XDICTIONARY
360
725
102
}
102
{ACAD_REACTORS
330
644
102
}
330
644
100
AcDbVisualStyle
  2
Wireframe
 70
     5
 71
     0
 72
     2
 73
     0
 90
        0
 40
-0.6
 41
-30.0
 62
     5
 63
     7
 74
     1
 91
        4
 64
     7
 65
   257
 75
     1
175
     1
 42
1.0
 92
        0
 66
   257
 43
1.0
 76
     1
 77
     6
 78
     2
 67
     7
 79
     3
170
     0
171
     0
290
     0
174
     0
 93
        1
 44
0.0
173
     0
291
     0
 45
0.0
1001
ACAD
1000
AcDbSavedByObjectVersion
1070
     0
  0
VISUALSTYLE
  5
657
102
{ACAD_XDICTIONARY
360
73D
102
}
102
{ACAD_REACTORS
330
644
102
}
330
644
100
AcDbVisualStyle
  2
X-Ray
 70
    25
 71
     2
 72
     2
 73
     1
 90
        1
 40
0.5
 41
-30.0
 62
     5
 63
     7
 74
     1
 91
        0
 64
     7
 65
   257
 75
     1
175
     1
 42
1.0
 92
        8
 66
     7
 43
1.0
 76
     1
 77
     6
 78
     2
 67
     7
 79
     3
170
     0
171
     0
290
     0
174
     0
 93
       13
 44
0.0
173
     0
291
     0
 45
0.0
1001
ACAD
1000
AcDbSavedByObjectVersion
1070
     0
  0
DICTIONARYVAR
  5
6CA
102
{ACAD_REACTORS
330
6C5
102
}
330
6C5
100
DictionaryVariables
280
     0
  1
1:1
  0
DICTIONARYVAR
  5
6C7
102
{ACAD_REACTORS
330
6C5
102
}
330
6C5
100
DictionaryVariables
280
     0
  1
STANDARD
  0
DICTIONARYVAR
  5
6C6
102
{ACAD_REACTORS
330
6C5
102
}
330
6C5
100
DictionaryVariables
280
     0
  1
STANDARD
  0
DICTIONARYVAR
  5
6C8
102
{ACAD_REACTORS
330
6C5
102
}
330
6C5
100
DictionaryVariables
280
     0
  1
Imperial24
  0
DICTIONARYVAR
  5
6C9
102
{ACAD_REACTORS
330
6C5
102
}
330
6C5
100
DictionaryVariables
280
     0
  1
Imperial24
  0
DICTIONARYVAR
  5
6CD
102
{ACAD_REACTORS
330
6C5
102
}
330
6C5
100
DictionaryVariables
280
     0
  1
1
  0
DICTIONARYVAR
  5
6CC
102
{ACAD_REACTORS
330
6C5
102
}
330
6C5
100
DictionaryVariables
280
     0
  1
0
  0
DICTIONARYVAR
  5
6CB
102
{ACAD_REACTORS
330
6C5
102
}
330
6C5
100
DictionaryVariables
280
     0
  1
127
  0
DICTIONARYVAR
  5
6CE
102
{ACAD_REACTORS
330
6C5
102
}
330
6C5
100
DictionaryVariables
280
     0
  1
2
  0
DICTIONARY
  5
74A
330
68A
100
AcDbDictionary
280
     1
281
     1
  3
ACAD_XREC_ROUNDTRIP
360
74B
  0
DICTIONARY
  5
74C
330
68E
100
AcDbDictionary
280
     1
281
     1
  3
ACAD_XREC_ROUNDTRIP
360
74D
  0
DICTIONARY
  5
635
330
634
100
AcDbDictionary
280
     1
281
     1
  3
ACAD_XREC_ROUNDTRIP
360
717
  3
BUMPTILE
360
637
  3
DIFFUSETILE
360
636
  3
OPACITYTILE
360
63A
  3
REFLECTIONTILE
360
639
  3
REFRACTIONTILE
360
63B
  3
SPECULARTILE
360
638
  0
DICTIONARY
  5
62D
330
62C
100
AcDbDictionary
280
     1
281
     1
  3
ACAD_XREC_ROUNDTRIP
360
716
  3
BUMPTILE
360
62F
  3
DIFFUSETILE
360
62E
  3
OPACITYTILE
360
632
  3
REFLECTIONTILE
360
631
  3
REFRACTIONTILE
360
633
  3
SPECULARTILE
360
630
  0
DICTIONARY
  5
63D
330
63C
100
AcDbDictionary
280
     1
281
     1
  3
ACAD_XREC_ROUNDTRIP
360
718
  3
BUMPTILE
360
63F
  3
DIFFUSETILE
360
63E
  3
OPACITYTILE
360
642
  3
REFLECTIONTILE
360
641
  3
REFRACTIONTILE
360
643
  3
SPECULARTILE
360
640
  0
DICTIONARY
  5
712
330
67F
100
AcDbDictionary
280
     1
281
     1
  3
ACAD_ROUNDTRIP_2008_TABLESTYLE_CELLSTYLEMAP
360
713
  3
ACAD_XREC_ROUNDTRIP
360
749
  0
DICTIONARY
  5
723
330
64A
100
AcDbDictionary
280
     1
281
     1
  3
ACAD_XREC_ROUNDTRIP
360
724
  0
DICTIONARY
  5
721
330
649
100
AcDbDictionary
280
     1
281
     1
  3
ACAD_XREC_ROUNDTRIP
360
722
  0
DICTIONARY
  5
72F
330
650
100
AcDbDictionary
280
     1
281
     1
  3
ACAD_XREC_ROUNDTRIP
360
730
  0
DICTIONARY
  5
737
330
654
100
AcDbDictionary
280
     1
281
     1
  3
ACAD_XREC_ROUNDTRIP
360
738
  0
DICTIONARY
  5
729
330
64D
100
AcDbDictionary
280
     1
281
     1
  3
ACAD_XREC_ROUNDTRIP
360
72A
  0
DICTIONARY
  5
72D
330
64F
100
AcDbDictionary
280
     1
281
     1
  3
ACAD_XREC_ROUNDTRIP
360
72E
  0
DICTIONARY
  5
747
330
65C
100
AcDbDictionary
280
     1
281
     1
  3
ACAD_XREC_ROUNDTRIP
360
748
  0
DICTIONARY
  5
735
330
653
100
AcDbDictionary
280
     1
281
     1
  3
ACAD_XREC_ROUNDTRIP
360
736
  0
DICTIONARY
  5
719
330
645
100
AcDbDictionary
280
     1
281
     1
  3
ACAD_XREC_ROUNDTRIP
360
71A
  0
DICTIONARY
  5
71B
330
646
100
AcDbDictionary
280
     1
281
     1
  3
ACAD_XREC_ROUNDTRIP
360
71C
  0
DICTIONARY
  5
71D
330
647
100
AcDbDictionary
280
     1
281
     1
  3
ACAD_XREC_ROUNDTRIP
360
71E
  0
DICTIONARY
  5
71F
330
648
100
AcDbDictionary
280
     1
281
     1
  3
ACAD_XREC_ROUNDTRIP
360
720
  0
DICTIONARY
  5
727
330
64C
100
AcDbDictionary
280
     1
281
     1
  3
ACAD_XREC_ROUNDTRIP
360
728
  0
DICTIONARY
  5
743
330
65A
100
AcDbDictionary
280
     1
281
     1
  3
ACAD_XREC_ROUNDTRIP
360
744
  0
DICTIONARY
  5
733
330
652
100
AcDbDictionary
280
     1
281
     1
  3
ACAD_XREC_ROUNDTRIP
360
734
  0
DICTIONARY
  5
745
330
65B
100
AcDbDictionary
280
     1
281
     1
  3
ACAD_XREC_ROUNDTRIP
360
746
  0
DICTIONARY
  5
72B
330
64E
100
AcDbDictionary
280
     1
281
     1
  3
ACAD_XREC_ROUNDTRIP
360
72C
  0
DICTIONARY
  5
741
330
659
100
AcDbDictionary
280
     1
281
     1
  3
ACAD_XREC_ROUNDTRIP
360
742
  0
DICTIONARY
  5
73F
330
658
100
AcDbDictionary
280
     1
281
     1
  3
ACAD_XREC_ROUNDTRIP
360
740
  0
DICTIONARY
  5
739
330
655
100
AcDbDictionary
280
     1
281
     1
  3
ACAD_XREC_ROUNDTRIP
360
73A
  0
DICTIONARY
  5
73B
330
656
100
AcDbDictionary
280
     1
281
     1
  3
ACAD_XREC_ROUNDTRIP
360
73C
  0
DICTIONARY
  5
731
330
651
100
AcDbDictionary
280
     1
281
     1
  3
ACAD_XREC_ROUNDTRIP
360
732
  0
DICTIONARY
  5
725
330
64B
100
AcDbDictionary
280
     1
281
     1
  3
ACAD_XREC_ROUNDTRIP
360
726
  0
DICTIONARY
  5
73D
330
657
100
AcDbDictionary
280
     1
281
     1
  3
ACAD_XREC_ROUNDTRIP
360
73E
  0
XRECORD
  5
74B
102
{ACAD_REACTORS
330
74A
102
}
330
74A
100
AcDbXrecord
280
     1
102
SHADEPLOT
 70
     0
102
SHADEPLOTRESLEVEL
 70
     2
102
SHADEPLOTCUSTOMDPI
 70
   300
  0
XRECORD
  5
74D
102
{ACAD_REACTORS
330
74C
102
}
330
74C
100
AcDbXrecord
280
     1
102
SHADEPLOT
 70
     0
102
SHADEPLOTRESLEVEL
 70
     2
102
SHADEPLOTCUSTOMDPI
 70
   300
  0
XRECORD
  5
717
102
{ACAD_REACTORS
330
635
102
}
330
635
100
AcDbXrecord
280
     1
102
MATERIAL
148
0.0
149
0.0
149
0.0
 93
        0
 94
      127
282
     0
 72
     0
 77
     0
171
     0
175
     0
179
     0
273
     0
  0
XRECORD
  5
637
102
{ACAD_REACTORS
330
635
102
}
330
635
100
AcDbXrecord
280
     1
270
     1
271
     1
  0
XRECORD
  5
636
102
{ACAD_REACTORS
330
635
102
}
330
635
100
AcDbXrecord
280
     1
270
     1
271
     1
  0
XRECORD
  5
63A
102
{ACAD_REACTORS
330
635
102
}
330
635
100
AcDbXrecord
280
     1
270
     1
271
     1
  0
XRECORD
  5
639
102
{ACAD_REACTORS
330
635
102
}
330
635
100
AcDbXrecord
280
     1
270
     1
271
     1
  0
XRECORD
  5
63B
102
{ACAD_REACTORS
330
635
102
}
330
635
100
AcDbXrecord
280
     1
270
     1
271
     1
  0
XRECORD
  5
638
102
{ACAD_REACTORS
330
635
102
}
330
635
100
AcDbXrecord
280
     1
270
     1
271
     1
  0
XRECORD
  5
716
102
{ACAD_REACTORS
330
62D
102
}
330
62D
100
AcDbXrecord
280
     1
102
MATERIAL
148
0.0
149
0.0
149
0.0
 93
        0
 94
      127
282
     0
 72
     0
 77
     0
171
     0
175
     0
179
     0
273
     0
  0
XRECORD
  5
62F
102
{ACAD_REACTORS
330
62D
102
}
330
62D
100
AcDbXrecord
280
     1
270
     1
271
     1
  0
XRECORD
  5
62E
102
{ACAD_REACTORS
330
62D
102
}
330
62D
100
AcDbXrecord
280
     1
270
     1
271
     1
  0
XRECORD
  5
632
102
{ACAD_REACTORS
330
62D
102
}
330
62D
100
AcDbXrecord
280
     1
270
     1
271
     1
  0
XRECORD
  5
631
102
{ACAD_REACTORS
330
62D
102
}
330
62D
100
AcDbXrecord
280
     1
270
     1
271
     1
  0
XRECORD
  5
633
102
{ACAD_REACTORS
330
62D
102
}
330
62D
100
AcDbXrecord
280
     1
270
     1
271
     1
  0
XRECORD
  5
630
102
{ACAD_REACTORS
330
62D
102
}
330
62D
100
AcDbXrecord
280
     1
270
     1
271
     1
  0
XRECORD
  5
718
102
{ACAD_REACTORS
330
63D
102
}
330
63D
100
AcDbXrecord
280
     1
102
MATERIAL
148
0.0
149
0.0
149
0.0
 93
        0
 94
      127
282
     0
 72
     0
 77
     0
171
     0
175
     0
179
     0
273
     0
  0
XRECORD
  5
63F
102
{ACAD_REACTORS
330
63D
102
}
330
63D
100
AcDbXrecord
280
     1
270
     1
271
     1
  0
XRECORD
  5
63E
102
{ACAD_REACTORS
330
63D
102
}
330
63D
100
AcDbXrecord
280
     1
270
     1
271
     1
  0
XRECORD
  5
642
102
{ACAD_REACTORS
330
63D
102
}
330
63D
100
AcDbXrecord
280
     1
270
     1
271
     1
  0
XRECORD
  5
641
102
{ACAD_REACTORS
330
63D
102
}
330
63D
100
AcDbXrecord
280
     1
270
     1
271
     1
  0
XRECORD
  5
643
102
{ACAD_REACTORS
330
63D
102
}
330
63D
100
AcDbXrecord
280
     1
270
     1
271
     1
  0
XRECORD
  5
640
102
{ACAD_REACTORS
330
63D
102
}
330
63D
100
AcDbXrecord
280
     1
270
     1
271
     1
  0
CELLSTYLEMAP
  5
713
102
{ACAD_REACTORS
330
712
102
}
330
712
100
AcDbCellStyleMap
 90
        3
300
CELLSTYLE
  1
TABLEFORMAT_BEGIN
 90
        5
170
     1
 91
        0
 92
    32768
 62
   257
 93
        1
300
CONTENTFORMAT
  1
CONTENTFORMAT_BEGIN
 90
        0
 91
        0
 92
      512
 93
        0
300

 40
0.0
140
1.0
 94
        5
 62
     0
340
670
144
0.25
309
CONTENTFORMAT_END
171
     0
 94
        0
309
TABLEFORMAT_END
  1
CELLSTYLE_BEGIN
 90
        1
 91
        1
300
_TITLE
309
CELLSTYLE_END
300
CELLSTYLE
  1
TABLEFORMAT_BEGIN
 90
        5
170
     1
 91
        0
 92
        0
 62
   257
 93
        1
300
CONTENTFORMAT
  1
CONTENTFORMAT_BEGIN
 90
        0
 91
        0
 92
      512
 93
        0
300

 40
0.0
140
1.0
 94
        5
 62
     0
340
670
144
0.18
309
CONTENTFORMAT_END
171
     0
 94
        0
309
TABLEFORMAT_END
  1
CELLSTYLE_BEGIN
 90
        2
 91
        1
300
_HEADER
309
CELLSTYLE_END
300
CELLSTYLE
  1
TABLEFORMAT_BEGIN
 90
        5
170
     1
 91
        0
 92
        0
 62
   257
 93
        1
300
CONTENTFORMAT
  1
CONTENTFORMAT_BEGIN
 90
        0
 91
        0
 92
      512
 93
        0
300

 40
0.0
140
1.0
 94
        2
 62
     0
340
670
144
0.18
309
CONTENTFORMAT_END
171
     0
 94
        0
309
TABLEFORMAT_END
  1
CELLSTYLE_BEGIN
 90
        3
 91
        2
300
_DATA
309
CELLSTYLE_END
  0
XRECORD
  5
749
102
{ACAD_REACTORS
330
712
102
}
330
712
100
AcDbXrecord
280
     1
102
ACAD_ROUNDTRIP_PRE2007_TABLESTYLE
 90
      512
 91
        0
  1

 92
      512
 93
        0
  2

 94
      512
 95
        0
  3

  0
XRECORD
  5
724
102
{ACAD_REACTORS
330
723
102
}
330
723
100
AcDbXrecord
280
     1
102
RTVSPost2010Prop28
280
     1
102
RTVSPost2010PropOp28
 70
     1
102
RTVSPost2010Prop29
280
     1
102
RTVSPost2010PropOp29
 70
     1
102
RTVSPost2010Prop30
280
     0
102
RTVSPost2010PropOp30
 70
     1
102
RTVSPost2010Prop31
280
     0
102
RTVSPost2010PropOp31
 70
     1
102
RTVSPost2010Prop32
280
     0
102
RTVSPost2010PropOp32
 70
     1
102
RTVSPost2010Prop33
280
     0
102
RTVSPost2010PropOp33
 70
     1
102
RTVSPost2010Prop34
280
     0
102
RTVSPost2010PropOp34
 70
     1
102
RTVSPost2010Prop35
280
     0
102
RTVSPost2010PropOp35
 70
     1
102
RTVSPost2010Prop36
280
     0
102
RTVSPost2010PropOp36
 70
     1
102
RTVSPost2010Prop37
 90
       50
102
RTVSPost2010PropOp37
 70
     1
102
RTVSPost2010Prop38
140
0.0
102
RTVSPost2010PropOp38
 70
     1
102
RTVSPost2010Prop39
140
1.0
102
RTVSPost2010PropOp39
 70
     1
102
RTVSPost2010Prop40
 90
        0
102
RTVSPost2010PropOp40
 70
     1
102
RTVSPost2010Prop41ColorIndex
 90
       18
102
RTVSPost2010Prop41ColorRGB
 90
        0
102
RTVSPost2010PropOp41
 70
     1
102
RTVSPost2010Prop42
 90
       50
102
RTVSPost2010PropOp42
 70
     1
102
RTVSPost2010Prop43
 90
        3
102
RTVSPost2010PropOp43
 70
     1
102
RTVSPost2010Prop44ColorIndex
 90
        5
102
RTVSPost2010Prop44ColorRGB
 90
      255
102
RTVSPost2010PropOp44
 70
     1
102
RTVSPost2010Prop45
280
     0
102
RTVSPost2010PropOp45
 70
     1
102
RTVSPost2010Prop46
 90
       50
102
RTVSPost2010PropOp46
 70
     1
102
RTVSPost2010Prop47
 90
       50
102
RTVSPost2010PropOp47
 70
     1
102
RTVSPost2010Prop48
 90
       50
102
RTVSPost2010PropOp48
 70
     1
102
RTVSPost2010Prop49
280
     0
102
RTVSPost2010PropOp49
 70
     1
102
RTVSPost2010Prop50
 90
       50
102
RTVSPost2010PropOp50
 70
     1
102
RTVSPost2010Prop51ColorIndex
 90
      256
102
RTVSPost2010Prop51ColorRGB
 90
-16777216
102
RTVSPost2010PropOp51
 70
     0
102
RTVSPost2010Prop52
140
1.0
102
RTVSPost2010PropOp52
 70
     0
102
RTVSPost2010Prop53
 90
        2
102
RTVSPost2010PropOp53
 70
     1
102
RTVSPost2010Prop54
  1
strokes_ogs.tif
102
RTVSPost2010PropOp54
 70
     1
102
RTVSPost2010Prop55
280
     0
102
RTVSPost2010PropOp55
 70
     1
102
RTVSPost2010Prop56
140
1.0
102
RTVSPost2010PropOp56
 70
     1
102
RTVSPost2010Prop57
140
1.0
102
RTVSPost2010PropOp57
 70
     1
102
RTVSPropertyOp0
 70
     1
102
RTVSPropertyOp1
 70
     1
102
RTVSPropertyOp2
 70
     1
102
RTVSPropertyOp3
 70
     1
102
RTVSPropertyOp4
 70
     1
102
RTVSPropertyOp5
 70
     1
102
RTVSPropertyOp6
 70
     1
102
RTVSPropertyOp7
 70
     1
102
RTVSPropertyOp8
 70
     1
102
RTVSPropertyOp9
 70
     1
102
RTVSPropertyOp10
 70
     1
102
RTVSPropertyOp11
 70
     1
102
RTVSPropertyOp12
 70
     1
102
RTVSPropertyOp13
 70
     1
102
RTVSPropertyOp14
 70
     1
102
RTVSPropertyOp15
 70
     1
102
RTVSPropertyOp16
 70
     1
102
RTVSPropertyOp17
 70
     1
102
RTVSPropertyOp18
 70
     1
102
RTVSPropertyOp19
 70
     1
102
RTVSPropertyOp20
 70
     1
102
RTVSPropertyOp21
 70
     1
102
RTVSPropertyOp22
 70
     1
102
RTVSPropertyOp23
 70
     1
102
RTVSPropertyOp24
 70
     1
102
RTVSPropertyOp25
 70
     1
102
RTVSPropertyOp26
 70
     1
102
RTVSPropertyOp27
 70
     1
102
RTVSPropertyOp28
 70
     1
102
RTVSPropertyOp29
 70
     1
102
RTVSPropertyOp30
 70
     1
102
RTVSPropertyOp31
 70
     1
102
RTVSPropertyOp32
 70
     1
102
RTVSPropertyOp33
 70
     1
102
RTVSPropertyOp34
 70
     1
102
RTVSPropertyOp35
 70
     1
102
RTVSPropertyOp36
 70
     1
102
RTVSPropertyOp37
 70
     1
102
RTVSPropertyOp38
 70
     1
102
RTVSPropertyOp39
 70
     1
102
RTVSPropertyOp40
 70
     1
102
RTVSPropertyOp41
 70
     1
102
RTVSPropertyOp42
 70
     1
102
RTVSPropertyOp43
 70
     1
102
RTVSPropertyOp44
 70
     1
102
RTVSPropertyOp45
 70
     1
102
RTVSPropertyOp46
 70
     1
102
RTVSPropertyOp47
 70
     1
102
RTVSPropertyOp48
 70
     1
102
RTVSPropertyOp49
 70
     1
102
RTVSPropertyOp50
 70
     1
102
RTVSPropertyOp51
 70
     0
102
RTVSPropertyOp52
 70
     0
102
RTVSPropertyOp53
 70
     1
102
RTVSPropertyOp54
 70
     1
102
RTVSPropertyOp55
 70
     1
102
RTVSPropertyOp56
 70
     1
102
RTVSPropertyOp57
 70
     1
102
RTVSPropertyOp58
 70
     1
102
RTVSPropertyOp59
 70
     1
102
RTVSPropertyOp60
 70
     1
102
RTVSPropertyOp61
 70
     1
102
RTVSPropertyOp62
 70
     1
  0
XRECORD
  5
722
102
{ACAD_REACTORS
330
721
102
}
330
721
100
AcDbXrecord
280
     1
102
RTVSPost2010Prop28
280
     0
102
RTVSPost2010PropOp28
 70
     1
102
RTVSPost2010Prop29
280
     1
102
RTVSPost2010PropOp29
 70
     1
102
RTVSPost2010Prop30
280
     1
102
RTVSPost2010PropOp30
 70
     1
102
RTVSPost2010Prop31
280
     0
102
RTVSPost2010PropOp31
 70
     1
102
RTVSPost2010Prop32
280
     0
102
RTVSPost2010PropOp32
 70
     1
102
RTVSPost2010Prop33
280
     0
102
RTVSPost2010PropOp33
 70
     1
102
RTVSPost2010Prop34
280
     0
102
RTVSPost2010PropOp34
 70
     1
102
RTVSPost2010Prop35
280
     0
102
RTVSPost2010PropOp35
 70
     1
102
RTVSPost2010Prop36
280
     0
102
RTVSPost2010PropOp36
 70
     1
102
RTVSPost2010Prop37
 90
       50
102
RTVSPost2010PropOp37
 70
     1
102
RTVSPost2010Prop38
140
0.0
102
RTVSPost2010PropOp38
 70
     1
102
RTVSPost2010Prop39
140
1.0
102
RTVSPost2010PropOp39
 70
     1
102
RTVSPost2010Prop40
 90
        0
102
RTVSPost2010PropOp40
 70
     1
102
RTVSPost2010Prop41ColorIndex
 90
       18
102
RTVSPost2010Prop41ColorRGB
 90
        0
102
RTVSPost2010PropOp41
 70
     1
102
RTVSPost2010Prop42
 90
       50
102
RTVSPost2010PropOp42
 70
     1
102
RTVSPost2010Prop43
 90
        3
102
RTVSPost2010PropOp43
 70
     1
102
RTVSPost2010Prop44ColorIndex
 90
        5
102
RTVSPost2010Prop44ColorRGB
 90
      255
102
RTVSPost2010PropOp44
 70
     1
102
RTVSPost2010Prop45
280
     0
102
RTVSPost2010PropOp45
 70
     1
102
RTVSPost2010Prop46
 90
       50
102
RTVSPost2010PropOp46
 70
     1
102
RTVSPost2010Prop47
 90
       50
102
RTVSPost2010PropOp47
 70
     1
102
RTVSPost2010Prop48
 90
       50
102
RTVSPost2010PropOp48
 70
     1
102
RTVSPost2010Prop49
280
     0
102
RTVSPost2010PropOp49
 70
     1
102
RTVSPost2010Prop50
 90
       50
102
RTVSPost2010PropOp50
 70
     1
102
RTVSPost2010Prop51ColorIndex
 90
      256
102
RTVSPost2010Prop51ColorRGB
 90
-16777216
102
RTVSPost2010PropOp51
 70
     0
102
RTVSPost2010Prop52
140
1.0
102
RTVSPost2010PropOp52
 70
     0
102
RTVSPost2010Prop53
 90
        2
102
RTVSPost2010PropOp53
 70
     1
102
RTVSPost2010Prop54
  1
strokes_ogs.tif
102
RTVSPost2010PropOp54
 70
     1
102
RTVSPost2010Prop55
280
     0
102
RTVSPost2010PropOp55
 70
     1
102
RTVSPost2010Prop56
140
1.0
102
RTVSPost2010PropOp56
 70
     1
102
RTVSPost2010Prop57
140
1.0
102
RTVSPost2010PropOp57
 70
     1
102
RTVSPropertyOp0
 70
     1
102
RTVSPropertyOp1
 70
     1
102
RTVSPropertyOp2
 70
     1
102
RTVSPropertyOp3
 70
     1
102
RTVSPropertyOp4
 70
     1
102
RTVSPropertyOp5
 70
     1
102
RTVSPropertyOp6
 70
     1
102
RTVSPropertyOp7
 70
     1
102
RTVSPropertyOp8
 70
     1
102
RTVSPropertyOp9
 70
     1
102
RTVSPropertyOp10
 70
     1
102
RTVSPropertyOp11
 70
     1
102
RTVSPropertyOp12
 70
     1
102
RTVSPropertyOp13
 70
     1
102
RTVSPropertyOp14
 70
     1
102
RTVSPropertyOp15
 70
     1
102
RTVSPropertyOp16
 70
     1
102
RTVSPropertyOp17
 70
     1
102
RTVSPropertyOp18
 70
     1
102
RTVSPropertyOp19
 70
     1
102
RTVSPropertyOp20
 70
     1
102
RTVSPropertyOp21
 70
     1
102
RTVSPropertyOp22
 70
     1
102
RTVSPropertyOp23
 70
     1
102
RTVSPropertyOp24
 70
     1
102
RTVSPropertyOp25
 70
     1
102
RTVSPropertyOp26
 70
     1
102
RTVSPropertyOp27
 70
     1
102
RTVSPropertyOp28
 70
     1
102
RTVSPropertyOp29
 70
     1
102
RTVSPropertyOp30
 70
     1
102
RTVSPropertyOp31
 70
     1
102
RTVSPropertyOp32
 70
     1
102
RTVSPropertyOp33
 70
     1
102
RTVSPropertyOp34
 70
     1
102
RTVSPropertyOp35
 70
     1
102
RTVSPropertyOp36
 70
     1
102
RTVSPropertyOp37
 70
     1
102
RTVSPropertyOp38
 70
     1
102
RTVSPropertyOp39
 70
     1
102
RTVSPropertyOp40
 70
     1
102
RTVSPropertyOp41
 70
     1
102
RTVSPropertyOp42
 70
     1
102
RTVSPropertyOp43
 70
     1
102
RTVSPropertyOp44
 70
     1
102
RTVSPropertyOp45
 70
     1
102
RTVSPropertyOp46
 70
     1
102
RTVSPropertyOp47
 70
     1
102
RTVSPropertyOp48
 70
     1
102
RTVSPropertyOp49
 70
     1
102
RTVSPropertyOp50
 70
     1
102
RTVSPropertyOp51
 70
     0
102
RTVSPropertyOp52
 70
     0
102
RTVSPropertyOp53
 70
     1
102
RTVSPropertyOp54
 70
     1
102
RTVSPropertyOp55
 70
     1
102
RTVSPropertyOp56
 70
     1
102
RTVSPropertyOp57
 70
     1
102
RTVSPropertyOp58
 70
     1
102
RTVSPropertyOp59
 70
     1
102
RTVSPropertyOp60
 70
     1
102
RTVSPropertyOp61
 70
     1
102
RTVSPropertyOp62
 70
     1
  0
XRECORD
  5
730
102
{ACAD_REACTORS
330
72F
102
}
330
72F
100
AcDbXrecord
280
     1
102
RTVSPost2010Prop28
280
     0
102
RTVSPost2010PropOp28
 70
     1
102
RTVSPost2010Prop29
280
     1
102
RTVSPost2010PropOp29
 70
     1
102
RTVSPost2010Prop30
280
     1
102
RTVSPost2010PropOp30
 70
     1
102
RTVSPost2010Prop31
280
     0
102
RTVSPost2010PropOp31
 70
     1
102
RTVSPost2010Prop32
280
     0
102
RTVSPost2010PropOp32
 70
     1
102
RTVSPost2010Prop33
280
     0
102
RTVSPost2010PropOp33
 70
     1
102
RTVSPost2010Prop34
280
     0
102
RTVSPost2010PropOp34
 70
     1
102
RTVSPost2010Prop35
280
     0
102
RTVSPost2010PropOp35
 70
     1
102
RTVSPost2010Prop36
280
     0
102
RTVSPost2010PropOp36
 70
     1
102
RTVSPost2010Prop37
 90
       50
102
RTVSPost2010PropOp37
 70
     1
102
RTVSPost2010Prop38
140
0.0
102
RTVSPost2010PropOp38
 70
     1
102
RTVSPost2010Prop39
140
1.0
102
RTVSPost2010PropOp39
 70
     1
102
RTVSPost2010Prop40
 90
        0
102
RTVSPost2010PropOp40
 70
     1
102
RTVSPost2010Prop41ColorIndex
 90
       18
102
RTVSPost2010Prop41ColorRGB
 90
        0
102
RTVSPost2010PropOp41
 70
     1
102
RTVSPost2010Prop42
 90
       50
102
RTVSPost2010PropOp42
 70
     1
102
RTVSPost2010Prop43
 90
        3
102
RTVSPost2010PropOp43
 70
     1
102
RTVSPost2010Prop44ColorIndex
 90
        5
102
RTVSPost2010Prop44ColorRGB
 90
      255
102
RTVSPost2010PropOp44
 70
     1
102
RTVSPost2010Prop45
280
     0
102
RTVSPost2010PropOp45
 70
     1
102
RTVSPost2010Prop46
 90
       50
102
RTVSPost2010PropOp46
 70
     1
102
RTVSPost2010Prop47
 90
       50
102
RTVSPost2010PropOp47
 70
     1
102
RTVSPost2010Prop48
 90
       50
102
RTVSPost2010PropOp48
 70
     1
102
RTVSPost2010Prop49
280
     0
102
RTVSPost2010PropOp49
 70
     1
102
RTVSPost2010Prop50
 90
       50
102
RTVSPost2010PropOp50
 70
     1
102
RTVSPost2010Prop51ColorIndex
 90
      256
102
RTVSPost2010Prop51ColorRGB
 90
-16777216
102
RTVSPost2010PropOp51
 70
     0
102
RTVSPost2010Prop52
140
1.0
102
RTVSPost2010PropOp52
 70
     0
102
RTVSPost2010Prop53
 90
        2
102
RTVSPost2010PropOp53
 70
     1
102
RTVSPost2010Prop54
  1
strokes_ogs.tif
102
RTVSPost2010PropOp54
 70
     1
102
RTVSPost2010Prop55
280
     0
102
RTVSPost2010PropOp55
 70
     1
102
RTVSPost2010Prop56
140
1.0
102
RTVSPost2010PropOp56
 70
     1
102
RTVSPost2010Prop57
140
1.0
102
RTVSPost2010PropOp57
 70
     1
102
RTVSPropertyOp0
 70
     1
102
RTVSPropertyOp1
 70
     1
102
RTVSPropertyOp2
 70
     1
102
RTVSPropertyOp3
 70
     1
102
RTVSPropertyOp4
 70
     1
102
RTVSPropertyOp5
 70
     1
102
RTVSPropertyOp6
 70
     1
102
RTVSPropertyOp7
 70
     1
102
RTVSPropertyOp8
 70
     1
102
RTVSPropertyOp9
 70
     1
102
RTVSPropertyOp10
 70
     1
102
RTVSPropertyOp11
 70
     1
102
RTVSPropertyOp12
 70
     1
102
RTVSPropertyOp13
 70
     1
102
RTVSPropertyOp14
 70
     1
102
RTVSPropertyOp15
 70
     1
102
RTVSPropertyOp16
 70
     1
102
RTVSPropertyOp17
 70
     1
102
RTVSPropertyOp18
 70
     1
102
RTVSPropertyOp19
 70
     1
102
RTVSPropertyOp20
 70
     1
102
RTVSPropertyOp21
 70
     1
102
RTVSPropertyOp22
 70
     1
102
RTVSPropertyOp23
 70
     1
102
RTVSPropertyOp24
 70
     1
102
RTVSPropertyOp25
 70
     1
102
RTVSPropertyOp26
 70
     1
102
RTVSPropertyOp27
 70
     1
102
RTVSPropertyOp28
 70
     1
102
RTVSPropertyOp29
 70
     1
102
RTVSPropertyOp30
 70
     1
102
RTVSPropertyOp31
 70
     1
102
RTVSPropertyOp32
 70
     1
102
RTVSPropertyOp33
 70
     1
102
RTVSPropertyOp34
 70
     1
102
RTVSPropertyOp35
 70
     1
102
RTVSPropertyOp36
 70
     1
102
RTVSPropertyOp37
 70
     1
102
RTVSPropertyOp38
 70
     1
102
RTVSPropertyOp39
 70
     1
102
RTVSPropertyOp40
 70
     1
102
RTVSPropertyOp41
 70
     1
102
RTVSPropertyOp42
 70
     1
102
RTVSPropertyOp43
 70
     1
102
RTVSPropertyOp44
 70
     1
102
RTVSPropertyOp45
 70
     1
102
RTVSPropertyOp46
 70
     1
102
RTVSPropertyOp47
 70
     1
102
RTVSPropertyOp48
 70
     1
102
RTVSPropertyOp49
 70
     1
102
RTVSPropertyOp50
 70
     1
102
RTVSPropertyOp51
 70
     0
102
RTVSPropertyOp52
 70
     0
102
RTVSPropertyOp53
 70
     1
102
RTVSPropertyOp54
 70
     1
102
RTVSPropertyOp55
 70
     1
102
RTVSPropertyOp56
 70
     1
102
RTVSPropertyOp57
 70
     1
102
RTVSPropertyOp58
 70
     1
102
RTVSPropertyOp59
 70
     1
102
RTVSPropertyOp60
 70
     1
102
RTVSPropertyOp61
 70
     1
102
RTVSPropertyOp62
 70
     1
  0
XRECORD
  5
738
102
{ACAD_REACTORS
330
737
102
}
330
737
100
AcDbXrecord
280
     1
102
RTVSPost2010Prop28
280
     0
102
RTVSPost2010PropOp28
 70
     1
102
RTVSPost2010Prop29
280
     1
102
RTVSPost2010PropOp29
 70
     1
102
RTVSPost2010Prop30
280
     1
102
RTVSPost2010PropOp30
 70
     1
102
RTVSPost2010Prop31
280
     0
102
RTVSPost2010PropOp31
 70
     1
102
RTVSPost2010Prop32
280
     0
102
RTVSPost2010PropOp32
 70
     1
102
RTVSPost2010Prop33
280
     0
102
RTVSPost2010PropOp33
 70
     1
102
RTVSPost2010Prop34
280
     0
102
RTVSPost2010PropOp34
 70
     1
102
RTVSPost2010Prop35
280
     0
102
RTVSPost2010PropOp35
 70
     1
102
RTVSPost2010Prop36
280
     0
102
RTVSPost2010PropOp36
 70
     1
102
RTVSPost2010Prop37
 90
       50
102
RTVSPost2010PropOp37
 70
     1
102
RTVSPost2010Prop38
140
0.0
102
RTVSPost2010PropOp38
 70
     1
102
RTVSPost2010Prop39
140
1.0
102
RTVSPost2010PropOp39
 70
     1
102
RTVSPost2010Prop40
 90
        0
102
RTVSPost2010PropOp40
 70
     1
102
RTVSPost2010Prop41ColorIndex
 90
       18
102
RTVSPost2010Prop41ColorRGB
 90
        0
102
RTVSPost2010PropOp41
 70
     1
102
RTVSPost2010Prop42
 90
       50
102
RTVSPost2010PropOp42
 70
     1
102
RTVSPost2010Prop43
 90
        3
102
RTVSPost2010PropOp43
 70
     1
102
RTVSPost2010Prop44ColorIndex
 90
        5
102
RTVSPost2010Prop44ColorRGB
 90
      255
102
RTVSPost2010PropOp44
 70
     1
102
RTVSPost2010Prop45
280
     0
102
RTVSPost2010PropOp45
 70
     1
102
RTVSPost2010Prop46
 90
       50
102
RTVSPost2010PropOp46
 70
     1
102
RTVSPost2010Prop47
 90
       50
102
RTVSPost2010PropOp47
 70
     1
102
RTVSPost2010Prop48
 90
       50
102
RTVSPost2010PropOp48
 70
     1
102
RTVSPost2010Prop49
280
     0
102
RTVSPost2010PropOp49
 70
     1
102
RTVSPost2010Prop50
 90
       50
102
RTVSPost2010PropOp50
 70
     1
102
RTVSPost2010Prop51ColorIndex
 90
      256
102
RTVSPost2010Prop51ColorRGB
 90
-16777216
102
RTVSPost2010PropOp51
 70
     0
102
RTVSPost2010Prop52
140
1.0
102
RTVSPost2010PropOp52
 70
     0
102
RTVSPost2010Prop53
 90
        2
102
RTVSPost2010PropOp53
 70
     1
102
RTVSPost2010Prop54
  1
strokes_ogs.tif
102
RTVSPost2010PropOp54
 70
     1
102
RTVSPost2010Prop55
280
     0
102
RTVSPost2010PropOp55
 70
     1
102
RTVSPost2010Prop56
140
1.0
102
RTVSPost2010PropOp56
 70
     1
102
RTVSPost2010Prop57
140
1.0
102
RTVSPost2010PropOp57
 70
     1
102
RTVSPropertyOp0
 70
     1
102
RTVSPropertyOp1
 70
     1
102
RTVSPropertyOp2
 70
     1
102
RTVSPropertyOp3
 70
     1
102
RTVSPropertyOp4
 70
     1
102
RTVSPropertyOp5
 70
     1
102
RTVSPropertyOp6
 70
     1
102
RTVSPropertyOp7
 70
     1
102
RTVSPropertyOp8
 70
     1
102
RTVSPropertyOp9
 70
     1
102
RTVSPropertyOp10
 70
     1
102
RTVSPropertyOp11
 70
     1
102
RTVSPropertyOp12
 70
     1
102
RTVSPropertyOp13
 70
     1
102
RTVSPropertyOp14
 70
     1
102
RTVSPropertyOp15
 70
     1
102
RTVSPropertyOp16
 70
     1
102
RTVSPropertyOp17
 70
     1
102
RTVSPropertyOp18
 70
     1
102
RTVSPropertyOp19
 70
     1
102
RTVSPropertyOp20
 70
     1
102
RTVSPropertyOp21
 70
     1
102
RTVSPropertyOp22
 70
     1
102
RTVSPropertyOp23
 70
     1
102
RTVSPropertyOp24
 70
     1
102
RTVSPropertyOp25
 70
     1
102
RTVSPropertyOp26
 70
     1
102
RTVSPropertyOp27
 70
     1
102
RTVSPropertyOp28
 70
     1
102
RTVSPropertyOp29
 70
     1
102
RTVSPropertyOp30
 70
     1
102
RTVSPropertyOp31
 70
     1
102
RTVSPropertyOp32
 70
     1
102
RTVSPropertyOp33
 70
     1
102
RTVSPropertyOp34
 70
     1
102
RTVSPropertyOp35
 70
     1
102
RTVSPropertyOp36
 70
     1
102
RTVSPropertyOp37
 70
     1
102
RTVSPropertyOp38
 70
     1
102
RTVSPropertyOp39
 70
     1
102
RTVSPropertyOp40
 70
     1
102
RTVSPropertyOp41
 70
     1
102
RTVSPropertyOp42
 70
     1
102
RTVSPropertyOp43
 70
     1
102
RTVSPropertyOp44
 70
     1
102
RTVSPropertyOp45
 70
     1
102
RTVSPropertyOp46
 70
     1
102
RTVSPropertyOp47
 70
     1
102
RTVSPropertyOp48
 70
     1
102
RTVSPropertyOp49
 70
     1
102
RTVSPropertyOp50
 70
     1
102
RTVSPropertyOp51
 70
     0
102
RTVSPropertyOp52
 70
     0
102
RTVSPropertyOp53
 70
     1
102
RTVSPropertyOp54
 70
     1
102
RTVSPropertyOp55
 70
     1
102
RTVSPropertyOp56
 70
     1
102
RTVSPropertyOp57
 70
     1
102
RTVSPropertyOp58
 70
     1
102
RTVSPropertyOp59
 70
     1
102
RTVSPropertyOp60
 70
     1
102
RTVSPropertyOp61
 70
     1
102
RTVSPropertyOp62
 70
     1
  0
XRECORD
  5
72A
102
{ACAD_REACTORS
330
729
102
}
330
729
100
AcDbXrecord
280
     1
102
RTVSPost2010Prop28
280
     0
102
RTVSPost2010PropOp28
 70
     1
102
RTVSPost2010Prop29
280
     1
102
RTVSPost2010PropOp29
 70
     1
102
RTVSPost2010Prop30
280
     1
102
RTVSPost2010PropOp30
 70
     1
102
RTVSPost2010Prop31
280
     0
102
RTVSPost2010PropOp31
 70
     1
102
RTVSPost2010Prop32
280
     0
102
RTVSPost2010PropOp32
 70
     1
102
RTVSPost2010Prop33
280
     0
102
RTVSPost2010PropOp33
 70
     1
102
RTVSPost2010Prop34
280
     0
102
RTVSPost2010PropOp34
 70
     1
102
RTVSPost2010Prop35
280
     0
102
RTVSPost2010PropOp35
 70
     1
102
RTVSPost2010Prop36
280
     0
102
RTVSPost2010PropOp36
 70
     1
102
RTVSPost2010Prop37
 90
       50
102
RTVSPost2010PropOp37
 70
     1
102
RTVSPost2010Prop38
140
0.0
102
RTVSPost2010PropOp38
 70
     1
102
RTVSPost2010Prop39
140
1.0
102
RTVSPost2010PropOp39
 70
     1
102
RTVSPost2010Prop40
 90
        0
102
RTVSPost2010PropOp40
 70
     1
102
RTVSPost2010Prop41ColorIndex
 90
       18
102
RTVSPost2010Prop41ColorRGB
 90
        0
102
RTVSPost2010PropOp41
 70
     1
102
RTVSPost2010Prop42
 90
       50
102
RTVSPost2010PropOp42
 70
     1
102
RTVSPost2010Prop43
 90
        3
102
RTVSPost2010PropOp43
 70
     1
102
RTVSPost2010Prop44ColorIndex
 90
        5
102
RTVSPost2010Prop44ColorRGB
 90
      255
102
RTVSPost2010PropOp44
 70
     1
102
RTVSPost2010Prop45
280
     0
102
RTVSPost2010PropOp45
 70
     1
102
RTVSPost2010Prop46
 90
       50
102
RTVSPost2010PropOp46
 70
     1
102
RTVSPost2010Prop47
 90
       50
102
RTVSPost2010PropOp47
 70
     1
102
RTVSPost2010Prop48
 90
       50
102
RTVSPost2010PropOp48
 70
     1
102
RTVSPost2010Prop49
280
     0
102
RTVSPost2010PropOp49
 70
     1
102
RTVSPost2010Prop50
 90
       50
102
RTVSPost2010PropOp50
 70
     1
102
RTVSPost2010Prop51ColorIndex
 90
      256
102
RTVSPost2010Prop51ColorRGB
 90
-16777216
102
RTVSPost2010PropOp51
 70
     0
102
RTVSPost2010Prop52
140
1.0
102
RTVSPost2010PropOp52
 70
     0
102
RTVSPost2010Prop53
 90
        2
102
RTVSPost2010PropOp53
 70
     1
102
RTVSPost2010Prop54
  1
strokes_ogs.tif
102
RTVSPost2010PropOp54
 70
     1
102
RTVSPost2010Prop55
280
     0
102
RTVSPost2010PropOp55
 70
     1
102
RTVSPost2010Prop56
140
1.0
102
RTVSPost2010PropOp56
 70
     1
102
RTVSPost2010Prop57
140
1.0
102
RTVSPost2010PropOp57
 70
     1
102
RTVSPropertyOp0
 70
     1
102
RTVSPropertyOp1
 70
     1
102
RTVSPropertyOp2
 70
     1
102
RTVSPropertyOp3
 70
     1
102
RTVSPropertyOp4
 70
     1
102
RTVSPropertyOp5
 70
     1
102
RTVSPropertyOp6
 70
     1
102
RTVSPropertyOp7
 70
     1
102
RTVSPropertyOp8
 70
     1
102
RTVSPropertyOp9
 70
     1
102
RTVSPropertyOp10
 70
     1
102
RTVSPropertyOp11
 70
     1
102
RTVSPropertyOp12
 70
     1
102
RTVSPropertyOp13
 70
     1
102
RTVSPropertyOp14
 70
     1
102
RTVSPropertyOp15
 70
     1
102
RTVSPropertyOp16
 70
     1
102
RTVSPropertyOp17
 70
     1
102
RTVSPropertyOp18
 70
     1
102
RTVSPropertyOp19
 70
     1
102
RTVSPropertyOp20
 70
     1
102
RTVSPropertyOp21
 70
     1
102
RTVSPropertyOp22
 70
     1
102
RTVSPropertyOp23
 70
     1
102
RTVSPropertyOp24
 70
     1
102
RTVSPropertyOp25
 70
     1
102
RTVSPropertyOp26
 70
     1
102
RTVSPropertyOp27
 70
     1
102
RTVSPropertyOp28
 70
     1
102
RTVSPropertyOp29
 70
     1
102
RTVSPropertyOp30
 70
     1
102
RTVSPropertyOp31
 70
     1
102
RTVSPropertyOp32
 70
     1
102
RTVSPropertyOp33
 70
     1
102
RTVSPropertyOp34
 70
     1
102
RTVSPropertyOp35
 70
     1
102
RTVSPropertyOp36
 70
     1
102
RTVSPropertyOp37
 70
     1
102
RTVSPropertyOp38
 70
     1
102
RTVSPropertyOp39
 70
     1
102
RTVSPropertyOp40
 70
     1
102
RTVSPropertyOp41
 70
     1
102
RTVSPropertyOp42
 70
     1
102
RTVSPropertyOp43
 70
     1
102
RTVSPropertyOp44
 70
     1
102
RTVSPropertyOp45
 70
     1
102
RTVSPropertyOp46
 70
     1
102
RTVSPropertyOp47
 70
     1
102
RTVSPropertyOp48
 70
     1
102
RTVSPropertyOp49
 70
     1
102
RTVSPropertyOp50
 70
     1
102
RTVSPropertyOp51
 70
     0
102
RTVSPropertyOp52
 70
     0
102
RTVSPropertyOp53
 70
     1
102
RTVSPropertyOp54
 70
     1
102
RTVSPropertyOp55
 70
     1
102
RTVSPropertyOp56
 70
     1
102
RTVSPropertyOp57
 70
     1
102
RTVSPropertyOp58
 70
     1
102
RTVSPropertyOp59
 70
     1
102
RTVSPropertyOp60
 70
     1
102
RTVSPropertyOp61
 70
     1
102
RTVSPropertyOp62
 70
     1
  0
XRECORD
  5
72E
102
{ACAD_REACTORS
330
72D
102
}
330
72D
100
AcDbXrecord
280
     1
102
RTVSPost2010Prop28
280
     0
102
RTVSPost2010PropOp28
 70
     1
102
RTVSPost2010Prop29
280
     1
102
RTVSPost2010PropOp29
 70
     1
102
RTVSPost2010Prop30
280
     1
102
RTVSPost2010PropOp30
 70
     1
102
RTVSPost2010Prop31
280
     0
102
RTVSPost2010PropOp31
 70
     1
102
RTVSPost2010Prop32
280
     0
102
RTVSPost2010PropOp32
 70
     1
102
RTVSPost2010Prop33
280
     0
102
RTVSPost2010PropOp33
 70
     1
102
RTVSPost2010Prop34
280
     0
102
RTVSPost2010PropOp34
 70
     1
102
RTVSPost2010Prop35
280
     0
102
RTVSPost2010PropOp35
 70
     1
102
RTVSPost2010Prop36
280
     0
102
RTVSPost2010PropOp36
 70
     1
102
RTVSPost2010Prop37
 90
       50
102
RTVSPost2010PropOp37
 70
     1
102
RTVSPost2010Prop38
140
0.0
102
RTVSPost2010PropOp38
 70
     1
102
RTVSPost2010Prop39
140
1.0
102
RTVSPost2010PropOp39
 70
     1
102
RTVSPost2010Prop40
 90
        0
102
RTVSPost2010PropOp40
 70
     1
102
RTVSPost2010Prop41ColorIndex
 90
       18
102
RTVSPost2010Prop41ColorRGB
 90
        0
102
RTVSPost2010PropOp41
 70
     1
102
RTVSPost2010Prop42
 90
       50
102
RTVSPost2010PropOp42
 70
     1
102
RTVSPost2010Prop43
 90
        3
102
RTVSPost2010PropOp43
 70
     1
102
RTVSPost2010Prop44ColorIndex
 90
        5
102
RTVSPost2010Prop44ColorRGB
 90
      255
102
RTVSPost2010PropOp44
 70
     1
102
RTVSPost2010Prop45
280
     0
102
RTVSPost2010PropOp45
 70
     1
102
RTVSPost2010Prop46
 90
       50
102
RTVSPost2010PropOp46
 70
     1
102
RTVSPost2010Prop47
 90
       50
102
RTVSPost2010PropOp47
 70
     1
102
RTVSPost2010Prop48
 90
       50
102
RTVSPost2010PropOp48
 70
     1
102
RTVSPost2010Prop49
280
     0
102
RTVSPost2010PropOp49
 70
     1
102
RTVSPost2010Prop50
 90
       50
102
RTVSPost2010PropOp50
 70
     1
102
RTVSPost2010Prop51ColorIndex
 90
      256
102
RTVSPost2010Prop51ColorRGB
 90
-16777216
102
RTVSPost2010PropOp51
 70
     0
102
RTVSPost2010Prop52
140
1.0
102
RTVSPost2010PropOp52
 70
     0
102
RTVSPost2010Prop53
 90
        2
102
RTVSPost2010PropOp53
 70
     1
102
RTVSPost2010Prop54
  1
strokes_ogs.tif
102
RTVSPost2010PropOp54
 70
     1
102
RTVSPost2010Prop55
280
     0
102
RTVSPost2010PropOp55
 70
     1
102
RTVSPost2010Prop56
140
1.0
102
RTVSPost2010PropOp56
 70
     1
102
RTVSPost2010Prop57
140
1.0
102
RTVSPost2010PropOp57
 70
     1
102
RTVSPropertyOp0
 70
     1
102
RTVSPropertyOp1
 70
     1
102
RTVSPropertyOp2
 70
     1
102
RTVSPropertyOp3
 70
     1
102
RTVSPropertyOp4
 70
     1
102
RTVSPropertyOp5
 70
     1
102
RTVSPropertyOp6
 70
     1
102
RTVSPropertyOp7
 70
     1
102
RTVSPropertyOp8
 70
     1
102
RTVSPropertyOp9
 70
     1
102
RTVSPropertyOp10
 70
     1
102
RTVSPropertyOp11
 70
     1
102
RTVSPropertyOp12
 70
     1
102
RTVSPropertyOp13
 70
     1
102
RTVSPropertyOp14
 70
     1
102
RTVSPropertyOp15
 70
     1
102
RTVSPropertyOp16
 70
     1
102
RTVSPropertyOp17
 70
     1
102
RTVSPropertyOp18
 70
     1
102
RTVSPropertyOp19
 70
     1
102
RTVSPropertyOp20
 70
     1
102
RTVSPropertyOp21
 70
     1
102
RTVSPropertyOp22
 70
     1
102
RTVSPropertyOp23
 70
     1
102
RTVSPropertyOp24
 70
     1
102
RTVSPropertyOp25
 70
     1
102
RTVSPropertyOp26
 70
     1
102
RTVSPropertyOp27
 70
     1
102
RTVSPropertyOp28
 70
     1
102
RTVSPropertyOp29
 70
     1
102
RTVSPropertyOp30
 70
     1
102
RTVSPropertyOp31
 70
     1
102
RTVSPropertyOp32
 70
     1
102
RTVSPropertyOp33
 70
     1
102
RTVSPropertyOp34
 70
     1
102
RTVSPropertyOp35
 70
     1
102
RTVSPropertyOp36
 70
     1
102
RTVSPropertyOp37
 70
     1
102
RTVSPropertyOp38
 70
     1
102
RTVSPropertyOp39
 70
     1
102
RTVSPropertyOp40
 70
     1
102
RTVSPropertyOp41
 70
     1
102
RTVSPropertyOp42
 70
     1
102
RTVSPropertyOp43
 70
     1
102
RTVSPropertyOp44
 70
     1
102
RTVSPropertyOp45
 70
     1
102
RTVSPropertyOp46
 70
     1
102
RTVSPropertyOp47
 70
     1
102
RTVSPropertyOp48
 70
     1
102
RTVSPropertyOp49
 70
     1
102
RTVSPropertyOp50
 70
     1
102
RTVSPropertyOp51
 70
     0
102
RTVSPropertyOp52
 70
     0
102
RTVSPropertyOp53
 70
     1
102
RTVSPropertyOp54
 70
     1
102
RTVSPropertyOp55
 70
     1
102
RTVSPropertyOp56
 70
     1
102
RTVSPropertyOp57
 70
     1
102
RTVSPropertyOp58
 70
     1
102
RTVSPropertyOp59
 70
     1
102
RTVSPropertyOp60
 70
     1
102
RTVSPropertyOp61
 70
     1
102
RTVSPropertyOp62
 70
     1
  0
XRECORD
  5
748
102
{ACAD_REACTORS
330
747
102
}
330
747
100
AcDbXrecord
280
     1
102
RTVSPost2010Prop28
280
     0
102
RTVSPost2010PropOp28
 70
     1
102
RTVSPost2010Prop29
280
     1
102
RTVSPost2010PropOp29
 70
     1
102
RTVSPost2010Prop30
280
     1
102
RTVSPost2010PropOp30
 70
     1
102
RTVSPost2010Prop31
280
     0
102
RTVSPost2010PropOp31
 70
     1
102
RTVSPost2010Prop32
280
     0
102
RTVSPost2010PropOp32
 70
     1
102
RTVSPost2010Prop33
280
     0
102
RTVSPost2010PropOp33
 70
     1
102
RTVSPost2010Prop34
280
     0
102
RTVSPost2010PropOp34
 70
     1
102
RTVSPost2010Prop35
280
     0
102
RTVSPost2010PropOp35
 70
     1
102
RTVSPost2010Prop36
280
     0
102
RTVSPost2010PropOp36
 70
     1
102
RTVSPost2010Prop37
 90
       50
102
RTVSPost2010PropOp37
 70
     0
102
RTVSPost2010Prop38
140
0.0
102
RTVSPost2010PropOp38
 70
     0
102
RTVSPost2010Prop39
140
1.0
102
RTVSPost2010PropOp39
 70
     0
102
RTVSPost2010Prop40
 90
        0
102
RTVSPost2010PropOp40
 70
     0
102
RTVSPost2010Prop41ColorIndex
 90
       18
102
RTVSPost2010Prop41ColorRGB
 90
        0
102
RTVSPost2010PropOp41
 70
     0
102
RTVSPost2010Prop42
 90
       50
102
RTVSPost2010PropOp42
 70
     0
102
RTVSPost2010Prop43
 90
        3
102
RTVSPost2010PropOp43
 70
     0
102
RTVSPost2010Prop44ColorIndex
 90
        5
102
RTVSPost2010Prop44ColorRGB
 90
      255
102
RTVSPost2010PropOp44
 70
     0
102
RTVSPost2010Prop45
280
     0
102
RTVSPost2010PropOp45
 70
     1
102
RTVSPost2010Prop46
 90
       50
102
RTVSPost2010PropOp46
 70
     0
102
RTVSPost2010Prop47
 90
       50
102
RTVSPost2010PropOp47
 70
     0
102
RTVSPost2010Prop48
 90
       50
102
RTVSPost2010PropOp48
 70
     0
102
RTVSPost2010Prop49
280
     0
102
RTVSPost2010PropOp49
 70
     1
102
RTVSPost2010Prop50
 90
       50
102
RTVSPost2010PropOp50
 70
     0
102
RTVSPost2010Prop51ColorIndex
 90
      256
102
RTVSPost2010Prop51ColorRGB
 90
-16777216
102
RTVSPost2010PropOp51
 70
     0
102
RTVSPost2010Prop52
140
1.0
102
RTVSPost2010PropOp52
 70
     0
102
RTVSPost2010Prop53
 90
        2
102
RTVSPost2010PropOp53
 70
     0
102
RTVSPost2010Prop54
  1
strokes_ogs.tif
102
RTVSPost2010PropOp54
 70
     0
102
RTVSPost2010Prop55
280
     0
102
RTVSPost2010PropOp55
 70
     1
102
RTVSPost2010Prop56
140
1.0
102
RTVSPost2010PropOp56
 70
     0
102
RTVSPost2010Prop57
140
1.0
102
RTVSPost2010PropOp57
 70
     0
102
RTVSPropertyOp0
 70
     0
102
RTVSPropertyOp1
 70
     0
102
RTVSPropertyOp2
 70
     0
102
RTVSPropertyOp3
 70
     0
102
RTVSPropertyOp4
 70
     0
102
RTVSPropertyOp5
 70
     0
102
RTVSPropertyOp6
 70
     0
102
RTVSPropertyOp7
 70
     0
102
RTVSPropertyOp8
 70
     0
102
RTVSPropertyOp9
 70
     0
102
RTVSPropertyOp10
 70
     0
102
RTVSPropertyOp11
 70
     0
102
RTVSPropertyOp12
 70
     0
102
RTVSPropertyOp13
 70
     0
102
RTVSPropertyOp14
 70
     2
102
RTVSPropertyOp15
 70
     0
102
RTVSPropertyOp16
 70
     0
102
RTVSPropertyOp17
 70
     0
102
RTVSPropertyOp18
 70
     0
102
RTVSPropertyOp19
 70
     0
102
RTVSPropertyOp20
 70
     0
102
RTVSPropertyOp21
 70
     0
102
RTVSPropertyOp22
 70
     0
102
RTVSPropertyOp23
 70
     0
102
RTVSPropertyOp24
 70
     0
102
RTVSPropertyOp25
 70
     0
102
RTVSPropertyOp26
 70
     0
102
RTVSPropertyOp27
 70
     0
102
RTVSPropertyOp28
 70
     1
102
RTVSPropertyOp29
 70
     1
102
RTVSPropertyOp30
 70
     1
102
RTVSPropertyOp31
 70
     1
102
RTVSPropertyOp32
 70
     1
102
RTVSPropertyOp33
 70
     1
102
RTVSPropertyOp34
 70
     1
102
RTVSPropertyOp35
 70
     1
102
RTVSPropertyOp36
 70
     1
102
RTVSPropertyOp37
 70
     0
102
RTVSPropertyOp38
 70
     0
102
RTVSPropertyOp39
 70
     0
102
RTVSPropertyOp40
 70
     0
102
RTVSPropertyOp41
 70
     0
102
RTVSPropertyOp42
 70
     0
102
RTVSPropertyOp43
 70
     0
102
RTVSPropertyOp44
 70
     0
102
RTVSPropertyOp45
 70
     1
102
RTVSPropertyOp46
 70
     0
102
RTVSPropertyOp47
 70
     0
102
RTVSPropertyOp48
 70
     0
102
RTVSPropertyOp49
 70
     1
102
RTVSPropertyOp50
 70
     0
102
RTVSPropertyOp51
 70
     0
102
RTVSPropertyOp52
 70
     0
102
RTVSPropertyOp53
 70
     0
102
RTVSPropertyOp54
 70
     0
102
RTVSPropertyOp55
 70
     1
102
RTVSPropertyOp56
 70
     0
102
RTVSPropertyOp57
 70
     0
102
RTVSPropertyOp58
 70
     0
102
RTVSPropertyOp59
 70
     0
102
RTVSPropertyOp60
 70
     0
102
RTVSPropertyOp61
 70
     0
102
RTVSPropertyOp62
 70
     0
  0
XRECORD
  5
736
102
{ACAD_REACTORS
330
735
102
}
330
735
100
AcDbXrecord
280
     1
102
RTVSPost2010Prop28
280
     0
102
RTVSPost2010PropOp28
 70
     1
102
RTVSPost2010Prop29
280
     1
102
RTVSPost2010PropOp29
 70
     1
102
RTVSPost2010Prop30
280
     1
102
RTVSPost2010PropOp30
 70
     1
102
RTVSPost2010Prop31
280
     0
102
RTVSPost2010PropOp31
 70
     1
102
RTVSPost2010Prop32
280
     0
102
RTVSPost2010PropOp32
 70
     1
102
RTVSPost2010Prop33
280
     0
102
RTVSPost2010PropOp33
 70
     1
102
RTVSPost2010Prop34
280
     0
102
RTVSPost2010PropOp34
 70
     1
102
RTVSPost2010Prop35
280
     0
102
RTVSPost2010PropOp35
 70
     1
102
RTVSPost2010Prop36
280
     0
102
RTVSPost2010PropOp36
 70
     1
102
RTVSPost2010Prop37
 90
       50
102
RTVSPost2010PropOp37
 70
     1
102
RTVSPost2010Prop38
140
0.0
102
RTVSPost2010PropOp38
 70
     1
102
RTVSPost2010Prop39
140
1.0
102
RTVSPost2010PropOp39
 70
     1
102
RTVSPost2010Prop40
 90
        0
102
RTVSPost2010PropOp40
 70
     1
102
RTVSPost2010Prop41ColorIndex
 90
       18
102
RTVSPost2010Prop41ColorRGB
 90
        0
102
RTVSPost2010PropOp41
 70
     1
102
RTVSPost2010Prop42
 90
       50
102
RTVSPost2010PropOp42
 70
     1
102
RTVSPost2010Prop43
 90
        3
102
RTVSPost2010PropOp43
 70
     1
102
RTVSPost2010Prop44ColorIndex
 90
        5
102
RTVSPost2010Prop44ColorRGB
 90
      255
102
RTVSPost2010PropOp44
 70
     1
102
RTVSPost2010Prop45
280
     0
102
RTVSPost2010PropOp45
 70
     1
102
RTVSPost2010Prop46
 90
       50
102
RTVSPost2010PropOp46
 70
     1
102
RTVSPost2010Prop47
 90
       50
102
RTVSPost2010PropOp47
 70
     1
102
RTVSPost2010Prop48
 90
       50
102
RTVSPost2010PropOp48
 70
     1
102
RTVSPost2010Prop49
280
     0
102
RTVSPost2010PropOp49
 70
     1
102
RTVSPost2010Prop50
 90
       50
102
RTVSPost2010PropOp50
 70
     1
102
RTVSPost2010Prop51ColorIndex
 90
      256
102
RTVSPost2010Prop51ColorRGB
 90
-16777216
102
RTVSPost2010PropOp51
 70
     0
102
RTVSPost2010Prop52
140
1.0
102
RTVSPost2010PropOp52
 70
     0
102
RTVSPost2010Prop53
 90
        2
102
RTVSPost2010PropOp53
 70
     1
102
RTVSPost2010Prop54
  1
strokes_ogs.tif
102
RTVSPost2010PropOp54
 70
     1
102
RTVSPost2010Prop55
280
     0
102
RTVSPost2010PropOp55
 70
     1
102
RTVSPost2010Prop56
140
1.0
102
RTVSPost2010PropOp56
 70
     1
102
RTVSPost2010Prop57
140
1.0
102
RTVSPost2010PropOp57
 70
     1
102
RTVSPropertyOp0
 70
     1
102
RTVSPropertyOp1
 70
     1
102
RTVSPropertyOp2
 70
     1
102
RTVSPropertyOp3
 70
     1
102
RTVSPropertyOp4
 70
     1
102
RTVSPropertyOp5
 70
     1
102
RTVSPropertyOp6
 70
     1
102
RTVSPropertyOp7
 70
     1
102
RTVSPropertyOp8
 70
     1
102
RTVSPropertyOp9
 70
     1
102
RTVSPropertyOp10
 70
     1
102
RTVSPropertyOp11
 70
     1
102
RTVSPropertyOp12
 70
     1
102
RTVSPropertyOp13
 70
     1
102
RTVSPropertyOp14
 70
     1
102
RTVSPropertyOp15
 70
     1
102
RTVSPropertyOp16
 70
     1
102
RTVSPropertyOp17
 70
     1
102
RTVSPropertyOp18
 70
     1
102
RTVSPropertyOp19
 70
     1
102
RTVSPropertyOp20
 70
     1
102
RTVSPropertyOp21
 70
     1
102
RTVSPropertyOp22
 70
     1
102
RTVSPropertyOp23
 70
     1
102
RTVSPropertyOp24
 70
     1
102
RTVSPropertyOp25
 70
     1
102
RTVSPropertyOp26
 70
     1
102
RTVSPropertyOp27
 70
     1
102
RTVSPropertyOp28
 70
     1
102
RTVSPropertyOp29
 70
     1
102
RTVSPropertyOp30
 70
     1
102
RTVSPropertyOp31
 70
     1
102
RTVSPropertyOp32
 70
     1
102
RTVSPropertyOp33
 70
     1
102
RTVSPropertyOp34
 70
     1
102
RTVSPropertyOp35
 70
     1
102
RTVSPropertyOp36
 70
     1
102
RTVSPropertyOp37
 70
     1
102
RTVSPropertyOp38
 70
     1
102
RTVSPropertyOp39
 70
     1
102
RTVSPropertyOp40
 70
     1
102
RTVSPropertyOp41
 70
     1
102
RTVSPropertyOp42
 70
     1
102
RTVSPropertyOp43
 70
     1
102
RTVSPropertyOp44
 70
     1
102
RTVSPropertyOp45
 70
     1
102
RTVSPropertyOp46
 70
     1
102
RTVSPropertyOp47
 70
     1
102
RTVSPropertyOp48
 70
     1
102
RTVSPropertyOp49
 70
     1
102
RTVSPropertyOp50
 70
     1
102
RTVSPropertyOp51
 70
     0
102
RTVSPropertyOp52
 70
     0
102
RTVSPropertyOp53
 70
     1
102
RTVSPropertyOp54
 70
     1
102
RTVSPropertyOp55
 70
     1
102
RTVSPropertyOp56
 70
     1
102
RTVSPropertyOp57
 70
     1
102
RTVSPropertyOp58
 70
     1
102
RTVSPropertyOp59
 70
     1
102
RTVSPropertyOp60
 70
     1
102
RTVSPropertyOp61
 70
     1
102
RTVSPropertyOp62
 70
     1
  0
XRECORD
  5
71A
102
{ACAD_REACTORS
330
719
102
}
330
719
100
AcDbXrecord
280
     1
102
RTVSPost2010Prop28
280
     0
102
RTVSPost2010PropOp28
 70
     1
102
RTVSPost2010Prop29
280
     1
102
RTVSPost2010PropOp29
 70
     1
102
RTVSPost2010Prop30
280
     1
102
RTVSPost2010PropOp30
 70
     1
102
RTVSPost2010Prop31
280
     0
102
RTVSPost2010PropOp31
 70
     1
102
RTVSPost2010Prop32
280
     0
102
RTVSPost2010PropOp32
 70
     1
102
RTVSPost2010Prop33
280
     0
102
RTVSPost2010PropOp33
 70
     1
102
RTVSPost2010Prop34
280
     0
102
RTVSPost2010PropOp34
 70
     1
102
RTVSPost2010Prop35
280
     0
102
RTVSPost2010PropOp35
 70
     1
102
RTVSPost2010Prop36
280
     0
102
RTVSPost2010PropOp36
 70
     1
102
RTVSPost2010Prop37
 90
       50
102
RTVSPost2010PropOp37
 70
     1
102
RTVSPost2010Prop38
140
0.0
102
RTVSPost2010PropOp38
 70
     1
102
RTVSPost2010Prop39
140
1.0
102
RTVSPost2010PropOp39
 70
     1
102
RTVSPost2010Prop40
 90
        0
102
RTVSPost2010PropOp40
 70
     1
102
RTVSPost2010Prop41ColorIndex
 90
       18
102
RTVSPost2010Prop41ColorRGB
 90
        0
102
RTVSPost2010PropOp41
 70
     1
102
RTVSPost2010Prop42
 90
       50
102
RTVSPost2010PropOp42
 70
     1
102
RTVSPost2010Prop43
 90
        3
102
RTVSPost2010PropOp43
 70
     1
102
RTVSPost2010Prop44ColorIndex
 90
        5
102
RTVSPost2010Prop44ColorRGB
 90
      255
102
RTVSPost2010PropOp44
 70
     1
102
RTVSPost2010Prop45
280
     0
102
RTVSPost2010PropOp45
 70
     1
102
RTVSPost2010Prop46
 90
       50
102
RTVSPost2010PropOp46
 70
     1
102
RTVSPost2010Prop47
 90
       50
102
RTVSPost2010PropOp47
 70
     1
102
RTVSPost2010Prop48
 90
       50
102
RTVSPost2010PropOp48
 70
     1
102
RTVSPost2010Prop49
280
     0
102
RTVSPost2010PropOp49
 70
     1
102
RTVSPost2010Prop50
 90
       50
102
RTVSPost2010PropOp50
 70
     1
102
RTVSPost2010Prop51ColorIndex
 90
      256
102
RTVSPost2010Prop51ColorRGB
 90
-16777216
102
RTVSPost2010PropOp51
 70
     0
102
RTVSPost2010Prop52
140
1.0
102
RTVSPost2010PropOp52
 70
     0
102
RTVSPost2010Prop53
 90
        2
102
RTVSPost2010PropOp53
 70
     1
102
RTVSPost2010Prop54
  1
strokes_ogs.tif
102
RTVSPost2010PropOp54
 70
     1
102
RTVSPost2010Prop55
280
     0
102
RTVSPost2010PropOp55
 70
     1
102
RTVSPost2010Prop56
140
1.0
102
RTVSPost2010PropOp56
 70
     1
102
RTVSPost2010Prop57
140
1.0
102
RTVSPost2010PropOp57
 70
     1
102
RTVSPropertyOp0
 70
     1
102
RTVSPropertyOp1
 70
     1
102
RTVSPropertyOp2
 70
     1
102
RTVSPropertyOp3
 70
     1
102
RTVSPropertyOp4
 70
     1
102
RTVSPropertyOp5
 70
     1
102
RTVSPropertyOp6
 70
     1
102
RTVSPropertyOp7
 70
     1
102
RTVSPropertyOp8
 70
     1
102
RTVSPropertyOp9
 70
     1
102
RTVSPropertyOp10
 70
     1
102
RTVSPropertyOp11
 70
     1
102
RTVSPropertyOp12
 70
     1
102
RTVSPropertyOp13
 70
     1
102
RTVSPropertyOp14
 70
     1
102
RTVSPropertyOp15
 70
     1
102
RTVSPropertyOp16
 70
     1
102
RTVSPropertyOp17
 70
     1
102
RTVSPropertyOp18
 70
     1
102
RTVSPropertyOp19
 70
     1
102
RTVSPropertyOp20
 70
     1
102
RTVSPropertyOp21
 70
     1
102
RTVSPropertyOp22
 70
     1
102
RTVSPropertyOp23
 70
     1
102
RTVSPropertyOp24
 70
     1
102
RTVSPropertyOp25
 70
     1
102
RTVSPropertyOp26
 70
     1
102
RTVSPropertyOp27
 70
     1
102
RTVSPropertyOp28
 70
     1
102
RTVSPropertyOp29
 70
     1
102
RTVSPropertyOp30
 70
     1
102
RTVSPropertyOp31
 70
     1
102
RTVSPropertyOp32
 70
     1
102
RTVSPropertyOp33
 70
     1
102
RTVSPropertyOp34
 70
     1
102
RTVSPropertyOp35
 70
     1
102
RTVSPropertyOp36
 70
     1
102
RTVSPropertyOp37
 70
     1
102
RTVSPropertyOp38
 70
     1
102
RTVSPropertyOp39
 70
     1
102
RTVSPropertyOp40
 70
     1
102
RTVSPropertyOp41
 70
     1
102
RTVSPropertyOp42
 70
     1
102
RTVSPropertyOp43
 70
     1
102
RTVSPropertyOp44
 70
     1
102
RTVSPropertyOp45
 70
     1
102
RTVSPropertyOp46
 70
     1
102
RTVSPropertyOp47
 70
     1
102
RTVSPropertyOp48
 70
     1
102
RTVSPropertyOp49
 70
     1
102
RTVSPropertyOp50
 70
     1
102
RTVSPropertyOp51
 70
     0
102
RTVSPropertyOp52
 70
     0
102
RTVSPropertyOp53
 70
     1
102
RTVSPropertyOp54
 70
     1
102
RTVSPropertyOp55
 70
     1
102
RTVSPropertyOp56
 70
     1
102
RTVSPropertyOp57
 70
     1
102
RTVSPropertyOp58
 70
     1
102
RTVSPropertyOp59
 70
     1
102
RTVSPropertyOp60
 70
     1
102
RTVSPropertyOp61
 70
     1
102
RTVSPropertyOp62
 70
     1
  0
XRECORD
  5
71C
102
{ACAD_REACTORS
330
71B
102
}
330
71B
100
AcDbXrecord
280
     1
102
RTVSPost2010Prop28
280
     0
102
RTVSPost2010PropOp28
 70
     1
102
RTVSPost2010Prop29
280
     1
102
RTVSPost2010PropOp29
 70
     1
102
RTVSPost2010Prop30
280
     1
102
RTVSPost2010PropOp30
 70
     1
102
RTVSPost2010Prop31
280
     0
102
RTVSPost2010PropOp31
 70
     1
102
RTVSPost2010Prop32
280
     0
102
RTVSPost2010PropOp32
 70
     1
102
RTVSPost2010Prop33
280
     0
102
RTVSPost2010PropOp33
 70
     1
102
RTVSPost2010Prop34
280
     0
102
RTVSPost2010PropOp34
 70
     1
102
RTVSPost2010Prop35
280
     0
102
RTVSPost2010PropOp35
 70
     1
102
RTVSPost2010Prop36
280
     0
102
RTVSPost2010PropOp36
 70
     1
102
RTVSPost2010Prop37
 90
       50
102
RTVSPost2010PropOp37
 70
     1
102
RTVSPost2010Prop38
140
0.0
102
RTVSPost2010PropOp38
 70
     1
102
RTVSPost2010Prop39
140
1.0
102
RTVSPost2010PropOp39
 70
     1
102
RTVSPost2010Prop40
 90
        0
102
RTVSPost2010PropOp40
 70
     1
102
RTVSPost2010Prop41ColorIndex
 90
       18
102
RTVSPost2010Prop41ColorRGB
 90
        0
102
RTVSPost2010PropOp41
 70
     1
102
RTVSPost2010Prop42
 90
       50
102
RTVSPost2010PropOp42
 70
     1
102
RTVSPost2010Prop43
 90
        3
102
RTVSPost2010PropOp43
 70
     1
102
RTVSPost2010Prop44ColorIndex
 90
        5
102
RTVSPost2010Prop44ColorRGB
 90
      255
102
RTVSPost2010PropOp44
 70
     1
102
RTVSPost2010Prop45
280
     0
102
RTVSPost2010PropOp45
 70
     1
102
RTVSPost2010Prop46
 90
       50
102
RTVSPost2010PropOp46
 70
     1
102
RTVSPost2010Prop47
 90
       50
102
RTVSPost2010PropOp47
 70
     1
102
RTVSPost2010Prop48
 90
       50
102
RTVSPost2010PropOp48
 70
     1
102
RTVSPost2010Prop49
280
     0
102
RTVSPost2010PropOp49
 70
     1
102
RTVSPost2010Prop50
 90
       50
102
RTVSPost2010PropOp50
 70
     1
102
RTVSPost2010Prop51ColorIndex
 90
      256
102
RTVSPost2010Prop51ColorRGB
 90
-16777216
102
RTVSPost2010PropOp51
 70
     0
102
RTVSPost2010Prop52
140
1.0
102
RTVSPost2010PropOp52
 70
     0
102
RTVSPost2010Prop53
 90
        2
102
RTVSPost2010PropOp53
 70
     1
102
RTVSPost2010Prop54
  1
strokes_ogs.tif
102
RTVSPost2010PropOp54
 70
     1
102
RTVSPost2010Prop55
280
     0
102
RTVSPost2010PropOp55
 70
     1
102
RTVSPost2010Prop56
140
1.0
102
RTVSPost2010PropOp56
 70
     1
102
RTVSPost2010Prop57
140
1.0
102
RTVSPost2010PropOp57
 70
     1
102
RTVSPropertyOp0
 70
     1
102
RTVSPropertyOp1
 70
     1
102
RTVSPropertyOp2
 70
     1
102
RTVSPropertyOp3
 70
     1
102
RTVSPropertyOp4
 70
     1
102
RTVSPropertyOp5
 70
     1
102
RTVSPropertyOp6
 70
     1
102
RTVSPropertyOp7
 70
     1
102
RTVSPropertyOp8
 70
     1
102
RTVSPropertyOp9
 70
     1
102
RTVSPropertyOp10
 70
     1
102
RTVSPropertyOp11
 70
     1
102
RTVSPropertyOp12
 70
     1
102
RTVSPropertyOp13
 70
     1
102
RTVSPropertyOp14
 70
     1
102
RTVSPropertyOp15
 70
     1
102
RTVSPropertyOp16
 70
     1
102
RTVSPropertyOp17
 70
     1
102
RTVSPropertyOp18
 70
     1
102
RTVSPropertyOp19
 70
     1
102
RTVSPropertyOp20
 70
     1
102
RTVSPropertyOp21
 70
     1
102
RTVSPropertyOp22
 70
     1
102
RTVSPropertyOp23
 70
     1
102
RTVSPropertyOp24
 70
     1
102
RTVSPropertyOp25
 70
     1
102
RTVSPropertyOp26
 70
     1
102
RTVSPropertyOp27
 70
     1
102
RTVSPropertyOp28
 70
     1
102
RTVSPropertyOp29
 70
     1
102
RTVSPropertyOp30
 70
     1
102
RTVSPropertyOp31
 70
     1
102
RTVSPropertyOp32
 70
     1
102
RTVSPropertyOp33
 70
     1
102
RTVSPropertyOp34
 70
     1
102
RTVSPropertyOp35
 70
     1
102
RTVSPropertyOp36
 70
     1
102
RTVSPropertyOp37
 70
     1
102
RTVSPropertyOp38
 70
     1
102
RTVSPropertyOp39
 70
     1
102
RTVSPropertyOp40
 70
     1
102
RTVSPropertyOp41
 70
     1
102
RTVSPropertyOp42
 70
     1
102
RTVSPropertyOp43
 70
     1
102
RTVSPropertyOp44
 70
     1
102
RTVSPropertyOp45
 70
     1
102
RTVSPropertyOp46
 70
     1
102
RTVSPropertyOp47
 70
     1
102
RTVSPropertyOp48
 70
     1
102
RTVSPropertyOp49
 70
     1
102
RTVSPropertyOp50
 70
     1
102
RTVSPropertyOp51
 70
     0
102
RTVSPropertyOp52
 70
     0
102
RTVSPropertyOp53
 70
     1
102
RTVSPropertyOp54
 70
     1
102
RTVSPropertyOp55
 70
     1
102
RTVSPropertyOp56
 70
     1
102
RTVSPropertyOp57
 70
     1
102
RTVSPropertyOp58
 70
     1
102
RTVSPropertyOp59
 70
     1
102
RTVSPropertyOp60
 70
     1
102
RTVSPropertyOp61
 70
     1
102
RTVSPropertyOp62
 70
     1
  0
XRECORD
  5
71E
102
{ACAD_REACTORS
330
71D
102
}
330
71D
100
AcDbXrecord
280
     1
102
RTVSPost2010Prop28
280
     0
102
RTVSPost2010PropOp28
 70
     1
102
RTVSPost2010Prop29
280
     1
102
RTVSPost2010PropOp29
 70
     1
102
RTVSPost2010Prop30
280
     1
102
RTVSPost2010PropOp30
 70
     1
102
RTVSPost2010Prop31
280
     0
102
RTVSPost2010PropOp31
 70
     1
102
RTVSPost2010Prop32
280
     0
102
RTVSPost2010PropOp32
 70
     1
102
RTVSPost2010Prop33
280
     0
102
RTVSPost2010PropOp33
 70
     1
102
RTVSPost2010Prop34
280
     0
102
RTVSPost2010PropOp34
 70
     1
102
RTVSPost2010Prop35
280
     0
102
RTVSPost2010PropOp35
 70
     1
102
RTVSPost2010Prop36
280
     0
102
RTVSPost2010PropOp36
 70
     1
102
RTVSPost2010Prop37
 90
       50
102
RTVSPost2010PropOp37
 70
     1
102
RTVSPost2010Prop38
140
0.0
102
RTVSPost2010PropOp38
 70
     1
102
RTVSPost2010Prop39
140
1.0
102
RTVSPost2010PropOp39
 70
     1
102
RTVSPost2010Prop40
 90
        0
102
RTVSPost2010PropOp40
 70
     1
102
RTVSPost2010Prop41ColorIndex
 90
       18
102
RTVSPost2010Prop41ColorRGB
 90
        0
102
RTVSPost2010PropOp41
 70
     1
102
RTVSPost2010Prop42
 90
       50
102
RTVSPost2010PropOp42
 70
     1
102
RTVSPost2010Prop43
 90
        3
102
RTVSPost2010PropOp43
 70
     1
102
RTVSPost2010Prop44ColorIndex
 90
        5
102
RTVSPost2010Prop44ColorRGB
 90
      255
102
RTVSPost2010PropOp44
 70
     1
102
RTVSPost2010Prop45
280
     0
102
RTVSPost2010PropOp45
 70
     1
102
RTVSPost2010Prop46
 90
       50
102
RTVSPost2010PropOp46
 70
     1
102
RTVSPost2010Prop47
 90
       50
102
RTVSPost2010PropOp47
 70
     1
102
RTVSPost2010Prop48
 90
       50
102
RTVSPost2010PropOp48
 70
     1
102
RTVSPost2010Prop49
280
     0
102
RTVSPost2010PropOp49
 70
     1
102
RTVSPost2010Prop50
 90
       50
102
RTVSPost2010PropOp50
 70
     1
102
RTVSPost2010Prop51ColorIndex
 90
      256
102
RTVSPost2010Prop51ColorRGB
 90
-16777216
102
RTVSPost2010PropOp51
 70
     0
102
RTVSPost2010Prop52
140
1.0
102
RTVSPost2010PropOp52
 70
     0
102
RTVSPost2010Prop53
 90
        2
102
RTVSPost2010PropOp53
 70
     1
102
RTVSPost2010Prop54
  1
strokes_ogs.tif
102
RTVSPost2010PropOp54
 70
     1
102
RTVSPost2010Prop55
280
     0
102
RTVSPost2010PropOp55
 70
     1
102
RTVSPost2010Prop56
140
1.0
102
RTVSPost2010PropOp56
 70
     1
102
RTVSPost2010Prop57
140
1.0
102
RTVSPost2010PropOp57
 70
     1
102
RTVSPropertyOp0
 70
     1
102
RTVSPropertyOp1
 70
     1
102
RTVSPropertyOp2
 70
     1
102
RTVSPropertyOp3
 70
     1
102
RTVSPropertyOp4
 70
     1
102
RTVSPropertyOp5
 70
     1
102
RTVSPropertyOp6
 70
     1
102
RTVSPropertyOp7
 70
     1
102
RTVSPropertyOp8
 70
     1
102
RTVSPropertyOp9
 70
     1
102
RTVSPropertyOp10
 70
     1
102
RTVSPropertyOp11
 70
     1
102
RTVSPropertyOp12
 70
     1
102
RTVSPropertyOp13
 70
     1
102
RTVSPropertyOp14
 70
     1
102
RTVSPropertyOp15
 70
     1
102
RTVSPropertyOp16
 70
     1
102
RTVSPropertyOp17
 70
     1
102
RTVSPropertyOp18
 70
     1
102
RTVSPropertyOp19
 70
     1
102
RTVSPropertyOp20
 70
     1
102
RTVSPropertyOp21
 70
     1
102
RTVSPropertyOp22
 70
     1
102
RTVSPropertyOp23
 70
     1
102
RTVSPropertyOp24
 70
     1
102
RTVSPropertyOp25
 70
     1
102
RTVSPropertyOp26
 70
     1
102
RTVSPropertyOp27
 70
     1
102
RTVSPropertyOp28
 70
     1
102
RTVSPropertyOp29
 70
     1
102
RTVSPropertyOp30
 70
     1
102
RTVSPropertyOp31
 70
     1
102
RTVSPropertyOp32
 70
     1
102
RTVSPropertyOp33
 70
     1
102
RTVSPropertyOp34
 70
     1
102
RTVSPropertyOp35
 70
     1
102
RTVSPropertyOp36
 70
     1
102
RTVSPropertyOp37
 70
     1
102
RTVSPropertyOp38
 70
     1
102
RTVSPropertyOp39
 70
     1
102
RTVSPropertyOp40
 70
     1
102
RTVSPropertyOp41
 70
     1
102
RTVSPropertyOp42
 70
     1
102
RTVSPropertyOp43
 70
     1
102
RTVSPropertyOp44
 70
     1
102
RTVSPropertyOp45
 70
     1
102
RTVSPropertyOp46
 70
     1
102
RTVSPropertyOp47
 70
     1
102
RTVSPropertyOp48
 70
     1
102
RTVSPropertyOp49
 70
     1
102
RTVSPropertyOp50
 70
     1
102
RTVSPropertyOp51
 70
     0
102
RTVSPropertyOp52
 70
     0
102
RTVSPropertyOp53
 70
     1
102
RTVSPropertyOp54
 70
     1
102
RTVSPropertyOp55
 70
     1
102
RTVSPropertyOp56
 70
     1
102
RTVSPropertyOp57
 70
     1
102
RTVSPropertyOp58
 70
     1
102
RTVSPropertyOp59
 70
     1
102
RTVSPropertyOp60
 70
     1
102
RTVSPropertyOp61
 70
     1
102
RTVSPropertyOp62
 70
     1
  0
XRECORD
  5
720
102
{ACAD_REACTORS
330
71F
102
}
330
71F
100
AcDbXrecord
280
     1
102
RTVSPost2010Prop28
280
     0
102
RTVSPost2010PropOp28
 70
     1
102
RTVSPost2010Prop29
280
     1
102
RTVSPost2010PropOp29
 70
     1
102
RTVSPost2010Prop30
280
     1
102
RTVSPost2010PropOp30
 70
     1
102
RTVSPost2010Prop31
280
     0
102
RTVSPost2010PropOp31
 70
     1
102
RTVSPost2010Prop32
280
     0
102
RTVSPost2010PropOp32
 70
     1
102
RTVSPost2010Prop33
280
     0
102
RTVSPost2010PropOp33
 70
     1
102
RTVSPost2010Prop34
280
     0
102
RTVSPost2010PropOp34
 70
     1
102
RTVSPost2010Prop35
280
     0
102
RTVSPost2010PropOp35
 70
     1
102
RTVSPost2010Prop36
280
     0
102
RTVSPost2010PropOp36
 70
     1
102
RTVSPost2010Prop37
 90
       50
102
RTVSPost2010PropOp37
 70
     1
102
RTVSPost2010Prop38
140
0.0
102
RTVSPost2010PropOp38
 70
     1
102
RTVSPost2010Prop39
140
1.0
102
RTVSPost2010PropOp39
 70
     1
102
RTVSPost2010Prop40
 90
        0
102
RTVSPost2010PropOp40
 70
     1
102
RTVSPost2010Prop41ColorIndex
 90
       18
102
RTVSPost2010Prop41ColorRGB
 90
        0
102
RTVSPost2010PropOp41
 70
     1
102
RTVSPost2010Prop42
 90
       50
102
RTVSPost2010PropOp42
 70
     1
102
RTVSPost2010Prop43
 90
        3
102
RTVSPost2010PropOp43
 70
     1
102
RTVSPost2010Prop44ColorIndex
 90
        5
102
RTVSPost2010Prop44ColorRGB
 90
      255
102
RTVSPost2010PropOp44
 70
     1
102
RTVSPost2010Prop45
280
     0
102
RTVSPost2010PropOp45
 70
     1
102
RTVSPost2010Prop46
 90
       50
102
RTVSPost2010PropOp46
 70
     1
102
RTVSPost2010Prop47
 90
       50
102
RTVSPost2010PropOp47
 70
     1
102
RTVSPost2010Prop48
 90
       50
102
RTVSPost2010PropOp48
 70
     1
102
RTVSPost2010Prop49
280
     0
102
RTVSPost2010PropOp49
 70
     1
102
RTVSPost2010Prop50
 90
       50
102
RTVSPost2010PropOp50
 70
     1
102
RTVSPost2010Prop51ColorIndex
 90
      256
102
RTVSPost2010Prop51ColorRGB
 90
-16777216
102
RTVSPost2010PropOp51
 70
     0
102
RTVSPost2010Prop52
140
1.0
102
RTVSPost2010PropOp52
 70
     0
102
RTVSPost2010Prop53
 90
        2
102
RTVSPost2010PropOp53
 70
     1
102
RTVSPost2010Prop54
  1
strokes_ogs.tif
102
RTVSPost2010PropOp54
 70
     1
102
RTVSPost2010Prop55
280
     0
102
RTVSPost2010PropOp55
 70
     1
102
RTVSPost2010Prop56
140
1.0
102
RTVSPost2010PropOp56
 70
     1
102
RTVSPost2010Prop57
140
1.0
102
RTVSPost2010PropOp57
 70
     1
102
RTVSPropertyOp0
 70
     1
102
RTVSPropertyOp1
 70
     1
102
RTVSPropertyOp2
 70
     1
102
RTVSPropertyOp3
 70
     1
102
RTVSPropertyOp4
 70
     1
102
RTVSPropertyOp5
 70
     1
102
RTVSPropertyOp6
 70
     1
102
RTVSPropertyOp7
 70
     1
102
RTVSPropertyOp8
 70
     1
102
RTVSPropertyOp9
 70
     1
102
RTVSPropertyOp10
 70
     1
102
RTVSPropertyOp11
 70
     1
102
RTVSPropertyOp12
 70
     1
102
RTVSPropertyOp13
 70
     1
102
RTVSPropertyOp14
 70
     1
102
RTVSPropertyOp15
 70
     1
102
RTVSPropertyOp16
 70
     1
102
RTVSPropertyOp17
 70
     1
102
RTVSPropertyOp18
 70
     1
102
RTVSPropertyOp19
 70
     1
102
RTVSPropertyOp20
 70
     1
102
RTVSPropertyOp21
 70
     1
102
RTVSPropertyOp22
 70
     1
102
RTVSPropertyOp23
 70
     1
102
RTVSPropertyOp24
 70
     1
102
RTVSPropertyOp25
 70
     1
102
RTVSPropertyOp26
 70
     1
102
RTVSPropertyOp27
 70
     1
102
RTVSPropertyOp28
 70
     1
102
RTVSPropertyOp29
 70
     1
102
RTVSPropertyOp30
 70
     1
102
RTVSPropertyOp31
 70
     1
102
RTVSPropertyOp32
 70
     1
102
RTVSPropertyOp33
 70
     1
102
RTVSPropertyOp34
 70
     1
102
RTVSPropertyOp35
 70
     1
102
RTVSPropertyOp36
 70
     1
102
RTVSPropertyOp37
 70
     1
102
RTVSPropertyOp38
 70
     1
102
RTVSPropertyOp39
 70
     1
102
RTVSPropertyOp40
 70
     1
102
RTVSPropertyOp41
 70
     1
102
RTVSPropertyOp42
 70
     1
102
RTVSPropertyOp43
 70
     1
102
RTVSPropertyOp44
 70
     1
102
RTVSPropertyOp45
 70
     1
102
RTVSPropertyOp46
 70
     1
102
RTVSPropertyOp47
 70
     1
102
RTVSPropertyOp48
 70
     1
102
RTVSPropertyOp49
 70
     1
102
RTVSPropertyOp50
 70
     1
102
RTVSPropertyOp51
 70
     0
102
RTVSPropertyOp52
 70
     0
102
RTVSPropertyOp53
 70
     1
102
RTVSPropertyOp54
 70
     1
102
RTVSPropertyOp55
 70
     1
102
RTVSPropertyOp56
 70
     1
102
RTVSPropertyOp57
 70
     1
102
RTVSPropertyOp58
 70
     1
102
RTVSPropertyOp59
 70
     1
102
RTVSPropertyOp60
 70
     1
102
RTVSPropertyOp61
 70
     1
102
RTVSPropertyOp62
 70
     1
  0
XRECORD
  5
728
102
{ACAD_REACTORS
330
727
102
}
330
727
100
AcDbXrecord
280
     1
102
RTVSPost2010Prop28
280
     0
102
RTVSPost2010PropOp28
 70
     1
102
RTVSPost2010Prop29
280
     1
102
RTVSPost2010PropOp29
 70
     1
102
RTVSPost2010Prop30
280
     1
102
RTVSPost2010PropOp30
 70
     1
102
RTVSPost2010Prop31
280
     0
102
RTVSPost2010PropOp31
 70
     1
102
RTVSPost2010Prop32
280
     0
102
RTVSPost2010PropOp32
 70
     1
102
RTVSPost2010Prop33
280
     0
102
RTVSPost2010PropOp33
 70
     1
102
RTVSPost2010Prop34
280
     0
102
RTVSPost2010PropOp34
 70
     1
102
RTVSPost2010Prop35
280
     0
102
RTVSPost2010PropOp35
 70
     1
102
RTVSPost2010Prop36
280
     0
102
RTVSPost2010PropOp36
 70
     1
102
RTVSPost2010Prop37
 90
       50
102
RTVSPost2010PropOp37
 70
     1
102
RTVSPost2010Prop38
140
0.0
102
RTVSPost2010PropOp38
 70
     1
102
RTVSPost2010Prop39
140
1.0
102
RTVSPost2010PropOp39
 70
     1
102
RTVSPost2010Prop40
 90
        0
102
RTVSPost2010PropOp40
 70
     1
102
RTVSPost2010Prop41ColorIndex
 90
       18
102
RTVSPost2010Prop41ColorRGB
 90
        0
102
RTVSPost2010PropOp41
 70
     1
102
RTVSPost2010Prop42
 90
       50
102
RTVSPost2010PropOp42
 70
     1
102
RTVSPost2010Prop43
 90
        3
102
RTVSPost2010PropOp43
 70
     1
102
RTVSPost2010Prop44ColorIndex
 90
        5
102
RTVSPost2010Prop44ColorRGB
 90
      255
102
RTVSPost2010PropOp44
 70
     1
102
RTVSPost2010Prop45
280
     0
102
RTVSPost2010PropOp45
 70
     1
102
RTVSPost2010Prop46
 90
       50
102
RTVSPost2010PropOp46
 70
     1
102
RTVSPost2010Prop47
 90
       50
102
RTVSPost2010PropOp47
 70
     1
102
RTVSPost2010Prop48
 90
       50
102
RTVSPost2010PropOp48
 70
     1
102
RTVSPost2010Prop49
280
     0
102
RTVSPost2010PropOp49
 70
     1
102
RTVSPost2010Prop50
 90
       50
102
RTVSPost2010PropOp50
 70
     1
102
RTVSPost2010Prop51ColorIndex
 90
      256
102
RTVSPost2010Prop51ColorRGB
 90
-16777216
102
RTVSPost2010PropOp51
 70
     0
102
RTVSPost2010Prop52
140
1.0
102
RTVSPost2010PropOp52
 70
     0
102
RTVSPost2010Prop53
 90
        2
102
RTVSPost2010PropOp53
 70
     1
102
RTVSPost2010Prop54
  1
strokes_ogs.tif
102
RTVSPost2010PropOp54
 70
     1
102
RTVSPost2010Prop55
280
     0
102
RTVSPost2010PropOp55
 70
     1
102
RTVSPost2010Prop56
140
1.0
102
RTVSPost2010PropOp56
 70
     1
102
RTVSPost2010Prop57
140
1.0
102
RTVSPost2010PropOp57
 70
     1
102
RTVSPropertyOp0
 70
     1
102
RTVSPropertyOp1
 70
     1
102
RTVSPropertyOp2
 70
     1
102
RTVSPropertyOp3
 70
     1
102
RTVSPropertyOp4
 70
     1
102
RTVSPropertyOp5
 70
     1
102
RTVSPropertyOp6
 70
     1
102
RTVSPropertyOp7
 70
     1
102
RTVSPropertyOp8
 70
     1
102
RTVSPropertyOp9
 70
     1
102
RTVSPropertyOp10
 70
     1
102
RTVSPropertyOp11
 70
     1
102
RTVSPropertyOp12
 70
     1
102
RTVSPropertyOp13
 70
     1
102
RTVSPropertyOp14
 70
     1
102
RTVSPropertyOp15
 70
     1
102
RTVSPropertyOp16
 70
     1
102
RTVSPropertyOp17
 70
     1
102
RTVSPropertyOp18
 70
     1
102
RTVSPropertyOp19
 70
     1
102
RTVSPropertyOp20
 70
     1
102
RTVSPropertyOp21
 70
     1
102
RTVSPropertyOp22
 70
     1
102
RTVSPropertyOp23
 70
     1
102
RTVSPropertyOp24
 70
     1
102
RTVSPropertyOp25
 70
     1
102
RTVSPropertyOp26
 70
     1
102
RTVSPropertyOp27
 70
     1
102
RTVSPropertyOp28
 70
     1
102
RTVSPropertyOp29
 70
     1
102
RTVSPropertyOp30
 70
     1
102
RTVSPropertyOp31
 70
     1
102
RTVSPropertyOp32
 70
     1
102
RTVSPropertyOp33
 70
     1
102
RTVSPropertyOp34
 70
     1
102
RTVSPropertyOp35
 70
     1
102
RTVSPropertyOp36
 70
     1
102
RTVSPropertyOp37
 70
     1
102
RTVSPropertyOp38
 70
     1
102
RTVSPropertyOp39
 70
     1
102
RTVSPropertyOp40
 70
     1
102
RTVSPropertyOp41
 70
     1
102
RTVSPropertyOp42
 70
     1
102
RTVSPropertyOp43
 70
     1
102
RTVSPropertyOp44
 70
     1
102
RTVSPropertyOp45
 70
     1
102
RTVSPropertyOp46
 70
     1
102
RTVSPropertyOp47
 70
     1
102
RTVSPropertyOp48
 70
     1
102
RTVSPropertyOp49
 70
     1
102
RTVSPropertyOp50
 70
     1
102
RTVSPropertyOp51
 70
     0
102
RTVSPropertyOp52
 70
     0
102
RTVSPropertyOp53
 70
     1
102
RTVSPropertyOp54
 70
     1
102
RTVSPropertyOp55
 70
     1
102
RTVSPropertyOp56
 70
     1
102
RTVSPropertyOp57
 70
     1
102
RTVSPropertyOp58
 70
     1
102
RTVSPropertyOp59
 70
     1
102
RTVSPropertyOp60
 70
     1
102
RTVSPropertyOp61
 70
     1
102
RTVSPropertyOp62
 70
     1
  0
XRECORD
  5
744
102
{ACAD_REACTORS
330
743
102
}
330
743
100
AcDbXrecord
280
     1
102
RTVSPost2010Prop28
280
     0
102
RTVSPost2010PropOp28
 70
     1
102
RTVSPost2010Prop29
280
     1
102
RTVSPost2010PropOp29
 70
     1
102
RTVSPost2010Prop30
280
     1
102
RTVSPost2010PropOp30
 70
     1
102
RTVSPost2010Prop31
280
     0
102
RTVSPost2010PropOp31
 70
     1
102
RTVSPost2010Prop32
280
     0
102
RTVSPost2010PropOp32
 70
     1
102
RTVSPost2010Prop33
280
     0
102
RTVSPost2010PropOp33
 70
     1
102
RTVSPost2010Prop34
280
     0
102
RTVSPost2010PropOp34
 70
     1
102
RTVSPost2010Prop35
280
     0
102
RTVSPost2010PropOp35
 70
     1
102
RTVSPost2010Prop36
280
     0
102
RTVSPost2010PropOp36
 70
     1
102
RTVSPost2010Prop37
 90
       50
102
RTVSPost2010PropOp37
 70
     0
102
RTVSPost2010Prop38
140
0.0
102
RTVSPost2010PropOp38
 70
     0
102
RTVSPost2010Prop39
140
1.0
102
RTVSPost2010PropOp39
 70
     0
102
RTVSPost2010Prop40
 90
        0
102
RTVSPost2010PropOp40
 70
     0
102
RTVSPost2010Prop41ColorIndex
 90
       18
102
RTVSPost2010Prop41ColorRGB
 90
        0
102
RTVSPost2010PropOp41
 70
     0
102
RTVSPost2010Prop42
 90
       50
102
RTVSPost2010PropOp42
 70
     0
102
RTVSPost2010Prop43
 90
        3
102
RTVSPost2010PropOp43
 70
     0
102
RTVSPost2010Prop44ColorIndex
 90
        5
102
RTVSPost2010Prop44ColorRGB
 90
      255
102
RTVSPost2010PropOp44
 70
     0
102
RTVSPost2010Prop45
280
     0
102
RTVSPost2010PropOp45
 70
     1
102
RTVSPost2010Prop46
 90
       50
102
RTVSPost2010PropOp46
 70
     0
102
RTVSPost2010Prop47
 90
       50
102
RTVSPost2010PropOp47
 70
     0
102
RTVSPost2010Prop48
 90
       50
102
RTVSPost2010PropOp48
 70
     0
102
RTVSPost2010Prop49
280
     0
102
RTVSPost2010PropOp49
 70
     1
102
RTVSPost2010Prop50
 90
       50
102
RTVSPost2010PropOp50
 70
     0
102
RTVSPost2010Prop51ColorIndex
 90
      256
102
RTVSPost2010Prop51ColorRGB
 90
-16777216
102
RTVSPost2010PropOp51
 70
     0
102
RTVSPost2010Prop52
140
1.0
102
RTVSPost2010PropOp52
 70
     0
102
RTVSPost2010Prop53
 90
        2
102
RTVSPost2010PropOp53
 70
     0
102
RTVSPost2010Prop54
  1
strokes_ogs.tif
102
RTVSPost2010PropOp54
 70
     0
102
RTVSPost2010Prop55
280
     0
102
RTVSPost2010PropOp55
 70
     1
102
RTVSPost2010Prop56
140
1.0
102
RTVSPost2010PropOp56
 70
     0
102
RTVSPost2010Prop57
140
1.0
102
RTVSPost2010PropOp57
 70
     0
102
RTVSPropertyOp0
 70
     0
102
RTVSPropertyOp1
 70
     0
102
RTVSPropertyOp2
 70
     0
102
RTVSPropertyOp3
 70
     0
102
RTVSPropertyOp4
 70
     0
102
RTVSPropertyOp5
 70
     0
102
RTVSPropertyOp6
 70
     0
102
RTVSPropertyOp7
 70
     0
102
RTVSPropertyOp8
 70
     0
102
RTVSPropertyOp9
 70
     0
102
RTVSPropertyOp10
 70
     0
102
RTVSPropertyOp11
 70
     0
102
RTVSPropertyOp12
 70
     0
102
RTVSPropertyOp13
 70
     0
102
RTVSPropertyOp14
 70
     2
102
RTVSPropertyOp15
 70
     0
102
RTVSPropertyOp16
 70
     0
102
RTVSPropertyOp17
 70
     0
102
RTVSPropertyOp18
 70
     0
102
RTVSPropertyOp19
 70
     0
102
RTVSPropertyOp20
 70
     0
102
RTVSPropertyOp21
 70
     0
102
RTVSPropertyOp22
 70
     0
102
RTVSPropertyOp23
 70
     0
102
RTVSPropertyOp24
 70
     0
102
RTVSPropertyOp25
 70
     0
102
RTVSPropertyOp26
 70
     0
102
RTVSPropertyOp27
 70
     0
102
RTVSPropertyOp28
 70
     1
102
RTVSPropertyOp29
 70
     1
102
RTVSPropertyOp30
 70
     1
102
RTVSPropertyOp31
 70
     1
102
RTVSPropertyOp32
 70
     1
102
RTVSPropertyOp33
 70
     1
102
RTVSPropertyOp34
 70
     1
102
RTVSPropertyOp35
 70
     1
102
RTVSPropertyOp36
 70
     1
102
RTVSPropertyOp37
 70
     0
102
RTVSPropertyOp38
 70
     0
102
RTVSPropertyOp39
 70
     0
102
RTVSPropertyOp40
 70
     0
102
RTVSPropertyOp41
 70
     0
102
RTVSPropertyOp42
 70
     0
102
RTVSPropertyOp43
 70
     0
102
RTVSPropertyOp44
 70
     0
102
RTVSPropertyOp45
 70
     1
102
RTVSPropertyOp46
 70
     0
102
RTVSPropertyOp47
 70
     0
102
RTVSPropertyOp48
 70
     0
102
RTVSPropertyOp49
 70
     1
102
RTVSPropertyOp50
 70
     0
102
RTVSPropertyOp51
 70
     0
102
RTVSPropertyOp52
 70
     0
102
RTVSPropertyOp53
 70
     0
102
RTVSPropertyOp54
 70
     0
102
RTVSPropertyOp55
 70
     1
102
RTVSPropertyOp56
 70
     0
102
RTVSPropertyOp57
 70
     0
102
RTVSPropertyOp58
 70
     0
102
RTVSPropertyOp59
 70
     0
102
RTVSPropertyOp60
 70
     0
102
RTVSPropertyOp61
 70
     0
102
RTVSPropertyOp62
 70
     0
  0
XRECORD
  5
734
102
{ACAD_REACTORS
330
733
102
}
330
733
100
AcDbXrecord
280
     1
102
RTVSPost2010Prop28
280
     0
102
RTVSPost2010PropOp28
 70
     1
102
RTVSPost2010Prop29
280
     1
102
RTVSPost2010PropOp29
 70
     1
102
RTVSPost2010Prop30
280
     1
102
RTVSPost2010PropOp30
 70
     1
102
RTVSPost2010Prop31
280
     0
102
RTVSPost2010PropOp31
 70
     1
102
RTVSPost2010Prop32
280
     0
102
RTVSPost2010PropOp32
 70
     1
102
RTVSPost2010Prop33
280
     0
102
RTVSPost2010PropOp33
 70
     1
102
RTVSPost2010Prop34
280
     0
102
RTVSPost2010PropOp34
 70
     1
102
RTVSPost2010Prop35
280
     0
102
RTVSPost2010PropOp35
 70
     1
102
RTVSPost2010Prop36
280
     0
102
RTVSPost2010PropOp36
 70
     1
102
RTVSPost2010Prop37
 90
       50
102
RTVSPost2010PropOp37
 70
     1
102
RTVSPost2010Prop38
140
0.0
102
RTVSPost2010PropOp38
 70
     1
102
RTVSPost2010Prop39
140
1.0
102
RTVSPost2010PropOp39
 70
     1
102
RTVSPost2010Prop40
 90
        0
102
RTVSPost2010PropOp40
 70
     1
102
RTVSPost2010Prop41ColorIndex
 90
       18
102
RTVSPost2010Prop41ColorRGB
 90
        0
102
RTVSPost2010PropOp41
 70
     1
102
RTVSPost2010Prop42
 90
       50
102
RTVSPost2010PropOp42
 70
     1
102
RTVSPost2010Prop43
 90
        3
102
RTVSPost2010PropOp43
 70
     1
102
RTVSPost2010Prop44ColorIndex
 90
        5
102
RTVSPost2010Prop44ColorRGB
 90
      255
102
RTVSPost2010PropOp44
 70
     1
102
RTVSPost2010Prop45
280
     0
102
RTVSPost2010PropOp45
 70
     1
102
RTVSPost2010Prop46
 90
       50
102
RTVSPost2010PropOp46
 70
     1
102
RTVSPost2010Prop47
 90
       50
102
RTVSPost2010PropOp47
 70
     1
102
RTVSPost2010Prop48
 90
       50
102
RTVSPost2010PropOp48
 70
     1
102
RTVSPost2010Prop49
280
     0
102
RTVSPost2010PropOp49
 70
     1
102
RTVSPost2010Prop50
 90
       50
102
RTVSPost2010PropOp50
 70
     1
102
RTVSPost2010Prop51ColorIndex
 90
      256
102
RTVSPost2010Prop51ColorRGB
 90
-16777216
102
RTVSPost2010PropOp51
 70
     0
102
RTVSPost2010Prop52
140
1.0
102
RTVSPost2010PropOp52
 70
     0
102
RTVSPost2010Prop53
 90
        2
102
RTVSPost2010PropOp53
 70
     1
102
RTVSPost2010Prop54
  1
strokes_ogs.tif
102
RTVSPost2010PropOp54
 70
     1
102
RTVSPost2010Prop55
280
     0
102
RTVSPost2010PropOp55
 70
     1
102
RTVSPost2010Prop56
140
1.0
102
RTVSPost2010PropOp56
 70
     1
102
RTVSPost2010Prop57
140
1.0
102
RTVSPost2010PropOp57
 70
     1
102
RTVSPropertyOp0
 70
     1
102
RTVSPropertyOp1
 70
     1
102
RTVSPropertyOp2
 70
     1
102
RTVSPropertyOp3
 70
     1
102
RTVSPropertyOp4
 70
     1
102
RTVSPropertyOp5
 70
     1
102
RTVSPropertyOp6
 70
     1
102
RTVSPropertyOp7
 70
     1
102
RTVSPropertyOp8
 70
     1
102
RTVSPropertyOp9
 70
     1
102
RTVSPropertyOp10
 70
     1
102
RTVSPropertyOp11
 70
     1
102
RTVSPropertyOp12
 70
     1
102
RTVSPropertyOp13
 70
     1
102
RTVSPropertyOp14
 70
     1
102
RTVSPropertyOp15
 70
     1
102
RTVSPropertyOp16
 70
     1
102
RTVSPropertyOp17
 70
     1
102
RTVSPropertyOp18
 70
     1
102
RTVSPropertyOp19
 70
     1
102
RTVSPropertyOp20
 70
     1
102
RTVSPropertyOp21
 70
     1
102
RTVSPropertyOp22
 70
     1
102
RTVSPropertyOp23
 70
     1
102
RTVSPropertyOp24
 70
     1
102
RTVSPropertyOp25
 70
     1
102
RTVSPropertyOp26
 70
     1
102
RTVSPropertyOp27
 70
     1
102
RTVSPropertyOp28
 70
     1
102
RTVSPropertyOp29
 70
     1
102
RTVSPropertyOp30
 70
     1
102
RTVSPropertyOp31
 70
     1
102
RTVSPropertyOp32
 70
     1
102
RTVSPropertyOp33
 70
     1
102
RTVSPropertyOp34
 70
     1
102
RTVSPropertyOp35
 70
     1
102
RTVSPropertyOp36
 70
     1
102
RTVSPropertyOp37
 70
     1
102
RTVSPropertyOp38
 70
     1
102
RTVSPropertyOp39
 70
     1
102
RTVSPropertyOp40
 70
     1
102
RTVSPropertyOp41
 70
     1
102
RTVSPropertyOp42
 70
     1
102
RTVSPropertyOp43
 70
     1
102
RTVSPropertyOp44
 70
     1
102
RTVSPropertyOp45
 70
     1
102
RTVSPropertyOp46
 70
     1
102
RTVSPropertyOp47
 70
     1
102
RTVSPropertyOp48
 70
     1
102
RTVSPropertyOp49
 70
     1
102
RTVSPropertyOp50
 70
     1
102
RTVSPropertyOp51
 70
     0
102
RTVSPropertyOp52
 70
     0
102
RTVSPropertyOp53
 70
     1
102
RTVSPropertyOp54
 70
     1
102
RTVSPropertyOp55
 70
     1
102
RTVSPropertyOp56
 70
     1
102
RTVSPropertyOp57
 70
     1
102
RTVSPropertyOp58
 70
     1
102
RTVSPropertyOp59
 70
     1
102
RTVSPropertyOp60
 70
     1
102
RTVSPropertyOp61
 70
     1
102
RTVSPropertyOp62
 70
     1
  0
XRECORD
  5
746
102
{ACAD_REACTORS
330
745
102
}
330
745
100
AcDbXrecord
280
     1
102
RTVSPost2010Prop28
280
     0
102
RTVSPost2010PropOp28
 70
     1
102
RTVSPost2010Prop29
280
     1
102
RTVSPost2010PropOp29
 70
     1
102
RTVSPost2010Prop30
280
     1
102
RTVSPost2010PropOp30
 70
     1
102
RTVSPost2010Prop31
280
     0
102
RTVSPost2010PropOp31
 70
     1
102
RTVSPost2010Prop32
280
     0
102
RTVSPost2010PropOp32
 70
     1
102
RTVSPost2010Prop33
280
     0
102
RTVSPost2010PropOp33
 70
     1
102
RTVSPost2010Prop34
280
     0
102
RTVSPost2010PropOp34
 70
     1
102
RTVSPost2010Prop35
280
     0
102
RTVSPost2010PropOp35
 70
     1
102
RTVSPost2010Prop36
280
     0
102
RTVSPost2010PropOp36
 70
     1
102
RTVSPost2010Prop37
 90
       50
102
RTVSPost2010PropOp37
 70
     0
102
RTVSPost2010Prop38
140
0.0
102
RTVSPost2010PropOp38
 70
     0
102
RTVSPost2010Prop39
140
1.0
102
RTVSPost2010PropOp39
 70
     0
102
RTVSPost2010Prop40
 90
        0
102
RTVSPost2010PropOp40
 70
     0
102
RTVSPost2010Prop41ColorIndex
 90
       18
102
RTVSPost2010Prop41ColorRGB
 90
        0
102
RTVSPost2010PropOp41
 70
     0
102
RTVSPost2010Prop42
 90
       50
102
RTVSPost2010PropOp42
 70
     0
102
RTVSPost2010Prop43
 90
        3
102
RTVSPost2010PropOp43
 70
     0
102
RTVSPost2010Prop44ColorIndex
 90
        5
102
RTVSPost2010Prop44ColorRGB
 90
      255
102
RTVSPost2010PropOp44
 70
     0
102
RTVSPost2010Prop45
280
     0
102
RTVSPost2010PropOp45
 70
     1
102
RTVSPost2010Prop46
 90
       50
102
RTVSPost2010PropOp46
 70
     0
102
RTVSPost2010Prop47
 90
       50
102
RTVSPost2010PropOp47
 70
     0
102
RTVSPost2010Prop48
 90
       50
102
RTVSPost2010PropOp48
 70
     0
102
RTVSPost2010Prop49
280
     0
102
RTVSPost2010PropOp49
 70
     1
102
RTVSPost2010Prop50
 90
       50
102
RTVSPost2010PropOp50
 70
     0
102
RTVSPost2010Prop51ColorIndex
 90
      256
102
RTVSPost2010Prop51ColorRGB
 90
-16777216
102
RTVSPost2010PropOp51
 70
     0
102
RTVSPost2010Prop52
140
1.0
102
RTVSPost2010PropOp52
 70
     0
102
RTVSPost2010Prop53
 90
        2
102
RTVSPost2010PropOp53
 70
     0
102
RTVSPost2010Prop54
  1
strokes_ogs.tif
102
RTVSPost2010PropOp54
 70
     0
102
RTVSPost2010Prop55
280
     0
102
RTVSPost2010PropOp55
 70
     1
102
RTVSPost2010Prop56
140
1.0
102
RTVSPost2010PropOp56
 70
     0
102
RTVSPost2010Prop57
140
1.0
102
RTVSPost2010PropOp57
 70
     0
102
RTVSPropertyOp0
 70
     0
102
RTVSPropertyOp1
 70
     0
102
RTVSPropertyOp2
 70
     0
102
RTVSPropertyOp3
 70
     0
102
RTVSPropertyOp4
 70
     0
102
RTVSPropertyOp5
 70
     0
102
RTVSPropertyOp6
 70
     0
102
RTVSPropertyOp7
 70
     0
102
RTVSPropertyOp8
 70
     0
102
RTVSPropertyOp9
 70
     0
102
RTVSPropertyOp10
 70
     0
102
RTVSPropertyOp11
 70
     0
102
RTVSPropertyOp12
 70
     0
102
RTVSPropertyOp13
 70
     0
102
RTVSPropertyOp14
 70
     2
102
RTVSPropertyOp15
 70
     0
102
RTVSPropertyOp16
 70
     0
102
RTVSPropertyOp17
 70
     0
102
RTVSPropertyOp18
 70
     0
102
RTVSPropertyOp19
 70
     0
102
RTVSPropertyOp20
 70
     0
102
RTVSPropertyOp21
 70
     0
102
RTVSPropertyOp22
 70
     0
102
RTVSPropertyOp23
 70
     0
102
RTVSPropertyOp24
 70
     0
102
RTVSPropertyOp25
 70
     0
102
RTVSPropertyOp26
 70
     0
102
RTVSPropertyOp27
 70
     0
102
RTVSPropertyOp28
 70
     1
102
RTVSPropertyOp29
 70
     1
102
RTVSPropertyOp30
 70
     1
102
RTVSPropertyOp31
 70
     1
102
RTVSPropertyOp32
 70
     1
102
RTVSPropertyOp33
 70
     1
102
RTVSPropertyOp34
 70
     1
102
RTVSPropertyOp35
 70
     1
102
RTVSPropertyOp36
 70
     1
102
RTVSPropertyOp37
 70
     0
102
RTVSPropertyOp38
 70
     0
102
RTVSPropertyOp39
 70
     0
102
RTVSPropertyOp40
 70
     0
102
RTVSPropertyOp41
 70
     0
102
RTVSPropertyOp42
 70
     0
102
RTVSPropertyOp43
 70
     0
102
RTVSPropertyOp44
 70
     0
102
RTVSPropertyOp45
 70
     1
102
RTVSPropertyOp46
 70
     0
102
RTVSPropertyOp47
 70
     0
102
RTVSPropertyOp48
 70
     0
102
RTVSPropertyOp49
 70
     1
102
RTVSPropertyOp50
 70
     0
102
RTVSPropertyOp51
 70
     0
102
RTVSPropertyOp52
 70
     0
102
RTVSPropertyOp53
 70
     0
102
RTVSPropertyOp54
 70
     0
102
RTVSPropertyOp55
 70
     1
102
RTVSPropertyOp56
 70
     0
102
RTVSPropertyOp57
 70
     0
102
RTVSPropertyOp58
 70
     0
102
RTVSPropertyOp59
 70
     0
102
RTVSPropertyOp60
 70
     0
102
RTVSPropertyOp61
 70
     0
102
RTVSPropertyOp62
 70
     0
  0
XRECORD
  5
72C
102
{ACAD_REACTORS
330
72B
102
}
330
72B
100
AcDbXrecord
280
     1
102
RTVSPost2010Prop28
280
     0
102
RTVSPost2010PropOp28
 70
     1
102
RTVSPost2010Prop29
280
     1
102
RTVSPost2010PropOp29
 70
     1
102
RTVSPost2010Prop30
280
     1
102
RTVSPost2010PropOp30
 70
     1
102
RTVSPost2010Prop31
280
     0
102
RTVSPost2010PropOp31
 70
     1
102
RTVSPost2010Prop32
280
     0
102
RTVSPost2010PropOp32
 70
     1
102
RTVSPost2010Prop33
280
     0
102
RTVSPost2010PropOp33
 70
     1
102
RTVSPost2010Prop34
280
     0
102
RTVSPost2010PropOp34
 70
     1
102
RTVSPost2010Prop35
280
     0
102
RTVSPost2010PropOp35
 70
     1
102
RTVSPost2010Prop36
280
     0
102
RTVSPost2010PropOp36
 70
     1
102
RTVSPost2010Prop37
 90
       50
102
RTVSPost2010PropOp37
 70
     1
102
RTVSPost2010Prop38
140
0.0
102
RTVSPost2010PropOp38
 70
     1
102
RTVSPost2010Prop39
140
1.0
102
RTVSPost2010PropOp39
 70
     1
102
RTVSPost2010Prop40
 90
        0
102
RTVSPost2010PropOp40
 70
     1
102
RTVSPost2010Prop41ColorIndex
 90
       18
102
RTVSPost2010Prop41ColorRGB
 90
        0
102
RTVSPost2010PropOp41
 70
     1
102
RTVSPost2010Prop42
 90
       50
102
RTVSPost2010PropOp42
 70
     1
102
RTVSPost2010Prop43
 90
        3
102
RTVSPost2010PropOp43
 70
     1
102
RTVSPost2010Prop44ColorIndex
 90
        5
102
RTVSPost2010Prop44ColorRGB
 90
      255
102
RTVSPost2010PropOp44
 70
     1
102
RTVSPost2010Prop45
280
     0
102
RTVSPost2010PropOp45
 70
     1
102
RTVSPost2010Prop46
 90
       50
102
RTVSPost2010PropOp46
 70
     1
102
RTVSPost2010Prop47
 90
       50
102
RTVSPost2010PropOp47
 70
     1
102
RTVSPost2010Prop48
 90
       50
102
RTVSPost2010PropOp48
 70
     1
102
RTVSPost2010Prop49
280
     0
102
RTVSPost2010PropOp49
 70
     1
102
RTVSPost2010Prop50
 90
       50
102
RTVSPost2010PropOp50
 70
     1
102
RTVSPost2010Prop51ColorIndex
 90
      256
102
RTVSPost2010Prop51ColorRGB
 90
-16777216
102
RTVSPost2010PropOp51
 70
     0
102
RTVSPost2010Prop52
140
1.0
102
RTVSPost2010PropOp52
 70
     0
102
RTVSPost2010Prop53
 90
        2
102
RTVSPost2010PropOp53
 70
     1
102
RTVSPost2010Prop54
  1
strokes_ogs.tif
102
RTVSPost2010PropOp54
 70
     1
102
RTVSPost2010Prop55
280
     0
102
RTVSPost2010PropOp55
 70
     1
102
RTVSPost2010Prop56
140
1.0
102
RTVSPost2010PropOp56
 70
     1
102
RTVSPost2010Prop57
140
1.0
102
RTVSPost2010PropOp57
 70
     1
102
RTVSPropertyOp0
 70
     1
102
RTVSPropertyOp1
 70
     1
102
RTVSPropertyOp2
 70
     1
102
RTVSPropertyOp3
 70
     1
102
RTVSPropertyOp4
 70
     1
102
RTVSPropertyOp5
 70
     1
102
RTVSPropertyOp6
 70
     1
102
RTVSPropertyOp7
 70
     1
102
RTVSPropertyOp8
 70
     1
102
RTVSPropertyOp9
 70
     1
102
RTVSPropertyOp10
 70
     1
102
RTVSPropertyOp11
 70
     1
102
RTVSPropertyOp12
 70
     1
102
RTVSPropertyOp13
 70
     1
102
RTVSPropertyOp14
 70
     1
102
RTVSPropertyOp15
 70
     1
102
RTVSPropertyOp16
 70
     1
102
RTVSPropertyOp17
 70
     1
102
RTVSPropertyOp18
 70
     1
102
RTVSPropertyOp19
 70
     1
102
RTVSPropertyOp20
 70
     1
102
RTVSPropertyOp21
 70
     1
102
RTVSPropertyOp22
 70
     1
102
RTVSPropertyOp23
 70
     1
102
RTVSPropertyOp24
 70
     1
102
RTVSPropertyOp25
 70
     1
102
RTVSPropertyOp26
 70
     1
102
RTVSPropertyOp27
 70
     1
102
RTVSPropertyOp28
 70
     1
102
RTVSPropertyOp29
 70
     1
102
RTVSPropertyOp30
 70
     1
102
RTVSPropertyOp31
 70
     1
102
RTVSPropertyOp32
 70
     1
102
RTVSPropertyOp33
 70
     1
102
RTVSPropertyOp34
 70
     1
102
RTVSPropertyOp35
 70
     1
102
RTVSPropertyOp36
 70
     1
102
RTVSPropertyOp37
 70
     1
102
RTVSPropertyOp38
 70
     1
102
RTVSPropertyOp39
 70
     1
102
RTVSPropertyOp40
 70
     1
102
RTVSPropertyOp41
 70
     1
102
RTVSPropertyOp42
 70
     1
102
RTVSPropertyOp43
 70
     1
102
RTVSPropertyOp44
 70
     1
102
RTVSPropertyOp45
 70
     1
102
RTVSPropertyOp46
 70
     1
102
RTVSPropertyOp47
 70
     1
102
RTVSPropertyOp48
 70
     1
102
RTVSPropertyOp49
 70
     1
102
RTVSPropertyOp50
 70
     1
102
RTVSPropertyOp51
 70
     0
102
RTVSPropertyOp52
 70
     0
102
RTVSPropertyOp53
 70
     1
102
RTVSPropertyOp54
 70
     1
102
RTVSPropertyOp55
 70
     1
102
RTVSPropertyOp56
 70
     1
102
RTVSPropertyOp57
 70
     1
102
RTVSPropertyOp58
 70
     1
102
RTVSPropertyOp59
 70
     1
102
RTVSPropertyOp60
 70
     1
102
RTVSPropertyOp61
 70
     1
102
RTVSPropertyOp62
 70
     1
  0
XRECORD
  5
742
102
{ACAD_REACTORS
330
741
102
}
330
741
100
AcDbXrecord
280
     1
102
RTVSPost2010Prop28
280
     0
102
RTVSPost2010PropOp28
 70
     1
102
RTVSPost2010Prop29
280
     1
102
RTVSPost2010PropOp29
 70
     1
102
RTVSPost2010Prop30
280
     1
102
RTVSPost2010PropOp30
 70
     1
102
RTVSPost2010Prop31
280
     0
102
RTVSPost2010PropOp31
 70
     1
102
RTVSPost2010Prop32
280
     0
102
RTVSPost2010PropOp32
 70
     1
102
RTVSPost2010Prop33
280
     0
102
RTVSPost2010PropOp33
 70
     1
102
RTVSPost2010Prop34
280
     0
102
RTVSPost2010PropOp34
 70
     1
102
RTVSPost2010Prop35
280
     0
102
RTVSPost2010PropOp35
 70
     1
102
RTVSPost2010Prop36
280
     0
102
RTVSPost2010PropOp36
 70
     1
102
RTVSPost2010Prop37
 90
       50
102
RTVSPost2010PropOp37
 70
     1
102
RTVSPost2010Prop38
140
0.0
102
RTVSPost2010PropOp38
 70
     1
102
RTVSPost2010Prop39
140
1.0
102
RTVSPost2010PropOp39
 70
     1
102
RTVSPost2010Prop40
 90
        0
102
RTVSPost2010PropOp40
 70
     1
102
RTVSPost2010Prop41ColorIndex
 90
       18
102
RTVSPost2010Prop41ColorRGB
 90
        0
102
RTVSPost2010PropOp41
 70
     1
102
RTVSPost2010Prop42
 90
       50
102
RTVSPost2010PropOp42
 70
     1
102
RTVSPost2010Prop43
 90
        3
102
RTVSPost2010PropOp43
 70
     1
102
RTVSPost2010Prop44ColorIndex
 90
        5
102
RTVSPost2010Prop44ColorRGB
 90
      255
102
RTVSPost2010PropOp44
 70
     1
102
RTVSPost2010Prop45
280
     0
102
RTVSPost2010PropOp45
 70
     1
102
RTVSPost2010Prop46
 90
       50
102
RTVSPost2010PropOp46
 70
     1
102
RTVSPost2010Prop47
 90
       50
102
RTVSPost2010PropOp47
 70
     1
102
RTVSPost2010Prop48
 90
       50
102
RTVSPost2010PropOp48
 70
     1
102
RTVSPost2010Prop49
280
     0
102
RTVSPost2010PropOp49
 70
     1
102
RTVSPost2010Prop50
 90
       50
102
RTVSPost2010PropOp50
 70
     1
102
RTVSPost2010Prop51ColorIndex
 90
      256
102
RTVSPost2010Prop51ColorRGB
 90
-16777216
102
RTVSPost2010PropOp51
 70
     0
102
RTVSPost2010Prop52
140
1.0
102
RTVSPost2010PropOp52
 70
     0
102
RTVSPost2010Prop53
 90
        2
102
RTVSPost2010PropOp53
 70
     1
102
RTVSPost2010Prop54
  1
strokes_ogs.tif
102
RTVSPost2010PropOp54
 70
     1
102
RTVSPost2010Prop55
280
     0
102
RTVSPost2010PropOp55
 70
     1
102
RTVSPost2010Prop56
140
1.0
102
RTVSPost2010PropOp56
 70
     1
102
RTVSPost2010Prop57
140
1.0
102
RTVSPost2010PropOp57
 70
     1
102
RTVSPropertyOp0
 70
     1
102
RTVSPropertyOp1
 70
     1
102
RTVSPropertyOp2
 70
     1
102
RTVSPropertyOp3
 70
     1
102
RTVSPropertyOp4
 70
     1
102
RTVSPropertyOp5
 70
     1
102
RTVSPropertyOp6
 70
     1
102
RTVSPropertyOp7
 70
     1
102
RTVSPropertyOp8
 70
     1
102
RTVSPropertyOp9
 70
     1
102
RTVSPropertyOp10
 70
     1
102
RTVSPropertyOp11
 70
     1
102
RTVSPropertyOp12
 70
     1
102
RTVSPropertyOp13
 70
     1
102
RTVSPropertyOp14
 70
     1
102
RTVSPropertyOp15
 70
     1
102
RTVSPropertyOp16
 70
     1
102
RTVSPropertyOp17
 70
     1
102
RTVSPropertyOp18
 70
     1
102
RTVSPropertyOp19
 70
     1
102
RTVSPropertyOp20
 70
     1
102
RTVSPropertyOp21
 70
     1
102
RTVSPropertyOp22
 70
     1
102
RTVSPropertyOp23
 70
     1
102
RTVSPropertyOp24
 70
     1
102
RTVSPropertyOp25
 70
     1
102
RTVSPropertyOp26
 70
     1
102
RTVSPropertyOp27
 70
     1
102
RTVSPropertyOp28
 70
     1
102
RTVSPropertyOp29
 70
     1
102
RTVSPropertyOp30
 70
     1
102
RTVSPropertyOp31
 70
     1
102
RTVSPropertyOp32
 70
     1
102
RTVSPropertyOp33
 70
     1
102
RTVSPropertyOp34
 70
     1
102
RTVSPropertyOp35
 70
     1
102
RTVSPropertyOp36
 70
     1
102
RTVSPropertyOp37
 70
     1
102
RTVSPropertyOp38
 70
     1
102
RTVSPropertyOp39
 70
     1
102
RTVSPropertyOp40
 70
     1
102
RTVSPropertyOp41
 70
     1
102
RTVSPropertyOp42
 70
     1
102
RTVSPropertyOp43
 70
     1
102
RTVSPropertyOp44
 70
     1
102
RTVSPropertyOp45
 70
     1
102
RTVSPropertyOp46
 70
     1
102
RTVSPropertyOp47
 70
     1
102
RTVSPropertyOp48
 70
     1
102
RTVSPropertyOp49
 70
     1
102
RTVSPropertyOp50
 70
     1
102
RTVSPropertyOp51
 70
     0
102
RTVSPropertyOp52
 70
     0
102
RTVSPropertyOp53
 70
     1
102
RTVSPropertyOp54
 70
     1
102
RTVSPropertyOp55
 70
     1
102
RTVSPropertyOp56
 70
     1
102
RTVSPropertyOp57
 70
     1
102
RTVSPropertyOp58
 70
     1
102
RTVSPropertyOp59
 70
     1
102
RTVSPropertyOp60
 70
     1
102
RTVSPropertyOp61
 70
     1
102
RTVSPropertyOp62
 70
     1
  0
XRECORD
  5
740
102
{ACAD_REACTORS
330
73F
102
}
330
73F
100
AcDbXrecord
280
     1
102
RTVSPost2010Prop28
280
     0
102
RTVSPost2010PropOp28
 70
     1
102
RTVSPost2010Prop29
280
     1
102
RTVSPost2010PropOp29
 70
     1
102
RTVSPost2010Prop30
280
     1
102
RTVSPost2010PropOp30
 70
     1
102
RTVSPost2010Prop31
280
     0
102
RTVSPost2010PropOp31
 70
     1
102
RTVSPost2010Prop32
280
     0
102
RTVSPost2010PropOp32
 70
     1
102
RTVSPost2010Prop33
280
     0
102
RTVSPost2010PropOp33
 70
     1
102
RTVSPost2010Prop34
280
     0
102
RTVSPost2010PropOp34
 70
     1
102
RTVSPost2010Prop35
280
     0
102
RTVSPost2010PropOp35
 70
     1
102
RTVSPost2010Prop36
280
     0
102
RTVSPost2010PropOp36
 70
     1
102
RTVSPost2010Prop37
 90
       50
102
RTVSPost2010PropOp37
 70
     1
102
RTVSPost2010Prop38
140
0.0
102
RTVSPost2010PropOp38
 70
     1
102
RTVSPost2010Prop39
140
1.0
102
RTVSPost2010PropOp39
 70
     1
102
RTVSPost2010Prop40
 90
        0
102
RTVSPost2010PropOp40
 70
     1
102
RTVSPost2010Prop41ColorIndex
 90
       18
102
RTVSPost2010Prop41ColorRGB
 90
        0
102
RTVSPost2010PropOp41
 70
     1
102
RTVSPost2010Prop42
 90
       50
102
RTVSPost2010PropOp42
 70
     1
102
RTVSPost2010Prop43
 90
        3
102
RTVSPost2010PropOp43
 70
     1
102
RTVSPost2010Prop44ColorIndex
 90
        5
102
RTVSPost2010Prop44ColorRGB
 90
      255
102
RTVSPost2010PropOp44
 70
     1
102
RTVSPost2010Prop45
280
     0
102
RTVSPost2010PropOp45
 70
     1
102
RTVSPost2010Prop46
 90
       50
102
RTVSPost2010PropOp46
 70
     1
102
RTVSPost2010Prop47
 90
       50
102
RTVSPost2010PropOp47
 70
     1
102
RTVSPost2010Prop48
 90
       50
102
RTVSPost2010PropOp48
 70
     1
102
RTVSPost2010Prop49
280
     0
102
RTVSPost2010PropOp49
 70
     1
102
RTVSPost2010Prop50
 90
       50
102
RTVSPost2010PropOp50
 70
     1
102
RTVSPost2010Prop51ColorIndex
 90
      256
102
RTVSPost2010Prop51ColorRGB
 90
-16777216
102
RTVSPost2010PropOp51
 70
     0
102
RTVSPost2010Prop52
140
1.0
102
RTVSPost2010PropOp52
 70
     0
102
RTVSPost2010Prop53
 90
        2
102
RTVSPost2010PropOp53
 70
     1
102
RTVSPost2010Prop54
  1
strokes_ogs.tif
102
RTVSPost2010PropOp54
 70
     1
102
RTVSPost2010Prop55
280
     0
102
RTVSPost2010PropOp55
 70
     1
102
RTVSPost2010Prop56
140
1.0
102
RTVSPost2010PropOp56
 70
     1
102
RTVSPost2010Prop57
140
1.0
102
RTVSPost2010PropOp57
 70
     1
102
RTVSPropertyOp0
 70
     1
102
RTVSPropertyOp1
 70
     1
102
RTVSPropertyOp2
 70
     1
102
RTVSPropertyOp3
 70
     1
102
RTVSPropertyOp4
 70
     1
102
RTVSPropertyOp5
 70
     1
102
RTVSPropertyOp6
 70
     1
102
RTVSPropertyOp7
 70
     1
102
RTVSPropertyOp8
 70
     1
102
RTVSPropertyOp9
 70
     1
102
RTVSPropertyOp10
 70
     1
102
RTVSPropertyOp11
 70
     1
102
RTVSPropertyOp12
 70
     1
102
RTVSPropertyOp13
 70
     1
102
RTVSPropertyOp14
 70
     1
102
RTVSPropertyOp15
 70
     1
102
RTVSPropertyOp16
 70
     1
102
RTVSPropertyOp17
 70
     1
102
RTVSPropertyOp18
 70
     1
102
RTVSPropertyOp19
 70
     1
102
RTVSPropertyOp20
 70
     1
102
RTVSPropertyOp21
 70
     1
102
RTVSPropertyOp22
 70
     1
102
RTVSPropertyOp23
 70
     1
102
RTVSPropertyOp24
 70
     1
102
RTVSPropertyOp25
 70
     1
102
RTVSPropertyOp26
 70
     1
102
RTVSPropertyOp27
 70
     1
102
RTVSPropertyOp28
 70
     1
102
RTVSPropertyOp29
 70
     1
102
RTVSPropertyOp30
 70
     1
102
RTVSPropertyOp31
 70
     1
102
RTVSPropertyOp32
 70
     1
102
RTVSPropertyOp33
 70
     1
102
RTVSPropertyOp34
 70
     1
102
RTVSPropertyOp35
 70
     1
102
RTVSPropertyOp36
 70
     1
102
RTVSPropertyOp37
 70
     1
102
RTVSPropertyOp38
 70
     1
102
RTVSPropertyOp39
 70
     1
102
RTVSPropertyOp40
 70
     1
102
RTVSPropertyOp41
 70
     1
102
RTVSPropertyOp42
 70
     1
102
RTVSPropertyOp43
 70
     1
102
RTVSPropertyOp44
 70
     1
102
RTVSPropertyOp45
 70
     1
102
RTVSPropertyOp46
 70
     1
102
RTVSPropertyOp47
 70
     1
102
RTVSPropertyOp48
 70
     1
102
RTVSPropertyOp49
 70
     1
102
RTVSPropertyOp50
 70
     1
102
RTVSPropertyOp51
 70
     0
102
RTVSPropertyOp52
 70
     0
102
RTVSPropertyOp53
 70
     1
102
RTVSPropertyOp54
 70
     1
102
RTVSPropertyOp55
 70
     1
102
RTVSPropertyOp56
 70
     1
102
RTVSPropertyOp57
 70
     1
102
RTVSPropertyOp58
 70
     1
102
RTVSPropertyOp59
 70
     1
102
RTVSPropertyOp60
 70
     1
102
RTVSPropertyOp61
 70
     1
102
RTVSPropertyOp62
 70
     1
  0
XRECORD
  5
73A
102
{ACAD_REACTORS
330
739
102
}
330
739
100
AcDbXrecord
280
     1
102
RTVSPost2010Prop28
280
     0
102
RTVSPost2010PropOp28
 70
     1
102
RTVSPost2010Prop29
280
     1
102
RTVSPost2010PropOp29
 70
     1
102
RTVSPost2010Prop30
280
     1
102
RTVSPost2010PropOp30
 70
     1
102
RTVSPost2010Prop31
280
     0
102
RTVSPost2010PropOp31
 70
     1
102
RTVSPost2010Prop32
280
     0
102
RTVSPost2010PropOp32
 70
     1
102
RTVSPost2010Prop33
280
     0
102
RTVSPost2010PropOp33
 70
     1
102
RTVSPost2010Prop34
280
     0
102
RTVSPost2010PropOp34
 70
     1
102
RTVSPost2010Prop35
280
     0
102
RTVSPost2010PropOp35
 70
     1
102
RTVSPost2010Prop36
280
     0
102
RTVSPost2010PropOp36
 70
     1
102
RTVSPost2010Prop37
 90
       50
102
RTVSPost2010PropOp37
 70
     1
102
RTVSPost2010Prop38
140
0.0
102
RTVSPost2010PropOp38
 70
     1
102
RTVSPost2010Prop39
140
1.0
102
RTVSPost2010PropOp39
 70
     1
102
RTVSPost2010Prop40
 90
        0
102
RTVSPost2010PropOp40
 70
     1
102
RTVSPost2010Prop41ColorIndex
 90
       18
102
RTVSPost2010Prop41ColorRGB
 90
        0
102
RTVSPost2010PropOp41
 70
     1
102
RTVSPost2010Prop42
 90
       50
102
RTVSPost2010PropOp42
 70
     1
102
RTVSPost2010Prop43
 90
        3
102
RTVSPost2010PropOp43
 70
     1
102
RTVSPost2010Prop44ColorIndex
 90
        5
102
RTVSPost2010Prop44ColorRGB
 90
      255
102
RTVSPost2010PropOp44
 70
     1
102
RTVSPost2010Prop45
280
     0
102
RTVSPost2010PropOp45
 70
     1
102
RTVSPost2010Prop46
 90
       50
102
RTVSPost2010PropOp46
 70
     1
102
RTVSPost2010Prop47
 90
       50
102
RTVSPost2010PropOp47
 70
     1
102
RTVSPost2010Prop48
 90
       50
102
RTVSPost2010PropOp48
 70
     1
102
RTVSPost2010Prop49
280
     0
102
RTVSPost2010PropOp49
 70
     1
102
RTVSPost2010Prop50
 90
       50
102
RTVSPost2010PropOp50
 70
     1
102
RTVSPost2010Prop51ColorIndex
 90
      256
102
RTVSPost2010Prop51ColorRGB
 90
-16777216
102
RTVSPost2010PropOp51
 70
     0
102
RTVSPost2010Prop52
140
1.0
102
RTVSPost2010PropOp52
 70
     0
102
RTVSPost2010Prop53
 90
        2
102
RTVSPost2010PropOp53
 70
     1
102
RTVSPost2010Prop54
  1
strokes_ogs.tif
102
RTVSPost2010PropOp54
 70
     1
102
RTVSPost2010Prop55
280
     0
102
RTVSPost2010PropOp55
 70
     1
102
RTVSPost2010Prop56
140
1.0
102
RTVSPost2010PropOp56
 70
     1
102
RTVSPost2010Prop57
140
1.0
102
RTVSPost2010PropOp57
 70
     1
102
RTVSPropertyOp0
 70
     1
102
RTVSPropertyOp1
 70
     1
102
RTVSPropertyOp2
 70
     1
102
RTVSPropertyOp3
 70
     1
102
RTVSPropertyOp4
 70
     1
102
RTVSPropertyOp5
 70
     1
102
RTVSPropertyOp6
 70
     1
102
RTVSPropertyOp7
 70
     1
102
RTVSPropertyOp8
 70
     1
102
RTVSPropertyOp9
 70
     1
102
RTVSPropertyOp10
 70
     1
102
RTVSPropertyOp11
 70
     1
102
RTVSPropertyOp12
 70
     1
102
RTVSPropertyOp13
 70
     1
102
RTVSPropertyOp14
 70
     1
102
RTVSPropertyOp15
 70
     1
102
RTVSPropertyOp16
 70
     1
102
RTVSPropertyOp17
 70
     1
102
RTVSPropertyOp18
 70
     1
102
RTVSPropertyOp19
 70
     1
102
RTVSPropertyOp20
 70
     1
102
RTVSPropertyOp21
 70
     1
102
RTVSPropertyOp22
 70
     1
102
RTVSPropertyOp23
 70
     1
102
RTVSPropertyOp24
 70
     1
102
RTVSPropertyOp25
 70
     1
102
RTVSPropertyOp26
 70
     1
102
RTVSPropertyOp27
 70
     1
102
RTVSPropertyOp28
 70
     1
102
RTVSPropertyOp29
 70
     1
102
RTVSPropertyOp30
 70
     1
102
RTVSPropertyOp31
 70
     1
102
RTVSPropertyOp32
 70
     1
102
RTVSPropertyOp33
 70
     1
102
RTVSPropertyOp34
 70
     1
102
RTVSPropertyOp35
 70
     1
102
RTVSPropertyOp36
 70
     1
102
RTVSPropertyOp37
 70
     1
102
RTVSPropertyOp38
 70
     1
102
RTVSPropertyOp39
 70
     1
102
RTVSPropertyOp40
 70
     1
102
RTVSPropertyOp41
 70
     1
102
RTVSPropertyOp42
 70
     1
102
RTVSPropertyOp43
 70
     1
102
RTVSPropertyOp44
 70
     1
102
RTVSPropertyOp45
 70
     1
102
RTVSPropertyOp46
 70
     1
102
RTVSPropertyOp47
 70
     1
102
RTVSPropertyOp48
 70
     1
102
RTVSPropertyOp49
 70
     1
102
RTVSPropertyOp50
 70
     1
102
RTVSPropertyOp51
 70
     0
102
RTVSPropertyOp52
 70
     0
102
RTVSPropertyOp53
 70
     1
102
RTVSPropertyOp54
 70
     1
102
RTVSPropertyOp55
 70
     1
102
RTVSPropertyOp56
 70
     1
102
RTVSPropertyOp57
 70
     1
102
RTVSPropertyOp58
 70
     1
102
RTVSPropertyOp59
 70
     1
102
RTVSPropertyOp60
 70
     1
102
RTVSPropertyOp61
 70
     1
102
RTVSPropertyOp62
 70
     1
  0
XRECORD
  5
73C
102
{ACAD_REACTORS
330
73B
102
}
330
73B
100
AcDbXrecord
280
     1
102
RTVSPost2010Prop28
280
     0
102
RTVSPost2010PropOp28
 70
     1
102
RTVSPost2010Prop29
280
     1
102
RTVSPost2010PropOp29
 70
     1
102
RTVSPost2010Prop30
280
     1
102
RTVSPost2010PropOp30
 70
     1
102
RTVSPost2010Prop31
280
     0
102
RTVSPost2010PropOp31
 70
     1
102
RTVSPost2010Prop32
280
     0
102
RTVSPost2010PropOp32
 70
     1
102
RTVSPost2010Prop33
280
     0
102
RTVSPost2010PropOp33
 70
     1
102
RTVSPost2010Prop34
280
     0
102
RTVSPost2010PropOp34
 70
     1
102
RTVSPost2010Prop35
280
     0
102
RTVSPost2010PropOp35
 70
     1
102
RTVSPost2010Prop36
280
     0
102
RTVSPost2010PropOp36
 70
     1
102
RTVSPost2010Prop37
 90
       50
102
RTVSPost2010PropOp37
 70
     1
102
RTVSPost2010Prop38
140
0.0
102
RTVSPost2010PropOp38
 70
     1
102
RTVSPost2010Prop39
140
1.0
102
RTVSPost2010PropOp39
 70
     1
102
RTVSPost2010Prop40
 90
        0
102
RTVSPost2010PropOp40
 70
     1
102
RTVSPost2010Prop41ColorIndex
 90
       18
102
RTVSPost2010Prop41ColorRGB
 90
        0
102
RTVSPost2010PropOp41
 70
     1
102
RTVSPost2010Prop42
 90
       50
102
RTVSPost2010PropOp42
 70
     1
102
RTVSPost2010Prop43
 90
        3
102
RTVSPost2010PropOp43
 70
     1
102
RTVSPost2010Prop44ColorIndex
 90
        5
102
RTVSPost2010Prop44ColorRGB
 90
      255
102
RTVSPost2010PropOp44
 70
     1
102
RTVSPost2010Prop45
280
     0
102
RTVSPost2010PropOp45
 70
     1
102
RTVSPost2010Prop46
 90
       50
102
RTVSPost2010PropOp46
 70
     1
102
RTVSPost2010Prop47
 90
       50
102
RTVSPost2010PropOp47
 70
     1
102
RTVSPost2010Prop48
 90
       50
102
RTVSPost2010PropOp48
 70
     1
102
RTVSPost2010Prop49
280
     0
102
RTVSPost2010PropOp49
 70
     1
102
RTVSPost2010Prop50
 90
       50
102
RTVSPost2010PropOp50
 70
     1
102
RTVSPost2010Prop51ColorIndex
 90
      256
102
RTVSPost2010Prop51ColorRGB
 90
-16777216
102
RTVSPost2010PropOp51
 70
     0
102
RTVSPost2010Prop52
140
1.0
102
RTVSPost2010PropOp52
 70
     0
102
RTVSPost2010Prop53
 90
        2
102
RTVSPost2010PropOp53
 70
     1
102
RTVSPost2010Prop54
  1
strokes_ogs.tif
102
RTVSPost2010PropOp54
 70
     1
102
RTVSPost2010Prop55
280
     0
102
RTVSPost2010PropOp55
 70
     1
102
RTVSPost2010Prop56
140
1.0
102
RTVSPost2010PropOp56
 70
     1
102
RTVSPost2010Prop57
140
1.0
102
RTVSPost2010PropOp57
 70
     1
102
RTVSPropertyOp0
 70
     1
102
RTVSPropertyOp1
 70
     1
102
RTVSPropertyOp2
 70
     1
102
RTVSPropertyOp3
 70
     1
102
RTVSPropertyOp4
 70
     1
102
RTVSPropertyOp5
 70
     1
102
RTVSPropertyOp6
 70
     1
102
RTVSPropertyOp7
 70
     1
102
RTVSPropertyOp8
 70
     1
102
RTVSPropertyOp9
 70
     1
102
RTVSPropertyOp10
 70
     1
102
RTVSPropertyOp11
 70
     1
102
RTVSPropertyOp12
 70
     1
102
RTVSPropertyOp13
 70
     1
102
RTVSPropertyOp14
 70
     1
102
RTVSPropertyOp15
 70
     1
102
RTVSPropertyOp16
 70
     1
102
RTVSPropertyOp17
 70
     1
102
RTVSPropertyOp18
 70
     1
102
RTVSPropertyOp19
 70
     1
102
RTVSPropertyOp20
 70
     1
102
RTVSPropertyOp21
 70
     1
102
RTVSPropertyOp22
 70
     1
102
RTVSPropertyOp23
 70
     1
102
RTVSPropertyOp24
 70
     1
102
RTVSPropertyOp25
 70
     1
102
RTVSPropertyOp26
 70
     1
102
RTVSPropertyOp27
 70
     1
102
RTVSPropertyOp28
 70
     1
102
RTVSPropertyOp29
 70
     1
102
RTVSPropertyOp30
 70
     1
102
RTVSPropertyOp31
 70
     1
102
RTVSPropertyOp32
 70
     1
102
RTVSPropertyOp33
 70
     1
102
RTVSPropertyOp34
 70
     1
102
RTVSPropertyOp35
 70
     1
102
RTVSPropertyOp36
 70
     1
102
RTVSPropertyOp37
 70
     1
102
RTVSPropertyOp38
 70
     1
102
RTVSPropertyOp39
 70
     1
102
RTVSPropertyOp40
 70
     1
102
RTVSPropertyOp41
 70
     1
102
RTVSPropertyOp42
 70
     1
102
RTVSPropertyOp43
 70
     1
102
RTVSPropertyOp44
 70
     1
102
RTVSPropertyOp45
 70
     1
102
RTVSPropertyOp46
 70
     1
102
RTVSPropertyOp47
 70
     1
102
RTVSPropertyOp48
 70
     1
102
RTVSPropertyOp49
 70
     1
102
RTVSPropertyOp50
 70
     1
102
RTVSPropertyOp51
 70
     0
102
RTVSPropertyOp52
 70
     0
102
RTVSPropertyOp53
 70
     1
102
RTVSPropertyOp54
 70
     1
102
RTVSPropertyOp55
 70
     1
102
RTVSPropertyOp56
 70
     1
102
RTVSPropertyOp57
 70
     1
102
RTVSPropertyOp58
 70
     1
102
RTVSPropertyOp59
 70
     1
102
RTVSPropertyOp60
 70
     1
102
RTVSPropertyOp61
 70
     1
102
RTVSPropertyOp62
 70
     1
  0
XRECORD
  5
732
102
{ACAD_REACTORS
330
731
102
}
330
731
100
AcDbXrecord
280
     1
102
RTVSPost2010Prop28
280
     0
102
RTVSPost2010PropOp28
 70
     1
102
RTVSPost2010Prop29
280
     1
102
RTVSPost2010PropOp29
 70
     1
102
RTVSPost2010Prop30
280
     1
102
RTVSPost2010PropOp30
 70
     1
102
RTVSPost2010Prop31
280
     0
102
RTVSPost2010PropOp31
 70
     1
102
RTVSPost2010Prop32
280
     0
102
RTVSPost2010PropOp32
 70
     1
102
RTVSPost2010Prop33
280
     0
102
RTVSPost2010PropOp33
 70
     1
102
RTVSPost2010Prop34
280
     0
102
RTVSPost2010PropOp34
 70
     1
102
RTVSPost2010Prop35
280
     0
102
RTVSPost2010PropOp35
 70
     1
102
RTVSPost2010Prop36
280
     0
102
RTVSPost2010PropOp36
 70
     1
102
RTVSPost2010Prop37
 90
       50
102
RTVSPost2010PropOp37
 70
     1
102
RTVSPost2010Prop38
140
0.0
102
RTVSPost2010PropOp38
 70
     1
102
RTVSPost2010Prop39
140
1.0
102
RTVSPost2010PropOp39
 70
     1
102
RTVSPost2010Prop40
 90
        0
102
RTVSPost2010PropOp40
 70
     1
102
RTVSPost2010Prop41ColorIndex
 90
       18
102
RTVSPost2010Prop41ColorRGB
 90
        0
102
RTVSPost2010PropOp41
 70
     1
102
RTVSPost2010Prop42
 90
       50
102
RTVSPost2010PropOp42
 70
     1
102
RTVSPost2010Prop43
 90
        3
102
RTVSPost2010PropOp43
 70
     1
102
RTVSPost2010Prop44ColorIndex
 90
        5
102
RTVSPost2010Prop44ColorRGB
 90
      255
102
RTVSPost2010PropOp44
 70
     1
102
RTVSPost2010Prop45
280
     0
102
RTVSPost2010PropOp45
 70
     1
102
RTVSPost2010Prop46
 90
       50
102
RTVSPost2010PropOp46
 70
     1
102
RTVSPost2010Prop47
 90
       50
102
RTVSPost2010PropOp47
 70
     1
102
RTVSPost2010Prop48
 90
       50
102
RTVSPost2010PropOp48
 70
     1
102
RTVSPost2010Prop49
280
     0
102
RTVSPost2010PropOp49
 70
     1
102
RTVSPost2010Prop50
 90
       50
102
RTVSPost2010PropOp50
 70
     1
102
RTVSPost2010Prop51ColorIndex
 90
      256
102
RTVSPost2010Prop51ColorRGB
 90
-16777216
102
RTVSPost2010PropOp51
 70
     0
102
RTVSPost2010Prop52
140
1.0
102
RTVSPost2010PropOp52
 70
     0
102
RTVSPost2010Prop53
 90
        2
102
RTVSPost2010PropOp53
 70
     1
102
RTVSPost2010Prop54
  1
strokes_ogs.tif
102
RTVSPost2010PropOp54
 70
     1
102
RTVSPost2010Prop55
280
     0
102
RTVSPost2010PropOp55
 70
     1
102
RTVSPost2010Prop56
140
1.0
102
RTVSPost2010PropOp56
 70
     1
102
RTVSPost2010Prop57
140
1.0
102
RTVSPost2010PropOp57
 70
     1
102
RTVSPropertyOp0
 70
     1
102
RTVSPropertyOp1
 70
     1
102
RTVSPropertyOp2
 70
     1
102
RTVSPropertyOp3
 70
     1
102
RTVSPropertyOp4
 70
     1
102
RTVSPropertyOp5
 70
     1
102
RTVSPropertyOp6
 70
     1
102
RTVSPropertyOp7
 70
     1
102
RTVSPropertyOp8
 70
     1
102
RTVSPropertyOp9
 70
     1
102
RTVSPropertyOp10
 70
     1
102
RTVSPropertyOp11
 70
     1
102
RTVSPropertyOp12
 70
     1
102
RTVSPropertyOp13
 70
     1
102
RTVSPropertyOp14
 70
     1
102
RTVSPropertyOp15
 70
     1
102
RTVSPropertyOp16
 70
     1
102
RTVSPropertyOp17
 70
     1
102
RTVSPropertyOp18
 70
     1
102
RTVSPropertyOp19
 70
     1
102
RTVSPropertyOp20
 70
     1
102
RTVSPropertyOp21
 70
     1
102
RTVSPropertyOp22
 70
     1
102
RTVSPropertyOp23
 70
     1
102
RTVSPropertyOp24
 70
     1
102
RTVSPropertyOp25
 70
     1
102
RTVSPropertyOp26
 70
     1
102
RTVSPropertyOp27
 70
     1
102
RTVSPropertyOp28
 70
     1
102
RTVSPropertyOp29
 70
     1
102
RTVSPropertyOp30
 70
     1
102
RTVSPropertyOp31
 70
     1
102
RTVSPropertyOp32
 70
     1
102
RTVSPropertyOp33
 70
     1
102
RTVSPropertyOp34
 70
     1
102
RTVSPropertyOp35
 70
     1
102
RTVSPropertyOp36
 70
     1
102
RTVSPropertyOp37
 70
     1
102
RTVSPropertyOp38
 70
     1
102
RTVSPropertyOp39
 70
     1
102
RTVSPropertyOp40
 70
     1
102
RTVSPropertyOp41
 70
     1
102
RTVSPropertyOp42
 70
     1
102
RTVSPropertyOp43
 70
     1
102
RTVSPropertyOp44
 70
     1
102
RTVSPropertyOp45
 70
     1
102
RTVSPropertyOp46
 70
     1
102
RTVSPropertyOp47
 70
     1
102
RTVSPropertyOp48
 70
     1
102
RTVSPropertyOp49
 70
     1
102
RTVSPropertyOp50
 70
     1
102
RTVSPropertyOp51
 70
     0
102
RTVSPropertyOp52
 70
     0
102
RTVSPropertyOp53
 70
     1
102
RTVSPropertyOp54
 70
     1
102
RTVSPropertyOp55
 70
     1
102
RTVSPropertyOp56
 70
     1
102
RTVSPropertyOp57
 70
     1
102
RTVSPropertyOp58
 70
     1
102
RTVSPropertyOp59
 70
     1
102
RTVSPropertyOp60
 70
     1
102
RTVSPropertyOp61
 70
     1
102
RTVSPropertyOp62
 70
     1
  0
XRECORD
  5
726
102
{ACAD_REACTORS
330
725
102
}
330
725
100
AcDbXrecord
280
     1
102
RTVSPost2010Prop28
280
     0
102
RTVSPost2010PropOp28
 70
     1
102
RTVSPost2010Prop29
280
     1
102
RTVSPost2010PropOp29
 70
     1
102
RTVSPost2010Prop30
280
     1
102
RTVSPost2010PropOp30
 70
     1
102
RTVSPost2010Prop31
280
     0
102
RTVSPost2010PropOp31
 70
     1
102
RTVSPost2010Prop32
280
     0
102
RTVSPost2010PropOp32
 70
     1
102
RTVSPost2010Prop33
280
     0
102
RTVSPost2010PropOp33
 70
     1
102
RTVSPost2010Prop34
280
     0
102
RTVSPost2010PropOp34
 70
     1
102
RTVSPost2010Prop35
280
     0
102
RTVSPost2010PropOp35
 70
     1
102
RTVSPost2010Prop36
280
     0
102
RTVSPost2010PropOp36
 70
     1
102
RTVSPost2010Prop37
 90
       50
102
RTVSPost2010PropOp37
 70
     1
102
RTVSPost2010Prop38
140
0.0
102
RTVSPost2010PropOp38
 70
     1
102
RTVSPost2010Prop39
140
1.0
102
RTVSPost2010PropOp39
 70
     1
102
RTVSPost2010Prop40
 90
        0
102
RTVSPost2010PropOp40
 70
     1
102
RTVSPost2010Prop41ColorIndex
 90
       18
102
RTVSPost2010Prop41ColorRGB
 90
        0
102
RTVSPost2010PropOp41
 70
     1
102
RTVSPost2010Prop42
 90
       50
102
RTVSPost2010PropOp42
 70
     1
102
RTVSPost2010Prop43
 90
        3
102
RTVSPost2010PropOp43
 70
     1
102
RTVSPost2010Prop44ColorIndex
 90
        5
102
RTVSPost2010Prop44ColorRGB
 90
      255
102
RTVSPost2010PropOp44
 70
     1
102
RTVSPost2010Prop45
280
     0
102
RTVSPost2010PropOp45
 70
     1
102
RTVSPost2010Prop46
 90
       50
102
RTVSPost2010PropOp46
 70
     1
102
RTVSPost2010Prop47
 90
       50
102
RTVSPost2010PropOp47
 70
     1
102
RTVSPost2010Prop48
 90
       50
102
RTVSPost2010PropOp48
 70
     1
102
RTVSPost2010Prop49
280
     0
102
RTVSPost2010PropOp49
 70
     1
102
RTVSPost2010Prop50
 90
       50
102
RTVSPost2010PropOp50
 70
     1
102
RTVSPost2010Prop51ColorIndex
 90
      256
102
RTVSPost2010Prop51ColorRGB
 90
-16777216
102
RTVSPost2010PropOp51
 70
     0
102
RTVSPost2010Prop52
140
1.0
102
RTVSPost2010PropOp52
 70
     0
102
RTVSPost2010Prop53
 90
        2
102
RTVSPost2010PropOp53
 70
     1
102
RTVSPost2010Prop54
  1
strokes_ogs.tif
102
RTVSPost2010PropOp54
 70
     1
102
RTVSPost2010Prop55
280
     0
102
RTVSPost2010PropOp55
 70
     1
102
RTVSPost2010Prop56
140
1.0
102
RTVSPost2010PropOp56
 70
     1
102
RTVSPost2010Prop57
140
1.0
102
RTVSPost2010PropOp57
 70
     1
102
RTVSPropertyOp0
 70
     1
102
RTVSPropertyOp1
 70
     1
102
RTVSPropertyOp2
 70
     1
102
RTVSPropertyOp3
 70
     1
102
RTVSPropertyOp4
 70
     1
102
RTVSPropertyOp5
 70
     1
102
RTVSPropertyOp6
 70
     1
102
RTVSPropertyOp7
 70
     1
102
RTVSPropertyOp8
 70
     1
102
RTVSPropertyOp9
 70
     1
102
RTVSPropertyOp10
 70
     1
102
RTVSPropertyOp11
 70
     1
102
RTVSPropertyOp12
 70
     1
102
RTVSPropertyOp13
 70
     1
102
RTVSPropertyOp14
 70
     1
102
RTVSPropertyOp15
 70
     1
102
RTVSPropertyOp16
 70
     1
102
RTVSPropertyOp17
 70
     1
102
RTVSPropertyOp18
 70
     1
102
RTVSPropertyOp19
 70
     1
102
RTVSPropertyOp20
 70
     1
102
RTVSPropertyOp21
 70
     1
102
RTVSPropertyOp22
 70
     1
102
RTVSPropertyOp23
 70
     1
102
RTVSPropertyOp24
 70
     1
102
RTVSPropertyOp25
 70
     1
102
RTVSPropertyOp26
 70
     1
102
RTVSPropertyOp27
 70
     1
102
RTVSPropertyOp28
 70
     1
102
RTVSPropertyOp29
 70
     1
102
RTVSPropertyOp30
 70
     1
102
RTVSPropertyOp31
 70
     1
102
RTVSPropertyOp32
 70
     1
102
RTVSPropertyOp33
 70
     1
102
RTVSPropertyOp34
 70
     1
102
RTVSPropertyOp35
 70
     1
102
RTVSPropertyOp36
 70
     1
102
RTVSPropertyOp37
 70
     1
102
RTVSPropertyOp38
 70
     1
102
RTVSPropertyOp39
 70
     1
102
RTVSPropertyOp40
 70
     1
102
RTVSPropertyOp41
 70
     1
102
RTVSPropertyOp42
 70
     1
102
RTVSPropertyOp43
 70
     1
102
RTVSPropertyOp44
 70
     1
102
RTVSPropertyOp45
 70
     1
102
RTVSPropertyOp46
 70
     1
102
RTVSPropertyOp47
 70
     1
102
RTVSPropertyOp48
 70
     1
102
RTVSPropertyOp49
 70
     1
102
RTVSPropertyOp50
 70
     1
102
RTVSPropertyOp51
 70
     0
102
RTVSPropertyOp52
 70
     0
102
RTVSPropertyOp53
 70
     1
102
RTVSPropertyOp54
 70
     1
102
RTVSPropertyOp55
 70
     1
102
RTVSPropertyOp56
 70
     1
102
RTVSPropertyOp57
 70
     1
102
RTVSPropertyOp58
 70
     1
102
RTVSPropertyOp59
 70
     1
102
RTVSPropertyOp60
 70
     1
102
RTVSPropertyOp61
 70
     1
102
RTVSPropertyOp62
 70
     1
  0
XRECORD
  5
73E
102
{ACAD_REACTORS
330
73D
102
}
330
73D
100
AcDbXrecord
280
     1
102
RTVSPost2010Prop28
280
     0
102
RTVSPost2010PropOp28
 70
     1
102
RTVSPost2010Prop29
280
     1
102
RTVSPost2010PropOp29
 70
     1
102
RTVSPost2010Prop30
280
     1
102
RTVSPost2010PropOp30
 70
     1
102
RTVSPost2010Prop31
280
     0
102
RTVSPost2010PropOp31
 70
     1
102
RTVSPost2010Prop32
280
     0
102
RTVSPost2010PropOp32
 70
     1
102
RTVSPost2010Prop33
280
     0
102
RTVSPost2010PropOp33
 70
     1
102
RTVSPost2010Prop34
280
     0
102
RTVSPost2010PropOp34
 70
     1
102
RTVSPost2010Prop35
280
     0
102
RTVSPost2010PropOp35
 70
     1
102
RTVSPost2010Prop36
280
     0
102
RTVSPost2010PropOp36
 70
     1
102
RTVSPost2010Prop37
 90
       50
102
RTVSPost2010PropOp37
 70
     1
102
RTVSPost2010Prop38
140
0.0
102
RTVSPost2010PropOp38
 70
     1
102
RTVSPost2010Prop39
140
1.0
102
RTVSPost2010PropOp39
 70
     1
102
RTVSPost2010Prop40
 90
        0
102
RTVSPost2010PropOp40
 70
     1
102
RTVSPost2010Prop41ColorIndex
 90
       18
102
RTVSPost2010Prop41ColorRGB
 90
        0
102
RTVSPost2010PropOp41
 70
     1
102
RTVSPost2010Prop42
 90
       50
102
RTVSPost2010PropOp42
 70
     1
102
RTVSPost2010Prop43
 90
        3
102
RTVSPost2010PropOp43
 70
     1
102
RTVSPost2010Prop44ColorIndex
 90
        5
102
RTVSPost2010Prop44ColorRGB
 90
      255
102
RTVSPost2010PropOp44
 70
     1
102
RTVSPost2010Prop45
280
     0
102
RTVSPost2010PropOp45
 70
     1
102
RTVSPost2010Prop46
 90
       50
102
RTVSPost2010PropOp46
 70
     1
102
RTVSPost2010Prop47
 90
       50
102
RTVSPost2010PropOp47
 70
     1
102
RTVSPost2010Prop48
 90
       50
102
RTVSPost2010PropOp48
 70
     1
102
RTVSPost2010Prop49
280
     0
102
RTVSPost2010PropOp49
 70
     1
102
RTVSPost2010Prop50
 90
       50
102
RTVSPost2010PropOp50
 70
     1
102
RTVSPost2010Prop51ColorIndex
 90
      256
102
RTVSPost2010Prop51ColorRGB
 90
-16777216
102
RTVSPost2010PropOp51
 70
     0
102
RTVSPost2010Prop52
140
1.0
102
RTVSPost2010PropOp52
 70
     0
102
RTVSPost2010Prop53
 90
        2
102
RTVSPost2010PropOp53
 70
     1
102
RTVSPost2010Prop54
  1
strokes_ogs.tif
102
RTVSPost2010PropOp54
 70
     1
102
RTVSPost2010Prop55
280
     0
102
RTVSPost2010PropOp55
 70
     1
102
RTVSPost2010Prop56
140
1.0
102
RTVSPost2010PropOp56
 70
     1
102
RTVSPost2010Prop57
140
1.0
102
RTVSPost2010PropOp57
 70
     1
102
RTVSPropertyOp0
 70
     1
102
RTVSPropertyOp1
 70
     1
102
RTVSPropertyOp2
 70
     1
102
RTVSPropertyOp3
 70
     1
102
RTVSPropertyOp4
 70
     1
102
RTVSPropertyOp5
 70
     1
102
RTVSPropertyOp6
 70
     1
102
RTVSPropertyOp7
 70
     1
102
RTVSPropertyOp8
 70
     1
102
RTVSPropertyOp9
 70
     1
102
RTVSPropertyOp10
 70
     1
102
RTVSPropertyOp11
 70
     1
102
RTVSPropertyOp12
 70
     1
102
RTVSPropertyOp13
 70
     1
102
RTVSPropertyOp14
 70
     1
102
RTVSPropertyOp15
 70
     1
102
RTVSPropertyOp16
 70
     1
102
RTVSPropertyOp17
 70
     1
102
RTVSPropertyOp18
 70
     1
102
RTVSPropertyOp19
 70
     1
102
RTVSPropertyOp20
 70
     1
102
RTVSPropertyOp21
 70
     1
102
RTVSPropertyOp22
 70
     1
102
RTVSPropertyOp23
 70
     1
102
RTVSPropertyOp24
 70
     1
102
RTVSPropertyOp25
 70
     1
102
RTVSPropertyOp26
 70
     1
102
RTVSPropertyOp27
 70
     1
102
RTVSPropertyOp28
 70
     1
102
RTVSPropertyOp29
 70
     1
102
RTVSPropertyOp30
 70
     1
102
RTVSPropertyOp31
 70
     1
102
RTVSPropertyOp32
 70
     1
102
RTVSPropertyOp33
 70
     1
102
RTVSPropertyOp34
 70
     1
102
RTVSPropertyOp35
 70
     1
102
RTVSPropertyOp36
 70
     1
102
RTVSPropertyOp37
 70
     1
102
RTVSPropertyOp38
 70
     1
102
RTVSPropertyOp39
 70
     1
102
RTVSPropertyOp40
 70
     1
102
RTVSPropertyOp41
 70
     1
102
RTVSPropertyOp42
 70
     1
102
RTVSPropertyOp43
 70
     1
102
RTVSPropertyOp44
 70
     1
102
RTVSPropertyOp45
 70
     1
102
RTVSPropertyOp46
 70
     1
102
RTVSPropertyOp47
 70
     1
102
RTVSPropertyOp48
 70
     1
102
RTVSPropertyOp49
 70
     1
102
RTVSPropertyOp50
 70
     1
102
RTVSPropertyOp51
 70
     0
102
RTVSPropertyOp52
 70
     0
102
RTVSPropertyOp53
 70
     1
102
RTVSPropertyOp54
 70
     1
102
RTVSPropertyOp55
 70
     1
102
RTVSPropertyOp56
 70
     1
102
RTVSPropertyOp57
 70
     1
102
RTVSPropertyOp58
 70
     1
102
RTVSPropertyOp59
 70
     1
102
RTVSPropertyOp60
 70
     1
102
RTVSPropertyOp61
 70
     1
102
RTVSPropertyOp62
 70
     1
  0
ENDSEC
  0
EOF
